  0
SECTION
  2
HEADER
  9
$ACADVER
  1
AC1024
  9
$ACADMAINTVER
 70
     6
  9
$DWGCODEPAGE
  3
UNDEFINED
  9
$INSBASE
 10
0.0
 20
0.0
 30
0.0
  9
$EXTMIN
 10
1.000000000000000E+20
 20
1.000000000000000E+20
 30
1.000000000000000E+20
  9
$EXTMAX
 10
-1.000000000000000E+20
 20
-1.000000000000000E+20
 30
-1.000000000000000E+20
  9
$LIMMIN
 10
0.0
 20
0.0
  9
$LIMMAX
 10
12.0
 20
9.0
  9
$ORTHOMODE
 70
     0
  9
$REGENMODE
 70
     1
  9
$FILLMODE
 70
     1
  9
$QTEXTMODE
 70
     0
  9
$MIRRTEXT
 70
     1
  9
$LTSCALE
 40
1.0
  9
$ATTMODE
 70
     1
  9
$TEXTSIZE
 40
0.2
  9
$TRACEWID
 40
0.05
  9
$TEXTSTYLE
  7
Standard
  9
$CLAYER
  8
0
  9
$CELTYPE
  6
ByLayer
  9
$CECOLOR
 62
   256
  9
$CELTSCALE
 40
1.0
  9
$DISPSILH
 70
     0
  9
$DIMSCALE
 40
1.0
  9
$DIMASZ
 40
0.18
  9
$DIMEXO
 40
0.0625
  9
$DIMDLI
 40
0.38
  9
$DIMRND
 40
0.0
  9
$DIMDLE
 40
0.0
  9
$DIMEXE
 40
0.18
  9
$DIMTP
 40
0.0
  9
$DIMTM
 40
0.0
  9
$DIMTXT
 40
0.18
  9
$DIMCEN
 40
0.09
  9
$DIMTSZ
 40
0.0
  9
$DIMTOL
 70
     0
  9
$DIMLIM
 70
     0
  9
$DIMTIH
 70
     1
  9
$DIMTOH
 70
     1
  9
$DIMSE1
 70
     0
  9
$DIMSE2
 70
     0
  9
$DIMTAD
 70
     0
  9
$DIMZIN
 70
     0
  9
$DIMBLK
  1

  9
$DIMASO
 70
     1
  9
$DIMSHO
 70
     1
  9
$DIMPOST
  1

  9
$DIMAPOST
  1

  9
$DIMALT
 70
     0
  9
$DIMALTD
 70
     2
  9
$DIMALTF
 40
25.4
  9
$DIMLFAC
 40
1.0
  9
$DIMTOFL
 70
     0
  9
$DIMTVP
 40
0.0
  9
$DIMTIX
 70
     0
  9
$DIMSOXD
 70
     0
  9
$DIMSAH
 70
     0
  9
$DIMBLK1
  1

  9
$DIMBLK2
  1

  9
$DIMSTYLE
  2
Standard
  9
$DIMCLRD
 70
     0
  9
$DIMCLRE
 70
     0
  9
$DIMCLRT
 70
     0
  9
$DIMTFAC
 40
1.0
  9
$DIMGAP
 40
0.09
  9
$DIMJUST
 70
     0
  9
$DIMSD1
 70
     0
  9
$DIMSD2
 70
     0
  9
$DIMTOLJ
 70
     1
  9
$DIMTZIN
 70
     0
  9
$DIMALTZ
 70
     0
  9
$DIMALTTZ
 70
     0
  9
$DIMUPT
 70
     0
  9
$DIMDEC
 70
     4
  9
$DIMTDEC
 70
     4
  9
$DIMALTU
 70
     2
  9
$DIMALTTD
 70
     2
  9
$DIMTXSTY
  7
Standard
  9
$DIMAUNIT
 70
     0
  9
$DIMADEC
 70
     0
  9
$DIMALTRND
 40
0.0
  9
$DIMAZIN
 70
     0
  9
$DIMDSEP
 70
    46
  9
$DIMATFIT
 70
     3
  9
$DIMFRAC
 70
     0
  9
$DIMLDRBLK
  1

  9
$DIMLUNIT
 70
     2
  9
$DIMLWD
 70
    -2
  9
$DIMLWE
 70
    -2
  9
$DIMTMOVE
 70
     0
  9
$DIMFXL
 40
1.0
  9
$DIMFXLON
 70
     0
  9
$DIMJOGANG
 40
0.7853981633974483
  9
$DIMTFILL
 70
     0
  9
$DIMTFILLCLR
 70
     0
  9
$DIMARCSYM
 70
     0
  9
$DIMLTYPE
  6

  9
$DIMLTEX1
  6

  9
$DIMLTEX2
  6

  9
$DIMTXTDIRECTION
 70
     0
  9
$LUNITS
 70
     2
  9
$LUPREC
 70
     4
  9
$SKETCHINC
 40
0.1
  9
$FILLETRAD
 40
0.5
  9
$AUNITS
 70
     0
  9
$AUPREC
 70
     0
  9
$MENU
  1
.
  9
$ELEVATION
 40
0.0
  9
$PELEVATION
 40
0.0
  9
$THICKNESS
 40
0.0
  9
$LIMCHECK
 70
     0
  9
$CHAMFERA
 40
0.5
  9
$CHAMFERB
 40
0.5
  9
$CHAMFERC
 40
1.0
  9
$CHAMFERD
 40
0.0
  9
$SKPOLY
 70
     0
  9
$TDCREATE
 40
2457917.622881933
  9
$TDUCREATE
 40
2457917.247881944
  9
$TDUPDATE
 40
2457917.622881933
  9
$TDUUPDATE
 40
2457917.247881944
  9
$TDINDWG
 40
0.0000000116
  9
$TDUSRTIMER
 40
0.0000000116
  9
$USRTIMER
 70
     1
  9
$ANGBASE
 50
0.0
  9
$ANGDIR
 70
     0
  9
$PDMODE
 70
     0
  9
$PDSIZE
 40
0.0
  9
$PLINEWID
 40
0.0
  9
$SPLFRAME
 70
     0
  9
$SPLINETYPE
 70
     6
  9
$SPLINESEGS
 70
     8
  9
$HANDSEED
  5
EA
  9
$SURFTAB1
 70
     6
  9
$SURFTAB2
 70
     6
  9
$SURFTYPE
 70
     6
  9
$SURFU
 70
     6
  9
$SURFV
 70
     6
  9
$UCSBASE
  2

  9
$UCSNAME
  2

  9
$UCSORG
 10
0.0
 20
0.0
 30
0.0
  9
$UCSXDIR
 10
1.0
 20
0.0
 30
0.0
  9
$UCSYDIR
 10
0.0
 20
1.0
 30
0.0
  9
$UCSORTHOREF
  2

  9
$UCSORTHOVIEW
 70
     0
  9
$UCSORGTOP
 10
0.0
 20
0.0
 30
0.0
  9
$UCSORGBOTTOM
 10
0.0
 20
0.0
 30
0.0
  9
$UCSORGLEFT
 10
0.0
 20
0.0
 30
0.0
  9
$UCSORGRIGHT
 10
0.0
 20
0.0
 30
0.0
  9
$UCSORGFRONT
 10
0.0
 20
0.0
 30
0.0
  9
$UCSORGBACK
 10
0.0
 20
0.0
 30
0.0
  9
$PUCSBASE
  2

  9
$PUCSNAME
  2

  9
$PUCSORG
 10
0.0
 20
0.0
 30
0.0
  9
$PUCSXDIR
 10
1.0
 20
0.0
 30
0.0
  9
$PUCSYDIR
 10
0.0
 20
1.0
 30
0.0
  9
$PUCSORTHOREF
  2

  9
$PUCSORTHOVIEW
 70
     0
  9
$PUCSORGTOP
 10
0.0
 20
0.0
 30
0.0
  9
$PUCSORGBOTTOM
 10
0.0
 20
0.0
 30
0.0
  9
$PUCSORGLEFT
 10
0.0
 20
0.0
 30
0.0
  9
$PUCSORGRIGHT
 10
0.0
 20
0.0
 30
0.0
  9
$PUCSORGFRONT
 10
0.0
 20
0.0
 30
0.0
  9
$PUCSORGBACK
 10
0.0
 20
0.0
 30
0.0
  9
$USERI1
 70
     0
  9
$USERI2
 70
     0
  9
$USERI3
 70
     0
  9
$USERI4
 70
     0
  9
$USERI5
 70
     0
  9
$USERR1
 40
0.0
  9
$USERR2
 40
0.0
  9
$USERR3
 40
0.0
  9
$USERR4
 40
0.0
  9
$USERR5
 40
0.0
  9
$WORLDVIEW
 70
     1
  9
$SHADEDGE
 70
     3
  9
$SHADEDIF
 70
    70
  9
$TILEMODE
 70
     1
  9
$MAXACTVP
 70
    64
  9
$PINSBASE
 10
0.0
 20
0.0
 30
0.0
  9
$PLIMCHECK
 70
     0
  9
$PEXTMIN
 10
1.000000000000000E+20
 20
1.000000000000000E+20
 30
1.000000000000000E+20
  9
$PEXTMAX
 10
-1.000000000000000E+20
 20
-1.000000000000000E+20
 30
-1.000000000000000E+20
  9
$PLIMMIN
 10
0.0
 20
0.0
  9
$PLIMMAX
 10
12.0
 20
9.0
  9
$UNITMODE
 70
     0
  9
$VISRETAIN
 70
     1
  9
$PLINEGEN
 70
     0
  9
$PSLTSCALE
 70
     1
  9
$TREEDEPTH
 70
  3020
  9
$CMLSTYLE
  2
Standard
  9
$CMLJUST
 70
     0
  9
$CMLSCALE
 40
1.0
  9
$PROXYGRAPHICS
 70
     1
  9
$MEASUREMENT
 70
     0
  9
$CELWEIGHT
370
    -1
  9
$ENDCAPS
280
     0
  9
$JOINSTYLE
280
     0
  9
$LWDISPLAY
290
     1
  9
$INSUNITS
 70
     1
  9
$HYPERLINKBASE
  1

  9
$STYLESHEET
  1

  9
$XEDIT
290
     1
  9
$CEPSNTYPE
380
     0
  9
$PSTYLEMODE
290
     1
  9
$FINGERPRINTGUID
  2
{7CC94BB5-2357-ABFB-09CD-C0C52D6AA9AA}
  9
$VERSIONGUID
  2
{FAEB1C32-E019-11D5-929B-00C0DF256EC4}
  9
$EXTNAMES
290
     1
  9
$PSVPSCALE
 40
0.0
  9
$OLESTARTUP
290
     0
  9
$SORTENTS
280
   127
  9
$INDEXCTL
280
     0
  9
$HIDETEXT
280
     1
  9
$XCLIPFRAME
280
     2
  9
$HALOGAP
280
     0
  9
$OBSCOLOR
 70
   257
  9
$OBSLTYPE
280
     0
  9
$INTERSECTIONDISPLAY
280
     0
  9
$INTERSECTIONCOLOR
 70
   257
  9
$DIMASSOC
280
     2
  9
$PROJECTNAME
  1

  9
$CAMERADISPLAY
290
     0
  9
$LENSLENGTH
 40
50.0
  9
$CAMERAHEIGHT
 40
0.0
  9
$STEPSPERSEC
 40
2.0
  9
$STEPSIZE
 40
6.0
  9
$3DDWFPREC
 40
2.0
  9
$PSOLWIDTH
 40
0.25
  9
$PSOLHEIGHT
 40
4.0
  9
$LOFTANG1
 40
1.570796326794897
  9
$LOFTANG2
 40
1.570796326794897
  9
$LOFTMAG1
 40
0.0
  9
$LOFTMAG2
 40
0.0
  9
$LOFTPARAM
 70
     7
  9
$LOFTNORMALS
280
     1
  9
$LATITUDE
 40
37.795
  9
$LONGITUDE
 40
-122.394
  9
$NORTHDIRECTION
 40
0.0
  9
$TIMEZONE
 70
 -8000
  9
$LIGHTGLYPHDISPLAY
280
     1
  9
$TILEMODELIGHTSYNCH
280
     1
  9
$CMATERIAL
347
3C
  9
$SOLIDHIST
280
     1
  9
$SHOWHIST
280
     1
  9
$DWFFRAME
280
     2
  9
$DGNFRAME
280
     2
  9
$REALWORLDSCALE
290
     1
  9
$INTERFERECOLOR
 62
   256
  9
$CSHADOW
280
     0
  9
$SHADOWPLANELOCATION
 40
0.0
  0
ENDSEC
  0
SECTION
  2
CLASSES
  0
CLASS
  1
ACDBDICTIONARYWDFLT
  2
AcDbDictionaryWithDefault
  3
ObjectDBX Classes
 90
        0
 91
        4
280
     0
281
     0
  0
CLASS
  1
VISUALSTYLE
  2
AcDbVisualStyle
  3
ObjectDBX Classes
 90
     4095
 91
        4
280
     0
281
     0
  0
CLASS
  1
MATERIAL
  2
AcDbMaterial
  3
ObjectDBX Classes
 90
     1153
 91
        4
280
     0
281
     0
  0
CLASS
  1
SUN
  2
AcDbSun
  3
SCENEOE
 90
     1024
 91
        4
280
     0
281
     0
  0
ENDSEC
  0
SECTION
  2
TABLES
  0
TABLE
  2
VPORT
  5
8
330
0
100
AcDbSymbolTable
 70
     1
  0
VPORT
  5
29
330
8
100
AcDbSymbolTableRecord
100
AcDbViewportTableRecord
  2
*Active
 70
     0
 10
0.0
 20
0.0
 11
1.0
 21
1.0
 12
0.0
 22
0.0
 13
0.0
 23
0.0
 14
0.5
 24
0.5
 15
0.5
 25
0.5
 16
0.0
 26
0.0
 36
1.0
 17
91.00082462281999
 27
-128.4993055234307
 37
0.0
 40
256.9986110468615
 41
0.7081814508812795
 42
50.0
 43
0.0
 44
0.0
 50
0.0
 51
0.0
 71
     0
 72
   100
 73
     1
 74
     3
 75
     0
 76
     0
 77
     0
 78
     0
281
     0
 65
     1
110
0.0
120
0.0
130
0.0
111
1.0
121
0.0
131
0.0
112
0.0
122
1.0
132
0.0
 79
     0
146
0.0
 60
     3
 61
     5
292
     1
282
     1
141
0.0
142
0.0
 63
   250
361
3F
  0
ENDTAB
  0
TABLE
  2
LTYPE
  5
5
330
0
100
AcDbSymbolTable
 70
     1
  0
LTYPE
  5
14
330
5
100
AcDbSymbolTableRecord
100
AcDbLinetypeTableRecord
  2
ByBlock
 70
     0
  3

 72
    65
 73
     0
 40
0.0
  0
LTYPE
  5
15
330
5
100
AcDbSymbolTableRecord
100
AcDbLinetypeTableRecord
  2
ByLayer
 70
     0
  3

 72
    65
 73
     0
 40
0.0
  0
LTYPE
  5
16
330
5
100
AcDbSymbolTableRecord
100
AcDbLinetypeTableRecord
  2
Continuous
 70
     0
  3
Solid line
 72
    65
 73
     0
 40
0.0
  0
ENDTAB
  0
TABLE
  2
LAYER
  5
2
330
0
100
AcDbSymbolTable
 70
     2
  0
LAYER
  5
10
330
2
100
AcDbSymbolTableRecord
100
AcDbLayerTableRecord
  2
0
 70
     0
 62
     7
  6
Continuous
370
    -3
390
F
347
3E
  0
LAYER
  5
40
330
2
100
AcDbSymbolTableRecord
100
AcDbLayerTableRecord
  2
_U+30EC_U+30A4_U+30E4_U+30FC 1
 70
     0
 62
     7
  6
Continuous
370
    -3
390
F
347
3E
  0
ENDTAB
  0
TABLE
  2
STYLE
  5
3
330
0
100
AcDbSymbolTable
 70
     1
  0
STYLE
  5
11
330
3
100
AcDbSymbolTableRecord
100
AcDbTextStyleTableRecord
  2
Standard
 70
     0
 40
0.0
 41
1.0
 50
0.0
 71
     0
 42
0.2
  3
txt
  4

  0
ENDTAB
  0
TABLE
  2
VIEW
  5
6
330
0
100
AcDbSymbolTable
 70
     0
  0
ENDTAB
  0
TABLE
  2
UCS
  5
7
330
0
100
AcDbSymbolTable
 70
     0
  0
ENDTAB
  0
TABLE
  2
APPID
  5
9
330
0
100
AcDbSymbolTable
 70
     1
  0
APPID
  5
12
330
9
100
AcDbSymbolTableRecord
100
AcDbRegAppTableRecord
  2
ACAD
 70
     0
  0
ENDTAB
  0
TABLE
  2
DIMSTYLE
  5
A
330
0
100
AcDbSymbolTable
 70
     1
100
AcDbDimStyleTable
  0
DIMSTYLE
105
27
330
A
100
AcDbSymbolTableRecord
100
AcDbDimStyleTableRecord
  2
Standard
 70
     0
178
     0
340
11
  0
ENDTAB
  0
TABLE
  2
BLOCK_RECORD
  5
1
330
0
100
AcDbSymbolTable
 70
     7
  0
BLOCK_RECORD
  5
1F
330
1
100
AcDbSymbolTableRecord
100
AcDbBlockTableRecord
  2
*Model_Space
340
22
 70
     0
280
     1
281
     0
  0
BLOCK_RECORD
  5
1B
330
1
100
AcDbSymbolTableRecord
100
AcDbBlockTableRecord
  2
*Paper_Space
340
1E
 70
     0
280
     1
281
     0
  0
BLOCK_RECORD
  5
23
330
1
100
AcDbSymbolTableRecord
100
AcDbBlockTableRecord
  2
*Paper_Space0
340
26
 70
     0
280
     1
281
     0
  0
BLOCK_RECORD
  5
67
330
1
100
AcDbSymbolTableRecord
100
AcDbBlockTableRecord
  2
block 2
340
0
102
{BLKREFS
331
68
102
}
 70
     0
280
     1
281
     0
  0
BLOCK_RECORD
  5
76
330
1
100
AcDbSymbolTableRecord
100
AcDbBlockTableRecord
  2
block 3
340
0
102
{BLKREFS
331
77
102
}
 70
     0
280
     1
281
     0
  0
BLOCK_RECORD
  5
97
330
1
100
AcDbSymbolTableRecord
100
AcDbBlockTableRecord
  2
block 4
340
0
102
{BLKREFS
331
98
102
}
 70
     0
280
     1
281
     0
  0
BLOCK_RECORD
  5
9D
330
1
100
AcDbSymbolTableRecord
100
AcDbBlockTableRecord
  2
block 5
340
0
102
{BLKREFS
331
9E
102
}
 70
     0
280
     1
281
     0
  0
BLOCK_RECORD
  5
BC
330
1
100
AcDbSymbolTableRecord
100
AcDbBlockTableRecord
  2
block 6
340
0
102
{BLKREFS
331
BD
102
}
 70
     0
280
     1
281
     0
  0
BLOCK_RECORD
  5
CF
330
1
100
AcDbSymbolTableRecord
100
AcDbBlockTableRecord
  2
block 7
340
0
102
{BLKREFS
331
D0
102
}
 70
     0
280
     1
281
     0
  0
ENDTAB
  0
ENDSEC
  0
SECTION
  2
BLOCKS
  0
BLOCK
  5
20
330
1F
100
AcDbEntity
  8
0
100
AcDbBlockBegin
  2
*Model_Space
 70
     0
 10
0.0
 20
0.0
 30
0.0
  3
*Model_Space
  1

  0
ENDBLK
  5
21
330
1F
100
AcDbEntity
  8
0
100
AcDbBlockEnd
  0
BLOCK
  5
1C
330
1B
100
AcDbEntity
 67
     1
  8
0
100
AcDbBlockBegin
  2
*Paper_Space
 70
     0
 10
0.0
 20
0.0
 30
0.0
  3
*Paper_Space
  1

  0
ENDBLK
  5
1D
330
1B
100
AcDbEntity
 67
     1
  8
0
100
AcDbBlockEnd
  0
BLOCK
  5
24
330
23
100
AcDbEntity
  8
0
100
AcDbBlockBegin
  2
*Paper_Space0
 70
     0
 10
0.0
 20
0.0
 30
0.0
  3
*Paper_Space0
  1

  0
ENDBLK
  5
25
330
23
100
AcDbEntity
  8
0
100
AcDbBlockEnd
  0
BLOCK
  5
69
330
67
100
AcDbEntity
  8
0
100
AcDbBlockBegin
  2
block 2
 70
     0
 10
0.0
 20
0.0
 30
0.0
  3
block 2
  1

  0
SPLINE
  5
6B
330
67
100
AcDbEntity
  8
_U+30EC_U+30A4_U+30E4_U+30FC 1
370
     0
100
AcDbSpline
210
0.0
220
0.0
230
1.0
 70
    11
 71
     3
 72
    62
 73
    58
 74
     0
 42
0.0000000001
 43
0.0000000001
 12
1.0
 22
0.0
 32
0.0
 13
1.0
 23
0.0
 33
0.0
 40
0.0
 40
0.0
 40
0.0
 40
0.0
 40
1.0
 40
1.0
 40
1.0
 40
2.0
 40
2.0
 40
2.0
 40
3.0
 40
3.0
 40
3.0
 40
4.0
 40
4.0
 40
4.0
 40
5.0
 40
5.0
 40
5.0
 40
6.0
 40
6.0
 40
6.0
 40
7.0
 40
7.0
 40
7.0
 40
8.0
 40
8.0
 40
8.0
 40
9.0
 40
9.0
 40
9.0
 40
10.0
 40
10.0
 40
10.0
 40
11.0
 40
11.0
 40
11.0
 40
12.0
 40
12.0
 40
12.0
 40
13.0
 40
13.0
 40
13.0
 40
14.0
 40
14.0
 40
14.0
 40
15.0
 40
15.0
 40
15.0
 40
16.0
 40
16.0
 40
16.0
 40
17.0
 40
17.0
 40
17.0
 40
18.0
 40
18.0
 40
18.0
 40
19.0
 40
19.0
 40
19.0
 40
19.0
 10
101.7963704172592
 20
-124.9715277465349
 30
0.0
 10
101.7963704172592
 20
-125.0731580633498
 30
0.0
 10
101.7753553347992
 20
-125.3060465181527
 30
0.0
 10
101.5893201785957
 20
-125.4393717134318
 30
0.0
 10
101.4770100657766
 20
-125.5186089095926
 30
0.0
 10
101.3777913158014
 20
-125.5230875337234
 30
0.0
 10
101.2930419668642
 20
-125.5275661578542
 30
0.0
 10
101.2930419668642
 20
-125.5275661578542
 30
0.0
 10
101.2930419668642
 20
-125.2926106457602
 30
0.0
 10
101.2930419668642
 20
-125.2926106457602
 30
0.0
 10
101.3671115197971
 20
-125.2901990789205
 30
0.0
 10
101.6017225223426
 20
-125.2788302638192
 30
0.0
 10
101.6017225223426
 20
-124.9760063706657
 30
0.0
 10
101.6017225223426
 20
-124.8289007934456
 30
0.0
 10
101.5321315935406
 20
-124.6662922865418
 30
0.0
 10
101.3037217628685
 20
-124.6662922865418
 30
0.0
 10
101.1872775354671
 20
-124.6662922865418
 30
0.0
 10
101.1387016891251
 20
-124.7069444132677
 30
0.0
 10
101.1070068106607
 20
-124.7407063490232
 30
0.0
 10
101.0329372577279
 20
-124.8199435451839
 30
0.0
 10
101.0201904044325
 20
-124.9443114922014
 30
0.0
 10
101.0201904044325
 20
-125.0032226249992
 30
0.0
 10
101.0201904044325
 20
-125.0235486883622
 30
0.0
 10
101.0222574617236
 20
-125.0617892482484
 30
0.0
 10
101.0263915763059
 20
-125.0914170694216
 30
0.0
 10
101.0263915763059
 20
-125.0914170694216
 30
0.0
 10
100.8317436813893
 20
-125.0914170694216
 30
0.0
 10
100.8317436813893
 20
-125.0914170694216
 30
0.0
 10
100.8382893628113
 20
-125.0507649426957
 30
0.0
 10
100.8403564201024
 20
-125.0052896822904
 30
0.0
 10
100.8403564201024
 20
-124.9987440008684
 30
0.0
 10
100.8403564201024
 20
-124.9284640529693
 30
0.0
 10
100.8189968280939
 20
-124.7159016615294
 30
0.0
 10
100.5823187682572
 20
-124.7159016615294
 30
0.0
 10
100.4045518412183
 20
-124.7159016615294
 30
0.0
 10
100.3494303134543
 20
-124.856117047779
 30
0.0
 10
100.3494303134543
 20
-124.973594803826
 30
0.0
 10
100.3494303134543
 20
-125.2564371431651
 30
0.0
 10
100.5823187682572
 20
-125.2653943914267
 30
0.0
 10
100.6539767543504
 20
-125.2698730155575
 30
0.0
 10
100.6539767543504
 20
-125.2698730155575
 30
0.0
 10
100.6539767543504
 20
-125.4869140311283
 30
0.0
 10
100.6539767543504
 20
-125.4869140311283
 30
0.0
 10
100.5292642977844
 20
-125.4779567828666
 30
0.0
 10
100.1527153612465
 20
-125.448673471242
 30
0.0
 10
100.1527153612465
 20
-124.9601589314336
 30
0.0
 10
100.1527153612465
 20
-124.7203802856602
 30
0.0
 10
100.2798393846523
 20
-124.4626871433635
 30
0.0
 10
100.5757730868352
 20
-124.4626871433635
 30
0.0
 10
100.7621527525872
 20
-124.4626871433635
 30
0.0
 10
100.8444905346847
 20
-124.5646619697269
 30
0.0
 10
100.9058132343222
 20
-124.6707709106726
 30
0.0
 10
100.9333739982042
 20
-124.6053140964528
 30
0.0
 10
101.0136447230105
 20
-124.4106662015362
 30
0.0
 10
101.2909749095731
 20
-124.4106662015362
 30
0.0
 10
101.6292832862246
 20
-124.4106662015362
 30
0.0
 10
101.7963704172592
 20
-124.6752495348034
 30
0.0
 10
101.7963704172592
 20
-124.9715277465349
 30
0.0
  0
HATCH
  5
6C
330
67
100
AcDbEntity
  8
_U+30EC_U+30A4_U+30E4_U+30FC 1
 62
     7
420
 16777215
100
AcDbHatch
 10
0.0
 20
0.0
 30
0.0
210
0.0
220
0.0
230
1.0
  2
SOLID
 70
     1
 71
     0
 91
        1
 92
        1
 93
        1
 72
     4
 94
        3
 73
     0
 74
     1
 95
       62
 96
       58
 40
0.0
 40
0.0
 40
0.0
 40
0.0
 40
1.0
 40
1.0
 40
1.0
 40
2.0
 40
2.0
 40
2.0
 40
3.0
 40
3.0
 40
3.0
 40
4.0
 40
4.0
 40
4.0
 40
5.0
 40
5.0
 40
5.0
 40
6.0
 40
6.0
 40
6.0
 40
7.0
 40
7.0
 40
7.0
 40
8.0
 40
8.0
 40
8.0
 40
9.0
 40
9.0
 40
9.0
 40
10.0
 40
10.0
 40
10.0
 40
11.0
 40
11.0
 40
11.0
 40
12.0
 40
12.0
 40
12.0
 40
13.0
 40
13.0
 40
13.0
 40
14.0
 40
14.0
 40
14.0
 40
15.0
 40
15.0
 40
15.0
 40
16.0
 40
16.0
 40
16.0
 40
17.0
 40
17.0
 40
17.0
 40
18.0
 40
18.0
 40
18.0
 40
19.0
 40
19.0
 40
19.0
 40
19.0
 10
101.7963704172592
 20
-124.9715277465349
 10
101.7963704172592
 20
-125.0731580633498
 10
101.7753553347992
 20
-125.3060465181527
 10
101.5893201785957
 20
-125.4393717134318
 10
101.4770100657766
 20
-125.5186089095926
 10
101.3777913158014
 20
-125.5230875337234
 10
101.2930419668642
 20
-125.5275661578542
 10
101.2930419668642
 20
-125.5275661578542
 10
101.2930419668642
 20
-125.2926106457602
 10
101.2930419668642
 20
-125.2926106457602
 10
101.3671115197971
 20
-125.2901990789205
 10
101.6017225223426
 20
-125.2788302638192
 10
101.6017225223426
 20
-124.9760063706657
 10
101.6017225223426
 20
-124.8289007934456
 10
101.5321315935406
 20
-124.6662922865418
 10
101.3037217628685
 20
-124.6662922865418
 10
101.1872775354671
 20
-124.6662922865418
 10
101.1387016891251
 20
-124.7069444132677
 10
101.1070068106607
 20
-124.7407063490232
 10
101.0329372577279
 20
-124.8199435451839
 10
101.0201904044325
 20
-124.9443114922014
 10
101.0201904044325
 20
-125.0032226249992
 10
101.0201904044325
 20
-125.0235486883622
 10
101.0222574617236
 20
-125.0617892482484
 10
101.0263915763059
 20
-125.0914170694216
 10
101.0263915763059
 20
-125.0914170694216
 10
100.8317436813893
 20
-125.0914170694216
 10
100.8317436813893
 20
-125.0914170694216
 10
100.8382893628113
 20
-125.0507649426957
 10
100.8403564201024
 20
-125.0052896822904
 10
100.8403564201024
 20
-124.9987440008684
 10
100.8403564201024
 20
-124.9284640529693
 10
100.8189968280939
 20
-124.7159016615294
 10
100.5823187682572
 20
-124.7159016615294
 10
100.4045518412183
 20
-124.7159016615294
 10
100.3494303134543
 20
-124.856117047779
 10
100.3494303134543
 20
-124.973594803826
 10
100.3494303134543
 20
-125.2564371431651
 10
100.5823187682572
 20
-125.2653943914267
 10
100.6539767543504
 20
-125.2698730155575
 10
100.6539767543504
 20
-125.2698730155575
 10
100.6539767543504
 20
-125.4869140311283
 10
100.6539767543504
 20
-125.4869140311283
 10
100.5292642977844
 20
-125.4779567828666
 10
100.1527153612465
 20
-125.448673471242
 10
100.1527153612465
 20
-124.9601589314336
 10
100.1527153612465
 20
-124.7203802856602
 10
100.2798393846523
 20
-124.4626871433635
 10
100.5757730868352
 20
-124.4626871433635
 10
100.7621527525872
 20
-124.4626871433635
 10
100.8444905346847
 20
-124.5646619697269
 10
100.9058132343222
 20
-124.6707709106726
 10
100.9333739982042
 20
-124.6053140964528
 10
101.0136447230105
 20
-124.4106662015362
 10
101.2909749095731
 20
-124.4106662015362
 10
101.6292832862246
 20
-124.4106662015362
 10
101.7963704172592
 20
-124.6752495348034
 10
101.7963704172592
 20
-124.9715277465349
 97
        0
 97
        0
 75
     2
 76
     1
 98
        0
  0
ENDBLK
  5
6A
330
67
100
AcDbEntity
  8
0
100
AcDbBlockEnd
  0
BLOCK
  5
78
330
76
100
AcDbEntity
  8
0
100
AcDbBlockBegin
  2
block 3
 70
     0
 10
0.0
 20
0.0
 30
0.0
  3
block 3
  1

  0
SPLINE
  5
7A
330
76
100
AcDbEntity
  8
_U+30EC_U+30A4_U+30E4_U+30FC 1
370
     0
100
AcDbSpline
210
0.0
220
0.0
230
1.0
 70
    11
 71
     3
 72
    32
 73
    28
 74
     0
 42
0.0000000001
 43
0.0000000001
 12
1.0
 22
0.0
 32
0.0
 13
1.0
 23
0.0
 33
0.0
 40
0.0
 40
0.0
 40
0.0
 40
0.0
 40
1.0
 40
1.0
 40
1.0
 40
2.0
 40
2.0
 40
2.0
 40
3.0
 40
3.0
 40
3.0
 40
4.0
 40
4.0
 40
4.0
 40
5.0
 40
5.0
 40
5.0
 40
6.0
 40
6.0
 40
6.0
 40
7.0
 40
7.0
 40
7.0
 40
8.0
 40
8.0
 40
8.0
 40
9.0
 40
9.0
 40
9.0
 40
9.0
 10
101.7963704172592
 20
-130.6156276800197
 30
0.0
 10
101.7963704172592
 20
-131.1675319767567
 30
0.0
 10
101.2423990632311
 20
-131.1764892250184
 30
0.0
 10
101.0284586335971
 20
-131.1764892250184
 30
0.0
 10
100.7979817456338
 20
-131.1764892250184
 30
0.0
 10
100.1506483039554
 20
-131.1561631616554
 30
0.0
 10
100.1506483039554
 20
-130.5749755532938
 30
0.0
 10
100.1506483039554
 20
-130.3896294161873
 30
0.0
 10
100.220583742306
 20
-130.1274576497598
 30
0.0
 10
100.5526909470841
 20
-130.0868055230339
 30
0.0
 10
100.5526909470841
 20
-130.0868055230339
 30
0.0
 10
100.5526909470841
 20
-130.3152153537059
 30
0.0
 10
100.5526909470841
 20
-130.3152153537059
 30
0.0
 10
100.4955023620289
 20
-130.3262396592587
 30
0.0
 10
100.3473632561632
 20
-130.3603461045627
 30
0.0
 10
100.3473632561632
 20
-130.5773871201334
 30
0.0
 10
100.3473632561632
 20
-130.8895127710971
 30
0.0
 10
100.6753363463589
 20
-130.9322319551142
 30
0.0
 10
100.8803195277313
 20
-130.9460123370552
 30
0.0
 10
100.8021158602161
 20
-130.8464490775314
 30
0.0
 10
100.7428602178698
 20
-130.7741020723412
 30
0.0
 10
100.7428602178698
 20
-130.5797986869731
 30
0.0
 10
100.7428602178698
 20
-130.3875623588962
 30
0.0
 10
100.8510362161067
 20
-130.0640678928312
 30
0.0
 10
101.2572129738176
 20
-130.0640678928312
 30
0.0
 10
101.5765733253003
 20
-130.0640678928312
 30
0.0
 10
101.7963704172592
 20
-130.2766302842711
 30
0.0
 10
101.7963704172592
 20
-130.6156276800197
 30
0.0
  0
SPLINE
  5
7B
330
76
100
AcDbEntity
  8
_U+30EC_U+30A4_U+30E4_U+30FC 1
370
     0
100
AcDbSpline
210
0.0
220
0.0
230
1.0
 70
    11
 71
     3
 72
    17
 73
    13
 74
     0
 42
0.0000000001
 43
0.0000000001
 12
1.0
 22
0.0
 32
0.0
 13
1.0
 23
0.0
 33
0.0
 40
0.0
 40
0.0
 40
0.0
 40
0.0
 40
1.0
 40
1.0
 40
1.0
 40
2.0
 40
2.0
 40
2.0
 40
3.0
 40
3.0
 40
3.0
 40
4.0
 40
4.0
 40
4.0
 40
4.0
 10
100.9375081127865
 20
-130.5977131834964
 30
0.0
 10
100.9375081127865
 20
-130.8781439559957
 30
0.0
 10
101.1490369755808
 20
-130.9187960827217
 30
0.0
 10
101.2654812029822
 20
-130.9187960827217
 30
0.0
 10
101.44118107273
 20
-130.9187960827217
 30
0.0
 10
101.6041340891823
 20
-130.8171657659068
 30
0.0
 10
101.6041340891823
 20
-130.6204508136991
 30
0.0
 10
101.6041340891823
 20
-130.4916042425507
 30
0.0
 10
101.544878446836
 20
-130.3038465386046
 30
0.0
 10
101.2592800311088
 20
-130.3038465386046
 30
0.0
 10
101.035004315019
 20
-130.3038465386046
 30
0.0
 10
100.9375081127865
 20
-130.4530191731159
 30
0.0
 10
100.9375081127865
 20
-130.5977131834964
 30
0.0
  0
HATCH
  5
7C
330
76
100
AcDbEntity
  8
_U+30EC_U+30A4_U+30E4_U+30FC 1
 62
     7
420
 16777215
100
AcDbHatch
 10
0.0
 20
0.0
 30
0.0
210
0.0
220
0.0
230
1.0
  2
SOLID
 70
     1
 71
     0
 91
        2
 92
        1
 93
        1
 72
     4
 94
        3
 73
     0
 74
     1
 95
       32
 96
       28
 40
0.0
 40
0.0
 40
0.0
 40
0.0
 40
1.0
 40
1.0
 40
1.0
 40
2.0
 40
2.0
 40
2.0
 40
3.0
 40
3.0
 40
3.0
 40
4.0
 40
4.0
 40
4.0
 40
5.0
 40
5.0
 40
5.0
 40
6.0
 40
6.0
 40
6.0
 40
7.0
 40
7.0
 40
7.0
 40
8.0
 40
8.0
 40
8.0
 40
9.0
 40
9.0
 40
9.0
 40
9.0
 10
101.7963704172592
 20
-130.6156276800197
 10
101.7963704172592
 20
-131.1675319767567
 10
101.2423990632311
 20
-131.1764892250184
 10
101.0284586335971
 20
-131.1764892250184
 10
100.7979817456338
 20
-131.1764892250184
 10
100.1506483039554
 20
-131.1561631616554
 10
100.1506483039554
 20
-130.5749755532938
 10
100.1506483039554
 20
-130.3896294161873
 10
100.220583742306
 20
-130.1274576497598
 10
100.5526909470841
 20
-130.0868055230339
 10
100.5526909470841
 20
-130.0868055230339
 10
100.5526909470841
 20
-130.3152153537059
 10
100.5526909470841
 20
-130.3152153537059
 10
100.4955023620289
 20
-130.3262396592587
 10
100.3473632561632
 20
-130.3603461045627
 10
100.3473632561632
 20
-130.5773871201334
 10
100.3473632561632
 20
-130.8895127710971
 10
100.6753363463589
 20
-130.9322319551142
 10
100.8803195277313
 20
-130.9460123370552
 10
100.8021158602161
 20
-130.8464490775314
 10
100.7428602178698
 20
-130.7741020723412
 10
100.7428602178698
 20
-130.5797986869731
 10
100.7428602178698
 20
-130.3875623588962
 10
100.8510362161067
 20
-130.0640678928312
 10
101.2572129738176
 20
-130.0640678928312
 10
101.5765733253003
 20
-130.0640678928312
 10
101.7963704172592
 20
-130.2766302842711
 10
101.7963704172592
 20
-130.6156276800197
 97
        0
 97
        0
 92
        1
 93
        1
 72
     4
 94
        3
 73
     0
 74
     1
 95
       17
 96
       13
 40
0.0
 40
0.0
 40
0.0
 40
0.0
 40
1.0
 40
1.0
 40
1.0
 40
2.0
 40
2.0
 40
2.0
 40
3.0
 40
3.0
 40
3.0
 40
4.0
 40
4.0
 40
4.0
 40
4.0
 10
100.9375081127865
 20
-130.5977131834964
 10
100.9375081127865
 20
-130.8781439559957
 10
101.1490369755808
 20
-130.9187960827217
 10
101.2654812029822
 20
-130.9187960827217
 10
101.44118107273
 20
-130.9187960827217
 10
101.6041340891823
 20
-130.8171657659068
 10
101.6041340891823
 20
-130.6204508136991
 10
101.6041340891823
 20
-130.4916042425507
 10
101.544878446836
 20
-130.3038465386046
 10
101.2592800311088
 20
-130.3038465386046
 10
101.035004315019
 20
-130.3038465386046
 10
100.9375081127865
 20
-130.4530191731159
 10
100.9375081127865
 20
-130.5977131834964
 97
        0
 97
        0
 75
     2
 76
     1
 98
        0
  0
POLYLINE
  5
7D
330
76
100
AcDbEntity
  8
_U+30EC_U+30A4_U+30E4_U+30FC 1
370
     0
100
AcDb2dPolyline
 66
     1
 10
0.0
 20
0.0
 30
0.0
  0
VERTEX
  5
7E
330
7D
100
AcDbEntity
  8
_U+30EC_U+30A4_U+30E4_U+30FC 1
370
     0
100
AcDbVertex
100
AcDb2dVertex
 10
101.7457275136261
 20
-129.8329019857709
 30
0.0
  0
VERTEX
  5
7F
330
7D
100
AcDbEntity
  8
_U+30EC_U+30A4_U+30E4_U+30FC 1
370
     0
100
AcDbVertex
100
AcDb2dVertex
 10
101.4938910336543
 20
-129.8329019857709
 30
0.0
  0
VERTEX
  5
80
330
7D
100
AcDbEntity
  8
_U+30EC_U+30A4_U+30E4_U+30FC 1
370
     0
100
AcDbVertex
100
AcDb2dVertex
 10
101.4938910336543
 20
-129.5638400283729
 30
0.0
  0
VERTEX
  5
81
330
7D
100
AcDbEntity
  8
_U+30EC_U+30A4_U+30E4_U+30FC 1
370
     0
100
AcDbVertex
100
AcDb2dVertex
 10
101.7457275136261
 20
-129.5638400283729
 30
0.0
  0
VERTEX
  5
82
330
7D
100
AcDbEntity
  8
_U+30EC_U+30A4_U+30E4_U+30FC 1
370
     0
100
AcDbVertex
100
AcDb2dVertex
 10
101.7457275136261
 20
-129.8329019857709
 30
0.0
  0
SEQEND
  5
83
330
7D
100
AcDbEntity
  8
_U+30EC_U+30A4_U+30E4_U+30FC 1
370
     0
  0
HATCH
  5
84
330
76
100
AcDbEntity
  8
_U+30EC_U+30A4_U+30E4_U+30FC 1
 62
     7
420
 16777215
100
AcDbHatch
 10
0.0
 20
0.0
 30
0.0
210
0.0
220
0.0
230
1.0
  2
SOLID
 70
     1
 71
     0
 91
        1
 92
        1
 93
        4
 72
     1
 10
101.7457275136261
 20
-129.8329019857709
 11
101.4938910336543
 21
-129.8329019857709
 72
     1
 10
101.4938910336543
 20
-129.8329019857709
 11
101.4938910336543
 21
-129.5638400283729
 72
     1
 10
101.4938910336543
 20
-129.5638400283729
 11
101.7457275136261
 21
-129.5638400283729
 72
     1
 10
101.7457275136261
 20
-129.5638400283729
 11
101.7457275136261
 21
-129.8329019857709
 97
        0
 75
     2
 76
     1
 98
        0
  0
SPLINE
  5
85
330
76
100
AcDbEntity
  8
_U+30EC_U+30A4_U+30E4_U+30FC 1
370
     0
100
AcDbSpline
210
0.0
220
0.0
230
1.0
 70
    11
 71
     3
 72
    53
 73
    49
 74
     0
 42
0.0000000001
 43
0.0000000001
 12
1.0
 22
0.0
 32
0.0
 13
1.0
 23
0.0
 33
0.0
 40
0.0
 40
0.0
 40
0.0
 40
0.0
 40
1.0
 40
1.0
 40
1.0
 40
2.0
 40
2.0
 40
2.0
 40
3.0
 40
3.0
 40
3.0
 40
4.0
 40
4.0
 40
4.0
 40
5.0
 40
5.0
 40
5.0
 40
6.0
 40
6.0
 40
6.0
 40
7.0
 40
7.0
 40
7.0
 40
8.0
 40
8.0
 40
8.0
 40
9.0
 40
9.0
 40
9.0
 40
10.0
 40
10.0
 40
10.0
 40
11.0
 40
11.0
 40
11.0
 40
12.0
 40
12.0
 40
12.0
 40
13.0
 40
13.0
 40
13.0
 40
14.0
 40
14.0
 40
14.0
 40
15.0
 40
15.0
 40
15.0
 40
16.0
 40
16.0
 40
16.0
 40
16.0
 10
101.7963704172592
 20
-128.7969617733563
 30
0.0
 10
101.7963704172592
 20
-128.8806775936479
 30
0.0
 10
101.7794894493815
 20
-128.9888535918847
 30
0.0
 10
101.7160996924529
 20
-129.0977186092186
 30
0.0
 10
101.6062011464735
 20
-129.2830647463251
 30
0.0
 10
101.4749430084854
 20
-129.3054578669792
 30
0.0
 10
101.3671115197971
 20
-129.3257839303422
 30
0.0
 10
101.3671115197971
 20
-129.3257839303422
 30
0.0
 10
101.3671115197971
 20
-129.0884168514085
 30
0.0
 10
101.3671115197971
 20
-129.0884168514085
 30
0.0
 10
101.565893529296
 20
-129.0298502281592
 30
0.0
 10
101.5955213504692
 20
-128.8941134660404
 30
0.0
 10
101.5955213504692
 20
-128.7945502065166
 30
0.0
 10
101.5955213504692
 20
-128.6453775720053
 30
0.0
 10
101.4959580909455
 20
-128.482424555553
 30
0.0
 10
101.2634141456911
 20
-128.482424555553
 30
0.0
 10
101.007443551137
 20
-128.482424555553
 30
0.0
 10
100.9375081127865
 20
-128.6746608836299
 30
0.0
 10
100.9375081127865
 20
-128.8035074547783
 30
0.0
 10
100.9375081127865
 20
-128.8376139000823
 30
0.0
 10
100.9375081127865
 20
-128.9888535918847
 30
0.0
 10
101.0666991934833
 20
-129.0839382272776
 30
0.0
 10
101.0666991934833
 20
-129.0839382272776
 30
0.0
 10
101.0477511683145
 20
-129.2716959312237
 30
0.0
 10
101.0477511683145
 20
-129.2716959312237
 30
0.0
 10
101.0477511683145
 20
-129.2716959312237
 30
0.0
 10
100.2012912075886
 20
-129.1428493600754
 30
0.0
 10
100.2012912075886
 20
-129.1428493600754
 30
0.0
 10
100.2012912075886
 20
-129.1428493600754
 30
0.0
 10
100.2012912075886
 20
-128.3108588003876
 30
0.0
 10
100.2012912075886
 20
-128.3108588003876
 30
0.0
 10
100.2012912075886
 20
-128.3108588003876
 30
0.0
 10
100.3959391025052
 20
-128.3108588003876
 30
0.0
 10
100.3959391025052
 20
-128.3108588003876
 30
0.0
 10
100.3959391025052
 20
-128.3108588003876
 30
0.0
 10
100.3959391025052
 20
-128.9685275285218
 30
0.0
 10
100.3959391025052
 20
-128.9685275285218
 30
0.0
 10
100.3959391025052
 20
-128.9685275285218
 30
0.0
 10
100.8189968280939
 20
-129.0388074764209
 30
0.0
 10
100.8189968280939
 20
-129.0388074764209
 30
0.0
 10
100.7852348923384
 20
-128.9733506622011
 30
0.0
 10
100.744927275161
 20
-128.8851562177787
 30
0.0
 10
100.744927275161
 20
-128.7583767039215
 30
0.0
 10
100.744927275161
 20
-128.4872476892324
 30
0.0
 10
100.931306940913
 20
-128.2340331710665
 30
0.0
 10
101.2444661205222
 20
-128.2340331710665
 30
0.0
 10
101.5617594147137
 20
-128.2340331710665
 30
0.0
 10
101.7963704172592
 20
-128.4734673072914
 30
0.0
 10
101.7963704172592
 20
-128.7969617733563
 30
0.0
  0
HATCH
  5
86
330
76
100
AcDbEntity
  8
_U+30EC_U+30A4_U+30E4_U+30FC 1
 62
     7
420
 16777215
100
AcDbHatch
 10
0.0
 20
0.0
 30
0.0
210
0.0
220
0.0
230
1.0
  2
SOLID
 70
     1
 71
     0
 91
        1
 92
        1
 93
        1
 72
     4
 94
        3
 73
     0
 74
     1
 95
       53
 96
       49
 40
0.0
 40
0.0
 40
0.0
 40
0.0
 40
1.0
 40
1.0
 40
1.0
 40
2.0
 40
2.0
 40
2.0
 40
3.0
 40
3.0
 40
3.0
 40
4.0
 40
4.0
 40
4.0
 40
5.0
 40
5.0
 40
5.0
 40
6.0
 40
6.0
 40
6.0
 40
7.0
 40
7.0
 40
7.0
 40
8.0
 40
8.0
 40
8.0
 40
9.0
 40
9.0
 40
9.0
 40
10.0
 40
10.0
 40
10.0
 40
11.0
 40
11.0
 40
11.0
 40
12.0
 40
12.0
 40
12.0
 40
13.0
 40
13.0
 40
13.0
 40
14.0
 40
14.0
 40
14.0
 40
15.0
 40
15.0
 40
15.0
 40
16.0
 40
16.0
 40
16.0
 40
16.0
 10
101.7963704172592
 20
-128.7969617733563
 10
101.7963704172592
 20
-128.8806775936479
 10
101.7794894493815
 20
-128.9888535918847
 10
101.7160996924529
 20
-129.0977186092186
 10
101.6062011464735
 20
-129.2830647463251
 10
101.4749430084854
 20
-129.3054578669792
 10
101.3671115197971
 20
-129.3257839303422
 10
101.3671115197971
 20
-129.3257839303422
 10
101.3671115197971
 20
-129.0884168514085
 10
101.3671115197971
 20
-129.0884168514085
 10
101.565893529296
 20
-129.0298502281592
 10
101.5955213504692
 20
-128.8941134660404
 10
101.5955213504692
 20
-128.7945502065166
 10
101.5955213504692
 20
-128.6453775720053
 10
101.4959580909455
 20
-128.482424555553
 10
101.2634141456911
 20
-128.482424555553
 10
101.007443551137
 20
-128.482424555553
 10
100.9375081127865
 20
-128.6746608836299
 10
100.9375081127865
 20
-128.8035074547783
 10
100.9375081127865
 20
-128.8376139000823
 10
100.9375081127865
 20
-128.9888535918847
 10
101.0666991934833
 20
-129.0839382272776
 10
101.0666991934833
 20
-129.0839382272776
 10
101.0477511683145
 20
-129.2716959312237
 10
101.0477511683145
 20
-129.2716959312237
 10
101.0477511683145
 20
-129.2716959312237
 10
100.2012912075886
 20
-129.1428493600754
 10
100.2012912075886
 20
-129.1428493600754
 10
100.2012912075886
 20
-129.1428493600754
 10
100.2012912075886
 20
-128.3108588003876
 10
100.2012912075886
 20
-128.3108588003876
 10
100.2012912075886
 20
-128.3108588003876
 10
100.3959391025052
 20
-128.3108588003876
 10
100.3959391025052
 20
-128.3108588003876
 10
100.3959391025052
 20
-128.3108588003876
 10
100.3959391025052
 20
-128.9685275285218
 10
100.3959391025052
 20
-128.9685275285218
 10
100.3959391025052
 20
-128.9685275285218
 10
100.8189968280939
 20
-129.0388074764209
 10
100.8189968280939
 20
-129.0388074764209
 10
100.7852348923384
 20
-128.9733506622011
 10
100.744927275161
 20
-128.8851562177787
 10
100.744927275161
 20
-128.7583767039215
 10
100.744927275161
 20
-128.4872476892324
 10
100.931306940913
 20
-128.2340331710665
 10
101.2444661205222
 20
-128.2340331710665
 10
101.5617594147137
 20
-128.2340331710665
 10
101.7963704172592
 20
-128.4734673072914
 10
101.7963704172592
 20
-128.7969617733563
 97
        0
 97
        0
 75
     2
 76
     1
 98
        0
  0
ENDBLK
  5
79
330
76
100
AcDbEntity
  8
0
100
AcDbBlockEnd
  0
BLOCK
  5
99
330
97
100
AcDbEntity
  8
0
100
AcDbBlockBegin
  2
block 4
 70
     0
 10
0.0
 20
0.0
 30
0.0
  3
block 4
  1

  0
SPLINE
  5
9B
330
97
100
AcDbEntity
  8
_U+30EC_U+30A4_U+30E4_U+30FC 1
370
     0
100
AcDbSpline
210
0.0
220
0.0
230
1.0
 70
    11
 71
     3
 72
    26
 73
    22
 74
     0
 42
0.0000000001
 43
0.0000000001
 12
1.0
 22
0.0
 32
0.0
 13
1.0
 23
0.0
 33
0.0
 40
0.0
 40
0.0
 40
0.0
 40
0.0
 40
1.0
 40
1.0
 40
1.0
 40
2.0
 40
2.0
 40
2.0
 40
3.0
 40
3.0
 40
3.0
 40
4.0
 40
4.0
 40
4.0
 40
5.0
 40
5.0
 40
5.0
 40
6.0
 40
6.0
 40
6.0
 40
7.0
 40
7.0
 40
7.0
 40
7.0
 10
105.1243326560106
 20
-133.5163980786001
 30
0.0
 10
105.1243326560106
 20
-133.5163980786001
 30
0.0
 10
104.020179552988
 20
-133.5163980786001
 30
0.0
 10
104.020179552988
 20
-133.5163980786001
 30
0.0
 10
104.020179552988
 20
-133.5163980786001
 30
0.0
 10
104.020179552988
 20
-133.8688313467411
 30
0.0
 10
104.020179552988
 20
-133.8688313467411
 30
0.0
 10
104.020179552988
 20
-133.8688313467411
 30
0.0
 10
103.8720404471223
 20
-133.8688313467411
 30
0.0
 10
103.8720404471223
 20
-133.8688313467411
 30
0.0
 10
103.8572265365357
 20
-133.5139865117604
 30
0.0
 10
103.6942735200834
 20
-133.4643771367728
 30
0.0
 10
103.5798963499731
 20
-133.4326822583085
 30
0.0
 10
103.5798963499731
 20
-133.4326822583085
 30
0.0
 10
103.5798963499731
 20
-133.2766194328267
 30
0.0
 10
103.5798963499731
 20
-133.2766194328267
 30
0.0
 10
103.5798963499731
 20
-133.2766194328267
 30
0.0
 10
105.1243326560106
 20
-133.2766194328267
 30
0.0
 10
105.1243326560106
 20
-133.2766194328267
 30
0.0
 10
105.1243326560106
 20
-133.2766194328267
 30
0.0
 10
105.1243326560106
 20
-133.5163980786001
 30
0.0
 10
105.1243326560106
 20
-133.5163980786001
 30
0.0
  0
HATCH
  5
9C
330
97
100
AcDbEntity
  8
_U+30EC_U+30A4_U+30E4_U+30FC 1
 62
     7
420
 16777215
100
AcDbHatch
 10
0.0
 20
0.0
 30
0.0
210
0.0
220
0.0
230
1.0
  2
SOLID
 70
     1
 71
     0
 91
        1
 92
        1
 93
        1
 72
     4
 94
        3
 73
     0
 74
     1
 95
       26
 96
       22
 40
0.0
 40
0.0
 40
0.0
 40
0.0
 40
1.0
 40
1.0
 40
1.0
 40
2.0
 40
2.0
 40
2.0
 40
3.0
 40
3.0
 40
3.0
 40
4.0
 40
4.0
 40
4.0
 40
5.0
 40
5.0
 40
5.0
 40
6.0
 40
6.0
 40
6.0
 40
7.0
 40
7.0
 40
7.0
 40
7.0
 10
105.1243326560106
 20
-133.5163980786001
 10
105.1243326560106
 20
-133.5163980786001
 10
104.020179552988
 20
-133.5163980786001
 10
104.020179552988
 20
-133.5163980786001
 10
104.020179552988
 20
-133.5163980786001
 10
104.020179552988
 20
-133.8688313467411
 10
104.020179552988
 20
-133.8688313467411
 10
104.020179552988
 20
-133.8688313467411
 10
103.8720404471223
 20
-133.8688313467411
 10
103.8720404471223
 20
-133.8688313467411
 10
103.8572265365357
 20
-133.5139865117604
 10
103.6942735200834
 20
-133.4643771367728
 10
103.5798963499731
 20
-133.4326822583085
 10
103.5798963499731
 20
-133.4326822583085
 10
103.5798963499731
 20
-133.2766194328267
 10
103.5798963499731
 20
-133.2766194328267
 10
103.5798963499731
 20
-133.2766194328267
 10
105.1243326560106
 20
-133.2766194328267
 10
105.1243326560106
 20
-133.2766194328267
 10
105.1243326560106
 20
-133.2766194328267
 10
105.1243326560106
 20
-133.5163980786001
 10
105.1243326560106
 20
-133.5163980786001
 97
        0
 97
        0
 75
     2
 76
     1
 98
        0
  0
ENDBLK
  5
9A
330
97
100
AcDbEntity
  8
0
100
AcDbBlockEnd
  0
BLOCK
  5
9F
330
9D
100
AcDbEntity
  8
0
100
AcDbBlockBegin
  2
block 5
 70
     0
 10
0.0
 20
0.0
 30
0.0
  3
block 5
  1

  0
SPLINE
  5
A1
330
9D
100
AcDbEntity
  8
_U+30EC_U+30A4_U+30E4_U+30FC 1
370
     0
100
AcDbSpline
210
0.0
220
0.0
230
1.0
 70
    11
 71
     3
 72
    32
 73
    28
 74
     0
 42
0.0000000001
 43
0.0000000001
 12
1.0
 22
0.0
 32
0.0
 13
1.0
 23
0.0
 33
0.0
 40
0.0
 40
0.0
 40
0.0
 40
0.0
 40
1.0
 40
1.0
 40
1.0
 40
2.0
 40
2.0
 40
2.0
 40
3.0
 40
3.0
 40
3.0
 40
4.0
 40
4.0
 40
4.0
 40
5.0
 40
5.0
 40
5.0
 40
6.0
 40
6.0
 40
6.0
 40
7.0
 40
7.0
 40
7.0
 40
8.0
 40
8.0
 40
8.0
 40
9.0
 40
9.0
 40
9.0
 40
9.0
 10
105.1749755596438
 20
-129.1652424807295
 30
0.0
 10
105.1749755596438
 20
-129.350588617836
 30
0.0
 10
105.1053846308417
 20
-129.6127603842635
 30
0.0
 10
104.7732774260636
 20
-129.6534125109894
 30
0.0
 10
104.7732774260636
 20
-129.6534125109894
 30
0.0
 10
104.7732774260636
 20
-129.4253471898659
 30
0.0
 10
104.7732774260636
 20
-129.4253471898659
 30
0.0
 10
104.8325330684099
 20
-129.4139783747646
 30
0.0
 10
104.9803276647271
 20
-129.3798719294606
 30
0.0
 10
104.9803276647271
 20
-129.1628309138898
 30
0.0
 10
104.9803276647271
 20
-128.8510497724747
 30
0.0
 10
104.6502875172402
 20
-128.8103976457488
 30
0.0
 10
104.4453043358678
 20
-128.7966172638078
 30
0.0
 10
104.5255750606742
 20
-128.8937689564918
 30
0.0
 10
104.5827636457293
 20
-128.9661159616821
 30
0.0
 10
104.5827636457293
 20
-129.1607638565987
 30
0.0
 10
104.5827636457293
 20
-129.3530001846756
 30
0.0
 10
104.4769992143321
 20
-129.6761501411921
 30
0.0
 10
104.0708224566212
 20
-129.6761501411921
 30
0.0
 10
103.7514621051385
 20
-129.6761501411921
 30
0.0
 10
103.5313205036311
 20
-129.4635877497522
 30
0.0
 10
103.5313205036311
 20
-129.1245903540036
 30
0.0
 10
103.5313205036311
 20
-128.5750976241062
 30
0.0
 10
104.0856363672078
 20
-128.5637288090049
 30
0.0
 10
104.2992322872933
 20
-128.5637288090049
 30
0.0
 10
104.5297091752565
 20
-128.5637288090049
 30
0.0
 10
105.1749755596438
 20
-128.5840548723679
 30
0.0
 10
105.1749755596438
 20
-129.1652424807295
 30
0.0
  0
SPLINE
  5
A2
330
9D
100
AcDbEntity
  8
_U+30EC_U+30A4_U+30E4_U+30FC 1
370
     0
100
AcDbSpline
210
0.0
220
0.0
230
1.0
 70
    11
 71
     3
 72
    17
 73
    13
 74
     0
 42
0.0000000001
 43
0.0000000001
 12
1.0
 22
0.0
 32
0.0
 13
1.0
 23
0.0
 33
0.0
 40
0.0
 40
0.0
 40
0.0
 40
0.0
 40
1.0
 40
1.0
 40
1.0
 40
2.0
 40
2.0
 40
2.0
 40
3.0
 40
3.0
 40
3.0
 40
4.0
 40
4.0
 40
4.0
 40
4.0
 10
103.7239013412565
 20
-129.1221787871639
 30
0.0
 10
103.7239013412565
 20
-129.2489583010211
 30
0.0
 10
103.7810899263117
 20
-129.4363714954187
 30
0.0
 10
104.0666883420389
 20
-129.4363714954187
 30
0.0
 10
104.2930311154198
 20
-129.4363714954187
 30
0.0
 10
104.3881157508127
 20
-129.2871988609074
 30
0.0
 10
104.3881157508127
 20
-129.1425048505269
 30
0.0
 10
104.3881157508127
 20
-128.8624185875761
 30
0.0
 10
104.1786539453095
 20
-128.8214219513016
 30
0.0
 10
104.0622097179081
 20
-128.8214219513016
 30
0.0
 10
103.8868543577088
 20
-128.8214219513016
 30
0.0
 10
103.7239013412565
 20
-128.923396777665
 30
0.0
 10
103.7239013412565
 20
-129.1221787871639
 30
0.0
  0
HATCH
  5
A3
330
9D
100
AcDbEntity
  8
_U+30EC_U+30A4_U+30E4_U+30FC 1
 62
     7
420
 16777215
100
AcDbHatch
 10
0.0
 20
0.0
 30
0.0
210
0.0
220
0.0
230
1.0
  2
SOLID
 70
     1
 71
     0
 91
        2
 92
        1
 93
        1
 72
     4
 94
        3
 73
     0
 74
     1
 95
       32
 96
       28
 40
0.0
 40
0.0
 40
0.0
 40
0.0
 40
1.0
 40
1.0
 40
1.0
 40
2.0
 40
2.0
 40
2.0
 40
3.0
 40
3.0
 40
3.0
 40
4.0
 40
4.0
 40
4.0
 40
5.0
 40
5.0
 40
5.0
 40
6.0
 40
6.0
 40
6.0
 40
7.0
 40
7.0
 40
7.0
 40
8.0
 40
8.0
 40
8.0
 40
9.0
 40
9.0
 40
9.0
 40
9.0
 10
105.1749755596438
 20
-129.1652424807295
 10
105.1749755596438
 20
-129.350588617836
 10
105.1053846308417
 20
-129.6127603842635
 10
104.7732774260636
 20
-129.6534125109894
 10
104.7732774260636
 20
-129.6534125109894
 10
104.7732774260636
 20
-129.4253471898659
 10
104.7732774260636
 20
-129.4253471898659
 10
104.8325330684099
 20
-129.4139783747646
 10
104.9803276647271
 20
-129.3798719294606
 10
104.9803276647271
 20
-129.1628309138898
 10
104.9803276647271
 20
-128.8510497724747
 10
104.6502875172402
 20
-128.8103976457488
 10
104.4453043358678
 20
-128.7966172638078
 10
104.5255750606742
 20
-128.8937689564918
 10
104.5827636457293
 20
-128.9661159616821
 10
104.5827636457293
 20
-129.1607638565987
 10
104.5827636457293
 20
-129.3530001846756
 10
104.4769992143321
 20
-129.6761501411921
 10
104.0708224566212
 20
-129.6761501411921
 10
103.7514621051385
 20
-129.6761501411921
 10
103.5313205036311
 20
-129.4635877497522
 10
103.5313205036311
 20
-129.1245903540036
 10
103.5313205036311
 20
-128.5750976241062
 10
104.0856363672078
 20
-128.5637288090049
 10
104.2992322872933
 20
-128.5637288090049
 10
104.5297091752565
 20
-128.5637288090049
 10
105.1749755596438
 20
-128.5840548723679
 10
105.1749755596438
 20
-129.1652424807295
 97
        0
 97
        0
 92
        1
 93
        1
 72
     4
 94
        3
 73
     0
 74
     1
 95
       17
 96
       13
 40
0.0
 40
0.0
 40
0.0
 40
0.0
 40
1.0
 40
1.0
 40
1.0
 40
2.0
 40
2.0
 40
2.0
 40
3.0
 40
3.0
 40
3.0
 40
4.0
 40
4.0
 40
4.0
 40
4.0
 10
103.7239013412565
 20
-129.1221787871639
 10
103.7239013412565
 20
-129.2489583010211
 10
103.7810899263117
 20
-129.4363714954187
 10
104.0666883420389
 20
-129.4363714954187
 10
104.2930311154198
 20
-129.4363714954187
 10
104.3881157508127
 20
-129.2871988609074
 10
104.3881157508127
 20
-129.1425048505269
 10
104.3881157508127
 20
-128.8624185875761
 10
104.1786539453095
 20
-128.8214219513016
 10
104.0622097179081
 20
-128.8214219513016
 10
103.8868543577088
 20
-128.8214219513016
 10
103.7239013412565
 20
-128.923396777665
 10
103.7239013412565
 20
-129.1221787871639
 97
        0
 97
        0
 75
     2
 76
     1
 98
        0
  0
POLYLINE
  5
A4
330
9D
100
AcDbEntity
  8
_U+30EC_U+30A4_U+30E4_U+30FC 1
370
     0
100
AcDb2dPolyline
 66
     1
 10
0.0
 20
0.0
 30
0.0
  0
VERTEX
  5
A5
330
A4
100
AcDbEntity
  8
_U+30EC_U+30A4_U+30E4_U+30FC 1
370
     0
100
AcDbVertex
100
AcDb2dVertex
 10
105.1243326560106
 20
-128.3325629019446
 30
0.0
  0
VERTEX
  5
A6
330
A4
100
AcDbEntity
  8
_U+30EC_U+30A4_U+30E4_U+30FC 1
370
     0
100
AcDbVertex
100
AcDb2dVertex
 10
104.8724961760388
 20
-128.3325629019446
 30
0.0
  0
VERTEX
  5
A7
330
A4
100
AcDbEntity
  8
_U+30EC_U+30A4_U+30E4_U+30FC 1
370
     0
100
AcDbVertex
100
AcDb2dVertex
 10
104.8724961760388
 20
-128.0635009445466
 30
0.0
  0
VERTEX
  5
A8
330
A4
100
AcDbEntity
  8
_U+30EC_U+30A4_U+30E4_U+30FC 1
370
     0
100
AcDbVertex
100
AcDb2dVertex
 10
105.1243326560106
 20
-128.0635009445466
 30
0.0
  0
VERTEX
  5
A9
330
A4
100
AcDbEntity
  8
_U+30EC_U+30A4_U+30E4_U+30FC 1
370
     0
100
AcDbVertex
100
AcDb2dVertex
 10
105.1243326560106
 20
-128.3325629019446
 30
0.0
  0
SEQEND
  5
AA
330
A4
100
AcDbEntity
  8
_U+30EC_U+30A4_U+30E4_U+30FC 1
370
     0
  0
HATCH
  5
AB
330
9D
100
AcDbEntity
  8
_U+30EC_U+30A4_U+30E4_U+30FC 1
 62
     7
420
 16777215
100
AcDbHatch
 10
0.0
 20
0.0
 30
0.0
210
0.0
220
0.0
230
1.0
  2
SOLID
 70
     1
 71
     0
 91
        1
 92
        1
 93
        4
 72
     1
 10
105.1243326560106
 20
-128.3325629019446
 11
104.8724961760388
 21
-128.3325629019446
 72
     1
 10
104.8724961760388
 20
-128.3325629019446
 11
104.8724961760388
 21
-128.0635009445466
 72
     1
 10
104.8724961760388
 20
-128.0635009445466
 11
105.1243326560106
 21
-128.0635009445466
 72
     1
 10
105.1243326560106
 20
-128.0635009445466
 11
105.1243326560106
 21
-128.3325629019446
 97
        0
 75
     2
 76
     1
 98
        0
  0
SPLINE
  5
AC
330
9D
100
AcDbEntity
  8
_U+30EC_U+30A4_U+30E4_U+30FC 1
370
     0
100
AcDbSpline
210
0.0
220
0.0
230
1.0
 70
    11
 71
     3
 72
    53
 73
    49
 74
     0
 42
0.0000000001
 43
0.0000000001
 12
1.0
 22
0.0
 32
0.0
 13
1.0
 23
0.0
 33
0.0
 40
0.0
 40
0.0
 40
0.0
 40
0.0
 40
1.0
 40
1.0
 40
1.0
 40
2.0
 40
2.0
 40
2.0
 40
3.0
 40
3.0
 40
3.0
 40
4.0
 40
4.0
 40
4.0
 40
5.0
 40
5.0
 40
5.0
 40
6.0
 40
6.0
 40
6.0
 40
7.0
 40
7.0
 40
7.0
 40
8.0
 40
8.0
 40
8.0
 40
9.0
 40
9.0
 40
9.0
 40
10.0
 40
10.0
 40
10.0
 40
11.0
 40
11.0
 40
11.0
 40
12.0
 40
12.0
 40
12.0
 40
13.0
 40
13.0
 40
13.0
 40
14.0
 40
14.0
 40
14.0
 40
15.0
 40
15.0
 40
15.0
 40
16.0
 40
16.0
 40
16.0
 40
16.0
 10
105.1749755596438
 20
-127.29662268953
 30
0.0
 10
105.1749755596438
 20
-127.3803385098216
 30
0.0
 10
105.158094591766
 20
-127.4885145080584
 30
0.0
 10
105.0947048348374
 20
-127.5973795253923
 30
0.0
 10
104.984806288858
 20
-127.7827256624988
 30
0.0
 10
104.85354815087
 20
-127.8051187831529
 30
0.0
 10
104.7457166621816
 20
-127.8254448465159
 30
0.0
 10
104.7457166621816
 20
-127.8254448465159
 30
0.0
 10
104.7457166621816
 20
-127.5880777675821
 30
0.0
 10
104.7457166621816
 20
-127.5880777675821
 30
0.0
 10
104.9444986716805
 20
-127.5295111443329
 30
0.0
 10
104.9741264928537
 20
-127.3937743822141
 30
0.0
 10
104.9741264928537
 20
-127.2942111226903
 30
0.0
 10
104.9741264928537
 20
-127.145038488179
 30
0.0
 10
104.87456323333
 20
-126.9820854717267
 30
0.0
 10
104.6420192880756
 20
-126.9820854717267
 30
0.0
 10
104.3860486935215
 20
-126.9820854717267
 30
0.0
 10
104.316113255171
 20
-127.1743217998036
 30
0.0
 10
104.316113255171
 20
-127.303168370952
 30
0.0
 10
104.316113255171
 20
-127.337274816256
 30
0.0
 10
104.316113255171
 20
-127.4885145080584
 30
0.0
 10
104.4453043358678
 20
-127.5835991434513
 30
0.0
 10
104.4453043358678
 20
-127.5835991434513
 30
0.0
 10
104.426356310699
 20
-127.7713568473974
 30
0.0
 10
104.426356310699
 20
-127.7713568473974
 30
0.0
 10
104.426356310699
 20
-127.7713568473974
 30
0.0
 10
103.5798963499731
 20
-127.6425102762491
 30
0.0
 10
103.5798963499731
 20
-127.6425102762491
 30
0.0
 10
103.5798963499731
 20
-127.6425102762491
 30
0.0
 10
103.5798963499731
 20
-126.8105197165613
 30
0.0
 10
103.5798963499731
 20
-126.8105197165613
 30
0.0
 10
103.5798963499731
 20
-126.8105197165613
 30
0.0
 10
103.7745442448897
 20
-126.8105197165613
 30
0.0
 10
103.7745442448897
 20
-126.8105197165613
 30
0.0
 10
103.7745442448897
 20
-126.8105197165613
 30
0.0
 10
103.7745442448897
 20
-127.4681884446955
 30
0.0
 10
103.7745442448897
 20
-127.4681884446955
 30
0.0
 10
103.7745442448897
 20
-127.4681884446955
 30
0.0
 10
104.1976019704784
 20
-127.5384683925946
 30
0.0
 10
104.1976019704784
 20
-127.5384683925946
 30
0.0
 10
104.1638400347229
 20
-127.4730115783748
 30
0.0
 10
104.1235324175455
 20
-127.3848171339524
 30
0.0
 10
104.1235324175455
 20
-127.2580376200952
 30
0.0
 10
104.1235324175455
 20
-126.9869086054061
 30
0.0
 10
104.3099120832975
 20
-126.7336940872402
 30
0.0
 10
104.6230712629067
 20
-126.7336940872402
 30
0.0
 10
104.9403645570982
 20
-126.7336940872402
 30
0.0
 10
105.1749755596438
 20
-126.9731282234651
 30
0.0
 10
105.1749755596438
 20
-127.29662268953
 30
0.0
  0
HATCH
  5
AD
330
9D
100
AcDbEntity
  8
_U+30EC_U+30A4_U+30E4_U+30FC 1
 62
     7
420
 16777215
100
AcDbHatch
 10
0.0
 20
0.0
 30
0.0
210
0.0
220
0.0
230
1.0
  2
SOLID
 70
     1
 71
     0
 91
        1
 92
        1
 93
        1
 72
     4
 94
        3
 73
     0
 74
     1
 95
       53
 96
       49
 40
0.0
 40
0.0
 40
0.0
 40
0.0
 40
1.0
 40
1.0
 40
1.0
 40
2.0
 40
2.0
 40
2.0
 40
3.0
 40
3.0
 40
3.0
 40
4.0
 40
4.0
 40
4.0
 40
5.0
 40
5.0
 40
5.0
 40
6.0
 40
6.0
 40
6.0
 40
7.0
 40
7.0
 40
7.0
 40
8.0
 40
8.0
 40
8.0
 40
9.0
 40
9.0
 40
9.0
 40
10.0
 40
10.0
 40
10.0
 40
11.0
 40
11.0
 40
11.0
 40
12.0
 40
12.0
 40
12.0
 40
13.0
 40
13.0
 40
13.0
 40
14.0
 40
14.0
 40
14.0
 40
15.0
 40
15.0
 40
15.0
 40
16.0
 40
16.0
 40
16.0
 40
16.0
 10
105.1749755596438
 20
-127.29662268953
 10
105.1749755596438
 20
-127.3803385098216
 10
105.158094591766
 20
-127.4885145080584
 10
105.0947048348374
 20
-127.5973795253923
 10
104.984806288858
 20
-127.7827256624988
 10
104.85354815087
 20
-127.8051187831529
 10
104.7457166621816
 20
-127.8254448465159
 10
104.7457166621816
 20
-127.8254448465159
 10
104.7457166621816
 20
-127.5880777675821
 10
104.7457166621816
 20
-127.5880777675821
 10
104.9444986716805
 20
-127.5295111443329
 10
104.9741264928537
 20
-127.3937743822141
 10
104.9741264928537
 20
-127.2942111226903
 10
104.9741264928537
 20
-127.145038488179
 10
104.87456323333
 20
-126.9820854717267
 10
104.6420192880756
 20
-126.9820854717267
 10
104.3860486935215
 20
-126.9820854717267
 10
104.316113255171
 20
-127.1743217998036
 10
104.316113255171
 20
-127.303168370952
 10
104.316113255171
 20
-127.337274816256
 10
104.316113255171
 20
-127.4885145080584
 10
104.4453043358678
 20
-127.5835991434513
 10
104.4453043358678
 20
-127.5835991434513
 10
104.426356310699
 20
-127.7713568473974
 10
104.426356310699
 20
-127.7713568473974
 10
104.426356310699
 20
-127.7713568473974
 10
103.5798963499731
 20
-127.6425102762491
 10
103.5798963499731
 20
-127.6425102762491
 10
103.5798963499731
 20
-127.6425102762491
 10
103.5798963499731
 20
-126.8105197165613
 10
103.5798963499731
 20
-126.8105197165613
 10
103.5798963499731
 20
-126.8105197165613
 10
103.7745442448897
 20
-126.8105197165613
 10
103.7745442448897
 20
-126.8105197165613
 10
103.7745442448897
 20
-126.8105197165613
 10
103.7745442448897
 20
-127.4681884446955
 10
103.7745442448897
 20
-127.4681884446955
 10
103.7745442448897
 20
-127.4681884446955
 10
104.1976019704784
 20
-127.5384683925946
 10
104.1976019704784
 20
-127.5384683925946
 10
104.1638400347229
 20
-127.4730115783748
 10
104.1235324175455
 20
-127.3848171339524
 10
104.1235324175455
 20
-127.2580376200952
 10
104.1235324175455
 20
-126.9869086054061
 10
104.3099120832975
 20
-126.7336940872402
 10
104.6230712629067
 20
-126.7336940872402
 10
104.9403645570982
 20
-126.7336940872402
 10
105.1749755596438
 20
-126.9731282234651
 10
105.1749755596438
 20
-127.29662268953
 97
        0
 97
        0
 75
     2
 76
     1
 98
        0
  0
ENDBLK
  5
A0
330
9D
100
AcDbEntity
  8
0
100
AcDbBlockEnd
  0
BLOCK
  5
BE
330
BC
100
AcDbEntity
  8
0
100
AcDbBlockBegin
  2
block 6
 70
     0
 10
0.0
 20
0.0
 30
0.0
  3
block 6
  1

  0
SPLINE
  5
C0
330
BC
100
AcDbEntity
  8
_U+30EC_U+30A4_U+30E4_U+30FC 1
370
     0
100
AcDbSpline
210
0.0
220
0.0
230
1.0
 70
    11
 71
     3
 72
    53
 73
    49
 74
     0
 42
0.0000000001
 43
0.0000000001
 12
1.0
 22
0.0
 32
0.0
 13
1.0
 23
0.0
 33
0.0
 40
0.0
 40
0.0
 40
0.0
 40
0.0
 40
1.0
 40
1.0
 40
1.0
 40
2.0
 40
2.0
 40
2.0
 40
3.0
 40
3.0
 40
3.0
 40
4.0
 40
4.0
 40
4.0
 40
5.0
 40
5.0
 40
5.0
 40
6.0
 40
6.0
 40
6.0
 40
7.0
 40
7.0
 40
7.0
 40
8.0
 40
8.0
 40
8.0
 40
9.0
 40
9.0
 40
9.0
 40
10.0
 40
10.0
 40
10.0
 40
11.0
 40
11.0
 40
11.0
 40
12.0
 40
12.0
 40
12.0
 40
13.0
 40
13.0
 40
13.0
 40
14.0
 40
14.0
 40
14.0
 40
15.0
 40
15.0
 40
15.0
 40
16.0
 40
16.0
 40
16.0
 40
16.0
 10
87.32059595256221
 20
-120.9769395313877
 30
0.0
 10
87.23688013227064
 20
-120.9769395313877
 30
0.0
 10
87.1287041340338
 20
-120.96005856351
 30
0.0
 10
87.0198391166999
 20
-120.8966688065814
 30
0.0
 10
86.83449297959346
 20
-120.7867702606019
 30
0.0
 10
86.81209985893933
 20
-120.6555121226139
 30
0.0
 10
86.79177379557636
 20
-120.5476806339256
 30
0.0
 10
86.79177379557636
 20
-120.5476806339256
 30
0.0
 10
87.02914087451008
 20
-120.5476806339256
 30
0.0
 10
87.02914087451008
 20
-120.5476806339256
 30
0.0
 10
87.08770749775933
 20
-120.7464626434245
 30
0.0
 10
87.22344425987816
 20
-120.7760904645976
 30
0.0
 10
87.3230075194019
 20
-120.7760904645976
 30
0.0
 10
87.47218015391321
 20
-120.7760904645976
 30
0.0
 10
87.63513317036552
 20
-120.6765272050739
 30
0.0
 10
87.63513317036552
 20
-120.4439832598196
 30
0.0
 10
87.63513317036552
 20
-120.1880126652655
 30
0.0
 10
87.44289684228859
 20
-120.1180772269149
 30
0.0
 10
87.31405027114025
 20
-120.1180772269149
 30
0.0
 10
87.27994382583627
 20
-120.1180772269149
 30
0.0
 10
87.1287041340338
 20
-120.1180772269149
 30
0.0
 10
87.0336194986409
 20
-120.2472683076118
 30
0.0
 10
87.0336194986409
 20
-120.2472683076118
 30
0.0
 10
86.84586179469478
 20
-120.2283202824429
 30
0.0
 10
86.84586179469478
 20
-120.2283202824429
 30
0.0
 10
86.84586179469478
 20
-120.2283202824429
 30
0.0
 10
86.97470836584313
 20
-119.381860321717
 30
0.0
 10
86.97470836584313
 20
-119.381860321717
 30
0.0
 10
86.97470836584313
 20
-119.381860321717
 30
0.0
 10
87.80669892553097
 20
-119.381860321717
 30
0.0
 10
87.80669892553097
 20
-119.381860321717
 30
0.0
 10
87.80669892553097
 20
-119.381860321717
 30
0.0
 10
87.80669892553097
 20
-119.5765082166337
 30
0.0
 10
87.80669892553097
 20
-119.5765082166337
 30
0.0
 10
87.80669892553097
 20
-119.5765082166337
 30
0.0
 10
87.14903019739677
 20
-119.5765082166337
 30
0.0
 10
87.14903019739677
 20
-119.5765082166337
 30
0.0
 10
87.14903019739677
 20
-119.5765082166337
 30
0.0
 10
87.07875024949767
 20
-119.9995659422223
 30
0.0
 10
87.07875024949767
 20
-119.9995659422223
 30
0.0
 10
87.14420706371743
 20
-119.9658040064669
 30
0.0
 10
87.23240150813982
 20
-119.9254963892895
 30
0.0
 10
87.35918102199702
 20
-119.9254963892895
 30
0.0
 10
87.63031003668618
 20
-119.9254963892895
 30
0.0
 10
87.88352455485204
 20
-120.1118760550415
 30
0.0
 10
87.88352455485204
 20
-120.4250352346507
 30
0.0
 10
87.88352455485204
 20
-120.7423285288422
 30
0.0
 10
87.64409041862717
 20
-120.9769395313877
 30
0.0
 10
87.32059595256221
 20
-120.9769395313877
 30
0.0
  0
HATCH
  5
C1
330
BC
100
AcDbEntity
  8
_U+30EC_U+30A4_U+30E4_U+30FC 1
 62
     7
420
 16777215
100
AcDbHatch
 10
0.0
 20
0.0
 30
0.0
210
0.0
220
0.0
230
1.0
  2
SOLID
 70
     1
 71
     0
 91
        1
 92
        1
 93
        1
 72
     4
 94
        3
 73
     0
 74
     1
 95
       53
 96
       49
 40
0.0
 40
0.0
 40
0.0
 40
0.0
 40
1.0
 40
1.0
 40
1.0
 40
2.0
 40
2.0
 40
2.0
 40
3.0
 40
3.0
 40
3.0
 40
4.0
 40
4.0
 40
4.0
 40
5.0
 40
5.0
 40
5.0
 40
6.0
 40
6.0
 40
6.0
 40
7.0
 40
7.0
 40
7.0
 40
8.0
 40
8.0
 40
8.0
 40
9.0
 40
9.0
 40
9.0
 40
10.0
 40
10.0
 40
10.0
 40
11.0
 40
11.0
 40
11.0
 40
12.0
 40
12.0
 40
12.0
 40
13.0
 40
13.0
 40
13.0
 40
14.0
 40
14.0
 40
14.0
 40
15.0
 40
15.0
 40
15.0
 40
16.0
 40
16.0
 40
16.0
 40
16.0
 10
87.32059595256221
 20
-120.9769395313877
 10
87.23688013227064
 20
-120.9769395313877
 10
87.1287041340338
 20
-120.96005856351
 10
87.0198391166999
 20
-120.8966688065814
 10
86.83449297959346
 20
-120.7867702606019
 10
86.81209985893933
 20
-120.6555121226139
 10
86.79177379557636
 20
-120.5476806339256
 10
86.79177379557636
 20
-120.5476806339256
 10
87.02914087451008
 20
-120.5476806339256
 10
87.02914087451008
 20
-120.5476806339256
 10
87.08770749775933
 20
-120.7464626434245
 10
87.22344425987816
 20
-120.7760904645976
 10
87.3230075194019
 20
-120.7760904645976
 10
87.47218015391321
 20
-120.7760904645976
 10
87.63513317036552
 20
-120.6765272050739
 10
87.63513317036552
 20
-120.4439832598196
 10
87.63513317036552
 20
-120.1880126652655
 10
87.44289684228859
 20
-120.1180772269149
 10
87.31405027114025
 20
-120.1180772269149
 10
87.27994382583627
 20
-120.1180772269149
 10
87.1287041340338
 20
-120.1180772269149
 10
87.0336194986409
 20
-120.2472683076118
 10
87.0336194986409
 20
-120.2472683076118
 10
86.84586179469478
 20
-120.2283202824429
 10
86.84586179469478
 20
-120.2283202824429
 10
86.84586179469478
 20
-120.2283202824429
 10
86.97470836584313
 20
-119.381860321717
 10
86.97470836584313
 20
-119.381860321717
 10
86.97470836584313
 20
-119.381860321717
 10
87.80669892553097
 20
-119.381860321717
 10
87.80669892553097
 20
-119.381860321717
 10
87.80669892553097
 20
-119.381860321717
 10
87.80669892553097
 20
-119.5765082166337
 10
87.80669892553097
 20
-119.5765082166337
 10
87.80669892553097
 20
-119.5765082166337
 10
87.14903019739677
 20
-119.5765082166337
 10
87.14903019739677
 20
-119.5765082166337
 10
87.14903019739677
 20
-119.5765082166337
 10
87.07875024949767
 20
-119.9995659422223
 10
87.07875024949767
 20
-119.9995659422223
 10
87.14420706371743
 20
-119.9658040064669
 10
87.23240150813982
 20
-119.9254963892895
 10
87.35918102199702
 20
-119.9254963892895
 10
87.63031003668618
 20
-119.9254963892895
 10
87.88352455485204
 20
-120.1118760550415
 10
87.88352455485204
 20
-120.4250352346507
 10
87.88352455485204
 20
-120.7423285288422
 10
87.64409041862717
 20
-120.9769395313877
 10
87.32059595256221
 20
-120.9769395313877
 97
        0
 97
        0
 75
     2
 76
     1
 98
        0
  0
ENDBLK
  5
BF
330
BC
100
AcDbEntity
  8
0
100
AcDbBlockEnd
  0
BLOCK
  5
D1
330
CF
100
AcDbEntity
  8
0
100
AcDbBlockBegin
  2
block 7
 70
     0
 10
0.0
 20
0.0
 30
0.0
  3
block 7
  1

  0
SPLINE
  5
D3
330
CF
100
AcDbEntity
  8
_U+30EC_U+30A4_U+30E4_U+30FC 1
370
     0
100
AcDbSpline
210
0.0
220
0.0
230
1.0
 70
    11
 71
     3
 72
    44
 73
    40
 74
     0
 42
0.0000000001
 43
0.0000000001
 12
1.0
 22
0.0
 32
0.0
 13
1.0
 23
0.0
 33
0.0
 40
0.0
 40
0.0
 40
0.0
 40
0.0
 40
1.0
 40
1.0
 40
1.0
 40
2.0
 40
2.0
 40
2.0
 40
3.0
 40
3.0
 40
3.0
 40
4.0
 40
4.0
 40
4.0
 40
5.0
 40
5.0
 40
5.0
 40
6.0
 40
6.0
 40
6.0
 40
7.0
 40
7.0
 40
7.0
 40
8.0
 40
8.0
 40
8.0
 40
9.0
 40
9.0
 40
9.0
 40
10.0
 40
10.0
 40
10.0
 40
11.0
 40
11.0
 40
11.0
 40
12.0
 40
12.0
 40
12.0
 40
13.0
 40
13.0
 40
13.0
 40
13.0
 10
86.97556963971445
 20
-136.0650797185879
 30
0.0
 10
86.74268118491156
 20
-136.2238986204579
 30
0.0
 10
86.64311792538784
 20
-136.2979681733908
 30
0.0
 10
86.59144149310909
 20
-136.4416286551257
 30
0.0
 10
86.59144149310909
 20
-136.4416286551257
 30
0.0
 10
87.4230875432484
 20
-136.4416286551257
 30
0.0
 10
87.4230875432484
 20
-136.4416286551257
 30
0.0
 10
87.4230875432484
 20
-136.4416286551257
 30
0.0
 10
87.4230875432484
 20
-136.6469563460466
 30
0.0
 10
87.4230875432484
 20
-136.6469563460466
 30
0.0
 10
87.4230875432484
 20
-136.6469563460466
 30
0.0
 10
86.32444659300222
 20
-136.6469563460466
 30
0.0
 10
86.32444659300222
 20
-136.6469563460466
 30
0.0
 10
86.3585530383062
 20
-136.2893554346777
 30
0.0
 10
86.42848847665677
 20
-136.2111517671625
 30
0.0
 10
86.8398328775956
 20
-135.9128064981399
 30
0.0
 10
87.11337345912443
 20
-135.7140244886409
 30
0.0
 10
87.18365340702354
 20
-135.6461561075815
 30
0.0
 10
87.18365340702354
 20
-135.5086967977201
 30
0.0
 10
87.18365340702354
 20
-135.3901855130275
 30
0.0
 10
87.10682777770246
 20
-135.259271884588
 30
0.0
 10
86.8963324435537
 20
-135.259271884588
 30
0.0
 10
86.61831323789404
 20
-135.259271884588
 30
0.0
 10
86.60935598963239
 20
-135.4897487725512
 30
0.0
 10
86.60487736550157
 20
-135.6061929999526
 30
0.0
 10
86.60487736550157
 20
-135.6061929999526
 30
0.0
 10
86.36509871972818
 20
-135.6061929999526
 30
0.0
 10
86.36509871972818
 20
-135.6061929999526
 30
0.0
 10
86.37440047753834
 20
-135.4790689765469
 30
0.0
 10
86.38542478309115
 20
-135.3671033732763
 30
0.0
 10
86.4715521702224
 20
-135.2485920885837
 30
0.0
 10
86.58902992626942
 20
-135.0877061294225
 30
0.0
 10
86.78781193576833
 20
-135.0539441936671
 30
0.0
 10
86.91217988278585
 20
-135.0539441936671
 30
0.0
 10
87.20845809451734
 20
-135.0539441936671
 30
0.0
 10
87.4299777342189
 20
-135.2379122925794
 30
0.0
 10
87.4299777342189
 20
-135.5107638550112
 30
0.0
 10
87.4299777342189
 20
-135.7395181952318
 30
0.0
 10
87.30560978720138
 20
-135.838736945207
 30
0.0
 10
86.97556963971445
 20
-136.0650797185879
 30
0.0
  0
HATCH
  5
D4
330
CF
100
AcDbEntity
  8
_U+30EC_U+30A4_U+30E4_U+30FC 1
 62
     7
420
 16777215
100
AcDbHatch
 10
0.0
 20
0.0
 30
0.0
210
0.0
220
0.0
230
1.0
  2
SOLID
 70
     1
 71
     0
 91
        1
 92
        1
 93
        1
 72
     4
 94
        3
 73
     0
 74
     1
 95
       44
 96
       40
 40
0.0
 40
0.0
 40
0.0
 40
0.0
 40
1.0
 40
1.0
 40
1.0
 40
2.0
 40
2.0
 40
2.0
 40
3.0
 40
3.0
 40
3.0
 40
4.0
 40
4.0
 40
4.0
 40
5.0
 40
5.0
 40
5.0
 40
6.0
 40
6.0
 40
6.0
 40
7.0
 40
7.0
 40
7.0
 40
8.0
 40
8.0
 40
8.0
 40
9.0
 40
9.0
 40
9.0
 40
10.0
 40
10.0
 40
10.0
 40
11.0
 40
11.0
 40
11.0
 40
12.0
 40
12.0
 40
12.0
 40
13.0
 40
13.0
 40
13.0
 40
13.0
 10
86.97556963971445
 20
-136.0650797185879
 10
86.74268118491156
 20
-136.2238986204579
 10
86.64311792538784
 20
-136.2979681733908
 10
86.59144149310909
 20
-136.4416286551257
 10
86.59144149310909
 20
-136.4416286551257
 10
87.4230875432484
 20
-136.4416286551257
 10
87.4230875432484
 20
-136.4416286551257
 10
87.4230875432484
 20
-136.4416286551257
 10
87.4230875432484
 20
-136.6469563460466
 10
87.4230875432484
 20
-136.6469563460466
 10
87.4230875432484
 20
-136.6469563460466
 10
86.32444659300222
 20
-136.6469563460466
 10
86.32444659300222
 20
-136.6469563460466
 10
86.3585530383062
 20
-136.2893554346777
 10
86.42848847665677
 20
-136.2111517671625
 10
86.8398328775956
 20
-135.9128064981399
 10
87.11337345912443
 20
-135.7140244886409
 10
87.18365340702354
 20
-135.6461561075815
 10
87.18365340702354
 20
-135.5086967977201
 10
87.18365340702354
 20
-135.3901855130275
 10
87.10682777770246
 20
-135.259271884588
 10
86.8963324435537
 20
-135.259271884588
 10
86.61831323789404
 20
-135.259271884588
 10
86.60935598963239
 20
-135.4897487725512
 10
86.60487736550157
 20
-135.6061929999526
 10
86.60487736550157
 20
-135.6061929999526
 10
86.36509871972818
 20
-135.6061929999526
 10
86.36509871972818
 20
-135.6061929999526
 10
86.37440047753834
 20
-135.4790689765469
 10
86.38542478309115
 20
-135.3671033732763
 10
86.4715521702224
 20
-135.2485920885837
 10
86.58902992626942
 20
-135.0877061294225
 10
86.78781193576833
 20
-135.0539441936671
 10
86.91217988278585
 20
-135.0539441936671
 10
87.20845809451734
 20
-135.0539441936671
 10
87.4299777342189
 20
-135.2379122925794
 10
87.4299777342189
 20
-135.5107638550112
 10
87.4299777342189
 20
-135.7395181952318
 10
87.30560978720138
 20
-135.838736945207
 10
86.97556963971445
 20
-136.0650797185879
 97
        0
 97
        0
 75
     2
 76
     1
 98
        0
  0
SPLINE
  5
D5
330
CF
100
AcDbEntity
  8
_U+30EC_U+30A4_U+30E4_U+30FC 1
370
     0
100
AcDbSpline
210
0.0
220
0.0
230
1.0
 70
    11
 71
     3
 72
    53
 73
    49
 74
     0
 42
0.0000000001
 43
0.0000000001
 12
1.0
 22
0.0
 32
0.0
 13
1.0
 23
0.0
 33
0.0
 40
0.0
 40
0.0
 40
0.0
 40
0.0
 40
1.0
 40
1.0
 40
1.0
 40
2.0
 40
2.0
 40
2.0
 40
3.0
 40
3.0
 40
3.0
 40
4.0
 40
4.0
 40
4.0
 40
5.0
 40
5.0
 40
5.0
 40
6.0
 40
6.0
 40
6.0
 40
7.0
 40
7.0
 40
7.0
 40
8.0
 40
8.0
 40
8.0
 40
9.0
 40
9.0
 40
9.0
 40
10.0
 40
10.0
 40
10.0
 40
11.0
 40
11.0
 40
11.0
 40
12.0
 40
12.0
 40
12.0
 40
13.0
 40
13.0
 40
13.0
 40
14.0
 40
14.0
 40
14.0
 40
15.0
 40
15.0
 40
15.0
 40
16.0
 40
16.0
 40
16.0
 40
16.0
 10
88.11348467849247
 20
-136.6975992496798
 30
0.0
 10
88.03011336774942
 20
-136.6975992496798
 30
0.0
 10
87.92124835041552
 20
-136.6807182818021
 30
0.0
 10
87.81307235217868
 20
-136.6173285248734
 30
0.0
 10
87.62738170552372
 20
-136.507429978894
 30
0.0
 10
87.60498858486959
 20
-136.376171840906
 30
0.0
 10
87.58466252150662
 20
-136.2683403522176
 30
0.0
 10
87.58466252150662
 20
-136.2683403522176
 30
0.0
 10
87.82202960044033
 20
-136.2683403522176
 30
0.0
 10
87.82202960044033
 20
-136.2683403522176
 30
0.0
 10
87.88059622368958
 20
-136.4671223617165
 30
0.0
 10
88.01633298580842
 20
-136.4967501828897
 30
0.0
 10
88.11589624533214
 20
-136.4967501828897
 30
0.0
 10
88.26506887984345
 20
-136.4967501828897
 30
0.0
 10
88.42767738674725
 20
-136.397186923366
 30
0.0
 10
88.42767738674725
 20
-136.1646429781116
 30
0.0
 10
88.42767738674725
 20
-135.9086723835576
 30
0.0
 10
88.23578556821883
 20
-135.838736945207
 30
0.0
 10
88.10693899707049
 20
-135.838736945207
 30
0.0
 10
88.07283255176652
 20
-135.838736945207
 30
0.0
 10
87.92124835041552
 20
-135.838736945207
 30
0.0
 10
87.82650822457116
 20
-135.9679280259039
 30
0.0
 10
87.82650822457116
 20
-135.9679280259039
 30
0.0
 10
87.63875052062504
 20
-135.948980000735
 30
0.0
 10
87.63875052062504
 20
-135.948980000735
 30
0.0
 10
87.63875052062504
 20
-135.948980000735
 30
0.0
 10
87.76759709177338
 20
-135.1025200400091
 30
0.0
 10
87.76759709177338
 20
-135.1025200400091
 30
0.0
 10
87.76759709177338
 20
-135.1025200400091
 30
0.0
 10
88.59958765146122
 20
-135.1025200400091
 30
0.0
 10
88.59958765146122
 20
-135.1025200400091
 30
0.0
 10
88.59958765146122
 20
-135.1025200400091
 30
0.0
 10
88.59958765146122
 20
-135.2971679349257
 30
0.0
 10
88.59958765146122
 20
-135.2971679349257
 30
0.0
 10
88.59958765146122
 20
-135.2971679349257
 30
0.0
 10
87.94191892332702
 20
-135.2971679349257
 30
0.0
 10
87.94191892332702
 20
-135.2971679349257
 30
0.0
 10
87.94191892332702
 20
-135.2971679349257
 30
0.0
 10
87.87163897542793
 20
-135.7202256605144
 30
0.0
 10
87.87163897542793
 20
-135.7202256605144
 30
0.0
 10
87.93709578964767
 20
-135.6864637247589
 30
0.0
 10
88.02529023407007
 20
-135.6461561075815
 30
0.0
 10
88.15206974792727
 20
-135.6461561075815
 30
0.0
 10
88.42319876261642
 20
-135.6461561075815
 30
0.0
 10
88.67641328078228
 20
-135.8325357733335
 30
0.0
 10
88.67641328078228
 20
-136.1456949529428
 30
0.0
 10
88.67641328078228
 20
-136.4629882471343
 30
0.0
 10
88.43697914455743
 20
-136.6975992496798
 30
0.0
 10
88.11348467849247
 20
-136.6975992496798
 30
0.0
  0
HATCH
  5
D6
330
CF
100
AcDbEntity
  8
_U+30EC_U+30A4_U+30E4_U+30FC 1
 62
     7
420
 16777215
100
AcDbHatch
 10
0.0
 20
0.0
 30
0.0
210
0.0
220
0.0
230
1.0
  2
SOLID
 70
     1
 71
     0
 91
        1
 92
        1
 93
        1
 72
     4
 94
        3
 73
     0
 74
     1
 95
       53
 96
       49
 40
0.0
 40
0.0
 40
0.0
 40
0.0
 40
1.0
 40
1.0
 40
1.0
 40
2.0
 40
2.0
 40
2.0
 40
3.0
 40
3.0
 40
3.0
 40
4.0
 40
4.0
 40
4.0
 40
5.0
 40
5.0
 40
5.0
 40
6.0
 40
6.0
 40
6.0
 40
7.0
 40
7.0
 40
7.0
 40
8.0
 40
8.0
 40
8.0
 40
9.0
 40
9.0
 40
9.0
 40
10.0
 40
10.0
 40
10.0
 40
11.0
 40
11.0
 40
11.0
 40
12.0
 40
12.0
 40
12.0
 40
13.0
 40
13.0
 40
13.0
 40
14.0
 40
14.0
 40
14.0
 40
15.0
 40
15.0
 40
15.0
 40
16.0
 40
16.0
 40
16.0
 40
16.0
 10
88.11348467849247
 20
-136.6975992496798
 10
88.03011336774942
 20
-136.6975992496798
 10
87.92124835041552
 20
-136.6807182818021
 10
87.81307235217868
 20
-136.6173285248734
 10
87.62738170552372
 20
-136.507429978894
 10
87.60498858486959
 20
-136.376171840906
 10
87.58466252150662
 20
-136.2683403522176
 10
87.58466252150662
 20
-136.2683403522176
 10
87.82202960044033
 20
-136.2683403522176
 10
87.82202960044033
 20
-136.2683403522176
 10
87.88059622368958
 20
-136.4671223617165
 10
88.01633298580842
 20
-136.4967501828897
 10
88.11589624533214
 20
-136.4967501828897
 10
88.26506887984345
 20
-136.4967501828897
 10
88.42767738674725
 20
-136.397186923366
 10
88.42767738674725
 20
-136.1646429781116
 10
88.42767738674725
 20
-135.9086723835576
 10
88.23578556821883
 20
-135.838736945207
 10
88.10693899707049
 20
-135.838736945207
 10
88.07283255176652
 20
-135.838736945207
 10
87.92124835041552
 20
-135.838736945207
 10
87.82650822457116
 20
-135.9679280259039
 10
87.82650822457116
 20
-135.9679280259039
 10
87.63875052062504
 20
-135.948980000735
 10
87.63875052062504
 20
-135.948980000735
 10
87.63875052062504
 20
-135.948980000735
 10
87.76759709177338
 20
-135.1025200400091
 10
87.76759709177338
 20
-135.1025200400091
 10
87.76759709177338
 20
-135.1025200400091
 10
88.59958765146122
 20
-135.1025200400091
 10
88.59958765146122
 20
-135.1025200400091
 10
88.59958765146122
 20
-135.1025200400091
 10
88.59958765146122
 20
-135.2971679349257
 10
88.59958765146122
 20
-135.2971679349257
 10
88.59958765146122
 20
-135.2971679349257
 10
87.94191892332702
 20
-135.2971679349257
 10
87.94191892332702
 20
-135.2971679349257
 10
87.94191892332702
 20
-135.2971679349257
 10
87.87163897542793
 20
-135.7202256605144
 10
87.87163897542793
 20
-135.7202256605144
 10
87.93709578964767
 20
-135.6864637247589
 10
88.02529023407007
 20
-135.6461561075815
 10
88.15206974792727
 20
-135.6461561075815
 10
88.42319876261642
 20
-135.6461561075815
 10
88.67641328078228
 20
-135.8325357733335
 10
88.67641328078228
 20
-136.1456949529428
 10
88.67641328078228
 20
-136.4629882471343
 10
88.43697914455743
 20
-136.6975992496798
 10
88.11348467849247
 20
-136.6975992496798
 97
        0
 97
        0
 75
     2
 76
     1
 98
        0
  0
ENDBLK
  5
D2
330
CF
100
AcDbEntity
  8
0
100
AcDbBlockEnd
  0
ENDSEC
  0
SECTION
  2
ENTITIES
  0
POLYLINE
  5
41
330
1F
100
AcDbEntity
  8
_U+30EC_U+30A4_U+30E4_U+30FC 1
 62
   253
420
 11711154
370
     9
100
AcDb2dPolyline
 66
     1
 10
0.0
 20
0.0
 30
0.0
  0
VERTEX
  5
42
330
41
100
AcDbEntity
  8
_U+30EC_U+30A4_U+30E4_U+30FC 1
 62
   253
420
 11711154
370
     9
100
AcDbVertex
100
AcDb2dVertex
 10
89.69582910055765
 20
-126.4105435795085
 30
0.0
  0
VERTEX
  5
43
330
41
100
AcDbEntity
  8
_U+30EC_U+30A4_U+30E4_U+30FC 1
 62
   253
420
 11711154
370
     9
100
AcDbVertex
100
AcDb2dVertex
 10
84.77828339268136
 20
-126.4105435795085
 30
0.0
  0
VERTEX
  5
44
330
41
100
AcDbEntity
  8
_U+30EC_U+30A4_U+30E4_U+30FC 1
 62
   253
420
 11711154
370
     9
100
AcDbVertex
100
AcDb2dVertex
 10
84.77828339268136
 20
-123.4956466357927
 30
0.0
  0
VERTEX
  5
45
330
41
100
AcDbEntity
  8
_U+30EC_U+30A4_U+30E4_U+30FC 1
 62
   253
420
 11711154
370
     9
100
AcDbVertex
100
AcDb2dVertex
 10
89.69582910055765
 20
-123.4956466357927
 30
0.0
  0
VERTEX
  5
46
330
41
100
AcDbEntity
  8
_U+30EC_U+30A4_U+30E4_U+30FC 1
 62
   253
420
 11711154
370
     9
100
AcDbVertex
100
AcDb2dVertex
 10
89.69582910055765
 20
-126.4105435795085
 30
0.0
  0
SEQEND
  5
48
330
41
100
AcDbEntity
  8
_U+30EC_U+30A4_U+30E4_U+30FC 1
 62
   253
420
 11711154
370
     9
  0
HATCH
  5
47
330
1F
100
AcDbEntity
  8
_U+30EC_U+30A4_U+30E4_U+30FC 1
 62
   253
420
 11711154
100
AcDbHatch
 10
0.0
 20
0.0
 30
0.0
210
0.0
220
0.0
230
1.0
  2
SOLID
 70
     1
 71
     0
 91
        1
 92
        1
 93
        4
 72
     1
 10
89.69582910055765
 20
-126.4105435795085
 11
84.77828339268136
 21
-126.4105435795085
 72
     1
 10
84.77828339268136
 20
-126.4105435795085
 11
84.77828339268136
 21
-123.4956466357927
 72
     1
 10
84.77828339268136
 20
-123.4956466357927
 11
89.69582910055765
 21
-123.4956466357927
 72
     1
 10
89.69582910055765
 20
-123.4956466357927
 11
89.69582910055765
 21
-126.4105435795085
 97
        0
 75
     2
 76
     1
 98
        0
  0
POLYLINE
  5
49
330
1F
100
AcDbEntity
  8
_U+30EC_U+30A4_U+30E4_U+30FC 1
 62
   253
420
 11711154
370
     9
100
AcDb2dPolyline
 66
     1
 10
0.0
 20
0.0
 30
0.0
  0
VERTEX
  5
4A
330
49
100
AcDbEntity
  8
_U+30EC_U+30A4_U+30E4_U+30FC 1
 62
   253
420
 11711154
370
     9
100
AcDbVertex
100
AcDb2dVertex
 10
87.62565859781654
 20
-133.9597763553987
 30
0.0
  0
VERTEX
  5
4B
330
49
100
AcDbEntity
  8
_U+30EC_U+30A4_U+30E4_U+30FC 1
 62
   253
420
 11711154
370
     9
100
AcDbVertex
100
AcDb2dVertex
 10
86.82277167385544
 20
-133.9597763553987
 30
0.0
  0
VERTEX
  5
4C
330
49
100
AcDbEntity
  8
_U+30EC_U+30A4_U+30E4_U+30FC 1
 62
   253
420
 11711154
370
     9
100
AcDbVertex
100
AcDb2dVertex
 10
86.82277167385544
 20
-126.1773221906778
 30
0.0
  0
VERTEX
  5
4D
330
49
100
AcDbEntity
  8
_U+30EC_U+30A4_U+30E4_U+30FC 1
 62
   253
420
 11711154
370
     9
100
AcDbVertex
100
AcDb2dVertex
 10
87.62565859781654
 20
-126.1773221906778
 30
0.0
  0
VERTEX
  5
4E
330
49
100
AcDbEntity
  8
_U+30EC_U+30A4_U+30E4_U+30FC 1
 62
   253
420
 11711154
370
     9
100
AcDbVertex
100
AcDb2dVertex
 10
87.62565859781654
 20
-133.9597763553987
 30
0.0
  0
SEQEND
  5
50
330
49
100
AcDbEntity
  8
_U+30EC_U+30A4_U+30E4_U+30FC 1
 62
   253
420
 11711154
370
     9
  0
HATCH
  5
4F
330
1F
100
AcDbEntity
  8
_U+30EC_U+30A4_U+30E4_U+30FC 1
 62
   253
420
 11711154
100
AcDbHatch
 10
0.0
 20
0.0
 30
0.0
210
0.0
220
0.0
230
1.0
  2
SOLID
 70
     1
 71
     0
 91
        1
 92
        1
 93
        4
 72
     1
 10
87.62565859781654
 20
-133.9597763553987
 11
86.82277167385544
 21
-133.9597763553987
 72
     1
 10
86.82277167385544
 20
-133.9597763553987
 11
86.82277167385544
 21
-126.1773221906778
 72
     1
 10
86.82277167385544
 20
-126.1773221906778
 11
87.62565859781654
 21
-126.1773221906778
 72
     1
 10
87.62565859781654
 20
-126.1773221906778
 11
87.62565859781654
 21
-133.9597763553987
 97
        0
 75
     2
 76
     1
 98
        0
  0
POLYLINE
  5
51
330
1F
100
AcDbEntity
  8
_U+30EC_U+30A4_U+30E4_U+30FC 1
 62
   253
420
 11711154
370
     9
100
AcDb2dPolyline
 66
     1
 10
0.0
 20
0.0
 30
0.0
  0
VERTEX
  5
52
330
51
100
AcDbEntity
  8
_U+30EC_U+30A4_U+30E4_U+30FC 1
 62
   253
420
 11711154
370
     9
100
AcDbVertex
100
AcDb2dVertex
 10
99.70932023398109
 20
-133.9150088554101
 30
0.0
  0
VERTEX
  5
53
330
51
100
AcDbEntity
  8
_U+30EC_U+30A4_U+30E4_U+30FC 1
 62
   253
420
 11711154
370
     9
100
AcDbVertex
100
AcDb2dVertex
 10
74.76168781489267
 20
-133.9150088554101
 30
0.0
  0
VERTEX
  5
54
330
51
100
AcDbEntity
  8
_U+30EC_U+30A4_U+30E4_U+30FC 1
 62
   253
420
 11711154
370
     9
100
AcDbVertex
100
AcDb2dVertex
 10
74.76168781489267
 20
-132.9338280223219
 30
0.0
  0
VERTEX
  5
55
330
51
100
AcDbEntity
  8
_U+30EC_U+30A4_U+30E4_U+30FC 1
 62
   253
420
 11711154
370
     9
100
AcDbVertex
100
AcDb2dVertex
 10
99.70932023398109
 20
-132.9338280223219
 30
0.0
  0
VERTEX
  5
56
330
51
100
AcDbEntity
  8
_U+30EC_U+30A4_U+30E4_U+30FC 1
 62
   253
420
 11711154
370
     9
100
AcDbVertex
100
AcDb2dVertex
 10
99.70932023398109
 20
-133.9150088554101
 30
0.0
  0
SEQEND
  5
58
330
51
100
AcDbEntity
  8
_U+30EC_U+30A4_U+30E4_U+30FC 1
 62
   253
420
 11711154
370
     9
  0
HATCH
  5
57
330
1F
100
AcDbEntity
  8
_U+30EC_U+30A4_U+30E4_U+30FC 1
 62
   253
420
 11711154
100
AcDbHatch
 10
0.0
 20
0.0
 30
0.0
210
0.0
220
0.0
230
1.0
  2
SOLID
 70
     1
 71
     0
 91
        1
 92
        1
 93
        4
 72
     1
 10
99.70932023398109
 20
-133.9150088554101
 11
74.76168781489267
 21
-133.9150088554101
 72
     1
 10
74.76168781489267
 20
-133.9150088554101
 11
74.76168781489267
 21
-132.9338280223219
 72
     1
 10
74.76168781489267
 20
-132.9338280223219
 11
99.70932023398109
 21
-132.9338280223219
 72
     1
 10
99.70932023398109
 20
-132.9338280223219
 11
99.70932023398109
 21
-133.9150088554101
 97
        0
 75
     2
 76
     1
 98
        0
  0
SPLINE
  5
59
330
1F
100
AcDbEntity
  8
_U+30EC_U+30A4_U+30E4_U+30FC 1
 62
     7
420
 16777215
370
     9
100
AcDbSpline
210
0.0
220
0.0
230
1.0
 70
    11
 71
     3
 72
    17
 73
    13
 74
     0
 42
0.0000000001
 43
0.0000000001
 12
1.0
 22
0.0
 32
0.0
 13
1.0
 23
0.0
 33
0.0
 40
0.0
 40
0.0
 40
0.0
 40
0.0
 40
1.0
 40
1.0
 40
1.0
 40
2.0
 40
2.0
 40
2.0
 40
3.0
 40
3.0
 40
3.0
 40
4.0
 40
4.0
 40
4.0
 40
4.0
 10
102.4413018309491
 20
-126.4618727461622
 30
0.0
 10
102.4413018309491
 20
-126.4067688572872
 30
0.0
 10
102.3964990543143
 20
-126.3619660795205
 30
0.0
 10
102.3413951668313
 20
-126.3619660795205
 30
0.0
 10
102.2862560015713
 20
-126.3619660795205
 30
0.0
 10
102.2414885027134
 20
-126.4067688572872
 30
0.0
 10
102.2414885027134
 20
-126.4618727461622
 30
0.0
 10
102.2414885027134
 20
-126.5176821905929
 30
0.0
 10
102.2862560015713
 20
-126.5624849683593
 30
0.0
 10
102.3413951668313
 20
-126.5624849683593
 30
0.0
 10
102.3964990543143
 20
-126.5624849683593
 30
0.0
 10
102.4413018309491
 20
-126.5176821905929
 30
0.0
 10
102.4413018309491
 20
-126.4618727461622
 30
0.0
  0
POLYLINE
  5
5A
330
1F
100
AcDbEntity
  8
_U+30EC_U+30A4_U+30E4_U+30FC 1
 62
     7
420
 16777215
370
     9
100
AcDb2dPolyline
 66
     1
 10
0.0
 20
0.0
 30
0.0
  0
VERTEX
  5
5B
330
5A
100
AcDbEntity
  8
_U+30EC_U+30A4_U+30E4_U+30FC 1
 62
     7
420
 16777215
370
     9
100
AcDbVertex
100
AcDb2dVertex
 10
102.3413951668313
 20
-126.3619660795205
 30
0.0
  0
VERTEX
  5
5C
330
5A
100
AcDbEntity
  8
_U+30EC_U+30A4_U+30E4_U+30FC 1
 62
     7
420
 16777215
370
     9
100
AcDbVertex
100
AcDb2dVertex
 10
102.3413951668313
 20
-123.3612735802706
 30
0.0
  0
SEQEND
  5
5D
330
5A
100
AcDbEntity
  8
_U+30EC_U+30A4_U+30E4_U+30FC 1
 62
     7
420
 16777215
370
     9
  0
POLYLINE
  5
5E
330
1F
100
AcDbEntity
  8
_U+30EC_U+30A4_U+30E4_U+30FC 1
 62
     7
420
 16777215
370
     9
100
AcDb2dPolyline
 66
     1
 10
0.0
 20
0.0
 30
0.0
  0
VERTEX
  5
5F
330
5E
100
AcDbEntity
  8
_U+30EC_U+30A4_U+30E4_U+30FC 1
 62
     7
420
 16777215
370
     9
100
AcDbVertex
100
AcDb2dVertex
 10
91.24078406114256
 20
-126.4618727461622
 30
0.0
  0
VERTEX
  5
60
330
5E
100
AcDbEntity
  8
_U+30EC_U+30A4_U+30E4_U+30FC 1
 62
     7
420
 16777215
370
     9
100
AcDbVertex
100
AcDb2dVertex
 10
103.0552083075695
 20
-126.4618727461622
 30
0.0
  0
SEQEND
  5
61
330
5E
100
AcDbEntity
  8
_U+30EC_U+30A4_U+30E4_U+30FC 1
 62
     7
420
 16777215
370
     9
  0
SPLINE
  5
62
330
1F
100
AcDbEntity
  8
_U+30EC_U+30A4_U+30E4_U+30FC 1
 62
     7
420
 16777215
370
     9
100
AcDbSpline
210
0.0
220
0.0
230
1.0
 70
    11
 71
     3
 72
    17
 73
    13
 74
     0
 42
0.0000000001
 43
0.0000000001
 12
1.0
 22
0.0
 32
0.0
 13
1.0
 23
0.0
 33
0.0
 40
0.0
 40
0.0
 40
0.0
 40
0.0
 40
1.0
 40
1.0
 40
1.0
 40
2.0
 40
2.0
 40
2.0
 40
3.0
 40
3.0
 40
3.0
 40
4.0
 40
4.0
 40
4.0
 40
4.0
 10
102.4413018309491
 20
-123.4612155246901
 30
0.0
 10
102.4413018309491
 20
-123.4060763580374
 30
0.0
 10
102.3964990543143
 20
-123.3612735802706
 30
0.0
 10
102.3413951668313
 20
-123.3612735802706
 30
0.0
 10
102.2862560015713
 20
-123.3612735802706
 30
0.0
 10
102.2414885027134
 20
-123.4060763580374
 30
0.0
 10
102.2414885027134
 20
-123.4612155246901
 30
0.0
 10
102.2414885027134
 20
-123.5170249691209
 30
0.0
 10
102.2862560015713
 20
-123.5617924691094
 30
0.0
 10
102.3413951668313
 20
-123.5617924691094
 30
0.0
 10
102.3964990543143
 20
-123.5617924691094
 30
0.0
 10
102.4413018309491
 20
-123.5170249691209
 30
0.0
 10
102.4413018309491
 20
-123.4612155246901
 30
0.0
  0
POLYLINE
  5
63
330
1F
100
AcDbEntity
  8
_U+30EC_U+30A4_U+30E4_U+30FC 1
 62
     7
420
 16777215
370
     9
100
AcDb2dPolyline
 66
     1
 10
0.0
 20
0.0
 30
0.0
  0
VERTEX
  5
64
330
63
100
AcDbEntity
  8
_U+30EC_U+30A4_U+30E4_U+30FC 1
 62
     7
420
 16777215
370
     9
100
AcDbVertex
100
AcDb2dVertex
 10
91.24078406114256
 20
-123.4612155246901
 30
0.0
  0
VERTEX
  5
65
330
63
100
AcDbEntity
  8
_U+30EC_U+30A4_U+30E4_U+30FC 1
 62
     7
420
 16777215
370
     9
100
AcDbVertex
100
AcDb2dVertex
 10
106.756620609745
 20
-123.4612155246901
 30
0.0
  0
SEQEND
  5
66
330
63
100
AcDbEntity
  8
_U+30EC_U+30A4_U+30E4_U+30FC 1
 62
     7
420
 16777215
370
     9
  0
INSERT
  5
68
330
1F
100
AcDbEntity
  8
_U+30EC_U+30A4_U+30E4_U+30FC 1
100
AcDbBlockReference
  2
block 2
 10
0.0
 20
0.0
 30
0.0
  0
SPLINE
  5
6D
330
1F
100
AcDbEntity
  8
_U+30EC_U+30A4_U+30E4_U+30FC 1
 62
     7
420
 16777215
370
     9
100
AcDbSpline
210
0.0
220
0.0
230
1.0
 70
    11
 71
     3
 72
    17
 73
    13
 74
     0
 42
0.0000000001
 43
0.0000000001
 12
1.0
 22
0.0
 32
0.0
 13
1.0
 23
0.0
 33
0.0
 40
0.0
 40
0.0
 40
0.0
 40
0.0
 40
1.0
 40
1.0
 40
1.0
 40
2.0
 40
2.0
 40
2.0
 40
3.0
 40
3.0
 40
3.0
 40
4.0
 40
4.0
 40
4.0
 40
4.0
 10
102.4413018309491
 20
-132.9338280223219
 30
0.0
 10
102.4413018309491
 20
-132.878724133447
 30
0.0
 10
102.3964990543143
 20
-132.8339213556802
 30
0.0
 10
102.3413951668313
 20
-132.8339213556802
 30
0.0
 10
102.2862560015713
 20
-132.8339213556802
 30
0.0
 10
102.2414885027134
 20
-132.878724133447
 30
0.0
 10
102.2414885027134
 20
-132.9338280223219
 30
0.0
 10
102.2414885027134
 20
-132.9896374667523
 30
0.0
 10
102.2862560015713
 20
-133.0344402445191
 30
0.0
 10
102.3413951668313
 20
-133.0344402445191
 30
0.0
 10
102.3964990543143
 20
-133.0344402445191
 30
0.0
 10
102.4413018309491
 20
-132.9896374667523
 30
0.0
 10
102.4413018309491
 20
-132.9338280223219
 30
0.0
  0
POLYLINE
  5
6E
330
1F
100
AcDbEntity
  8
_U+30EC_U+30A4_U+30E4_U+30FC 1
 62
     7
420
 16777215
370
     9
100
AcDb2dPolyline
 66
     1
 10
0.0
 20
0.0
 30
0.0
  0
VERTEX
  5
6F
330
6E
100
AcDbEntity
  8
_U+30EC_U+30A4_U+30E4_U+30FC 1
 62
     7
420
 16777215
370
     9
100
AcDbVertex
100
AcDb2dVertex
 10
102.3413951668313
 20
-132.8339213556802
 30
0.0
  0
VERTEX
  5
70
330
6E
100
AcDbEntity
  8
_U+30EC_U+30A4_U+30E4_U+30FC 1
 62
     7
420
 16777215
370
     9
100
AcDbVertex
100
AcDb2dVertex
 10
102.3413951668313
 20
-126.6258791350104
 30
0.0
  0
SEQEND
  5
71
330
6E
100
AcDbEntity
  8
_U+30EC_U+30A4_U+30E4_U+30FC 1
 62
     7
420
 16777215
370
     9
  0
POLYLINE
  5
72
330
1F
100
AcDbEntity
  8
_U+30EC_U+30A4_U+30E4_U+30FC 1
 62
     7
420
 16777215
370
     9
100
AcDb2dPolyline
 66
     1
 10
0.0
 20
0.0
 30
0.0
  0
VERTEX
  5
73
330
72
100
AcDbEntity
  8
_U+30EC_U+30A4_U+30E4_U+30FC 1
 62
     7
420
 16777215
370
     9
100
AcDbVertex
100
AcDb2dVertex
 10
100.8813538151911
 20
-132.9338280223219
 30
0.0
  0
VERTEX
  5
74
330
72
100
AcDbEntity
  8
_U+30EC_U+30A4_U+30E4_U+30FC 1
 62
     7
420
 16777215
370
     9
100
AcDbVertex
100
AcDb2dVertex
 10
106.6677206120131
 20
-132.9338280223219
 30
0.0
  0
SEQEND
  5
75
330
72
100
AcDbEntity
  8
_U+30EC_U+30A4_U+30E4_U+30FC 1
 62
     7
420
 16777215
370
     9
  0
INSERT
  5
77
330
1F
100
AcDbEntity
  8
_U+30EC_U+30A4_U+30E4_U+30FC 1
100
AcDbBlockReference
  2
block 3
 10
0.0
 20
0.0
 30
0.0
  0
SPLINE
  5
87
330
1F
100
AcDbEntity
  8
_U+30EC_U+30A4_U+30E4_U+30FC 1
 62
     7
420
 16777215
370
     9
100
AcDbSpline
210
0.0
220
0.0
230
1.0
 70
    11
 71
     3
 72
    17
 73
    13
 74
     0
 42
0.0000000001
 43
0.0000000001
 12
1.0
 22
0.0
 32
0.0
 13
1.0
 23
0.0
 33
0.0
 40
0.0
 40
0.0
 40
0.0
 40
0.0
 40
1.0
 40
1.0
 40
1.0
 40
2.0
 40
2.0
 40
2.0
 40
3.0
 40
3.0
 40
3.0
 40
4.0
 40
4.0
 40
4.0
 40
4.0
 10
105.6865777513564
 20
-132.9041946889963
 30
0.0
 10
105.6865777513564
 20
-132.8490908001208
 30
0.0
 10
105.6417749735897
 20
-132.8042880223547
 30
0.0
 10
105.5866684173708
 20
-132.8042880223547
 30
0.0
 10
105.5315292521108
 20
-132.8042880223547
 30
0.0
 10
105.4867617532529
 20
-132.8490908001208
 30
0.0
 10
105.4867617532529
 20
-132.9041946889963
 30
0.0
 10
105.4867617532529
 20
-132.9600041334268
 30
0.0
 10
105.5315292521108
 20
-133.0048069111935
 30
0.0
 10
105.5866684173708
 20
-133.0048069111935
 30
0.0
 10
105.6417749735897
 20
-133.0048069111935
 30
0.0
 10
105.6865777513564
 20
-132.9600041334268
 30
0.0
 10
105.6865777513564
 20
-132.9041946889963
 30
0.0
  0
POLYLINE
  5
88
330
1F
100
AcDbEntity
  8
_U+30EC_U+30A4_U+30E4_U+30FC 1
 62
     7
420
 16777215
370
     9
100
AcDb2dPolyline
 66
     1
 10
0.0
 20
0.0
 30
0.0
  0
VERTEX
  5
89
330
88
100
AcDbEntity
  8
_U+30EC_U+30A4_U+30E4_U+30FC 1
 62
     7
420
 16777215
370
     9
100
AcDbVertex
100
AcDb2dVertex
 10
105.5866684173708
 20
-132.8042880223547
 30
0.0
  0
VERTEX
  5
8A
330
88
100
AcDbEntity
  8
_U+30EC_U+30A4_U+30E4_U+30FC 1
 62
     7
420
 16777215
370
     9
100
AcDbVertex
100
AcDb2dVertex
 10
105.5866684173708
 20
-123.5955533024343
 30
0.0
  0
SEQEND
  5
8B
330
88
100
AcDbEntity
  8
_U+30EC_U+30A4_U+30E4_U+30FC 1
 62
     7
420
 16777215
370
     9
  0
SPLINE
  5
8C
330
1F
100
AcDbEntity
  8
_U+30EC_U+30A4_U+30E4_U+30FC 1
 62
     7
420
 16777215
370
     9
100
AcDbSpline
210
0.0
220
0.0
230
1.0
 70
    11
 71
     3
 72
    17
 73
    13
 74
     0
 42
0.0000000001
 43
0.0000000001
 12
1.0
 22
0.0
 32
0.0
 13
1.0
 23
0.0
 33
0.0
 40
0.0
 40
0.0
 40
0.0
 40
0.0
 40
1.0
 40
1.0
 40
1.0
 40
2.0
 40
2.0
 40
2.0
 40
3.0
 40
3.0
 40
3.0
 40
4.0
 40
4.0
 40
4.0
 40
4.0
 10
105.6865777513564
 20
-123.4605099691349
 30
0.0
 10
105.6865777513564
 20
-123.4053708024819
 30
0.0
 10
105.6417749735897
 20
-123.3606033024933
 30
0.0
 10
105.5866684173708
 20
-123.3606033024933
 30
0.0
 10
105.5315292521108
 20
-123.3606033024933
 30
0.0
 10
105.4867617532529
 20
-123.4053708024819
 30
0.0
 10
105.4867617532529
 20
-123.4605099691349
 30
0.0
 10
105.4867617532529
 20
-123.5163194135654
 30
0.0
 10
105.5315292521108
 20
-123.5611221913321
 30
0.0
 10
105.5866684173708
 20
-123.5611221913321
 30
0.0
 10
105.6417749735897
 20
-123.5611221913321
 30
0.0
 10
105.6865777513564
 20
-123.5163194135654
 30
0.0
 10
105.6865777513564
 20
-123.4605099691349
 30
0.0
  0
SPLINE
  5
8D
330
1F
100
AcDbEntity
  8
_U+30EC_U+30A4_U+30E4_U+30FC 1
 62
     7
420
 16777215
370
     9
100
AcDbSpline
210
0.0
220
0.0
230
1.0
 70
    11
 71
     3
 72
    17
 73
    13
 74
     0
 42
0.0000000001
 43
0.0000000001
 12
1.0
 22
0.0
 32
0.0
 13
1.0
 23
0.0
 33
0.0
 40
0.0
 40
0.0
 40
0.0
 40
0.0
 40
1.0
 40
1.0
 40
1.0
 40
2.0
 40
2.0
 40
2.0
 40
3.0
 40
3.0
 40
3.0
 40
4.0
 40
4.0
 40
4.0
 40
4.0
 10
105.6865777513564
 20
-133.9728644109514
 30
0.0
 10
105.6865777513564
 20
-133.9177605220759
 30
0.0
 10
105.6417749735897
 20
-133.8729577443098
 30
0.0
 10
105.5866684173708
 20
-133.8729577443098
 30
0.0
 10
105.5315292521108
 20
-133.8729577443098
 30
0.0
 10
105.4867617532529
 20
-133.9177605220759
 30
0.0
 10
105.4867617532529
 20
-133.9728644109514
 30
0.0
 10
105.4867617532529
 20
-134.0286738553819
 30
0.0
 10
105.5315292521108
 20
-134.0734766331486
 30
0.0
 10
105.5866684173708
 20
-134.0734766331486
 30
0.0
 10
105.6417749735897
 20
-134.0734766331486
 30
0.0
 10
105.6865777513564
 20
-134.0286738553819
 30
0.0
 10
105.6865777513564
 20
-133.9728644109514
 30
0.0
  0
SPLINE
  5
8E
330
1F
100
AcDbEntity
  8
_U+30EC_U+30A4_U+30E4_U+30FC 1
 62
     7
420
 16777215
370
     9
100
AcDbSpline
210
0.0
220
0.0
230
1.0
 70
    11
 71
     3
 72
    17
 73
    13
 74
     0
 42
0.0000000001
 43
0.0000000001
 12
1.0
 22
0.0
 32
0.0
 13
1.0
 23
0.0
 33
0.0
 40
0.0
 40
0.0
 40
0.0
 40
0.0
 40
1.0
 40
1.0
 40
1.0
 40
2.0
 40
2.0
 40
2.0
 40
3.0
 40
3.0
 40
3.0
 40
4.0
 40
4.0
 40
4.0
 40
4.0
 10
99.81441273129995
 20
-137.2401863545788
 30
0.0
 10
99.81441273129995
 20
-137.1850824657038
 30
0.0
 10
99.7696099546652
 20
-137.1402796879371
 30
0.0
 10
99.71450606718213
 20
-137.1402796879371
 30
0.0
 10
99.65936941952954
 20
-137.1402796879371
 30
0.0
 10
99.61459940306429
 20
-137.1850824657038
 30
0.0
 10
99.61459940306429
 20
-137.2401863545788
 30
0.0
 10
99.61459940306429
 20
-137.2959957990092
 30
0.0
 10
99.65936941952954
 20
-137.3407985767759
 30
0.0
 10
99.71450606718213
 20
-137.3407985767759
 30
0.0
 10
99.7696099546652
 20
-137.3407985767759
 30
0.0
 10
99.81441273129995
 20
-137.2959957990092
 30
0.0
 10
99.81441273129995
 20
-137.2401863545788
 30
0.0
  0
POLYLINE
  5
8F
330
1F
100
AcDbEntity
  8
_U+30EC_U+30A4_U+30E4_U+30FC 1
 62
     7
420
 16777215
370
     9
100
AcDb2dPolyline
 66
     1
 10
0.0
 20
0.0
 30
0.0
  0
VERTEX
  5
90
330
8F
100
AcDbEntity
  8
_U+30EC_U+30A4_U+30E4_U+30FC 1
 62
     7
420
 16777215
370
     9
100
AcDbVertex
100
AcDb2dVertex
 10
105.5866684173708
 20
-133.8729577443098
 30
0.0
  0
VERTEX
  5
91
330
8F
100
AcDbEntity
  8
_U+30EC_U+30A4_U+30E4_U+30FC 1
 62
     7
420
 16777215
370
     9
100
AcDbVertex
100
AcDb2dVertex
 10
105.5866684173708
 20
-132.872868022337
 30
0.0
  0
SEQEND
  5
92
330
8F
100
AcDbEntity
  8
_U+30EC_U+30A4_U+30E4_U+30FC 1
 62
     7
420
 16777215
370
     9
  0
POLYLINE
  5
93
330
1F
100
AcDbEntity
  8
_U+30EC_U+30A4_U+30E4_U+30FC 1
 62
     7
420
 16777215
370
     9
100
AcDb2dPolyline
 66
     1
 10
0.0
 20
0.0
 30
0.0
  0
VERTEX
  5
94
330
93
100
AcDbEntity
  8
_U+30EC_U+30A4_U+30E4_U+30FC 1
 62
     7
420
 16777215
370
     9
100
AcDbVertex
100
AcDb2dVertex
 10
104.1266270657306
 20
-133.9728644109514
 30
0.0
  0
VERTEX
  5
95
330
93
100
AcDbEntity
  8
_U+30EC_U+30A4_U+30E4_U+30FC 1
 62
     7
420
 16777215
370
     9
100
AcDbVertex
100
AcDb2dVertex
 10
106.5864406140867
 20
-133.9728644109514
 30
0.0
  0
SEQEND
  5
96
330
93
100
AcDbEntity
  8
_U+30EC_U+30A4_U+30E4_U+30FC 1
 62
     7
420
 16777215
370
     9
  0
INSERT
  5
98
330
1F
100
AcDbEntity
  8
_U+30EC_U+30A4_U+30E4_U+30FC 1
100
AcDbBlockReference
  2
block 4
 10
0.0
 20
0.0
 30
0.0
  0
INSERT
  5
9E
330
1F
100
AcDbEntity
  8
_U+30EC_U+30A4_U+30E4_U+30FC 1
100
AcDbBlockReference
  2
block 5
 10
0.0
 20
0.0
 30
0.0
  0
SPLINE
  5
AE
330
1F
100
AcDbEntity
  8
_U+30EC_U+30A4_U+30E4_U+30FC 1
 62
     7
420
 16777215
370
     9
100
AcDbSpline
210
0.0
220
0.0
230
1.0
 70
    11
 71
     3
 72
    17
 73
    13
 74
     0
 42
0.0000000001
 43
0.0000000001
 12
1.0
 22
0.0
 32
0.0
 13
1.0
 23
0.0
 33
0.0
 40
0.0
 40
0.0
 40
0.0
 40
0.0
 40
1.0
 40
1.0
 40
1.0
 40
2.0
 40
2.0
 40
2.0
 40
3.0
 40
3.0
 40
3.0
 40
4.0
 40
4.0
 40
4.0
 40
4.0
 10
84.82686089144204
 20
-121.5216080251751
 30
0.0
 10
84.82686089144204
 20
-121.4665041363002
 30
0.0
 10
84.78205811480727
 20
-121.4217013585335
 30
0.0
 10
84.7269542273242
 20
-121.4217013585335
 30
0.0
 10
84.67181506206425
 20
-121.4217013585335
 30
0.0
 10
84.62704756320638
 20
-121.4665041363002
 30
0.0
 10
84.62704756320638
 20
-121.5216080251751
 30
0.0
 10
84.62704756320638
 20
-121.5774174696055
 30
0.0
 10
84.67181506206425
 20
-121.6222202473723
 30
0.0
 10
84.7269542273242
 20
-121.6222202473723
 30
0.0
 10
84.78205811480727
 20
-121.6222202473723
 30
0.0
 10
84.82686089144204
 20
-121.5774174696055
 30
0.0
 10
84.82686089144204
 20
-121.5216080251751
 30
0.0
  0
SPLINE
  5
AF
330
1F
100
AcDbEntity
  8
_U+30EC_U+30A4_U+30E4_U+30FC 1
 62
     7
420
 16777215
370
     9
100
AcDbSpline
210
0.0
220
0.0
230
1.0
 70
    11
 71
     3
 72
    17
 73
    13
 74
     0
 42
0.0000000001
 43
0.0000000001
 12
1.0
 22
0.0
 32
0.0
 13
1.0
 23
0.0
 33
0.0
 40
0.0
 40
0.0
 40
0.0
 40
0.0
 40
1.0
 40
1.0
 40
1.0
 40
2.0
 40
2.0
 40
2.0
 40
3.0
 40
3.0
 40
3.0
 40
4.0
 40
4.0
 40
4.0
 40
4.0
 10
89.84103243018653
 20
-121.5236894140635
 30
0.0
 10
89.84103243018653
 20
-121.4685502474108
 30
0.0
 10
89.79622965355178
 20
-121.4237827474219
 30
0.0
 10
89.74112576606869
 20
-121.4237827474219
 30
0.0
 10
89.68598886646743
 20
-121.4237827474219
 30
0.0
 10
89.64121910195087
 20
-121.4685502474108
 30
0.0
 10
89.64121910195087
 20
-121.5236894140635
 30
0.0
 10
89.64121910195087
 20
-121.5794988584939
 30
0.0
 10
89.68598886646743
 20
-121.6242663584828
 30
0.0
 10
89.74112576606869
 20
-121.6242663584828
 30
0.0
 10
89.79622965355178
 20
-121.6242663584828
 30
0.0
 10
89.84103243018653
 20
-121.5794988584939
 30
0.0
 10
89.84103243018653
 20
-121.5236894140635
 30
0.0
  0
POLYLINE
  5
B0
330
1F
100
AcDbEntity
  8
_U+30EC_U+30A4_U+30E4_U+30FC 1
 62
     7
420
 16777215
370
     9
100
AcDb2dPolyline
 66
     1
 10
0.0
 20
0.0
 30
0.0
  0
VERTEX
  5
B1
330
B0
100
AcDbEntity
  8
_U+30EC_U+30A4_U+30E4_U+30FC 1
 62
     7
420
 16777215
370
     9
100
AcDbVertex
100
AcDb2dVertex
 10
84.7269542273242
 20
-121.5216080251751
 30
0.0
  0
VERTEX
  5
B2
330
B0
100
AcDbEntity
  8
_U+30EC_U+30A4_U+30E4_U+30FC 1
 62
     7
420
 16777215
370
     9
100
AcDbVertex
100
AcDb2dVertex
 10
89.84103243018653
 20
-121.5216080251751
 30
0.0
  0
SEQEND
  5
B3
330
B0
100
AcDbEntity
  8
_U+30EC_U+30A4_U+30E4_U+30FC 1
 62
     7
420
 16777215
370
     9
  0
POLYLINE
  5
B4
330
1F
100
AcDbEntity
  8
_U+30EC_U+30A4_U+30E4_U+30FC 1
 62
     7
420
 16777215
370
     9
100
AcDb2dPolyline
 66
     1
 10
0.0
 20
0.0
 30
0.0
  0
VERTEX
  5
B5
330
B4
100
AcDbEntity
  8
_U+30EC_U+30A4_U+30E4_U+30FC 1
 62
     7
420
 16777215
370
     9
100
AcDbVertex
100
AcDb2dVertex
 10
84.7269542273242
 20
-120.0615666366514
 30
0.0
  0
VERTEX
  5
B6
330
B4
100
AcDbEntity
  8
_U+30EC_U+30A4_U+30E4_U+30FC 1
 62
     7
420
 16777215
370
     9
100
AcDbVertex
100
AcDb2dVertex
 10
84.7269542273242
 20
-122.522050524925
 30
0.0
  0
SEQEND
  5
B7
330
B4
100
AcDbEntity
  8
_U+30EC_U+30A4_U+30E4_U+30FC 1
 62
     7
420
 16777215
370
     9
  0
POLYLINE
  5
B8
330
1F
100
AcDbEntity
  8
_U+30EC_U+30A4_U+30E4_U+30FC 1
 62
     7
420
 16777215
370
     9
100
AcDb2dPolyline
 66
     1
 10
0.0
 20
0.0
 30
0.0
  0
VERTEX
  5
B9
330
B8
100
AcDbEntity
  8
_U+30EC_U+30A4_U+30E4_U+30FC 1
 62
     7
420
 16777215
370
     9
100
AcDbVertex
100
AcDb2dVertex
 10
89.74042021053114
 20
-120.0615666366514
 30
0.0
  0
VERTEX
  5
BA
330
B8
100
AcDbEntity
  8
_U+30EC_U+30A4_U+30E4_U+30FC 1
 62
     7
420
 16777215
370
     9
100
AcDbVertex
100
AcDb2dVertex
 10
89.74042021053114
 20
-122.522050524925
 30
0.0
  0
SEQEND
  5
BB
330
B8
100
AcDbEntity
  8
_U+30EC_U+30A4_U+30E4_U+30FC 1
 62
     7
420
 16777215
370
     9
  0
INSERT
  5
BD
330
1F
100
AcDbEntity
  8
_U+30EC_U+30A4_U+30E4_U+30FC 1
100
AcDbBlockReference
  2
block 6
 10
0.0
 20
0.0
 30
0.0
  0
SPLINE
  5
C2
330
1F
100
AcDbEntity
  8
_U+30EC_U+30A4_U+30E4_U+30FC 1
 62
     7
420
 16777215
370
     9
100
AcDbSpline
210
0.0
220
0.0
230
1.0
 70
    11
 71
     3
 72
    17
 73
    13
 74
     0
 42
0.0000000001
 43
0.0000000001
 12
1.0
 22
0.0
 32
0.0
 13
1.0
 23
0.0
 33
0.0
 40
0.0
 40
0.0
 40
0.0
 40
0.0
 40
1.0
 40
1.0
 40
1.0
 40
2.0
 40
2.0
 40
2.0
 40
3.0
 40
3.0
 40
3.0
 40
4.0
 40
4.0
 40
4.0
 40
4.0
 10
74.83506559079842
 20
-137.2429732990227
 30
0.0
 10
74.83506559079842
 20
-137.1878341323696
 30
0.0
 10
74.79026281416365
 20
-137.143066632381
 30
0.0
 10
74.73515892668058
 20
-137.143066632381
 30
0.0
 10
74.68001976142064
 20
-137.143066632381
 30
0.0
 10
74.63525226256274
 20
-137.1878341323696
 30
0.0
 10
74.63525226256274
 20
-137.2429732990227
 30
0.0
 10
74.63525226256274
 20
-137.2987827434531
 30
0.0
 10
74.68001976142064
 20
-137.3435502434417
 30
0.0
 10
74.73515892668058
 20
-137.3435502434417
 30
0.0
 10
74.79026281416365
 20
-137.3435502434417
 30
0.0
 10
74.83506559079842
 20
-137.2987827434531
 30
0.0
 10
74.83506559079842
 20
-137.2429732990227
 30
0.0
  0
POLYLINE
  5
C3
330
1F
100
AcDbEntity
  8
_U+30EC_U+30A4_U+30E4_U+30FC 1
 62
     7
420
 16777215
370
     9
100
AcDb2dPolyline
 66
     1
 10
0.0
 20
0.0
 30
0.0
  0
VERTEX
  5
C4
330
C3
100
AcDbEntity
  8
_U+30EC_U+30A4_U+30E4_U+30FC 1
 62
     7
420
 16777215
370
     9
100
AcDbVertex
100
AcDb2dVertex
 10
74.73515892668058
 20
-137.2429732990227
 30
0.0
  0
VERTEX
  5
C5
330
C3
100
AcDbEntity
  8
_U+30EC_U+30A4_U+30E4_U+30FC 1
 62
     7
420
 16777215
370
     9
100
AcDbVertex
100
AcDb2dVertex
 10
99.81405995353118
 20
-137.2429732990227
 30
0.0
  0
SEQEND
  5
C6
330
C3
100
AcDbEntity
  8
_U+30EC_U+30A4_U+30E4_U+30FC 1
 62
     7
420
 16777215
370
     9
  0
POLYLINE
  5
C7
330
1F
100
AcDbEntity
  8
_U+30EC_U+30A4_U+30E4_U+30FC 1
 62
     7
420
 16777215
370
     9
100
AcDb2dPolyline
 66
     1
 10
0.0
 20
0.0
 30
0.0
  0
VERTEX
  5
C8
330
C7
100
AcDbEntity
  8
_U+30EC_U+30A4_U+30E4_U+30FC 1
 62
     7
420
 16777215
370
     9
100
AcDbVertex
100
AcDb2dVertex
 10
74.73515892668058
 20
-135.782931910499
 30
0.0
  0
VERTEX
  5
C9
330
C7
100
AcDbEntity
  8
_U+30EC_U+30A4_U+30E4_U+30FC 1
 62
     7
420
 16777215
370
     9
100
AcDbVertex
100
AcDb2dVertex
 10
74.73515892668058
 20
-138.2434157987726
 30
0.0
  0
SEQEND
  5
CA
330
C7
100
AcDbEntity
  8
_U+30EC_U+30A4_U+30E4_U+30FC 1
 62
     7
420
 16777215
370
     9
  0
POLYLINE
  5
CB
330
1F
100
AcDbEntity
  8
_U+30EC_U+30A4_U+30E4_U+30FC 1
 62
     7
420
 16777215
370
     9
100
AcDb2dPolyline
 66
     1
 10
0.0
 20
0.0
 30
0.0
  0
VERTEX
  5
CC
330
CB
100
AcDbEntity
  8
_U+30EC_U+30A4_U+30E4_U+30FC 1
 62
     7
420
 16777215
370
     9
100
AcDbVertex
100
AcDb2dVertex
 10
99.7134477338758
 20
-135.782931910499
 30
0.0
  0
VERTEX
  5
CD
330
CB
100
AcDbEntity
  8
_U+30EC_U+30A4_U+30E4_U+30FC 1
 62
     7
420
 16777215
370
     9
100
AcDbVertex
100
AcDb2dVertex
 10
99.7134477338758
 20
-138.2434157987726
 30
0.0
  0
SEQEND
  5
CE
330
CB
100
AcDbEntity
  8
_U+30EC_U+30A4_U+30E4_U+30FC 1
 62
     7
420
 16777215
370
     9
  0
INSERT
  5
D0
330
1F
100
AcDbEntity
  8
_U+30EC_U+30A4_U+30E4_U+30FC 1
100
AcDbBlockReference
  2
block 7
 10
0.0
 20
0.0
 30
0.0
  0
POLYLINE
  5
D7
330
1F
100
AcDbEntity
  8
_U+30EC_U+30A4_U+30E4_U+30FC 1
 62
     7
420
 16777215
370
    25
100
AcDb2dPolyline
 66
     1
 10
0.0
 20
0.0
 30
0.0
  0
VERTEX
  5
D8
330
D7
100
AcDbEntity
  8
_U+30EC_U+30A4_U+30E4_U+30FC 1
 62
     7
420
 16777215
370
    25
100
AcDbVertex
100
AcDb2dVertex
 10
86.7414563981522
 20
-132.9748208000896
 30
0.0
  0
VERTEX
  5
D9
330
D7
100
AcDbEntity
  8
_U+30EC_U+30A4_U+30E4_U+30FC 1
 62
     7
420
 16777215
370
    25
100
AcDbVertex
100
AcDb2dVertex
 10
86.7414563981522
 20
-126.4742905239369
 30
0.0
  0
VERTEX
  5
DA
330
D7
100
AcDbEntity
  8
_U+30EC_U+30A4_U+30E4_U+30FC 1
 62
     7
420
 16777215
370
    25
100
AcDbVertex
100
AcDb2dVertex
 10
84.74159450472848
 20
-126.4742905239369
 30
0.0
  0
VERTEX
  5
DB
330
D7
100
AcDbEntity
  8
_U+30EC_U+30A4_U+30E4_U+30FC 1
 62
     7
420
 16777215
370
    25
100
AcDbVertex
100
AcDb2dVertex
 10
84.74159450472848
 20
-123.4743035802426
 30
0.0
  0
VERTEX
  5
DC
330
D7
100
AcDbEntity
  8
_U+30EC_U+30A4_U+30E4_U+30FC 1
 62
     7
420
 16777215
370
    25
100
AcDbVertex
100
AcDb2dVertex
 10
89.74112576606869
 20
-123.4743035802426
 30
0.0
  0
VERTEX
  5
DD
330
D7
100
AcDbEntity
  8
_U+30EC_U+30A4_U+30E4_U+30FC 1
 62
     7
420
 16777215
370
    25
100
AcDbVertex
100
AcDb2dVertex
 10
89.74112576606869
 20
-126.4742905239369
 30
0.0
  0
VERTEX
  5
DE
330
D7
100
AcDbEntity
  8
_U+30EC_U+30A4_U+30E4_U+30FC 1
 62
     7
420
 16777215
370
    25
100
AcDbVertex
100
AcDb2dVertex
 10
87.7412285948681
 20
-126.4742905239369
 30
0.0
  0
VERTEX
  5
DF
330
D7
100
AcDbEntity
  8
_U+30EC_U+30A4_U+30E4_U+30FC 1
 62
     7
420
 16777215
370
    25
100
AcDbVertex
100
AcDb2dVertex
 10
87.74140498375249
 20
-126.4742905239369
 30
0.0
  0
VERTEX
  5
E0
330
D7
100
AcDbEntity
  8
_U+30EC_U+30A4_U+30E4_U+30FC 1
 62
     7
420
 16777215
370
    25
100
AcDbVertex
100
AcDb2dVertex
 10
87.74140498375249
 20
-132.9748208000896
 30
0.0
  0
VERTEX
  5
E1
330
D7
100
AcDbEntity
  8
_U+30EC_U+30A4_U+30E4_U+30FC 1
 62
     7
420
 16777215
370
    25
100
AcDbVertex
100
AcDb2dVertex
 10
87.7412285948681
 20
-132.9748208000896
 30
0.0
  0
VERTEX
  5
E2
330
D7
100
AcDbEntity
  8
_U+30EC_U+30A4_U+30E4_U+30FC 1
 62
     7
420
 16777215
370
    25
100
AcDbVertex
100
AcDb2dVertex
 10
99.67489164174783
 20
-132.9748208000896
 30
0.0
  0
VERTEX
  5
E3
330
D7
100
AcDbEntity
  8
_U+30EC_U+30A4_U+30E4_U+30FC 1
 62
     7
420
 16777215
370
    25
100
AcDbVertex
100
AcDb2dVertex
 10
99.67489164174783
 20
-133.9749457998399
 30
0.0
  0
VERTEX
  5
E4
330
D7
100
AcDbEntity
  8
_U+30EC_U+30A4_U+30E4_U+30FC 1
 62
     7
420
 16777215
370
    25
100
AcDbVertex
100
AcDb2dVertex
 10
74.74168531540298
 20
-133.9749457998399
 30
0.0
  0
VERTEX
  5
E5
330
D7
100
AcDbEntity
  8
_U+30EC_U+30A4_U+30E4_U+30FC 1
 62
     7
420
 16777215
370
    25
100
AcDbVertex
100
AcDb2dVertex
 10
74.74168531540298
 20
-132.9748208000896
 30
0.0
  0
VERTEX
  5
E6
330
D7
100
AcDbEntity
  8
_U+30EC_U+30A4_U+30E4_U+30FC 1
 62
     7
420
 16777215
370
    25
100
AcDbVertex
100
AcDb2dVertex
 10
86.7414563981522
 20
-132.9748208000896
 30
0.0
  0
SEQEND
  5
E7
330
D7
100
AcDbEntity
  8
_U+30EC_U+30A4_U+30E4_U+30FC 1
 62
     7
420
 16777215
370
    25
  0
ENDSEC
  0
SECTION
  2
OBJECTS
  0
DICTIONARY
  5
C
330
0
100
AcDbDictionary
281
     1
  3
ACAD_GROUP
350
D
  3
ACAD_LAYOUT
350
1A
  3
ACAD_MATERIAL
350
3B
  3
ACAD_MLEADERSTYLE
350
E9
  3
ACAD_MLINESTYLE
350
17
  3
ACAD_PLOTSETTINGS
350
19
  3
ACAD_PLOTSTYLENAME
350
E
  3
ACAD_TABLESTYLE
350
E8
  3
ACAD_VISUALSTYLE
350
2A
  0
SUN
  5
3F
330
29
100
AcDbSun
 90
        1
290
     0
 63
     7
421
 16777215
 40
1.0
291
     1
 91
  2455826
 92
 54000000
292
     0
 70
     2
 71
   256
280
     1
  0
DICTIONARY
  5
D
102
{ACAD_REACTORS
330
C
102
}
330
C
100
AcDbDictionary
281
     1
  0
DICTIONARY
  5
1A
102
{ACAD_REACTORS
330
C
102
}
330
C
100
AcDbDictionary
281
     1
  3
Layout1
350
1E
  3
Layout2
350
26
  3
Model
350
22
  0
DICTIONARY
  5
3B
102
{ACAD_REACTORS
330
C
102
}
330
C
100
AcDbDictionary
281
     1
  3
ByBlock
350
3D
  3
ByLayer
350
3C
  3
Global
350
3E
  0
DICTIONARY
  5
E9
102
{ACAD_REACTORS
330
C
102
}
330
C
100
AcDbDictionary
281
     1
  0
DICTIONARY
  5
17
102
{ACAD_REACTORS
330
C
102
}
330
C
100
AcDbDictionary
281
     1
  3
Standard
350
18
  0
DICTIONARY
  5
19
102
{ACAD_REACTORS
330
C
102
}
330
C
100
AcDbDictionary
281
     1
  0
ACDBDICTIONARYWDFLT
  5
E
102
{ACAD_REACTORS
330
C
102
}
330
C
100
AcDbDictionary
281
     1
  3
Normal
350
F
100
AcDbDictionaryWithDefault
340
F
  0
DICTIONARY
  5
E8
102
{ACAD_REACTORS
330
C
102
}
330
C
100
AcDbDictionary
281
     1
  0
DICTIONARY
  5
2A
102
{ACAD_REACTORS
330
C
102
}
330
C
100
AcDbDictionary
281
     1
  3
2dWireframe
350
2F
  3
3D Hidden
350
31
  3
3dWireframe
350
30
  3
Basic
350
32
  3
Brighten
350
36
  3
ColorChange
350
3A
  3
Conceptual
350
34
  3
Dim
350
35
  3
Facepattern
350
39
  3
Flat
350
2B
  3
FlatWithEdges
350
2C
  3
Gouraud
350
2D
  3
GouraudWithEdges
350
2E
  3
Linepattern
350
38
  3
Realistic
350
33
  3
Thicken
350
37
  0
LAYOUT
  5
1E
102
{ACAD_REACTORS
330
1A
102
}
330
1A
100
AcDbPlotSettings
  1

  2
none_device
  4

  6

 40
0.0
 41
0.0
 42
0.0
 43
0.0
 44
0.0
 45
0.0
 46
0.0
 47
0.0
 48
0.0
 49
0.0
140
0.0
141
0.0
142
1.0
143
1.0
 70
   688
 72
     0
 73
     0
 74
     5
  7

 75
    16
 76
     0
 77
     2
 78
   300
147
1.0
148
0.0
149
0.0
100
AcDbLayout
  1
Layout1
 70
     1
 71
     1
 10
0.0
 20
0.0
 11
12.0
 21
9.0
 12
0.0
 22
0.0
 32
0.0
 14
1.000000000000000E+20
 24
1.000000000000000E+20
 34
1.000000000000000E+20
 15
-1.000000000000000E+20
 25
-1.000000000000000E+20
 35
-1.000000000000000E+20
146
0.0
 13
0.0
 23
0.0
 33
0.0
 16
1.0
 26
0.0
 36
0.0
 17
0.0
 27
1.0
 37
0.0
 76
     0
330
1B
  0
LAYOUT
  5
26
102
{ACAD_REACTORS
330
1A
102
}
330
1A
100
AcDbPlotSettings
  1

  2
none_device
  4

  6

 40
0.0
 41
0.0
 42
0.0
 43
0.0
 44
0.0
 45
0.0
 46
0.0
 47
0.0
 48
0.0
 49
0.0
140
0.0
141
0.0
142
1.0
143
1.0
 70
   688
 72
     0
 73
     0
 74
     5
  7

 75
    16
 76
     0
 77
     2
 78
   300
147
1.0
148
0.0
149
0.0
100
AcDbLayout
  1
Layout2
 70
     1
 71
     2
 10
0.0
 20
0.0
 11
0.0
 21
0.0
 12
0.0
 22
0.0
 32
0.0
 14
0.0
 24
0.0
 34
0.0
 15
0.0
 25
0.0
 35
0.0
146
0.0
 13
0.0
 23
0.0
 33
0.0
 16
1.0
 26
0.0
 36
0.0
 17
0.0
 27
1.0
 37
0.0
 76
     0
330
23
  0
LAYOUT
  5
22
102
{ACAD_REACTORS
330
1A
102
}
330
1A
100
AcDbPlotSettings
  1

  2
none_device
  4

  6

 40
0.0
 41
0.0
 42
0.0
 43
0.0
 44
0.0
 45
0.0
 46
0.0
 47
0.0
 48
0.0
 49
0.0
140
0.0
141
0.0
142
1.0
143
1.0
 70
  1712
 72
     0
 73
     0
 74
     0
  7

 75
     0
 76
     0
 77
     2
 78
   300
147
1.0
148
0.0
149
0.0
100
AcDbLayout
  1
Model
 70
     1
 71
     0
 10
0.0
 20
0.0
 11
12.0
 21
9.0
 12
0.0
 22
0.0
 32
0.0
 14
1.000000000000000E+20
 24
1.000000000000000E+20
 34
1.000000000000000E+20
 15
-1.000000000000000E+20
 25
-1.000000000000000E+20
 35
-1.000000000000000E+20
146
0.0
 13
0.0
 23
0.0
 33
0.0
 16
1.0
 26
0.0
 36
0.0
 17
0.0
 27
1.0
 37
0.0
 76
     0
330
1F
331
29
  0
MATERIAL
  5
3D
102
{ACAD_REACTORS
330
3B
102
}
330
3B
100
AcDbMaterial
  1
ByBlock
 72
     1
 94
      127
  0
MATERIAL
  5
3C
102
{ACAD_REACTORS
330
3B
102
}
330
3B
100
AcDbMaterial
  1
ByLayer
 72
     1
 94
      127
  0
MATERIAL
  5
3E
102
{ACAD_REACTORS
330
3B
102
}
330
3B
100
AcDbMaterial
  1
Global
 72
     1
 94
      127
  0
MLINESTYLE
  5
18
102
{ACAD_REACTORS
330
17
102
}
330
17
100
AcDbMlineStyle
  2
Standard
 70
     0
  3

 62
   256
 51
90.0
 52
90.0
 71
     2
 49
0.5
 62
   256
  6
BYLAYER
 49
-0.5
 62
   256
  6
BYLAYER
  0
ACDBPLACEHOLDER
  5
F
102
{ACAD_REACTORS
330
E
102
}
330
E
  0
VISUALSTYLE
  5
2F
102
{ACAD_REACTORS
330
2A
102
}
330
2A
100
AcDbVisualStyle
  2
2dWireframe
 70
     4
177
     2
291
     0
 71
     0
176
     1
 72
     2
176
     1
 73
     0
176
     1
 90
        0
176
     1
 40
-0.6
176
     1
 41
-30.0
176
     1
 62
     5
 63
     7
421
 16777215
176
     1
 74
     1
176
     1
 91
        4
176
     1
 64
     7
176
     1
 65
   257
176
     1
 75
     1
176
     1
175
     1
176
     1
 42
1.0
176
     1
 92
        0
176
     1
 66
   257
176
     1
 43
1.0
176
     1
 76
     1
176
     1
 77
     6
176
     1
 78
     2
176
     1
 67
     7
176
     1
 79
     5
176
     1
170
     0
176
     1
171
     0
176
     1
290
     0
176
     1
 93
        1
176
     1
 44
0.0
176
     1
173
     0
176
     1
  0
VISUALSTYLE
  5
31
102
{ACAD_REACTORS
330
2A
102
}
330
2A
100
AcDbVisualStyle
  2
3D Hidden
 70
     6
177
     2
291
     0
 71
     1
176
     1
 72
     2
176
     1
 73
     2
176
     1
 90
        0
176
     1
 40
-0.6
176
     1
 41
-30.0
176
     1
 62
     5
 63
     7
421
 16777215
176
     1
 74
     2
176
     1
 91
        2
176
     1
 64
     7
176
     1
 65
   257
176
     1
 75
     2
176
     1
175
     1
176
     1
 42
40.0
176
     1
 92
        0
176
     1
 66
   257
176
     1
 43
1.0
176
     1
 76
     1
176
     1
 77
     6
176
     1
 78
     2
176
     1
 67
     7
176
     1
 79
     3
176
     1
170
     0
176
     1
171
     0
176
     1
290
     0
176
     1
 93
        1
176
     1
 44
0.0
176
     1
173
     0
176
     1
  0
VISUALSTYLE
  5
30
102
{ACAD_REACTORS
330
2A
102
}
330
2A
100
AcDbVisualStyle
  2
3dWireframe
 70
     5
177
     2
291
     0
 71
     0
176
     1
 72
     2
176
     1
 73
     0
176
     1
 90
        0
176
     1
 40
-0.6
176
     1
 41
-30.0
176
     1
 62
     5
 63
     7
421
 16777215
176
     1
 74
     1
176
     1
 91
        4
176
     1
 64
     7
176
     1
 65
   257
176
     1
 75
     1
176
     1
175
     1
176
     1
 42
1.0
176
     1
 92
        0
176
     1
 66
   257
176
     1
 43
1.0
176
     1
 76
     1
176
     1
 77
     6
176
     1
 78
     2
176
     1
 67
     7
176
     1
 79
     5
176
     1
170
     0
176
     1
171
     0
176
     1
290
     0
176
     1
 93
        1
176
     1
 44
0.0
176
     1
173
     0
176
     1
  0
VISUALSTYLE
  5
32
102
{ACAD_REACTORS
330
2A
102
}
330
2A
100
AcDbVisualStyle
  2
Basic
 70
     7
177
     2
291
     1
 71
     1
176
     1
 72
     0
176
     1
 73
     1
176
     1
 90
        0
176
     1
 40
-0.6
176
     1
 41
-30.0
176
     1
 62
     5
 63
     7
421
 16777215
176
     1
 74
     0
176
     1
 91
        4
176
     1
 64
     7
176
     1
 65
   257
176
     1
 75
     1
176
     1
175
     1
176
     1
 42
1.0
176
     1
 92
        8
176
     1
 66
     7
176
     1
 43
1.0
176
     1
 76
     1
176
     1
 77
     6
176
     1
 78
     2
176
     1
 67
     7
176
     1
 79
     5
176
     1
170
     0
176
     1
171
     0
176
     1
290
     0
176
     1
 93
        1
176
     1
 44
0.0
176
     1
173
     0
176
     1
  0
VISUALSTYLE
  5
36
102
{ACAD_REACTORS
330
2A
102
}
330
2A
100
AcDbVisualStyle
  2
Brighten
 70
    12
177
     2
291
     1
 71
     2
176
     1
 72
     2
176
     1
 73
     0
176
     1
 90
        0
176
     1
 40
-0.6
176
     1
 41
-30.0
176
     1
 62
     5
 63
     7
421
 16777215
176
     1
 74
     1
176
     1
 91
        4
176
     1
 64
     7
176
     1
 65
   257
176
     1
 75
     1
176
     1
175
     1
176
     1
 42
1.0
176
     1
 92
        8
176
     1
 66
     7
176
     1
 43
1.0
176
     1
 76
     1
176
     1
 77
     6
176
     1
 78
     2
176
     1
 67
     7
176
     1
 79
     5
176
     1
170
     0
176
     1
171
     0
176
     1
290
     0
176
     1
 93
        1
176
     1
 44
50.0
176
     1
173
     0
176
     1
  0
VISUALSTYLE
  5
3A
102
{ACAD_REACTORS
330
2A
102
}
330
2A
100
AcDbVisualStyle
  2
ColorChange
 70
    16
177
     2
291
     1
 71
     2
176
     1
 72
     2
176
     1
 73
     3
176
     1
 90
        0
176
     1
 40
-0.6
176
     1
 41
-30.0
176
     1
 62
     5
 63
     8
421
  8421504
176
     1
 74
     1
176
     1
 91
        4
176
     1
 64
     7
176
     1
 65
   257
176
     1
 75
     1
176
     1
175
     1
176
     1
 42
1.0
176
     1
 92
        8
176
     1
 66
     8
424
  8421504
176
     1
 43
1.0
176
     1
 76
     1
176
     1
 77
     6
176
     1
 78
     2
176
     1
 67
     7
176
     1
 79
     5
176
     1
170
     0
176
     1
171
     0
176
     1
290
     0
176
     1
 93
        1
176
     1
 44
0.0
176
     1
173
     0
176
     1
  0
VISUALSTYLE
  5
34
102
{ACAD_REACTORS
330
2A
102
}
330
2A
100
AcDbVisualStyle
  2
Conceptual
 70
     9
177
     2
291
     0
 71
     3
176
     1
 72
     2
176
     1
 73
     0
176
     1
 90
        0
176
     1
 40
-0.6
176
     1
 41
-30.0
176
     1
 62
     5
 63
     7
421
 16777215
176
     1
 74
     2
176
     1
 91
        2
176
     1
 64
     7
176
     1
 65
   257
176
     1
 75
     1
176
     1
175
     1
176
     1
 42
40.0
176
     1
 92
        8
176
     1
 66
     7
176
     1
 43
1.0
176
     1
 76
     1
176
     1
 77
     6
176
     1
 78
     2
176
     1
 67
     7
176
     1
 79
     3
176
     1
170
     0
176
     1
171
     0
176
     1
290
     0
176
     1
 93
        1
176
     1
 44
0.0
176
     1
173
     0
176
     1
  0
VISUALSTYLE
  5
35
102
{ACAD_REACTORS
330
2A
102
}
330
2A
100
AcDbVisualStyle
  2
Dim
 70
    11
177
     2
291
     1
 71
     2
176
     1
 72
     2
176
     1
 73
     0
176
     1
 90
        0
176
     1
 40
-0.6
176
     1
 41
-30.0
176
     1
 62
     5
 63
     7
421
 16777215
176
     1
 74
     1
176
     1
 91
        4
176
     1
 64
     7
176
     1
 65
   257
176
     1
 75
     1
176
     1
175
     1
176
     1
 42
1.0
176
     1
 92
        8
176
     1
 66
     7
176
     1
 43
1.0
176
     1
 76
     1
176
     1
 77
     6
176
     1
 78
     2
176
     1
 67
     7
176
     1
 79
     5
176
     1
170
     0
176
     1
171
     0
176
     1
290
     0
176
     1
 93
        1
176
     1
 44
-50.0
176
     1
173
     0
176
     1
  0
VISUALSTYLE
  5
39
102
{ACAD_REACTORS
330
2A
102
}
330
2A
100
AcDbVisualStyle
  2
Facepattern
 70
    15
177
     2
291
     1
 71
     2
176
     1
 72
     2
176
     1
 73
     0
176
     1
 90
        0
176
     1
 40
-0.6
176
     1
 41
-30.0
176
     1
 62
     5
 63
     7
421
 16777215
176
     1
 74
     1
176
     1
 91
        4
176
     1
 64
     7
176
     1
 65
   257
176
     1
 75
     1
176
     1
175
     1
176
     1
 42
1.0
176
     1
 92
        8
176
     1
 66
     7
176
     1
 43
1.0
176
     1
 76
     1
176
     1
 77
     6
176
     1
 78
     2
176
     1
 67
     7
176
     1
 79
     5
176
     1
170
     0
176
     1
171
     0
176
     1
290
     0
176
     1
 93
        1
176
     1
 44
0.0
176
     1
173
     0
176
     1
  0
VISUALSTYLE
  5
2B
102
{ACAD_REACTORS
330
2A
102
}
330
2A
100
AcDbVisualStyle
  2
Flat
 70
     0
177
     2
291
     1
 71
     2
176
     1
 72
     1
176
     1
 73
     1
176
     1
 90
        2
176
     1
 40
-0.6
176
     1
 41
30.0
176
     1
 62
     5
 63
     7
421
 16777215
176
     1
 74
     0
176
     1
 91
        4
176
     1
 64
     7
176
     1
 65
   257
176
     1
 75
     1
176
     1
175
     1
176
     1
 42
1.0
176
     1
 92
        8
176
     1
 66
     7
176
     1
 43
1.0
176
     1
 76
     1
176
     1
 77
     6
176
     1
 78
     2
176
     1
 67
     7
176
     1
 79
     5
176
     1
170
     0
176
     1
171
     0
176
     1
290
     0
176
     1
 93
       13
176
     1
 44
0.0
176
     1
173
     0
176
     1
  0
VISUALSTYLE
  5
2C
102
{ACAD_REACTORS
330
2A
102
}
330
2A
100
AcDbVisualStyle
  2
FlatWithEdges
 70
     1
177
     2
291
     1
 71
     2
176
     1
 72
     1
176
     1
 73
     1
176
     1
 90
        2
176
     1
 40
-0.6
176
     1
 41
30.0
176
     1
 62
     5
 63
     7
421
 16777215
176
     1
 74
     1
176
     1
 91
        4
176
     1
 64
     7
176
     1
 65
   257
176
     1
 75
     1
176
     1
175
     1
176
     1
 42
1.0
176
     1
 92
        0
176
     1
 66
   257
176
     1
 43
1.0
176
     1
 76
     1
176
     1
 77
     6
176
     1
 78
     2
176
     1
 67
     7
176
     1
 79
     5
176
     1
170
     0
176
     1
171
     0
176
     1
290
     0
176
     1
 93
       13
176
     1
 44
0.0
176
     1
173
     0
176
     1
  0
VISUALSTYLE
  5
2D
102
{ACAD_REACTORS
330
2A
102
}
330
2A
100
AcDbVisualStyle
  2
Gouraud
 70
     2
177
     2
291
     1
 71
     2
176
     1
 72
     2
176
     1
 73
     1
176
     1
 90
        2
176
     1
 40
-0.6
176
     1
 41
30.0
176
     1
 62
     5
 63
     7
421
 16777215
176
     1
 74
     0
176
     1
 91
        4
176
     1
 64
     7
176
     1
 65
   257
176
     1
 75
     1
176
     1
175
     1
176
     1
 42
1.0
176
     1
 92
        0
176
     1
 66
     7
176
     1
 43
1.0
176
     1
 76
     1
176
     1
 77
     6
176
     1
 78
     2
176
     1
 67
     7
176
     1
 79
     5
176
     1
170
     0
176
     1
171
     0
176
     1
290
     0
176
     1
 93
       13
176
     1
 44
0.0
176
     1
173
     0
176
     1
  0
VISUALSTYLE
  5
2E
102
{ACAD_REACTORS
330
2A
102
}
330
2A
100
AcDbVisualStyle
  2
GouraudWithEdges
 70
     3
177
     2
291
     1
 71
     2
176
     1
 72
     2
176
     1
 73
     1
176
     1
 90
        2
176
     1
 40
-0.6
176
     1
 41
30.0
176
     1
 62
     5
 63
     7
421
 16777215
176
     1
 74
     1
176
     1
 91
        4
176
     1
 64
     7
176
     1
 65
   257
176
     1
 75
     1
176
     1
175
     1
176
     1
 42
1.0
176
     1
 92
        0
176
     1
 66
   257
176
     1
 43
1.0
176
     1
 76
     1
176
     1
 77
     6
176
     1
 78
     2
176
     1
 67
     7
176
     1
 79
     5
176
     1
170
     0
176
     1
171
     0
176
     1
290
     0
176
     1
 93
       13
176
     1
 44
0.0
176
     1
173
     0
176
     1
  0
VISUALSTYLE
  5
38
102
{ACAD_REACTORS
330
2A
102
}
330
2A
100
AcDbVisualStyle
  2
Linepattern
 70
    14
177
     2
291
     1
 71
     2
176
     1
 72
     2
176
     1
 73
     0
176
     1
 90
        0
176
     1
 40
-0.6
176
     1
 41
-30.0
176
     1
 62
     5
 63
     7
421
 16777215
176
     1
 74
     1
176
     1
 91
        4
176
     1
 64
     7
176
     1
 65
   257
176
     1
 75
     7
176
     1
175
     7
176
     1
 42
1.0
176
     1
 92
        8
176
     1
 66
     7
176
     1
 43
1.0
176
     1
 76
     1
176
     1
 77
     6
176
     1
 78
     2
176
     1
 67
     7
176
     1
 79
     5
176
     1
170
     0
176
     1
171
     0
176
     1
290
     0
176
     1
 93
        1
176
     1
 44
0.0
176
     1
173
     0
176
     1
  0
VISUALSTYLE
  5
33
102
{ACAD_REACTORS
330
2A
102
}
330
2A
100
AcDbVisualStyle
  2
Realistic
 70
     8
177
     2
291
     0
 71
     2
176
     1
 72
     2
176
     1
 73
     0
176
     1
 90
        0
176
     1
 40
-0.6
176
     1
 41
-30.0
176
     1
 62
     5
 63
     7
421
 16777215
176
     1
 74
     1
176
     1
 91
        0
176
     1
 64
     7
176
     1
 65
   257
176
     1
 75
     1
176
     1
175
     1
176
     1
 42
1.0
176
     1
 92
        8
176
     1
 66
     8
424
  7895160
176
     1
 43
1.0
176
     1
 76
     1
176
     1
 77
     6
176
     1
 78
     2
176
     1
 67
     7
176
     1
 79
     5
176
     1
170
     0
176
     1
171
     0
176
     1
290
     0
176
     1
 93
       13
176
     1
 44
0.0
176
     1
173
     0
176
     1
  0
VISUALSTYLE
  5
37
102
{ACAD_REACTORS
330
2A
102
}
330
2A
100
AcDbVisualStyle
  2
Thicken
 70
    13
177
     2
291
     1
 71
     2
176
     1
 72
     2
176
     1
 73
     0
176
     1
 90
        0
176
     1
 40
-0.6
176
     1
 41
-30.0
176
     1
 62
     5
 63
     7
421
 16777215
176
     1
 74
     1
176
     1
 91
        4
176
     1
 64
     7
176
     1
 65
   257
176
     1
 75
     1
176
     1
175
     1
176
     1
 42
1.0
176
     1
 92
       12
176
     1
 66
     7
176
     1
 43
1.0
176
     1
 76
     1
176
     1
 77
     6
176
     1
 78
     2
176
     1
 67
     7
176
     1
 79
     5
176
     1
170
     0
176
     1
171
     0
176
     1
290
     0
176
     1
 93
        1
176
     1
 44
0.0
176
     1
173
     0
176
     1
  0
ENDSEC
  0
EOF
