  0
SECTION
  2
HEADER
  9
$ACADVER
  1
AC1024
  9
$ACADMAINTVER
 70
     6
  9
$DWGCODEPAGE
  3
UNDEFINED
  9
$INSBASE
 10
0.0
 20
0.0
 30
0.0
  9
$EXTMIN
 10
1.000000000000000E+20
 20
1.000000000000000E+20
 30
1.000000000000000E+20
  9
$EXTMAX
 10
-1.000000000000000E+20
 20
-1.000000000000000E+20
 30
-1.000000000000000E+20
  9
$LIMMIN
 10
0.0
 20
0.0
  9
$LIMMAX
 10
12.0
 20
9.0
  9
$ORTHOMODE
 70
     0
  9
$REGENMODE
 70
     1
  9
$FILLMODE
 70
     1
  9
$QTEXTMODE
 70
     0
  9
$MIRRTEXT
 70
     1
  9
$LTSCALE
 40
1.0
  9
$ATTMODE
 70
     1
  9
$TEXTSIZE
 40
0.2
  9
$TRACEWID
 40
0.05
  9
$TEXTSTYLE
  7
Standard
  9
$CLAYER
  8
0
  9
$CELTYPE
  6
ByLayer
  9
$CECOLOR
 62
   256
  9
$CELTSCALE
 40
1.0
  9
$DISPSILH
 70
     0
  9
$DIMSCALE
 40
1.0
  9
$DIMASZ
 40
0.18
  9
$DIMEXO
 40
0.0625
  9
$DIMDLI
 40
0.38
  9
$DIMRND
 40
0.0
  9
$DIMDLE
 40
0.0
  9
$DIMEXE
 40
0.18
  9
$DIMTP
 40
0.0
  9
$DIMTM
 40
0.0
  9
$DIMTXT
 40
0.18
  9
$DIMCEN
 40
0.09
  9
$DIMTSZ
 40
0.0
  9
$DIMTOL
 70
     0
  9
$DIMLIM
 70
     0
  9
$DIMTIH
 70
     1
  9
$DIMTOH
 70
     1
  9
$DIMSE1
 70
     0
  9
$DIMSE2
 70
     0
  9
$DIMTAD
 70
     0
  9
$DIMZIN
 70
     0
  9
$DIMBLK
  1

  9
$DIMASO
 70
     1
  9
$DIMSHO
 70
     1
  9
$DIMPOST
  1

  9
$DIMAPOST
  1

  9
$DIMALT
 70
     0
  9
$DIMALTD
 70
     2
  9
$DIMALTF
 40
25.4
  9
$DIMLFAC
 40
1.0
  9
$DIMTOFL
 70
     0
  9
$DIMTVP
 40
0.0
  9
$DIMTIX
 70
     0
  9
$DIMSOXD
 70
     0
  9
$DIMSAH
 70
     0
  9
$DIMBLK1
  1

  9
$DIMBLK2
  1

  9
$DIMSTYLE
  2
Standard
  9
$DIMCLRD
 70
     0
  9
$DIMCLRE
 70
     0
  9
$DIMCLRT
 70
     0
  9
$DIMTFAC
 40
1.0
  9
$DIMGAP
 40
0.09
  9
$DIMJUST
 70
     0
  9
$DIMSD1
 70
     0
  9
$DIMSD2
 70
     0
  9
$DIMTOLJ
 70
     1
  9
$DIMTZIN
 70
     0
  9
$DIMALTZ
 70
     0
  9
$DIMALTTZ
 70
     0
  9
$DIMUPT
 70
     0
  9
$DIMDEC
 70
     4
  9
$DIMTDEC
 70
     4
  9
$DIMALTU
 70
     2
  9
$DIMALTTD
 70
     2
  9
$DIMTXSTY
  7
Standard
  9
$DIMAUNIT
 70
     0
  9
$DIMADEC
 70
     0
  9
$DIMALTRND
 40
0.0
  9
$DIMAZIN
 70
     0
  9
$DIMDSEP
 70
    46
  9
$DIMATFIT
 70
     3
  9
$DIMFRAC
 70
     0
  9
$DIMLDRBLK
  1

  9
$DIMLUNIT
 70
     2
  9
$DIMLWD
 70
    -2
  9
$DIMLWE
 70
    -2
  9
$DIMTMOVE
 70
     0
  9
$DIMFXL
 40
1.0
  9
$DIMFXLON
 70
     0
  9
$DIMJOGANG
 40
0.7853981633974483
  9
$DIMTFILL
 70
     0
  9
$DIMTFILLCLR
 70
     0
  9
$DIMARCSYM
 70
     0
  9
$DIMLTYPE
  6

  9
$DIMLTEX1
  6

  9
$DIMLTEX2
  6

  9
$DIMTXTDIRECTION
 70
     0
  9
$LUNITS
 70
     2
  9
$LUPREC
 70
     4
  9
$SKETCHINC
 40
0.1
  9
$FILLETRAD
 40
0.5
  9
$AUNITS
 70
     0
  9
$AUPREC
 70
     0
  9
$MENU
  1
.
  9
$ELEVATION
 40
0.0
  9
$PELEVATION
 40
0.0
  9
$THICKNESS
 40
0.0
  9
$LIMCHECK
 70
     0
  9
$CHAMFERA
 40
0.5
  9
$CHAMFERB
 40
0.5
  9
$CHAMFERC
 40
1.0
  9
$CHAMFERD
 40
0.0
  9
$SKPOLY
 70
     0
  9
$TDCREATE
 40
2457917.622824074
  9
$TDUCREATE
 40
2457917.247824074
  9
$TDUPDATE
 40
2457917.622824074
  9
$TDUUPDATE
 40
2457917.247824074
  9
$TDINDWG
 40
0.0000000116
  9
$TDUSRTIMER
 40
0.0000000116
  9
$USRTIMER
 70
     1
  9
$ANGBASE
 50
0.0
  9
$ANGDIR
 70
     0
  9
$PDMODE
 70
     0
  9
$PDSIZE
 40
0.0
  9
$PLINEWID
 40
0.0
  9
$SPLFRAME
 70
     0
  9
$SPLINETYPE
 70
     6
  9
$SPLINESEGS
 70
     8
  9
$HANDSEED
  5
D5
  9
$SURFTAB1
 70
     6
  9
$SURFTAB2
 70
     6
  9
$SURFTYPE
 70
     6
  9
$SURFU
 70
     6
  9
$SURFV
 70
     6
  9
$UCSBASE
  2

  9
$UCSNAME
  2

  9
$UCSORG
 10
0.0
 20
0.0
 30
0.0
  9
$UCSXDIR
 10
1.0
 20
0.0
 30
0.0
  9
$UCSYDIR
 10
0.0
 20
1.0
 30
0.0
  9
$UCSORTHOREF
  2

  9
$UCSORTHOVIEW
 70
     0
  9
$UCSORGTOP
 10
0.0
 20
0.0
 30
0.0
  9
$UCSORGBOTTOM
 10
0.0
 20
0.0
 30
0.0
  9
$UCSORGLEFT
 10
0.0
 20
0.0
 30
0.0
  9
$UCSORGRIGHT
 10
0.0
 20
0.0
 30
0.0
  9
$UCSORGFRONT
 10
0.0
 20
0.0
 30
0.0
  9
$UCSORGBACK
 10
0.0
 20
0.0
 30
0.0
  9
$PUCSBASE
  2

  9
$PUCSNAME
  2

  9
$PUCSORG
 10
0.0
 20
0.0
 30
0.0
  9
$PUCSXDIR
 10
1.0
 20
0.0
 30
0.0
  9
$PUCSYDIR
 10
0.0
 20
1.0
 30
0.0
  9
$PUCSORTHOREF
  2

  9
$PUCSORTHOVIEW
 70
     0
  9
$PUCSORGTOP
 10
0.0
 20
0.0
 30
0.0
  9
$PUCSORGBOTTOM
 10
0.0
 20
0.0
 30
0.0
  9
$PUCSORGLEFT
 10
0.0
 20
0.0
 30
0.0
  9
$PUCSORGRIGHT
 10
0.0
 20
0.0
 30
0.0
  9
$PUCSORGFRONT
 10
0.0
 20
0.0
 30
0.0
  9
$PUCSORGBACK
 10
0.0
 20
0.0
 30
0.0
  9
$USERI1
 70
     0
  9
$USERI2
 70
     0
  9
$USERI3
 70
     0
  9
$USERI4
 70
     0
  9
$USERI5
 70
     0
  9
$USERR1
 40
0.0
  9
$USERR2
 40
0.0
  9
$USERR3
 40
0.0
  9
$USERR4
 40
0.0
  9
$USERR5
 40
0.0
  9
$WORLDVIEW
 70
     1
  9
$SHADEDGE
 70
     3
  9
$SHADEDIF
 70
    70
  9
$TILEMODE
 70
     1
  9
$MAXACTVP
 70
    64
  9
$PINSBASE
 10
0.0
 20
0.0
 30
0.0
  9
$PLIMCHECK
 70
     0
  9
$PEXTMIN
 10
1.000000000000000E+20
 20
1.000000000000000E+20
 30
1.000000000000000E+20
  9
$PEXTMAX
 10
-1.000000000000000E+20
 20
-1.000000000000000E+20
 30
-1.000000000000000E+20
  9
$PLIMMIN
 10
0.0
 20
0.0
  9
$PLIMMAX
 10
12.0
 20
9.0
  9
$UNITMODE
 70
     0
  9
$VISRETAIN
 70
     1
  9
$PLINEGEN
 70
     0
  9
$PSLTSCALE
 70
     1
  9
$TREEDEPTH
 70
  3020
  9
$CMLSTYLE
  2
Standard
  9
$CMLJUST
 70
     0
  9
$CMLSCALE
 40
1.0
  9
$PROXYGRAPHICS
 70
     1
  9
$MEASUREMENT
 70
     0
  9
$CELWEIGHT
370
    -1
  9
$ENDCAPS
280
     0
  9
$JOINSTYLE
280
     0
  9
$LWDISPLAY
290
     1
  9
$INSUNITS
 70
     1
  9
$HYPERLINKBASE
  1

  9
$STYLESHEET
  1

  9
$XEDIT
290
     1
  9
$CEPSNTYPE
380
     0
  9
$PSTYLEMODE
290
     1
  9
$FINGERPRINTGUID
  2
{3939E946-251A-344A-A3A6-398DBA5841E3}
  9
$VERSIONGUID
  2
{FAEB1C32-E019-11D5-929B-00C0DF256EC4}
  9
$EXTNAMES
290
     1
  9
$PSVPSCALE
 40
0.0
  9
$OLESTARTUP
290
     0
  9
$SORTENTS
280
   127
  9
$INDEXCTL
280
     0
  9
$HIDETEXT
280
     1
  9
$XCLIPFRAME
280
     2
  9
$HALOGAP
280
     0
  9
$OBSCOLOR
 70
   257
  9
$OBSLTYPE
280
     0
  9
$INTERSECTIONDISPLAY
280
     0
  9
$INTERSECTIONCOLOR
 70
   257
  9
$DIMASSOC
280
     2
  9
$PROJECTNAME
  1

  9
$CAMERADISPLAY
290
     0
  9
$LENSLENGTH
 40
50.0
  9
$CAMERAHEIGHT
 40
0.0
  9
$STEPSPERSEC
 40
2.0
  9
$STEPSIZE
 40
6.0
  9
$3DDWFPREC
 40
2.0
  9
$PSOLWIDTH
 40
0.25
  9
$PSOLHEIGHT
 40
4.0
  9
$LOFTANG1
 40
1.570796326794897
  9
$LOFTANG2
 40
1.570796326794897
  9
$LOFTMAG1
 40
0.0
  9
$LOFTMAG2
 40
0.0
  9
$LOFTPARAM
 70
     7
  9
$LOFTNORMALS
280
     1
  9
$LATITUDE
 40
37.795
  9
$LONGITUDE
 40
-122.394
  9
$NORTHDIRECTION
 40
0.0
  9
$TIMEZONE
 70
 -8000
  9
$LIGHTGLYPHDISPLAY
280
     1
  9
$TILEMODELIGHTSYNCH
280
     1
  9
$CMATERIAL
347
3C
  9
$SOLIDHIST
280
     1
  9
$SHOWHIST
280
     1
  9
$DWFFRAME
280
     2
  9
$DGNFRAME
280
     2
  9
$REALWORLDSCALE
290
     1
  9
$INTERFERECOLOR
 62
   256
  9
$CSHADOW
280
     0
  9
$SHADOWPLANELOCATION
 40
0.0
  0
ENDSEC
  0
SECTION
  2
CLASSES
  0
CLASS
  1
ACDBDICTIONARYWDFLT
  2
AcDbDictionaryWithDefault
  3
ObjectDBX Classes
 90
        0
 91
        4
280
     0
281
     0
  0
CLASS
  1
VISUALSTYLE
  2
AcDbVisualStyle
  3
ObjectDBX Classes
 90
     4095
 91
        4
280
     0
281
     0
  0
CLASS
  1
MATERIAL
  2
AcDbMaterial
  3
ObjectDBX Classes
 90
     1153
 91
        4
280
     0
281
     0
  0
CLASS
  1
SUN
  2
AcDbSun
  3
SCENEOE
 90
     1024
 91
        4
280
     0
281
     0
  0
ENDSEC
  0
SECTION
  2
TABLES
  0
TABLE
  2
VPORT
  5
8
330
0
100
AcDbSymbolTable
 70
     1
  0
VPORT
  5
29
330
8
100
AcDbSymbolTableRecord
100
AcDbViewportTableRecord
  2
*Active
 70
     0
 10
0.0
 20
0.0
 11
1.0
 21
1.0
 12
0.0
 22
0.0
 13
0.0
 23
0.0
 14
0.5
 24
0.5
 15
0.5
 25
0.5
 16
0.0
 26
0.0
 36
1.0
 17
91.00082462281999
 27
-128.4993055234307
 37
0.0
 40
256.9986110468615
 41
0.7081814508812795
 42
50.0
 43
0.0
 44
0.0
 50
0.0
 51
0.0
 71
     0
 72
   100
 73
     1
 74
     3
 75
     0
 76
     0
 77
     0
 78
     0
281
     0
 65
     1
110
0.0
120
0.0
130
0.0
111
1.0
121
0.0
131
0.0
112
0.0
122
1.0
132
0.0
 79
     0
146
0.0
 60
     3
 61
     5
292
     1
282
     1
141
0.0
142
0.0
 63
   250
361
3F
  0
ENDTAB
  0
TABLE
  2
LTYPE
  5
5
330
0
100
AcDbSymbolTable
 70
     1
  0
LTYPE
  5
14
330
5
100
AcDbSymbolTableRecord
100
AcDbLinetypeTableRecord
  2
ByBlock
 70
     0
  3

 72
    65
 73
     0
 40
0.0
  0
LTYPE
  5
15
330
5
100
AcDbSymbolTableRecord
100
AcDbLinetypeTableRecord
  2
ByLayer
 70
     0
  3

 72
    65
 73
     0
 40
0.0
  0
LTYPE
  5
16
330
5
100
AcDbSymbolTableRecord
100
AcDbLinetypeTableRecord
  2
Continuous
 70
     0
  3
Solid line
 72
    65
 73
     0
 40
0.0
  0
ENDTAB
  0
TABLE
  2
LAYER
  5
2
330
0
100
AcDbSymbolTable
 70
     2
  0
LAYER
  5
10
330
2
100
AcDbSymbolTableRecord
100
AcDbLayerTableRecord
  2
0
 70
     0
 62
     7
  6
Continuous
370
    -3
390
F
347
3E
  0
LAYER
  5
40
330
2
100
AcDbSymbolTableRecord
100
AcDbLayerTableRecord
  2
_U+30EC_U+30A4_U+30E4_U+30FC 1
 70
     0
 62
     7
  6
Continuous
370
    -3
390
F
347
3E
  0
ENDTAB
  0
TABLE
  2
STYLE
  5
3
330
0
100
AcDbSymbolTable
 70
     1
  0
STYLE
  5
11
330
3
100
AcDbSymbolTableRecord
100
AcDbTextStyleTableRecord
  2
Standard
 70
     0
 40
0.0
 41
1.0
 50
0.0
 71
     0
 42
0.2
  3
txt
  4

  0
ENDTAB
  0
TABLE
  2
VIEW
  5
6
330
0
100
AcDbSymbolTable
 70
     0
  0
ENDTAB
  0
TABLE
  2
UCS
  5
7
330
0
100
AcDbSymbolTable
 70
     0
  0
ENDTAB
  0
TABLE
  2
APPID
  5
9
330
0
100
AcDbSymbolTable
 70
     1
  0
APPID
  5
12
330
9
100
AcDbSymbolTableRecord
100
AcDbRegAppTableRecord
  2
ACAD
 70
     0
  0
ENDTAB
  0
TABLE
  2
DIMSTYLE
  5
A
330
0
100
AcDbSymbolTable
 70
     1
100
AcDbDimStyleTable
  0
DIMSTYLE
105
27
330
A
100
AcDbSymbolTableRecord
100
AcDbDimStyleTableRecord
  2
Standard
 70
     0
178
     0
340
11
  0
ENDTAB
  0
TABLE
  2
BLOCK_RECORD
  5
1
330
0
100
AcDbSymbolTable
 70
     7
  0
BLOCK_RECORD
  5
1F
330
1
100
AcDbSymbolTableRecord
100
AcDbBlockTableRecord
  2
*Model_Space
340
22
 70
     0
280
     1
281
     0
  0
BLOCK_RECORD
  5
1B
330
1
100
AcDbSymbolTableRecord
100
AcDbBlockTableRecord
  2
*Paper_Space
340
1E
 70
     0
280
     1
281
     0
  0
BLOCK_RECORD
  5
23
330
1
100
AcDbSymbolTableRecord
100
AcDbBlockTableRecord
  2
*Paper_Space0
340
26
 70
     0
280
     1
281
     0
  0
BLOCK_RECORD
  5
75
330
1
100
AcDbSymbolTableRecord
100
AcDbBlockTableRecord
  2
block 2
340
0
102
{BLKREFS
331
76
102
}
 70
     0
280
     1
281
     0
  0
BLOCK_RECORD
  5
7C
330
1
100
AcDbSymbolTableRecord
100
AcDbBlockTableRecord
  2
block 3
340
0
102
{BLKREFS
331
7D
102
}
 70
     0
280
     1
281
     0
  0
BLOCK_RECORD
  5
82
330
1
100
AcDbSymbolTableRecord
100
AcDbBlockTableRecord
  2
block 4
340
0
102
{BLKREFS
331
83
102
}
 70
     0
280
     1
281
     0
  0
BLOCK_RECORD
  5
98
330
1
100
AcDbSymbolTableRecord
100
AcDbBlockTableRecord
  2
block 5
340
0
102
{BLKREFS
331
99
102
}
 70
     0
280
     1
281
     0
  0
BLOCK_RECORD
  5
9F
330
1
100
AcDbSymbolTableRecord
100
AcDbBlockTableRecord
  2
block 6
340
0
102
{BLKREFS
331
A0
102
}
 70
     0
280
     1
281
     0
  0
BLOCK_RECORD
  5
CD
330
1
100
AcDbSymbolTableRecord
100
AcDbBlockTableRecord
  2
block 7
340
0
102
{BLKREFS
331
CE
102
}
 70
     0
280
     1
281
     0
  0
ENDTAB
  0
ENDSEC
  0
SECTION
  2
BLOCKS
  0
BLOCK
  5
20
330
1F
100
AcDbEntity
  8
0
100
AcDbBlockBegin
  2
*Model_Space
 70
     0
 10
0.0
 20
0.0
 30
0.0
  3
*Model_Space
  1

  0
ENDBLK
  5
21
330
1F
100
AcDbEntity
  8
0
100
AcDbBlockEnd
  0
BLOCK
  5
1C
330
1B
100
AcDbEntity
 67
     1
  8
0
100
AcDbBlockBegin
  2
*Paper_Space
 70
     0
 10
0.0
 20
0.0
 30
0.0
  3
*Paper_Space
  1

  0
ENDBLK
  5
1D
330
1B
100
AcDbEntity
 67
     1
  8
0
100
AcDbBlockEnd
  0
BLOCK
  5
24
330
23
100
AcDbEntity
  8
0
100
AcDbBlockBegin
  2
*Paper_Space0
 70
     0
 10
0.0
 20
0.0
 30
0.0
  3
*Paper_Space0
  1

  0
ENDBLK
  5
25
330
23
100
AcDbEntity
  8
0
100
AcDbBlockEnd
  0
BLOCK
  5
77
330
75
100
AcDbEntity
  8
0
100
AcDbBlockBegin
  2
block 2
 70
     0
 10
0.0
 20
0.0
 30
0.0
  3
block 2
  1

  0
SPLINE
  5
79
330
75
100
AcDbEntity
  8
_U+30EC_U+30A4_U+30E4_U+30FC 1
370
     0
100
AcDbSpline
210
0.0
220
0.0
230
1.0
 70
    11
 71
     3
 72
    32
 73
    28
 74
     0
 42
0.0000000001
 43
0.0000000001
 12
1.0
 22
0.0
 32
0.0
 13
1.0
 23
0.0
 33
0.0
 40
0.0
 40
0.0
 40
0.0
 40
0.0
 40
1.0
 40
1.0
 40
1.0
 40
2.0
 40
2.0
 40
2.0
 40
3.0
 40
3.0
 40
3.0
 40
4.0
 40
4.0
 40
4.0
 40
5.0
 40
5.0
 40
5.0
 40
6.0
 40
6.0
 40
6.0
 40
7.0
 40
7.0
 40
7.0
 40
8.0
 40
8.0
 40
8.0
 40
9.0
 40
9.0
 40
9.0
 40
9.0
 10
88.14018416850315
 20
-123.8112195871028
 30
0.0
 10
87.62410886481273
 20
-123.8112195871028
 30
0.0
 10
87.6154961260996
 20
-123.2572482330746
 30
0.0
 10
87.6154961260996
 20
-123.0433078034406
 30
0.0
 10
87.6154961260996
 20
-122.8128309154773
 30
0.0
 10
87.634788660817
 20
-122.1654974737989
 30
0.0
 10
88.17842472838943
 20
-122.1654974737989
 30
0.0
 10
88.35171303129749
 20
-122.1654974737989
 30
0.0
 10
88.59734833939581
 20
-122.2354329121495
 30
0.0
 10
88.63524438973356
 20
-122.5675401169276
 30
0.0
 10
88.63524438973356
 20
-122.5675401169276
 30
0.0
 10
88.42164846964806
 20
-122.5675401169276
 30
0.0
 10
88.42164846964806
 20
-122.5675401169276
 30
0.0
 10
88.4109686736438
 20
-122.5103515318724
 30
0.0
 10
88.37927379517949
 20
-122.3622124260067
 30
0.0
 10
88.17635767109827
 20
-122.3622124260067
 30
0.0
 10
87.88421357394908
 20
-122.3622124260067
 30
0.0
 10
87.84425046632019
 20
-122.6901855162025
 30
0.0
 10
87.83150361302476
 20
-122.8951686975748
 30
0.0
 10
87.92452119112652
 20
-122.8169650300596
 30
0.0
 10
87.99238957218593
 20
-122.7577093877134
 30
0.0
 10
88.17429061380713
 20
-122.7577093877134
 30
0.0
 10
88.35412459813716
 20
-122.7577093877134
 30
0.0
 10
88.65660398174211
 20
-122.8658853859502
 30
0.0
 10
88.65660398174211
 20
-123.2720621436612
 30
0.0
 10
88.65660398174211
 20
-123.5914224951438
 30
0.0
 10
88.45747746269467
 20
-123.8112195871028
 30
0.0
 10
88.14018416850315
 20
-123.8112195871028
 30
0.0
  0
SPLINE
  5
7A
330
75
100
AcDbEntity
  8
_U+30EC_U+30A4_U+30E4_U+30FC 1
370
     0
100
AcDbSpline
210
0.0
220
0.0
230
1.0
 70
    11
 71
     3
 72
    17
 73
    13
 74
     0
 42
0.0000000001
 43
0.0000000001
 12
1.0
 22
0.0
 32
0.0
 13
1.0
 23
0.0
 33
0.0
 40
0.0
 40
0.0
 40
0.0
 40
0.0
 40
1.0
 40
1.0
 40
1.0
 40
2.0
 40
2.0
 40
2.0
 40
3.0
 40
3.0
 40
3.0
 40
4.0
 40
4.0
 40
4.0
 40
4.0
 10
88.15706513638088
 20
-122.95235728263
 30
0.0
 10
87.89489336995337
 20
-122.95235728263
 30
0.0
 10
87.85699731961562
 20
-123.1638861454243
 30
0.0
 10
87.85699731961562
 20
-123.2803303728258
 30
0.0
 10
87.85699731961562
 20
-123.4560302425735
 30
0.0
 10
87.95208195500851
 20
-123.6189832590258
 30
0.0
 10
88.13605005392085
 20
-123.6189832590258
 30
0.0
 10
88.2566283959046
 20
-123.6189832590258
 30
0.0
 10
88.43232826565234
 20
-123.5597276166795
 30
0.0
 10
88.43232826565234
 20
-123.2741292009523
 30
0.0
 10
88.43232826565234
 20
-123.0498534848625
 30
0.0
 10
88.29280189849972
 20
-122.95235728263
 30
0.0
 10
88.15706513638088
 20
-122.95235728263
 30
0.0
  0
HATCH
  5
7B
330
75
100
AcDbEntity
  8
_U+30EC_U+30A4_U+30E4_U+30FC 1
 62
     7
420
 16777215
100
AcDbHatch
 10
0.0
 20
0.0
 30
0.0
210
0.0
220
0.0
230
1.0
  2
SOLID
 70
     1
 71
     0
 91
        2
 92
        1
 93
        1
 72
     4
 94
        3
 73
     0
 74
     1
 95
       32
 96
       28
 40
0.0
 40
0.0
 40
0.0
 40
0.0
 40
1.0
 40
1.0
 40
1.0
 40
2.0
 40
2.0
 40
2.0
 40
3.0
 40
3.0
 40
3.0
 40
4.0
 40
4.0
 40
4.0
 40
5.0
 40
5.0
 40
5.0
 40
6.0
 40
6.0
 40
6.0
 40
7.0
 40
7.0
 40
7.0
 40
8.0
 40
8.0
 40
8.0
 40
9.0
 40
9.0
 40
9.0
 40
9.0
 10
88.14018416850315
 20
-123.8112195871028
 10
87.62410886481273
 20
-123.8112195871028
 10
87.6154961260996
 20
-123.2572482330746
 10
87.6154961260996
 20
-123.0433078034406
 10
87.6154961260996
 20
-122.8128309154773
 10
87.634788660817
 20
-122.1654974737989
 10
88.17842472838943
 20
-122.1654974737989
 10
88.35171303129749
 20
-122.1654974737989
 10
88.59734833939581
 20
-122.2354329121495
 10
88.63524438973356
 20
-122.5675401169276
 10
88.63524438973356
 20
-122.5675401169276
 10
88.42164846964806
 20
-122.5675401169276
 10
88.42164846964806
 20
-122.5675401169276
 10
88.4109686736438
 20
-122.5103515318724
 10
88.37927379517949
 20
-122.3622124260067
 10
88.17635767109827
 20
-122.3622124260067
 10
87.88421357394908
 20
-122.3622124260067
 10
87.84425046632019
 20
-122.6901855162025
 10
87.83150361302476
 20
-122.8951686975748
 10
87.92452119112652
 20
-122.8169650300596
 10
87.99238957218593
 20
-122.7577093877134
 10
88.17429061380713
 20
-122.7577093877134
 10
88.35412459813716
 20
-122.7577093877134
 10
88.65660398174211
 20
-122.8658853859502
 10
88.65660398174211
 20
-123.2720621436612
 10
88.65660398174211
 20
-123.5914224951438
 10
88.45747746269467
 20
-123.8112195871028
 10
88.14018416850315
 20
-123.8112195871028
 97
        0
 97
        0
 92
        1
 93
        1
 72
     4
 94
        3
 73
     0
 74
     1
 95
       17
 96
       13
 40
0.0
 40
0.0
 40
0.0
 40
0.0
 40
1.0
 40
1.0
 40
1.0
 40
2.0
 40
2.0
 40
2.0
 40
3.0
 40
3.0
 40
3.0
 40
4.0
 40
4.0
 40
4.0
 40
4.0
 10
88.15706513638088
 20
-122.95235728263
 10
87.89489336995337
 20
-122.95235728263
 10
87.85699731961562
 20
-123.1638861454243
 10
87.85699731961562
 20
-123.2803303728258
 10
87.85699731961562
 20
-123.4560302425735
 10
87.95208195500851
 20
-123.6189832590258
 10
88.13605005392085
 20
-123.6189832590258
 10
88.2566283959046
 20
-123.6189832590258
 10
88.43232826565234
 20
-123.5597276166795
 10
88.43232826565234
 20
-123.2741292009523
 10
88.43232826565234
 20
-123.0498534848625
 10
88.29280189849972
 20
-122.95235728263
 10
88.15706513638088
 20
-122.95235728263
 97
        0
 97
        0
 75
     2
 76
     1
 98
        0
  0
ENDBLK
  5
78
330
75
100
AcDbEntity
  8
0
100
AcDbBlockEnd
  0
BLOCK
  5
7E
330
7C
100
AcDbEntity
  8
0
100
AcDbBlockBegin
  2
block 3
 70
     0
 10
0.0
 20
0.0
 30
0.0
  3
block 3
  1

  0
SPLINE
  5
80
330
7C
100
AcDbEntity
  8
_U+30EC_U+30A4_U+30E4_U+30FC 1
370
     0
100
AcDbSpline
210
0.0
220
0.0
230
1.0
 70
    11
 71
     3
 72
    26
 73
    22
 74
     0
 42
0.0000000001
 43
0.0000000001
 12
1.0
 22
0.0
 32
0.0
 13
1.0
 23
0.0
 33
0.0
 40
0.0
 40
0.0
 40
0.0
 40
0.0
 40
1.0
 40
1.0
 40
1.0
 40
2.0
 40
2.0
 40
2.0
 40
3.0
 40
3.0
 40
3.0
 40
4.0
 40
4.0
 40
4.0
 40
5.0
 40
5.0
 40
5.0
 40
6.0
 40
6.0
 40
6.0
 40
7.0
 40
7.0
 40
7.0
 40
7.0
 10
81.61035018576061
 20
-123.7605766834696
 30
0.0
 10
81.61035018576061
 20
-123.7605766834696
 30
0.0
 10
81.37332761637542
 20
-123.7605766834696
 30
0.0
 10
81.37332761637542
 20
-123.7605766834696
 30
0.0
 10
81.39882132296627
 20
-123.4515516184427
 30
0.0
 10
81.59140216059174
 20
-122.9334092574611
 30
0.0
 10
81.9975789183027
 20
-122.4276692402264
 30
0.0
 10
81.9975789183027
 20
-122.4276692402264
 30
0.0
 10
81.15973169628994
 20
-122.4276692402264
 30
0.0
 10
81.15973169628994
 20
-122.4276692402264
 30
0.0
 10
81.15973169628994
 20
-122.4276692402264
 30
0.0
 10
81.15973169628994
 20
-122.2161403774321
 30
0.0
 10
81.15973169628994
 20
-122.2161403774321
 30
0.0
 10
81.15973169628994
 20
-122.2161403774321
 30
0.0
 10
82.23460148768788
 20
-122.2161403774321
 30
0.0
 10
82.23460148768788
 20
-122.2161403774321
 30
0.0
 10
82.23460148768788
 20
-122.2161403774321
 30
0.0
 10
82.23460148768788
 20
-122.4276692402264
 30
0.0
 10
82.23460148768788
 20
-122.4276692402264
 30
0.0
 10
81.9107625120744
 20
-122.7177462800845
 30
0.0
 10
81.64411212151606
 20
-123.3099581939989
 30
0.0
 10
81.61035018576061
 20
-123.7605766834696
 30
0.0
  0
HATCH
  5
81
330
7C
100
AcDbEntity
  8
_U+30EC_U+30A4_U+30E4_U+30FC 1
 62
     7
420
 16777215
100
AcDbHatch
 10
0.0
 20
0.0
 30
0.0
210
0.0
220
0.0
230
1.0
  2
SOLID
 70
     1
 71
     0
 91
        1
 92
        1
 93
        1
 72
     4
 94
        3
 73
     0
 74
     1
 95
       26
 96
       22
 40
0.0
 40
0.0
 40
0.0
 40
0.0
 40
1.0
 40
1.0
 40
1.0
 40
2.0
 40
2.0
 40
2.0
 40
3.0
 40
3.0
 40
3.0
 40
4.0
 40
4.0
 40
4.0
 40
5.0
 40
5.0
 40
5.0
 40
6.0
 40
6.0
 40
6.0
 40
7.0
 40
7.0
 40
7.0
 40
7.0
 10
81.61035018576061
 20
-123.7605766834696
 10
81.61035018576061
 20
-123.7605766834696
 10
81.37332761637542
 20
-123.7605766834696
 10
81.37332761637542
 20
-123.7605766834696
 10
81.39882132296627
 20
-123.4515516184427
 10
81.59140216059174
 20
-122.9334092574611
 10
81.9975789183027
 20
-122.4276692402264
 10
81.9975789183027
 20
-122.4276692402264
 10
81.15973169628994
 20
-122.4276692402264
 10
81.15973169628994
 20
-122.4276692402264
 10
81.15973169628994
 20
-122.4276692402264
 10
81.15973169628994
 20
-122.2161403774321
 10
81.15973169628994
 20
-122.2161403774321
 10
81.15973169628994
 20
-122.2161403774321
 10
82.23460148768788
 20
-122.2161403774321
 10
82.23460148768788
 20
-122.2161403774321
 10
82.23460148768788
 20
-122.2161403774321
 10
82.23460148768788
 20
-122.4276692402264
 10
82.23460148768788
 20
-122.4276692402264
 10
81.9107625120744
 20
-122.7177462800845
 10
81.64411212151606
 20
-123.3099581939989
 10
81.61035018576061
 20
-123.7605766834696
 97
        0
 97
        0
 75
     2
 76
     1
 98
        0
  0
ENDBLK
  5
7F
330
7C
100
AcDbEntity
  8
0
100
AcDbBlockEnd
  0
BLOCK
  5
84
330
82
100
AcDbEntity
  8
0
100
AcDbBlockBegin
  2
block 4
 70
     0
 10
0.0
 20
0.0
 30
0.0
  3
block 4
  1

  0
SPLINE
  5
86
330
82
100
AcDbEntity
  8
_U+30EC_U+30A4_U+30E4_U+30FC 1
370
     0
100
AcDbSpline
210
0.0
220
0.0
230
1.0
 70
    11
 71
     3
 72
    26
 73
    22
 74
     0
 42
0.0000000001
 43
0.0000000001
 12
1.0
 22
0.0
 32
0.0
 13
1.0
 23
0.0
 33
0.0
 40
0.0
 40
0.0
 40
0.0
 40
0.0
 40
1.0
 40
1.0
 40
1.0
 40
2.0
 40
2.0
 40
2.0
 40
3.0
 40
3.0
 40
3.0
 40
4.0
 40
4.0
 40
4.0
 40
5.0
 40
5.0
 40
5.0
 40
6.0
 40
6.0
 40
6.0
 40
7.0
 40
7.0
 40
7.0
 40
7.0
 10
94.33050399117433
 20
-123.7605766834696
 30
0.0
 10
94.33050399117433
 20
-123.7605766834696
 30
0.0
 10
94.09348142178914
 20
-123.7605766834696
 30
0.0
 10
94.09348142178914
 20
-123.7605766834696
 30
0.0
 10
94.11897512837999
 20
-123.4515516184427
 30
0.0
 10
94.31155596600544
 20
-122.9334092574611
 30
0.0
 10
94.71773272371641
 20
-122.4276692402264
 30
0.0
 10
94.71773272371641
 20
-122.4276692402264
 30
0.0
 10
93.87988550170364
 20
-122.4276692402264
 30
0.0
 10
93.87988550170364
 20
-122.4276692402264
 30
0.0
 10
93.87988550170364
 20
-122.4276692402264
 30
0.0
 10
93.87988550170364
 20
-122.2161403774321
 30
0.0
 10
93.87988550170364
 20
-122.2161403774321
 30
0.0
 10
93.87988550170364
 20
-122.2161403774321
 30
0.0
 10
94.9547552931016
 20
-122.2161403774321
 30
0.0
 10
94.9547552931016
 20
-122.2161403774321
 30
0.0
 10
94.9547552931016
 20
-122.2161403774321
 30
0.0
 10
94.9547552931016
 20
-122.4276692402264
 30
0.0
 10
94.9547552931016
 20
-122.4276692402264
 30
0.0
 10
94.63091631748811
 20
-122.7177462800845
 30
0.0
 10
94.36426592692978
 20
-123.3099581939989
 30
0.0
 10
94.33050399117433
 20
-123.7605766834696
 30
0.0
  0
HATCH
  5
87
330
82
100
AcDbEntity
  8
_U+30EC_U+30A4_U+30E4_U+30FC 1
 62
     7
420
 16777215
100
AcDbHatch
 10
0.0
 20
0.0
 30
0.0
210
0.0
220
0.0
230
1.0
  2
SOLID
 70
     1
 71
     0
 91
        1
 92
        1
 93
        1
 72
     4
 94
        3
 73
     0
 74
     1
 95
       26
 96
       22
 40
0.0
 40
0.0
 40
0.0
 40
0.0
 40
1.0
 40
1.0
 40
1.0
 40
2.0
 40
2.0
 40
2.0
 40
3.0
 40
3.0
 40
3.0
 40
4.0
 40
4.0
 40
4.0
 40
5.0
 40
5.0
 40
5.0
 40
6.0
 40
6.0
 40
6.0
 40
7.0
 40
7.0
 40
7.0
 40
7.0
 10
94.33050399117433
 20
-123.7605766834696
 10
94.33050399117433
 20
-123.7605766834696
 10
94.09348142178914
 20
-123.7605766834696
 10
94.09348142178914
 20
-123.7605766834696
 10
94.11897512837999
 20
-123.4515516184427
 10
94.31155596600544
 20
-122.9334092574611
 10
94.71773272371641
 20
-122.4276692402264
 10
94.71773272371641
 20
-122.4276692402264
 10
93.87988550170364
 20
-122.4276692402264
 10
93.87988550170364
 20
-122.4276692402264
 10
93.87988550170364
 20
-122.4276692402264
 10
93.87988550170364
 20
-122.2161403774321
 10
93.87988550170364
 20
-122.2161403774321
 10
93.87988550170364
 20
-122.2161403774321
 10
94.9547552931016
 20
-122.2161403774321
 10
94.9547552931016
 20
-122.2161403774321
 10
94.9547552931016
 20
-122.2161403774321
 10
94.9547552931016
 20
-122.4276692402264
 10
94.9547552931016
 20
-122.4276692402264
 10
94.63091631748811
 20
-122.7177462800845
 10
94.36426592692978
 20
-123.3099581939989
 10
94.33050399117433
 20
-123.7605766834696
 97
        0
 97
        0
 75
     2
 76
     1
 98
        0
  0
ENDBLK
  5
85
330
82
100
AcDbEntity
  8
0
100
AcDbBlockEnd
  0
BLOCK
  5
9A
330
98
100
AcDbEntity
  8
0
100
AcDbBlockBegin
  2
block 5
 70
     0
 10
0.0
 20
0.0
 30
0.0
  3
block 5
  1

  0
SPLINE
  5
9C
330
98
100
AcDbEntity
  8
_U+30EC_U+30A4_U+30E4_U+30FC 1
370
     0
100
AcDbSpline
210
0.0
220
0.0
230
1.0
 70
    11
 71
     3
 72
    32
 73
    28
 74
     0
 42
0.0000000001
 43
0.0000000001
 12
1.0
 22
0.0
 32
0.0
 13
1.0
 23
0.0
 33
0.0
 40
0.0
 40
0.0
 40
0.0
 40
0.0
 40
1.0
 40
1.0
 40
1.0
 40
2.0
 40
2.0
 40
2.0
 40
3.0
 40
3.0
 40
3.0
 40
4.0
 40
4.0
 40
4.0
 40
5.0
 40
5.0
 40
5.0
 40
6.0
 40
6.0
 40
6.0
 40
7.0
 40
7.0
 40
7.0
 40
8.0
 40
8.0
 40
8.0
 40
9.0
 40
9.0
 40
9.0
 40
9.0
 10
101.9190158165341
 20
-132.0735920893774
 30
0.0
 10
101.9190158165341
 20
-132.5896673930679
 30
0.0
 10
101.3646999529574
 20
-132.598280131781
 30
0.0
 10
101.151104032872
 20
-132.598280131781
 30
0.0
 10
100.9206271449087
 20
-132.598280131781
 30
0.0
 10
100.2732937032303
 20
-132.5789875970636
 30
0.0
 10
100.2732937032303
 20
-132.0353515294912
 30
0.0
 10
100.2732937032303
 20
-131.8620632265831
 30
0.0
 10
100.3428846320323
 20
-131.6164279184848
 30
0.0
 10
100.6749918368104
 20
-131.5785318681471
 30
0.0
 10
100.6749918368104
 20
-131.5785318681471
 30
0.0
 10
100.6749918368104
 20
-131.7921277882325
 30
0.0
 10
100.6749918368104
 20
-131.7921277882325
 30
0.0
 10
100.6181477613038
 20
-131.8028075842368
 30
0.0
 10
100.4700086554381
 20
-131.8345024627011
 30
0.0
 10
100.4700086554381
 20
-132.0374185867823
 30
0.0
 10
100.4700086554381
 20
-132.3295626839315
 30
0.0
 10
100.7979817456338
 20
-132.3695257915604
 30
0.0
 10
101.0029649270062
 20
-132.3822726448558
 30
0.0
 10
100.924761259491
 20
-132.2892550667541
 30
0.0
 10
100.8655056171447
 20
-132.2213866856947
 30
0.0
 10
100.8655056171447
 20
-132.0394856440735
 30
0.0
 10
100.8655056171447
 20
-131.8596516597434
 30
0.0
 10
100.9733371058331
 20
-131.5571722761385
 30
0.0
 10
101.379513863544
 20
-131.5571722761385
 30
0.0
 10
101.6992187245752
 20
-131.5571722761385
 30
0.0
 10
101.9190158165341
 20
-131.7562987951859
 30
0.0
 10
101.9190158165341
 20
-132.0735920893774
 30
0.0
  0
SPLINE
  5
9D
330
98
100
AcDbEntity
  8
_U+30EC_U+30A4_U+30E4_U+30FC 1
370
     0
100
AcDbSpline
210
0.0
220
0.0
230
1.0
 70
    11
 71
     3
 72
    17
 73
    13
 74
     0
 42
0.0000000001
 43
0.0000000001
 12
1.0
 22
0.0
 32
0.0
 13
1.0
 23
0.0
 33
0.0
 40
0.0
 40
0.0
 40
0.0
 40
0.0
 40
1.0
 40
1.0
 40
1.0
 40
2.0
 40
2.0
 40
2.0
 40
3.0
 40
3.0
 40
3.0
 40
4.0
 40
4.0
 40
4.0
 40
4.0
 10
101.0601535120614
 20
-132.0567111214997
 30
0.0
 10
101.0601535120614
 20
-132.3188828879272
 30
0.0
 10
101.2716823748557
 20
-132.356778938265
 30
0.0
 10
101.3881266022571
 20
-132.356778938265
 30
0.0
 10
101.5638264720049
 20
-132.356778938265
 30
0.0
 10
101.7264349789087
 20
-132.2616943028721
 30
0.0
 10
101.7264349789087
 20
-132.0777262039597
 30
0.0
 10
101.7264349789087
 20
-131.957147861976
 30
0.0
 10
101.6671793365624
 20
-131.7814479922283
 30
0.0
 10
101.3815809208352
 20
-131.7814479922283
 30
0.0
 10
101.1576497142939
 20
-131.7814479922283
 30
0.0
 10
101.0601535120614
 20
-131.9209743593809
 30
0.0
 10
101.0601535120614
 20
-132.0567111214997
 30
0.0
  0
HATCH
  5
9E
330
98
100
AcDbEntity
  8
_U+30EC_U+30A4_U+30E4_U+30FC 1
 62
     7
420
 16777215
100
AcDbHatch
 10
0.0
 20
0.0
 30
0.0
210
0.0
220
0.0
230
1.0
  2
SOLID
 70
     1
 71
     0
 91
        2
 92
        1
 93
        1
 72
     4
 94
        3
 73
     0
 74
     1
 95
       32
 96
       28
 40
0.0
 40
0.0
 40
0.0
 40
0.0
 40
1.0
 40
1.0
 40
1.0
 40
2.0
 40
2.0
 40
2.0
 40
3.0
 40
3.0
 40
3.0
 40
4.0
 40
4.0
 40
4.0
 40
5.0
 40
5.0
 40
5.0
 40
6.0
 40
6.0
 40
6.0
 40
7.0
 40
7.0
 40
7.0
 40
8.0
 40
8.0
 40
8.0
 40
9.0
 40
9.0
 40
9.0
 40
9.0
 10
101.9190158165341
 20
-132.0735920893774
 10
101.9190158165341
 20
-132.5896673930679
 10
101.3646999529574
 20
-132.598280131781
 10
101.151104032872
 20
-132.598280131781
 10
100.9206271449087
 20
-132.598280131781
 10
100.2732937032303
 20
-132.5789875970636
 10
100.2732937032303
 20
-132.0353515294912
 10
100.2732937032303
 20
-131.8620632265831
 10
100.3428846320323
 20
-131.6164279184848
 10
100.6749918368104
 20
-131.5785318681471
 10
100.6749918368104
 20
-131.5785318681471
 10
100.6749918368104
 20
-131.7921277882325
 10
100.6749918368104
 20
-131.7921277882325
 10
100.6181477613038
 20
-131.8028075842368
 10
100.4700086554381
 20
-131.8345024627011
 10
100.4700086554381
 20
-132.0374185867823
 10
100.4700086554381
 20
-132.3295626839315
 10
100.7979817456338
 20
-132.3695257915604
 10
101.0029649270062
 20
-132.3822726448558
 10
100.924761259491
 20
-132.2892550667541
 10
100.8655056171447
 20
-132.2213866856947
 10
100.8655056171447
 20
-132.0394856440735
 10
100.8655056171447
 20
-131.8596516597434
 10
100.9733371058331
 20
-131.5571722761385
 10
101.379513863544
 20
-131.5571722761385
 10
101.6992187245752
 20
-131.5571722761385
 10
101.9190158165341
 20
-131.7562987951859
 10
101.9190158165341
 20
-132.0735920893774
 97
        0
 97
        0
 92
        1
 93
        1
 72
     4
 94
        3
 73
     0
 74
     1
 95
       17
 96
       13
 40
0.0
 40
0.0
 40
0.0
 40
0.0
 40
1.0
 40
1.0
 40
1.0
 40
2.0
 40
2.0
 40
2.0
 40
3.0
 40
3.0
 40
3.0
 40
4.0
 40
4.0
 40
4.0
 40
4.0
 10
101.0601535120614
 20
-132.0567111214997
 10
101.0601535120614
 20
-132.3188828879272
 10
101.2716823748557
 20
-132.356778938265
 10
101.3881266022571
 20
-132.356778938265
 10
101.5638264720049
 20
-132.356778938265
 10
101.7264349789087
 20
-132.2616943028721
 10
101.7264349789087
 20
-132.0777262039597
 10
101.7264349789087
 20
-131.957147861976
 10
101.6671793365624
 20
-131.7814479922283
 10
101.3815809208352
 20
-131.7814479922283
 10
101.1576497142939
 20
-131.7814479922283
 10
101.0601535120614
 20
-131.9209743593809
 10
101.0601535120614
 20
-132.0567111214997
 97
        0
 97
        0
 75
     2
 76
     1
 98
        0
  0
ENDBLK
  5
9B
330
98
100
AcDbEntity
  8
0
100
AcDbBlockEnd
  0
BLOCK
  5
A1
330
9F
100
AcDbEntity
  8
0
100
AcDbBlockBegin
  2
block 6
 70
     0
 10
0.0
 20
0.0
 30
0.0
  3
block 6
  1

  0
SPLINE
  5
A3
330
9F
100
AcDbEntity
  8
_U+30EC_U+30A4_U+30E4_U+30FC 1
370
     0
100
AcDbSpline
210
0.0
220
0.0
230
1.0
 70
    11
 71
     3
 72
    26
 73
    22
 74
     0
 42
0.0000000001
 43
0.0000000001
 12
1.0
 22
0.0
 32
0.0
 13
1.0
 23
0.0
 33
0.0
 40
0.0
 40
0.0
 40
0.0
 40
0.0
 40
1.0
 40
1.0
 40
1.0
 40
2.0
 40
2.0
 40
2.0
 40
3.0
 40
3.0
 40
3.0
 40
4.0
 40
4.0
 40
4.0
 40
5.0
 40
5.0
 40
5.0
 40
6.0
 40
6.0
 40
6.0
 40
7.0
 40
7.0
 40
7.0
 40
7.0
 10
101.8880099571669
 20
-126.2255425031658
 30
0.0
 10
101.8880099571669
 20
-126.2255425031658
 30
0.0
 10
100.7835123445958
 20
-126.2255425031658
 30
0.0
 10
100.7835123445958
 20
-126.2255425031658
 30
0.0
 10
100.7835123445958
 20
-126.2255425031658
 30
0.0
 10
100.7835123445958
 20
-126.5555826506528
 30
0.0
 10
100.7835123445958
 20
-126.5555826506528
 30
0.0
 10
100.7835123445958
 20
-126.5555826506528
 30
0.0
 10
100.6353732387301
 20
-126.5555826506528
 30
0.0
 10
100.6353732387301
 20
-126.5555826506528
 30
0.0
 10
100.620903837692
 20
-126.2234754458747
 30
0.0
 10
100.4576063116912
 20
-126.1769666568238
 30
0.0
 10
100.3435736511294
 20
-126.1473388356507
 30
0.0
 10
100.3435736511294
 20
-126.1473388356507
 30
0.0
 10
100.3435736511294
 20
-126.0012667870761
 30
0.0
 10
100.3435736511294
 20
-126.0012667870761
 30
0.0
 10
100.3435736511294
 20
-126.0012667870761
 30
0.0
 10
101.8880099571669
 20
-126.0012667870761
 30
0.0
 10
101.8880099571669
 20
-126.0012667870761
 30
0.0
 10
101.8880099571669
 20
-126.0012667870761
 30
0.0
 10
101.8880099571669
 20
-126.2255425031658
 30
0.0
 10
101.8880099571669
 20
-126.2255425031658
 30
0.0
  0
HATCH
  5
A4
330
9F
100
AcDbEntity
  8
_U+30EC_U+30A4_U+30E4_U+30FC 1
 62
     7
420
 16777215
100
AcDbHatch
 10
0.0
 20
0.0
 30
0.0
210
0.0
220
0.0
230
1.0
  2
SOLID
 70
     1
 71
     0
 91
        1
 92
        1
 93
        1
 72
     4
 94
        3
 73
     0
 74
     1
 95
       26
 96
       22
 40
0.0
 40
0.0
 40
0.0
 40
0.0
 40
1.0
 40
1.0
 40
1.0
 40
2.0
 40
2.0
 40
2.0
 40
3.0
 40
3.0
 40
3.0
 40
4.0
 40
4.0
 40
4.0
 40
5.0
 40
5.0
 40
5.0
 40
6.0
 40
6.0
 40
6.0
 40
7.0
 40
7.0
 40
7.0
 40
7.0
 10
101.8880099571669
 20
-126.2255425031658
 10
101.8880099571669
 20
-126.2255425031658
 10
100.7835123445958
 20
-126.2255425031658
 10
100.7835123445958
 20
-126.2255425031658
 10
100.7835123445958
 20
-126.2255425031658
 10
100.7835123445958
 20
-126.5555826506528
 10
100.7835123445958
 20
-126.5555826506528
 10
100.7835123445958
 20
-126.5555826506528
 10
100.6353732387301
 20
-126.5555826506528
 10
100.6353732387301
 20
-126.5555826506528
 10
100.620903837692
 20
-126.2234754458747
 10
100.4576063116912
 20
-126.1769666568238
 10
100.3435736511294
 20
-126.1473388356507
 10
100.3435736511294
 20
-126.1473388356507
 10
100.3435736511294
 20
-126.0012667870761
 10
100.3435736511294
 20
-126.0012667870761
 10
100.3435736511294
 20
-126.0012667870761
 10
101.8880099571669
 20
-126.0012667870761
 10
101.8880099571669
 20
-126.0012667870761
 10
101.8880099571669
 20
-126.0012667870761
 10
101.8880099571669
 20
-126.2255425031658
 10
101.8880099571669
 20
-126.2255425031658
 97
        0
 97
        0
 75
     2
 76
     1
 98
        0
  0
POLYLINE
  5
A5
330
9F
100
AcDbEntity
  8
_U+30EC_U+30A4_U+30E4_U+30FC 1
370
     0
100
AcDb2dPolyline
 66
     1
 10
0.0
 20
0.0
 30
0.0
  0
VERTEX
  5
A6
330
A5
100
AcDbEntity
  8
_U+30EC_U+30A4_U+30E4_U+30FC 1
370
     0
100
AcDbVertex
100
AcDb2dVertex
 10
101.8880099571669
 20
-125.4400607325289
 30
0.0
  0
VERTEX
  5
A7
330
A5
100
AcDbEntity
  8
_U+30EC_U+30A4_U+30E4_U+30FC 1
370
     0
100
AcDbVertex
100
AcDb2dVertex
 10
101.6361734771951
 20
-125.4400607325289
 30
0.0
  0
VERTEX
  5
A8
330
A5
100
AcDbEntity
  8
_U+30EC_U+30A4_U+30E4_U+30FC 1
370
     0
100
AcDbVertex
100
AcDb2dVertex
 10
101.6361734771951
 20
-125.1882242525571
 30
0.0
  0
VERTEX
  5
A9
330
A5
100
AcDbEntity
  8
_U+30EC_U+30A4_U+30E4_U+30FC 1
370
     0
100
AcDbVertex
100
AcDb2dVertex
 10
101.8880099571669
 20
-125.1882242525571
 30
0.0
  0
VERTEX
  5
AA
330
A5
100
AcDbEntity
  8
_U+30EC_U+30A4_U+30E4_U+30FC 1
370
     0
100
AcDbVertex
100
AcDb2dVertex
 10
101.8880099571669
 20
-125.4400607325289
 30
0.0
  0
SEQEND
  5
AB
330
A5
100
AcDbEntity
  8
_U+30EC_U+30A4_U+30E4_U+30FC 1
370
     0
  0
HATCH
  5
AC
330
9F
100
AcDbEntity
  8
_U+30EC_U+30A4_U+30E4_U+30FC 1
 62
     7
420
 16777215
100
AcDbHatch
 10
0.0
 20
0.0
 30
0.0
210
0.0
220
0.0
230
1.0
  2
SOLID
 70
     1
 71
     0
 91
        1
 92
        1
 93
        4
 72
     1
 10
101.8880099571669
 20
-125.4400607325289
 11
101.6361734771951
 21
-125.4400607325289
 72
     1
 10
101.6361734771951
 20
-125.4400607325289
 11
101.6361734771951
 21
-125.1882242525571
 72
     1
 10
101.6361734771951
 20
-125.1882242525571
 11
101.8880099571669
 21
-125.1882242525571
 72
     1
 10
101.8880099571669
 20
-125.1882242525571
 11
101.8880099571669
 21
-125.4400607325289
 97
        0
 75
     2
 76
     1
 98
        0
  0
SPLINE
  5
AD
330
9F
100
AcDbEntity
  8
_U+30EC_U+30A4_U+30E4_U+30FC 1
370
     0
100
AcDbSpline
210
0.0
220
0.0
230
1.0
 70
    11
 71
     3
 72
    53
 73
    49
 74
     0
 42
0.0000000001
 43
0.0000000001
 12
1.0
 22
0.0
 32
0.0
 13
1.0
 23
0.0
 33
0.0
 40
0.0
 40
0.0
 40
0.0
 40
0.0
 40
1.0
 40
1.0
 40
1.0
 40
2.0
 40
2.0
 40
2.0
 40
3.0
 40
3.0
 40
3.0
 40
4.0
 40
4.0
 40
4.0
 40
5.0
 40
5.0
 40
5.0
 40
6.0
 40
6.0
 40
6.0
 40
7.0
 40
7.0
 40
7.0
 40
8.0
 40
8.0
 40
8.0
 40
9.0
 40
9.0
 40
9.0
 40
10.0
 40
10.0
 40
10.0
 40
11.0
 40
11.0
 40
11.0
 40
12.0
 40
12.0
 40
12.0
 40
13.0
 40
13.0
 40
13.0
 40
14.0
 40
14.0
 40
14.0
 40
15.0
 40
15.0
 40
15.0
 40
16.0
 40
16.0
 40
16.0
 40
16.0
 10
101.9386528608001
 20
-124.4709553725281
 30
0.0
 10
101.9386528608001
 20
-124.5491590400433
 30
0.0
 10
101.9217718929223
 20
-124.6507893568581
 30
0.0
 10
101.8583821359937
 20
-124.752419673673
 30
0.0
 10
101.7481390804657
 20
-124.9257079765811
 30
0.0
 10
101.6172254520262
 20
-124.9470675685896
 30
0.0
 10
101.5090494537894
 20
-124.9660155937585
 30
0.0
 10
101.5090494537894
 20
-124.9660155937585
 30
0.0
 10
101.5090494537894
 20
-124.7438069349599
 30
0.0
 10
101.5090494537894
 20
-124.7438069349599
 30
0.0
 10
101.7081759728369
 20
-124.6890299167444
 30
0.0
 10
101.73780379401
 20
-124.5619058933387
 30
0.0
 10
101.73780379401
 20
-124.468888315237
 30
0.0
 10
101.73780379401
 20
-124.3293619480843
 30
0.0
 10
101.6382405344863
 20
-124.1770887276363
 30
0.0
 10
101.4056965892319
 20
-124.1770887276363
 30
0.0
 10
101.1493814851293
 20
-124.1770887276363
 30
0.0
 10
101.0797905563273
 20
-124.3569227119663
 30
0.0
 10
101.0797905563273
 20
-124.4775010539501
 30
0.0
 10
101.0797905563273
 20
-124.5091959324144
 30
0.0
 10
101.0797905563273
 20
-124.6507893568581
 30
0.0
 10
101.2086371274756
 20
-124.7396728203776
 30
0.0
 10
101.2086371274756
 20
-124.7396728203776
 30
0.0
 10
101.1896891023067
 20
-124.9153726901253
 30
0.0
 10
101.1896891023067
 20
-124.9153726901253
 30
0.0
 10
101.1896891023067
 20
-124.9153726901253
 30
0.0
 10
100.3435736511294
 20
-124.7947943481416
 30
0.0
 10
100.3435736511294
 20
-124.7947943481416
 30
0.0
 10
100.3435736511294
 20
-124.7947943481416
 30
0.0
 10
100.3435736511294
 20
-124.0162027684751
 30
0.0
 10
100.3435736511294
 20
-124.0162027684751
 30
0.0
 10
100.3435736511294
 20
-124.0162027684751
 30
0.0
 10
100.538221546046
 20
-124.0162027684751
 30
0.0
 10
100.538221546046
 20
-124.0162027684751
 30
0.0
 10
100.538221546046
 20
-124.0162027684751
 30
0.0
 10
100.538221546046
 20
-124.6318413316893
 30
0.0
 10
100.538221546046
 20
-124.6318413316893
 30
0.0
 10
100.538221546046
 20
-124.6318413316893
 30
0.0
 10
100.9612792716347
 20
-124.697298145909
 30
0.0
 10
100.9612792716347
 20
-124.697298145909
 30
0.0
 10
100.9275173358792
 20
-124.6359754462716
 30
0.0
 10
100.8872097187018
 20
-124.5536376641741
 30
0.0
 10
100.8872097187018
 20
-124.4351263794815
 30
0.0
 10
100.8872097187018
 20
-124.1812228422186
 30
0.0
 10
101.0735893844538
 20
-123.9442002728334
 30
0.0
 10
101.3864040545145
 20
-123.9442002728334
 30
0.0
 10
101.7040418582546
 20
-123.9442002728334
 30
0.0
 10
101.9386528608001
 20
-124.1684759889232
 30
0.0
 10
101.9386528608001
 20
-124.4709553725281
 30
0.0
  0
HATCH
  5
AE
330
9F
100
AcDbEntity
  8
_U+30EC_U+30A4_U+30E4_U+30FC 1
 62
     7
420
 16777215
100
AcDbHatch
 10
0.0
 20
0.0
 30
0.0
210
0.0
220
0.0
230
1.0
  2
SOLID
 70
     1
 71
     0
 91
        1
 92
        1
 93
        1
 72
     4
 94
        3
 73
     0
 74
     1
 95
       53
 96
       49
 40
0.0
 40
0.0
 40
0.0
 40
0.0
 40
1.0
 40
1.0
 40
1.0
 40
2.0
 40
2.0
 40
2.0
 40
3.0
 40
3.0
 40
3.0
 40
4.0
 40
4.0
 40
4.0
 40
5.0
 40
5.0
 40
5.0
 40
6.0
 40
6.0
 40
6.0
 40
7.0
 40
7.0
 40
7.0
 40
8.0
 40
8.0
 40
8.0
 40
9.0
 40
9.0
 40
9.0
 40
10.0
 40
10.0
 40
10.0
 40
11.0
 40
11.0
 40
11.0
 40
12.0
 40
12.0
 40
12.0
 40
13.0
 40
13.0
 40
13.0
 40
14.0
 40
14.0
 40
14.0
 40
15.0
 40
15.0
 40
15.0
 40
16.0
 40
16.0
 40
16.0
 40
16.0
 10
101.9386528608001
 20
-124.4709553725281
 10
101.9386528608001
 20
-124.5491590400433
 10
101.9217718929223
 20
-124.6507893568581
 10
101.8583821359937
 20
-124.752419673673
 10
101.7481390804657
 20
-124.9257079765811
 10
101.6172254520262
 20
-124.9470675685896
 10
101.5090494537894
 20
-124.9660155937585
 10
101.5090494537894
 20
-124.9660155937585
 10
101.5090494537894
 20
-124.7438069349599
 10
101.5090494537894
 20
-124.7438069349599
 10
101.7081759728369
 20
-124.6890299167444
 10
101.73780379401
 20
-124.5619058933387
 10
101.73780379401
 20
-124.468888315237
 10
101.73780379401
 20
-124.3293619480843
 10
101.6382405344863
 20
-124.1770887276363
 10
101.4056965892319
 20
-124.1770887276363
 10
101.1493814851293
 20
-124.1770887276363
 10
101.0797905563273
 20
-124.3569227119663
 10
101.0797905563273
 20
-124.4775010539501
 10
101.0797905563273
 20
-124.5091959324144
 10
101.0797905563273
 20
-124.6507893568581
 10
101.2086371274756
 20
-124.7396728203776
 10
101.2086371274756
 20
-124.7396728203776
 10
101.1896891023067
 20
-124.9153726901253
 10
101.1896891023067
 20
-124.9153726901253
 10
101.1896891023067
 20
-124.9153726901253
 10
100.3435736511294
 20
-124.7947943481416
 10
100.3435736511294
 20
-124.7947943481416
 10
100.3435736511294
 20
-124.7947943481416
 10
100.3435736511294
 20
-124.0162027684751
 10
100.3435736511294
 20
-124.0162027684751
 10
100.3435736511294
 20
-124.0162027684751
 10
100.538221546046
 20
-124.0162027684751
 10
100.538221546046
 20
-124.0162027684751
 10
100.538221546046
 20
-124.0162027684751
 10
100.538221546046
 20
-124.6318413316893
 10
100.538221546046
 20
-124.6318413316893
 10
100.538221546046
 20
-124.6318413316893
 10
100.9612792716347
 20
-124.697298145909
 10
100.9612792716347
 20
-124.697298145909
 10
100.9275173358792
 20
-124.6359754462716
 10
100.8872097187018
 20
-124.5536376641741
 10
100.8872097187018
 20
-124.4351263794815
 10
100.8872097187018
 20
-124.1812228422186
 10
101.0735893844538
 20
-123.9442002728334
 10
101.3864040545145
 20
-123.9442002728334
 10
101.7040418582546
 20
-123.9442002728334
 10
101.9386528608001
 20
-124.1684759889232
 10
101.9386528608001
 20
-124.4709553725281
 97
        0
 97
        0
 75
     2
 76
     1
 98
        0
  0
ENDBLK
  5
A2
330
9F
100
AcDbEntity
  8
0
100
AcDbBlockEnd
  0
BLOCK
  5
CF
330
CD
100
AcDbEntity
  8
0
100
AcDbBlockBegin
  2
block 7
 70
     0
 10
0.0
 20
0.0
 30
0.0
  3
block 7
  1

  0
SPLINE
  5
D1
330
CD
100
AcDbEntity
  8
_U+30EC_U+30A4_U+30E4_U+30FC 1
370
     0
100
AcDbSpline
210
0.0
220
0.0
230
1.0
 70
    11
 71
     3
 72
    26
 73
    22
 74
     0
 42
0.0000000001
 43
0.0000000001
 12
1.0
 22
0.0
 32
0.0
 13
1.0
 23
0.0
 33
0.0
 40
0.0
 40
0.0
 40
0.0
 40
0.0
 40
1.0
 40
1.0
 40
1.0
 40
2.0
 40
2.0
 40
2.0
 40
3.0
 40
3.0
 40
3.0
 40
4.0
 40
4.0
 40
4.0
 40
5.0
 40
5.0
 40
5.0
 40
6.0
 40
6.0
 40
6.0
 40
7.0
 40
7.0
 40
7.0
 40
7.0
 10
86.30153670802531
 20
-129.1700656144089
 30
0.0
 10
86.30153670802531
 20
-129.1700656144089
 30
0.0
 10
86.30153670802531
 20
-128.0659125113863
 30
0.0
 10
86.30153670802531
 20
-128.0659125113863
 30
0.0
 10
86.30153670802531
 20
-128.0659125113863
 30
0.0
 10
85.97149656053838
 20
-128.0659125113863
 30
0.0
 10
85.97149656053838
 20
-128.0659125113863
 30
0.0
 10
85.97149656053838
 20
-128.0659125113863
 30
0.0
 10
85.97149656053838
 20
-127.9177734055206
 30
0.0
 10
85.97149656053838
 20
-127.9177734055206
 30
0.0
 10
86.30360376531647
 20
-127.902959494934
 30
0.0
 10
86.35011255436734
 20
-127.7400064784817
 30
0.0
 10
86.37974037554048
 20
-127.6256293083714
 30
0.0
 10
86.37974037554048
 20
-127.6256293083714
 30
0.0
 10
86.52581242411507
 20
-127.6256293083714
 30
0.0
 10
86.52581242411507
 20
-127.6256293083714
 30
0.0
 10
86.52581242411507
 20
-127.6256293083714
 30
0.0
 10
86.52581242411507
 20
-129.1700656144089
 30
0.0
 10
86.52581242411507
 20
-129.1700656144089
 30
0.0
 10
86.52581242411507
 20
-129.1700656144089
 30
0.0
 10
86.30153670802531
 20
-129.1700656144089
 30
0.0
 10
86.30153670802531
 20
-129.1700656144089
 30
0.0
  0
HATCH
  5
D2
330
CD
100
AcDbEntity
  8
_U+30EC_U+30A4_U+30E4_U+30FC 1
 62
     7
420
 16777215
100
AcDbHatch
 10
0.0
 20
0.0
 30
0.0
210
0.0
220
0.0
230
1.0
  2
SOLID
 70
     1
 71
     0
 91
        1
 92
        1
 93
        1
 72
     4
 94
        3
 73
     0
 74
     1
 95
       26
 96
       22
 40
0.0
 40
0.0
 40
0.0
 40
0.0
 40
1.0
 40
1.0
 40
1.0
 40
2.0
 40
2.0
 40
2.0
 40
3.0
 40
3.0
 40
3.0
 40
4.0
 40
4.0
 40
4.0
 40
5.0
 40
5.0
 40
5.0
 40
6.0
 40
6.0
 40
6.0
 40
7.0
 40
7.0
 40
7.0
 40
7.0
 10
86.30153670802531
 20
-129.1700656144089
 10
86.30153670802531
 20
-129.1700656144089
 10
86.30153670802531
 20
-128.0659125113863
 10
86.30153670802531
 20
-128.0659125113863
 10
86.30153670802531
 20
-128.0659125113863
 10
85.97149656053838
 20
-128.0659125113863
 10
85.97149656053838
 20
-128.0659125113863
 10
85.97149656053838
 20
-128.0659125113863
 10
85.97149656053838
 20
-127.9177734055206
 10
85.97149656053838
 20
-127.9177734055206
 10
86.30360376531647
 20
-127.902959494934
 10
86.35011255436734
 20
-127.7400064784817
 10
86.37974037554048
 20
-127.6256293083714
 10
86.37974037554048
 20
-127.6256293083714
 10
86.52581242411507
 20
-127.6256293083714
 10
86.52581242411507
 20
-127.6256293083714
 10
86.52581242411507
 20
-127.6256293083714
 10
86.52581242411507
 20
-129.1700656144089
 10
86.52581242411507
 20
-129.1700656144089
 10
86.52581242411507
 20
-129.1700656144089
 10
86.30153670802531
 20
-129.1700656144089
 10
86.30153670802531
 20
-129.1700656144089
 97
        0
 97
        0
 75
     2
 76
     1
 98
        0
  0
ENDBLK
  5
D0
330
CD
100
AcDbEntity
  8
0
100
AcDbBlockEnd
  0
ENDSEC
  0
SECTION
  2
ENTITIES
  0
POLYLINE
  5
41
330
1F
100
AcDbEntity
  8
_U+30EC_U+30A4_U+30E4_U+30FC 1
370
     0
100
AcDb2dPolyline
 66
     1
 10
0.0
 20
0.0
 30
0.0
  0
VERTEX
  5
42
330
41
100
AcDbEntity
  8
_U+30EC_U+30A4_U+30E4_U+30FC 1
370
     0
100
AcDbVertex
100
AcDb2dVertex
 10
78.16937995017742
 20
-128.3179071901429
 30
0.0
  0
VERTEX
  5
43
330
41
100
AcDbEntity
  8
_U+30EC_U+30A4_U+30E4_U+30FC 1
370
     0
100
AcDbVertex
100
AcDb2dVertex
 10
79.1695049246621
 20
-127.3179938570593
 30
0.0
  0
VERTEX
  5
44
330
41
100
AcDbEntity
  8
_U+30EC_U+30A4_U+30E4_U+30FC 1
370
     0
100
AcDbVertex
100
AcDb2dVertex
 10
85.16947866047892
 20
-127.3179938570593
 30
0.0
  0
VERTEX
  5
45
330
41
100
AcDbEntity
  8
_U+30EC_U+30A4_U+30E4_U+30FC 1
370
     0
100
AcDbVertex
100
AcDb2dVertex
 10
85.16947866047892
 20
-133.8178538554343
 30
0.0
  0
VERTEX
  5
46
330
41
100
AcDbEntity
  8
_U+30EC_U+30A4_U+30E4_U+30FC 1
370
     0
100
AcDbVertex
100
AcDb2dVertex
 10
87.8697455360338
 20
-133.8178538554343
 30
0.0
  0
VERTEX
  5
47
330
41
100
AcDbEntity
  8
_U+30EC_U+30A4_U+30E4_U+30FC 1
370
     0
100
AcDbVertex
100
AcDb2dVertex
 10
88.16946552838732
 20
-134.1182441331372
 30
0.0
  0
VERTEX
  5
48
330
41
100
AcDbEntity
  8
_U+30EC_U+30A4_U+30E4_U+30FC 1
370
     0
100
AcDbVertex
100
AcDb2dVertex
 10
88.46953829850959
 20
-133.8178538554343
 30
0.0
  0
VERTEX
  5
49
330
41
100
AcDbEntity
  8
_U+30EC_U+30A4_U+30E4_U+30FC 1
370
     0
100
AcDbVertex
100
AcDb2dVertex
 10
91.16945239629571
 20
-133.8178538554343
 30
0.0
  0
VERTEX
  5
4A
330
41
100
AcDbEntity
  8
_U+30EC_U+30A4_U+30E4_U+30FC 1
370
     0
100
AcDbVertex
100
AcDb2dVertex
 10
91.16945239629571
 20
-127.3179938570593
 30
0.0
  0
VERTEX
  5
4B
330
41
100
AcDbEntity
  8
_U+30EC_U+30A4_U+30E4_U+30FC 1
370
     0
100
AcDbVertex
100
AcDb2dVertex
 10
97.16960252099692
 20
-127.3179938570593
 30
0.0
  0
VERTEX
  5
4C
330
41
100
AcDbEntity
  8
_U+30EC_U+30A4_U+30E4_U+30FC 1
370
     0
100
AcDbVertex
100
AcDb2dVertex
 10
98.16937471771283
 20
-128.3179071901429
 30
0.0
  0
VERTEX
  5
4D
330
41
100
AcDbEntity
  8
_U+30EC_U+30A4_U+30E4_U+30FC 1
370
     0
100
AcDbVertex
100
AcDb2dVertex
 10
98.16937471771283
 20
-128.8179696900177
 30
0.0
  0
VERTEX
  5
4E
330
41
100
AcDbEntity
  8
_U+30EC_U+30A4_U+30E4_U+30FC 1
370
     0
100
AcDbVertex
100
AcDb2dVertex
 10
97.16960252099692
 20
-128.8179696900177
 30
0.0
  0
VERTEX
  5
4F
330
41
100
AcDbEntity
  8
_U+30EC_U+30A4_U+30E4_U+30FC 1
370
     0
100
AcDbVertex
100
AcDb2dVertex
 10
96.66936364487017
 20
-128.3179071901429
 30
0.0
  0
VERTEX
  5
50
330
41
100
AcDbEntity
  8
_U+30EC_U+30A4_U+30E4_U+30FC 1
370
     0
100
AcDbVertex
100
AcDb2dVertex
 10
92.16940098189602
 20
-128.3179071901429
 30
0.0
  0
VERTEX
  5
51
330
41
100
AcDbEntity
  8
_U+30EC_U+30A4_U+30E4_U+30FC 1
370
     0
100
AcDbVertex
100
AcDb2dVertex
 10
92.16940098189602
 20
-134.8179435774064
 30
0.0
  0
VERTEX
  5
52
330
41
100
AcDbEntity
  8
_U+30EC_U+30A4_U+30E4_U+30FC 1
370
     0
100
AcDbVertex
100
AcDb2dVertex
 10
84.16953007487861
 20
-134.8179435774064
 30
0.0
  0
VERTEX
  5
53
330
41
100
AcDbEntity
  8
_U+30EC_U+30A4_U+30E4_U+30FC 1
370
     0
100
AcDbVertex
100
AcDb2dVertex
 10
84.16935368599422
 20
-128.3179071901429
 30
0.0
  0
VERTEX
  5
54
330
41
100
AcDbEntity
  8
_U+30EC_U+30A4_U+30E4_U+30FC 1
370
     0
100
AcDbVertex
100
AcDb2dVertex
 10
79.66970852301196
 20
-128.3179071901429
 30
0.0
  0
VERTEX
  5
55
330
41
100
AcDbEntity
  8
_U+30EC_U+30A4_U+30E4_U+30FC 1
370
     0
100
AcDbVertex
100
AcDb2dVertex
 10
79.1695049246621
 20
-128.8179696900177
 30
0.0
  0
VERTEX
  5
56
330
41
100
AcDbEntity
  8
_U+30EC_U+30A4_U+30E4_U+30FC 1
370
     0
100
AcDbVertex
100
AcDb2dVertex
 10
78.16937995017742
 20
-128.8179696900177
 30
0.0
  0
VERTEX
  5
57
330
41
100
AcDbEntity
  8
_U+30EC_U+30A4_U+30E4_U+30FC 1
370
     0
100
AcDbVertex
100
AcDb2dVertex
 10
78.16937995017742
 20
-128.3179071901429
 30
0.0
  0
SEQEND
  5
59
330
41
100
AcDbEntity
  8
_U+30EC_U+30A4_U+30E4_U+30FC 1
370
     0
  0
HATCH
  5
58
330
1F
100
AcDbEntity
  8
_U+30EC_U+30A4_U+30E4_U+30FC 1
 62
   253
420
 11711154
100
AcDbHatch
 10
0.0
 20
0.0
 30
0.0
210
0.0
220
0.0
230
1.0
  2
SOLID
 70
     1
 71
     0
 91
        1
 92
        1
 93
       21
 72
     1
 10
78.16937995017742
 20
-128.3179071901429
 11
79.1695049246621
 21
-127.3179938570593
 72
     1
 10
79.1695049246621
 20
-127.3179938570593
 11
85.16947866047892
 21
-127.3179938570593
 72
     1
 10
85.16947866047892
 20
-127.3179938570593
 11
85.16947866047892
 21
-133.8178538554343
 72
     1
 10
85.16947866047892
 20
-133.8178538554343
 11
87.8697455360338
 21
-133.8178538554343
 72
     1
 10
87.8697455360338
 20
-133.8178538554343
 11
88.16946552838732
 21
-134.1182441331372
 72
     1
 10
88.16946552838732
 20
-134.1182441331372
 11
88.46953829850959
 21
-133.8178538554343
 72
     1
 10
88.46953829850959
 20
-133.8178538554343
 11
91.16945239629571
 21
-133.8178538554343
 72
     1
 10
91.16945239629571
 20
-133.8178538554343
 11
91.16945239629571
 21
-127.3179938570593
 72
     1
 10
91.16945239629571
 20
-127.3179938570593
 11
97.16960252099692
 21
-127.3179938570593
 72
     1
 10
97.16960252099692
 20
-127.3179938570593
 11
98.16937471771283
 21
-128.3179071901429
 72
     1
 10
98.16937471771283
 20
-128.3179071901429
 11
98.16937471771283
 21
-128.8179696900177
 72
     1
 10
98.16937471771283
 20
-128.8179696900177
 11
97.16960252099692
 21
-128.8179696900177
 72
     1
 10
97.16960252099692
 20
-128.8179696900177
 11
96.66936364487017
 21
-128.3179071901429
 72
     1
 10
96.66936364487017
 20
-128.3179071901429
 11
92.16940098189602
 21
-128.3179071901429
 72
     1
 10
92.16940098189602
 20
-128.3179071901429
 11
92.16940098189602
 21
-134.8179435774064
 72
     1
 10
92.16940098189602
 20
-134.8179435774064
 11
84.16953007487861
 21
-134.8179435774064
 72
     1
 10
84.16953007487861
 20
-134.8179435774064
 11
84.16935368599422
 21
-128.3179071901429
 72
     1
 10
84.16935368599422
 20
-128.3179071901429
 11
79.66970852301196
 21
-128.3179071901429
 72
     1
 10
79.66970852301196
 20
-128.3179071901429
 11
79.1695049246621
 21
-128.8179696900177
 72
     1
 10
79.1695049246621
 20
-128.8179696900177
 11
78.16937995017742
 21
-128.8179696900177
 72
     1
 10
78.16937995017742
 20
-128.8179696900177
 11
78.16937995017742
 21
-128.3179071901429
 97
        0
 75
     2
 76
     1
 98
        0
  0
SPLINE
  5
5A
330
1F
100
AcDbEntity
  8
_U+30EC_U+30A4_U+30E4_U+30FC 1
 62
     7
420
 16777215
370
     9
100
AcDbSpline
210
0.0
220
0.0
230
1.0
 70
    11
 71
     3
 72
    17
 73
    13
 74
     0
 42
0.0000000001
 43
0.0000000001
 12
1.0
 22
0.0
 32
0.0
 13
1.0
 23
0.0
 33
0.0
 40
0.0
 40
0.0
 40
0.0
 40
0.0
 40
1.0
 40
1.0
 40
1.0
 40
2.0
 40
2.0
 40
2.0
 40
3.0
 40
3.0
 40
3.0
 40
4.0
 40
4.0
 40
4.0
 40
4.0
 10
98.26928138183065
 20
-124.4730174688818
 30
0.0
 10
98.26928138183065
 20
-124.4179135800066
 30
0.0
 10
98.2244786051959
 20
-124.3731108022402
 30
0.0
 10
98.16937471771283
 20
-124.3731108022402
 30
0.0
 10
98.11423555245287
 20
-124.3731108022402
 30
0.0
 10
98.06946805359499
 20
-124.4179135800066
 30
0.0
 10
98.06946805359499
 20
-124.4730174688818
 30
0.0
 10
98.06946805359499
 20
-124.5281566355346
 30
0.0
 10
98.11423555245287
 20
-124.5729241355235
 30
0.0
 10
98.16937471771283
 20
-124.5729241355235
 30
0.0
 10
98.2244786051959
 20
-124.5729241355235
 30
0.0
 10
98.26928138183065
 20
-124.5281566355346
 30
0.0
 10
98.26928138183065
 20
-124.4730174688818
 30
0.0
  0
SPLINE
  5
5B
330
1F
100
AcDbEntity
  8
_U+30EC_U+30A4_U+30E4_U+30FC 1
 62
     7
420
 16777215
370
     9
100
AcDbSpline
210
0.0
220
0.0
230
1.0
 70
    11
 71
     3
 72
    17
 73
    13
 74
     0
 42
0.0000000001
 43
0.0000000001
 12
1.0
 22
0.0
 32
0.0
 13
1.0
 23
0.0
 33
0.0
 40
0.0
 40
0.0
 40
0.0
 40
0.0
 40
1.0
 40
1.0
 40
1.0
 40
2.0
 40
2.0
 40
2.0
 40
3.0
 40
3.0
 40
3.0
 40
4.0
 40
4.0
 40
4.0
 40
4.0
 10
102.4405962754116
 20
-134.8865235773894
 30
0.0
 10
102.4405962754116
 20
-134.8307141329589
 30
0.0
 10
102.3958287765537
 20
-134.7866169107477
 30
0.0
 10
102.3406896112937
 20
-134.7866169107477
 30
0.0
 10
102.2855857238106
 20
-134.7866169107477
 30
0.0
 10
102.2407829471759
 20
-134.8307141329589
 30
0.0
 10
102.2407829471759
 20
-134.8865235773894
 30
0.0
 10
102.2407829471759
 20
-134.9416274662643
 30
0.0
 10
102.2855857238106
 20
-134.986430244031
 30
0.0
 10
102.3406896112937
 20
-134.986430244031
 30
0.0
 10
102.3958287765537
 20
-134.986430244031
 30
0.0
 10
102.4405962754116
 20
-134.9416274662643
 30
0.0
 10
102.4405962754116
 20
-134.8865235773894
 30
0.0
  0
SPLINE
  5
5C
330
1F
100
AcDbEntity
  8
_U+30EC_U+30A4_U+30E4_U+30FC 1
 62
     7
420
 16777215
370
     9
100
AcDbSpline
210
0.0
220
0.0
230
1.0
 70
    11
 71
     3
 72
    17
 73
    13
 74
     0
 42
0.0000000001
 43
0.0000000001
 12
1.0
 22
0.0
 32
0.0
 13
1.0
 23
0.0
 33
0.0
 40
0.0
 40
0.0
 40
0.0
 40
0.0
 40
1.0
 40
1.0
 40
1.0
 40
2.0
 40
2.0
 40
2.0
 40
3.0
 40
3.0
 40
3.0
 40
4.0
 40
4.0
 40
4.0
 40
4.0
 10
102.4405962754116
 20
-128.8865496900007
 30
0.0
 10
102.4405962754116
 20
-128.8307402455702
 30
0.0
 10
102.3958287765537
 20
-128.786643023359
 30
0.0
 10
102.3406896112937
 20
-128.786643023359
 30
0.0
 10
102.2855857238106
 20
-128.786643023359
 30
0.0
 10
102.2407829471759
 20
-128.8307402455702
 30
0.0
 10
102.2407829471759
 20
-128.8865496900007
 30
0.0
 10
102.2407829471759
 20
-128.9416535788756
 30
0.0
 10
102.2855857238106
 20
-128.9864563566423
 30
0.0
 10
102.3406896112937
 20
-128.9864563566423
 30
0.0
 10
102.3958287765537
 20
-128.9864563566423
 30
0.0
 10
102.4405962754116
 20
-128.9416535788756
 30
0.0
 10
102.4405962754116
 20
-128.8865496900007
 30
0.0
  0
SPLINE
  5
5D
330
1F
100
AcDbEntity
  8
_U+30EC_U+30A4_U+30E4_U+30FC 1
 62
     7
420
 16777215
370
     9
100
AcDbSpline
210
0.0
220
0.0
230
1.0
 70
    11
 71
     3
 72
    17
 73
    13
 74
     0
 42
0.0000000001
 43
0.0000000001
 12
1.0
 22
0.0
 32
0.0
 13
1.0
 23
0.0
 33
0.0
 40
0.0
 40
0.0
 40
0.0
 40
0.0
 40
1.0
 40
1.0
 40
1.0
 40
2.0
 40
2.0
 40
2.0
 40
3.0
 40
3.0
 40
3.0
 40
4.0
 40
4.0
 40
4.0
 40
4.0
 10
78.26928661429525
 20
-124.4730174688818
 30
0.0
 10
78.26928661429525
 20
-124.4179135800066
 30
0.0
 10
78.22451911543737
 20
-124.3731108022402
 30
0.0
 10
78.16937995017742
 20
-124.3731108022402
 30
0.0
 10
78.11427606269434
 20
-124.3731108022402
 30
0.0
 10
78.06947328605958
 20
-124.4179135800066
 30
0.0
 10
78.06947328605958
 20
-124.4730174688818
 30
0.0
 10
78.06947328605958
 20
-124.5281566355346
 30
0.0
 10
78.11427606269434
 20
-124.5729241355235
 30
0.0
 10
78.16937995017742
 20
-124.5729241355235
 30
0.0
 10
78.22451911543737
 20
-124.5729241355235
 30
0.0
 10
78.26928661429525
 20
-124.5281566355346
 30
0.0
 10
78.26928661429525
 20
-124.4730174688818
 30
0.0
  0
SPLINE
  5
5E
330
1F
100
AcDbEntity
  8
_U+30EC_U+30A4_U+30E4_U+30FC 1
 62
     7
420
 16777215
370
     9
100
AcDbSpline
210
0.0
220
0.0
230
1.0
 70
    11
 71
     3
 72
    17
 73
    13
 74
     0
 42
0.0000000001
 43
0.0000000001
 12
1.0
 22
0.0
 32
0.0
 13
1.0
 23
0.0
 33
0.0
 40
0.0
 40
0.0
 40
0.0
 40
0.0
 40
1.0
 40
1.0
 40
1.0
 40
2.0
 40
2.0
 40
2.0
 40
3.0
 40
3.0
 40
3.0
 40
4.0
 40
4.0
 40
4.0
 40
4.0
 10
102.4405962754116
 20
-127.4182180237009
 30
0.0
 10
102.4405962754116
 20
-127.3627613570482
 30
0.0
 10
102.3958287765537
 20
-127.3179938570593
 30
0.0
 10
102.3406896112937
 20
-127.3179938570593
 30
0.0
 10
102.2855857238106
 20
-127.3179938570593
 30
0.0
 10
102.2407829471759
 20
-127.3627613570482
 30
0.0
 10
102.2407829471759
 20
-127.4182180237009
 30
0.0
 10
102.2407829471759
 20
-127.4733571903539
 30
0.0
 10
102.2855857238106
 20
-127.5181599681203
 30
0.0
 10
102.3406896112937
 20
-127.5181599681203
 30
0.0
 10
102.3958287765537
 20
-127.5181599681203
 30
0.0
 10
102.4405962754116
 20
-127.4733571903539
 30
0.0
 10
102.4405962754116
 20
-127.4182180237009
 30
0.0
  0
POLYLINE
  5
5F
330
1F
100
AcDbEntity
  8
_U+30EC_U+30A4_U+30E4_U+30FC 1
 62
     7
420
 16777215
370
     9
100
AcDb2dPolyline
 66
     1
 10
0.0
 20
0.0
 30
0.0
  0
VERTEX
  5
60
330
5F
100
AcDbEntity
  8
_U+30EC_U+30A4_U+30E4_U+30FC 1
 62
     7
420
 16777215
370
     9
100
AcDbVertex
100
AcDb2dVertex
 10
78.16937995017742
 20
-124.4730174688818
 30
0.0
  0
VERTEX
  5
61
330
5F
100
AcDbEntity
  8
_U+30EC_U+30A4_U+30E4_U+30FC 1
 62
     7
420
 16777215
370
     9
100
AcDbVertex
100
AcDb2dVertex
 10
98.16937471771283
 20
-124.4730174688818
 30
0.0
  0
SEQEND
  5
62
330
5F
100
AcDbEntity
  8
_U+30EC_U+30A4_U+30E4_U+30FC 1
 62
     7
420
 16777215
370
     9
  0
POLYLINE
  5
63
330
1F
100
AcDbEntity
  8
_U+30EC_U+30A4_U+30E4_U+30FC 1
 62
     7
420
 16777215
370
     9
100
AcDb2dPolyline
 66
     1
 10
0.0
 20
0.0
 30
0.0
  0
VERTEX
  5
64
330
63
100
AcDbEntity
  8
_U+30EC_U+30A4_U+30E4_U+30FC 1
 62
     7
420
 16777215
370
     9
100
AcDbVertex
100
AcDb2dVertex
 10
78.16937995017742
 20
-122.2130524694467
 30
0.0
  0
VERTEX
  5
65
330
63
100
AcDbEntity
  8
_U+30EC_U+30A4_U+30E4_U+30FC 1
 62
     7
420
 16777215
370
     9
100
AcDbVertex
100
AcDb2dVertex
 10
78.16937995017742
 20
-125.4727896908541
 30
0.0
  0
SEQEND
  5
66
330
63
100
AcDbEntity
  8
_U+30EC_U+30A4_U+30E4_U+30FC 1
 62
     7
420
 16777215
370
     9
  0
SPLINE
  5
67
330
1F
100
AcDbEntity
  8
_U+30EC_U+30A4_U+30E4_U+30FC 1
 62
     7
420
 16777215
370
     9
100
AcDbSpline
210
0.0
220
0.0
230
1.0
 70
    11
 71
     3
 72
    17
 73
    13
 74
     0
 42
0.0000000001
 43
0.0000000001
 12
1.0
 22
0.0
 32
0.0
 13
1.0
 23
0.0
 33
0.0
 40
0.0
 40
0.0
 40
0.0
 40
0.0
 40
1.0
 40
1.0
 40
1.0
 40
2.0
 40
2.0
 40
2.0
 40
3.0
 40
3.0
 40
3.0
 40
4.0
 40
4.0
 40
4.0
 40
4.0
 10
85.26921108979369
 20
-124.4730174688818
 30
0.0
 10
85.26921108979369
 20
-124.4179135800066
 30
0.0
 10
85.22444143685448
 20
-124.3731108022402
 30
0.0
 10
85.16930227159452
 20
-124.3731108022402
 30
0.0
 10
85.11419838411145
 20
-124.3731108022402
 30
0.0
 10
85.0693956074767
 20
-124.4179135800066
 30
0.0
 10
85.0693956074767
 20
-124.4730174688818
 30
0.0
 10
85.0693956074767
 20
-124.5281566355346
 30
0.0
 10
85.11419838411145
 20
-124.5729241355235
 30
0.0
 10
85.16930227159452
 20
-124.5729241355235
 30
0.0
 10
85.22444143685448
 20
-124.5729241355235
 30
0.0
 10
85.26921108979369
 20
-124.5281566355346
 30
0.0
 10
85.26921108979369
 20
-124.4730174688818
 30
0.0
  0
POLYLINE
  5
68
330
1F
100
AcDbEntity
  8
_U+30EC_U+30A4_U+30E4_U+30FC 1
 62
     7
420
 16777215
370
     9
100
AcDb2dPolyline
 66
     1
 10
0.0
 20
0.0
 30
0.0
  0
VERTEX
  5
69
330
68
100
AcDbEntity
  8
_U+30EC_U+30A4_U+30E4_U+30FC 1
 62
     7
420
 16777215
370
     9
100
AcDbVertex
100
AcDb2dVertex
 10
85.16930227159452
 20
-122.2130524694467
 30
0.0
  0
VERTEX
  5
6A
330
68
100
AcDbEntity
  8
_U+30EC_U+30A4_U+30E4_U+30FC 1
 62
     7
420
 16777215
370
     9
100
AcDbVertex
100
AcDb2dVertex
 10
85.16930227159452
 20
-125.4727896908541
 30
0.0
  0
SEQEND
  5
6B
330
68
100
AcDbEntity
  8
_U+30EC_U+30A4_U+30E4_U+30FC 1
 62
     7
420
 16777215
370
     9
  0
SPLINE
  5
6C
330
1F
100
AcDbEntity
  8
_U+30EC_U+30A4_U+30E4_U+30FC 1
 62
     7
420
 16777215
370
     9
100
AcDbSpline
210
0.0
220
0.0
230
1.0
 70
    11
 71
     3
 72
    17
 73
    13
 74
     0
 42
0.0000000001
 43
0.0000000001
 12
1.0
 22
0.0
 32
0.0
 13
1.0
 23
0.0
 33
0.0
 40
0.0
 40
0.0
 40
0.0
 40
0.0
 40
1.0
 40
1.0
 40
1.0
 40
2.0
 40
2.0
 40
2.0
 40
3.0
 40
3.0
 40
3.0
 40
4.0
 40
4.0
 40
4.0
 40
4.0
 10
91.26935906041355
 20
-124.4730174688818
 30
0.0
 10
91.26935906041355
 20
-124.4179135800066
 30
0.0
 10
91.22459156155567
 20
-124.3731108022402
 30
0.0
 10
91.16945239629571
 20
-124.3731108022402
 30
0.0
 10
91.11434850881264
 20
-124.3731108022402
 30
0.0
 10
91.06954573217789
 20
-124.4179135800066
 30
0.0
 10
91.06954573217789
 20
-124.4730174688818
 30
0.0
 10
91.06954573217789
 20
-124.5281566355346
 30
0.0
 10
91.11434850881264
 20
-124.5729241355235
 30
0.0
 10
91.16945239629571
 20
-124.5729241355235
 30
0.0
 10
91.22459156155567
 20
-124.5729241355235
 30
0.0
 10
91.26935906041355
 20
-124.5281566355346
 30
0.0
 10
91.26935906041355
 20
-124.4730174688818
 30
0.0
  0
POLYLINE
  5
6D
330
1F
100
AcDbEntity
  8
_U+30EC_U+30A4_U+30E4_U+30FC 1
 62
     7
420
 16777215
370
     9
100
AcDb2dPolyline
 66
     1
 10
0.0
 20
0.0
 30
0.0
  0
VERTEX
  5
6E
330
6D
100
AcDbEntity
  8
_U+30EC_U+30A4_U+30E4_U+30FC 1
 62
     7
420
 16777215
370
     9
100
AcDbVertex
100
AcDb2dVertex
 10
91.16945239629571
 20
-122.2130524694467
 30
0.0
  0
VERTEX
  5
6F
330
6D
100
AcDbEntity
  8
_U+30EC_U+30A4_U+30E4_U+30FC 1
 62
     7
420
 16777215
370
     9
100
AcDbVertex
100
AcDb2dVertex
 10
91.16945239629571
 20
-125.4727896908541
 30
0.0
  0
SEQEND
  5
70
330
6D
100
AcDbEntity
  8
_U+30EC_U+30A4_U+30E4_U+30FC 1
 62
     7
420
 16777215
370
     9
  0
POLYLINE
  5
71
330
1F
100
AcDbEntity
  8
_U+30EC_U+30A4_U+30E4_U+30FC 1
 62
     7
420
 16777215
370
     9
100
AcDb2dPolyline
 66
     1
 10
0.0
 20
0.0
 30
0.0
  0
VERTEX
  5
72
330
71
100
AcDbEntity
  8
_U+30EC_U+30A4_U+30E4_U+30FC 1
 62
     7
420
 16777215
370
     9
100
AcDbVertex
100
AcDb2dVertex
 10
98.16937471771283
 20
-122.5127724693719
 30
0.0
  0
VERTEX
  5
73
330
71
100
AcDbEntity
  8
_U+30EC_U+30A4_U+30E4_U+30FC 1
 62
     7
420
 16777215
370
     9
100
AcDbVertex
100
AcDb2dVertex
 10
98.16937471771283
 20
-125.4727896908541
 30
0.0
  0
SEQEND
  5
74
330
71
100
AcDbEntity
  8
_U+30EC_U+30A4_U+30E4_U+30FC 1
 62
     7
420
 16777215
370
     9
  0
INSERT
  5
76
330
1F
100
AcDbEntity
  8
_U+30EC_U+30A4_U+30E4_U+30FC 1
100
AcDbBlockReference
  2
block 2
 10
0.0
 20
0.0
 30
0.0
  0
INSERT
  5
7D
330
1F
100
AcDbEntity
  8
_U+30EC_U+30A4_U+30E4_U+30FC 1
100
AcDbBlockReference
  2
block 3
 10
0.0
 20
0.0
 30
0.0
  0
INSERT
  5
83
330
1F
100
AcDbEntity
  8
_U+30EC_U+30A4_U+30E4_U+30FC 1
100
AcDbBlockReference
  2
block 4
 10
0.0
 20
0.0
 30
0.0
  0
POLYLINE
  5
88
330
1F
100
AcDbEntity
  8
_U+30EC_U+30A4_U+30E4_U+30FC 1
 62
     7
420
 16777215
370
     9
100
AcDb2dPolyline
 66
     1
 10
0.0
 20
0.0
 30
0.0
  0
VERTEX
  5
89
330
88
100
AcDbEntity
  8
_U+30EC_U+30A4_U+30E4_U+30FC 1
 62
     7
420
 16777215
370
     9
100
AcDbVertex
100
AcDb2dVertex
 10
102.3406896112937
 20
-123.8430974690393
 30
0.0
  0
VERTEX
  5
8A
330
88
100
AcDbEntity
  8
_U+30EC_U+30A4_U+30E4_U+30FC 1
 62
     7
420
 16777215
370
     9
100
AcDbVertex
100
AcDb2dVertex
 10
102.3406896112937
 20
-134.8865235773894
 30
0.0
  0
SEQEND
  5
8B
330
88
100
AcDbEntity
  8
_U+30EC_U+30A4_U+30E4_U+30FC 1
 62
     7
420
 16777215
370
     9
  0
POLYLINE
  5
8C
330
1F
100
AcDbEntity
  8
_U+30EC_U+30A4_U+30E4_U+30FC 1
 62
     7
420
 16777215
370
     9
100
AcDb2dPolyline
 66
     1
 10
0.0
 20
0.0
 30
0.0
  0
VERTEX
  5
8D
330
8C
100
AcDbEntity
  8
_U+30EC_U+30A4_U+30E4_U+30FC 1
 62
     7
420
 16777215
370
     9
100
AcDbVertex
100
AcDb2dVertex
 10
103.3080768088358
 20
-127.3865385792644
 30
0.0
  0
VERTEX
  5
8E
330
8C
100
AcDbEntity
  8
_U+30EC_U+30A4_U+30E4_U+30FC 1
 62
     7
420
 16777215
370
     9
100
AcDbVertex
100
AcDb2dVertex
 10
100.3487299398906
 20
-127.3865385792644
 30
0.0
  0
SEQEND
  5
8F
330
8C
100
AcDbEntity
  8
_U+30EC_U+30A4_U+30E4_U+30FC 1
 62
     7
420
 16777215
370
     9
  0
POLYLINE
  5
90
330
1F
100
AcDbEntity
  8
_U+30EC_U+30A4_U+30E4_U+30FC 1
 62
     7
420
 16777215
370
     9
100
AcDb2dPolyline
 66
     1
 10
0.0
 20
0.0
 30
0.0
  0
VERTEX
  5
91
330
90
100
AcDbEntity
  8
_U+30EC_U+30A4_U+30E4_U+30FC 1
 62
     7
420
 16777215
370
     9
100
AcDbVertex
100
AcDb2dVertex
 10
103.3080768088358
 20
-134.8865235773894
 30
0.0
  0
VERTEX
  5
92
330
90
100
AcDbEntity
  8
_U+30EC_U+30A4_U+30E4_U+30FC 1
 62
     7
420
 16777215
370
     9
100
AcDbVertex
100
AcDb2dVertex
 10
97.16893224323623
 20
-134.8865235773894
 30
0.0
  0
SEQEND
  5
93
330
90
100
AcDbEntity
  8
_U+30EC_U+30A4_U+30E4_U+30FC 1
 62
     7
420
 16777215
370
     9
  0
POLYLINE
  5
94
330
1F
100
AcDbEntity
  8
_U+30EC_U+30A4_U+30E4_U+30FC 1
 62
     7
420
 16777215
370
     9
100
AcDb2dPolyline
 66
     1
 10
0.0
 20
0.0
 30
0.0
  0
VERTEX
  5
95
330
94
100
AcDbEntity
  8
_U+30EC_U+30A4_U+30E4_U+30FC 1
 62
     7
420
 16777215
370
     9
100
AcDbVertex
100
AcDb2dVertex
 10
103.3080768088358
 20
-128.8865496900007
 30
0.0
  0
VERTEX
  5
96
330
94
100
AcDbEntity
  8
_U+30EC_U+30A4_U+30E4_U+30FC 1
 62
     7
420
 16777215
370
     9
100
AcDbVertex
100
AcDb2dVertex
 10
100.3487299398906
 20
-128.8865496900007
 30
0.0
  0
SEQEND
  5
97
330
94
100
AcDbEntity
  8
_U+30EC_U+30A4_U+30E4_U+30FC 1
 62
     7
420
 16777215
370
     9
  0
INSERT
  5
99
330
1F
100
AcDbEntity
  8
_U+30EC_U+30A4_U+30E4_U+30FC 1
100
AcDbBlockReference
  2
block 5
 10
0.0
 20
0.0
 30
0.0
  0
INSERT
  5
A0
330
1F
100
AcDbEntity
  8
_U+30EC_U+30A4_U+30E4_U+30FC 1
100
AcDbBlockReference
  2
block 6
 10
0.0
 20
0.0
 30
0.0
  0
POLYLINE
  5
AF
330
1F
100
AcDbEntity
  8
_U+30EC_U+30A4_U+30E4_U+30FC 1
 62
     7
420
 16777215
370
    25
100
AcDb2dPolyline
 66
     1
 10
0.0
 20
0.0
 30
0.0
  0
VERTEX
  5
B0
330
AF
100
AcDbEntity
  8
_U+30EC_U+30A4_U+30E4_U+30FC 1
 62
     7
420
 16777215
370
    25
100
AcDbVertex
100
AcDb2dVertex
 10
78.16937995017742
 20
-128.3179071901429
 30
0.0
  0
VERTEX
  5
B1
330
AF
100
AcDbEntity
  8
_U+30EC_U+30A4_U+30E4_U+30FC 1
 62
     7
420
 16777215
370
    25
100
AcDbVertex
100
AcDb2dVertex
 10
79.1695049246621
 20
-127.3179938570593
 30
0.0
  0
VERTEX
  5
B2
330
AF
100
AcDbEntity
  8
_U+30EC_U+30A4_U+30E4_U+30FC 1
 62
     7
420
 16777215
370
    25
100
AcDbVertex
100
AcDb2dVertex
 10
85.16947866047892
 20
-127.3179938570593
 30
0.0
  0
VERTEX
  5
B3
330
AF
100
AcDbEntity
  8
_U+30EC_U+30A4_U+30E4_U+30FC 1
 62
     7
420
 16777215
370
    25
100
AcDbVertex
100
AcDb2dVertex
 10
85.16947866047892
 20
-133.8178538554343
 30
0.0
  0
VERTEX
  5
B4
330
AF
100
AcDbEntity
  8
_U+30EC_U+30A4_U+30E4_U+30FC 1
 62
     7
420
 16777215
370
    25
100
AcDbVertex
100
AcDb2dVertex
 10
87.8697455360338
 20
-133.8178538554343
 30
0.0
  0
VERTEX
  5
B5
330
AF
100
AcDbEntity
  8
_U+30EC_U+30A4_U+30E4_U+30FC 1
 62
     7
420
 16777215
370
    25
100
AcDbVertex
100
AcDb2dVertex
 10
88.16946552838732
 20
-134.1182441331372
 30
0.0
  0
VERTEX
  5
B6
330
AF
100
AcDbEntity
  8
_U+30EC_U+30A4_U+30E4_U+30FC 1
 62
     7
420
 16777215
370
    25
100
AcDbVertex
100
AcDb2dVertex
 10
88.46953829850959
 20
-133.8178538554343
 30
0.0
  0
VERTEX
  5
B7
330
AF
100
AcDbEntity
  8
_U+30EC_U+30A4_U+30E4_U+30FC 1
 62
     7
420
 16777215
370
    25
100
AcDbVertex
100
AcDb2dVertex
 10
91.16945239629571
 20
-133.8178538554343
 30
0.0
  0
VERTEX
  5
B8
330
AF
100
AcDbEntity
  8
_U+30EC_U+30A4_U+30E4_U+30FC 1
 62
     7
420
 16777215
370
    25
100
AcDbVertex
100
AcDb2dVertex
 10
91.16945239629571
 20
-127.3179938570593
 30
0.0
  0
VERTEX
  5
B9
330
AF
100
AcDbEntity
  8
_U+30EC_U+30A4_U+30E4_U+30FC 1
 62
     7
420
 16777215
370
    25
100
AcDbVertex
100
AcDb2dVertex
 10
97.16960252099692
 20
-127.3179938570593
 30
0.0
  0
VERTEX
  5
BA
330
AF
100
AcDbEntity
  8
_U+30EC_U+30A4_U+30E4_U+30FC 1
 62
     7
420
 16777215
370
    25
100
AcDbVertex
100
AcDb2dVertex
 10
98.16937471771283
 20
-128.3179071901429
 30
0.0
  0
VERTEX
  5
BB
330
AF
100
AcDbEntity
  8
_U+30EC_U+30A4_U+30E4_U+30FC 1
 62
     7
420
 16777215
370
    25
100
AcDbVertex
100
AcDb2dVertex
 10
98.16937471771283
 20
-128.8179696900177
 30
0.0
  0
VERTEX
  5
BC
330
AF
100
AcDbEntity
  8
_U+30EC_U+30A4_U+30E4_U+30FC 1
 62
     7
420
 16777215
370
    25
100
AcDbVertex
100
AcDb2dVertex
 10
97.16960252099692
 20
-128.8179696900177
 30
0.0
  0
VERTEX
  5
BD
330
AF
100
AcDbEntity
  8
_U+30EC_U+30A4_U+30E4_U+30FC 1
 62
     7
420
 16777215
370
    25
100
AcDbVertex
100
AcDb2dVertex
 10
96.66936364487017
 20
-128.3179071901429
 30
0.0
  0
VERTEX
  5
BE
330
AF
100
AcDbEntity
  8
_U+30EC_U+30A4_U+30E4_U+30FC 1
 62
     7
420
 16777215
370
    25
100
AcDbVertex
100
AcDb2dVertex
 10
92.16940098189602
 20
-128.3179071901429
 30
0.0
  0
VERTEX
  5
BF
330
AF
100
AcDbEntity
  8
_U+30EC_U+30A4_U+30E4_U+30FC 1
 62
     7
420
 16777215
370
    25
100
AcDbVertex
100
AcDb2dVertex
 10
92.16940098189602
 20
-134.8179435774064
 30
0.0
  0
VERTEX
  5
C0
330
AF
100
AcDbEntity
  8
_U+30EC_U+30A4_U+30E4_U+30FC 1
 62
     7
420
 16777215
370
    25
100
AcDbVertex
100
AcDb2dVertex
 10
84.16953007487861
 20
-134.8179435774064
 30
0.0
  0
VERTEX
  5
C1
330
AF
100
AcDbEntity
  8
_U+30EC_U+30A4_U+30E4_U+30FC 1
 62
     7
420
 16777215
370
    25
100
AcDbVertex
100
AcDb2dVertex
 10
84.16935368599422
 20
-128.3179071901429
 30
0.0
  0
VERTEX
  5
C2
330
AF
100
AcDbEntity
  8
_U+30EC_U+30A4_U+30E4_U+30FC 1
 62
     7
420
 16777215
370
    25
100
AcDbVertex
100
AcDb2dVertex
 10
79.66970852301196
 20
-128.3179071901429
 30
0.0
  0
VERTEX
  5
C3
330
AF
100
AcDbEntity
  8
_U+30EC_U+30A4_U+30E4_U+30FC 1
 62
     7
420
 16777215
370
    25
100
AcDbVertex
100
AcDb2dVertex
 10
79.1695049246621
 20
-128.8179696900177
 30
0.0
  0
VERTEX
  5
C4
330
AF
100
AcDbEntity
  8
_U+30EC_U+30A4_U+30E4_U+30FC 1
 62
     7
420
 16777215
370
    25
100
AcDbVertex
100
AcDb2dVertex
 10
78.16937995017742
 20
-128.8179696900177
 30
0.0
  0
VERTEX
  5
C5
330
AF
100
AcDbEntity
  8
_U+30EC_U+30A4_U+30E4_U+30FC 1
 62
     7
420
 16777215
370
    25
100
AcDbVertex
100
AcDb2dVertex
 10
78.16937995017742
 20
-128.3179071901429
 30
0.0
  0
SEQEND
  5
C6
330
AF
100
AcDbEntity
  8
_U+30EC_U+30A4_U+30E4_U+30FC 1
 62
     7
420
 16777215
370
    25
  0
POLYLINE
  5
C7
330
1F
100
AcDbEntity
  8
_U+30EC_U+30A4_U+30E4_U+30FC 1
 62
     7
420
 16777215
370
     9
100
AcDb2dPolyline
 66
     1
 10
0.0
 20
0.0
 30
0.0
  0
VERTEX
  5
C8
330
C7
100
AcDbEntity
  8
_U+30EC_U+30A4_U+30E4_U+30FC 1
 62
     7
420
 16777215
370
     9
100
AcDbVertex
100
AcDb2dVertex
 10
86.75973028657488
 20
-129.5228549676195
 30
0.0
  0
VERTEX
  5
C9
330
C7
100
AcDbEntity
  8
_U+30EC_U+30A4_U+30E4_U+30FC 1
 62
     7
420
 16777215
370
     9
100
AcDbVertex
100
AcDb2dVertex
 10
83.35909370666567
 20
-129.5228549676195
 30
0.0
  0
SEQEND
  5
CA
330
C7
100
AcDbEntity
  8
_U+30EC_U+30A4_U+30E4_U+30FC 1
 62
     7
420
 16777215
370
     9
  0
SPLINE
  5
CB
330
1F
100
AcDbEntity
  8
_U+30EC_U+30A4_U+30E4_U+30FC 1
 62
     7
420
 16777215
370
     9
100
AcDbSpline
210
0.0
220
0.0
230
1.0
 70
    11
 71
     3
 72
    17
 73
    13
 74
     0
 42
0.0000000001
 43
0.0000000001
 12
1.0
 22
0.0
 32
0.0
 13
1.0
 23
0.0
 33
0.0
 40
0.0
 40
0.0
 40
0.0
 40
0.0
 40
1.0
 40
1.0
 40
1.0
 40
2.0
 40
2.0
 40
2.0
 40
3.0
 40
3.0
 40
3.0
 40
4.0
 40
4.0
 40
4.0
 40
4.0
 10
84.26943886782146
 20
-129.5228549676195
 30
0.0
 10
84.26943886782146
 20
-129.4670455231891
 30
0.0
 10
84.22466924013857
 20
-129.4229483009779
 30
0.0
 10
84.16953007487861
 20
-129.4229483009779
 30
0.0
 10
84.11407340962677
 20
-129.4229483009779
 30
0.0
 10
84.069270632992
 20
-129.4670455231891
 30
0.0
 10
84.069270632992
 20
-129.5228549676195
 30
0.0
 10
84.069270632992
 20
-129.5779588564944
 30
0.0
 10
84.11407340962677
 20
-129.6227616342612
 30
0.0
 10
84.16953007487861
 20
-129.6227616342612
 30
0.0
 10
84.22466924013857
 20
-129.6227616342612
 30
0.0
 10
84.26943886782146
 20
-129.5779588564944
 30
0.0
 10
84.26943886782146
 20
-129.5228549676195
 30
0.0
  0
SPLINE
  5
CC
330
1F
100
AcDbEntity
  8
_U+30EC_U+30A4_U+30E4_U+30FC 1
 62
     7
420
 16777215
370
     9
100
AcDbSpline
210
0.0
220
0.0
230
1.0
 70
    11
 71
     3
 72
    17
 73
    13
 74
     0
 42
0.0000000001
 43
0.0000000001
 12
1.0
 22
0.0
 32
0.0
 13
1.0
 23
0.0
 33
0.0
 40
0.0
 40
0.0
 40
0.0
 40
0.0
 40
1.0
 40
1.0
 40
1.0
 40
2.0
 40
2.0
 40
2.0
 40
3.0
 40
3.0
 40
3.0
 40
4.0
 40
4.0
 40
4.0
 40
4.0
 10
85.26956386757145
 20
-129.5228549676195
 30
0.0
 10
85.26956386757145
 20
-129.4670455231891
 30
0.0
 10
85.22476108980504
 20
-129.4229483009779
 30
0.0
 10
85.1696550493633
 20
-129.4229483009779
 30
0.0
 10
85.11419838411145
 20
-129.4229483009779
 30
0.0
 10
85.0693956074767
 20
-129.4670455231891
 30
0.0
 10
85.0693956074767
 20
-129.5228549676195
 30
0.0
 10
85.0693956074767
 20
-129.5779588564944
 30
0.0
 10
85.11419838411145
 20
-129.6227616342612
 30
0.0
 10
85.1696550493633
 20
-129.6227616342612
 30
0.0
 10
85.22476108980504
 20
-129.6227616342612
 30
0.0
 10
85.26956386757145
 20
-129.5779588564944
 30
0.0
 10
85.26956386757145
 20
-129.5228549676195
 30
0.0
  0
INSERT
  5
CE
330
1F
100
AcDbEntity
  8
_U+30EC_U+30A4_U+30E4_U+30FC 1
100
AcDbBlockReference
  2
block 7
 10
0.0
 20
0.0
 30
0.0
  0
ENDSEC
  0
SECTION
  2
OBJECTS
  0
DICTIONARY
  5
C
330
0
100
AcDbDictionary
281
     1
  3
ACAD_GROUP
350
D
  3
ACAD_LAYOUT
350
1A
  3
ACAD_MATERIAL
350
3B
  3
ACAD_MLEADERSTYLE
350
D4
  3
ACAD_MLINESTYLE
350
17
  3
ACAD_PLOTSETTINGS
350
19
  3
ACAD_PLOTSTYLENAME
350
E
  3
ACAD_TABLESTYLE
350
D3
  3
ACAD_VISUALSTYLE
350
2A
  0
SUN
  5
3F
330
29
100
AcDbSun
 90
        1
290
     0
 63
     7
421
 16777215
 40
1.0
291
     1
 91
  2455826
 92
 54000000
292
     0
 70
     2
 71
   256
280
     1
  0
DICTIONARY
  5
D
102
{ACAD_REACTORS
330
C
102
}
330
C
100
AcDbDictionary
281
     1
  0
DICTIONARY
  5
1A
102
{ACAD_REACTORS
330
C
102
}
330
C
100
AcDbDictionary
281
     1
  3
Layout1
350
1E
  3
Layout2
350
26
  3
Model
350
22
  0
DICTIONARY
  5
3B
102
{ACAD_REACTORS
330
C
102
}
330
C
100
AcDbDictionary
281
     1
  3
ByBlock
350
3D
  3
ByLayer
350
3C
  3
Global
350
3E
  0
DICTIONARY
  5
D4
102
{ACAD_REACTORS
330
C
102
}
330
C
100
AcDbDictionary
281
     1
  0
DICTIONARY
  5
17
102
{ACAD_REACTORS
330
C
102
}
330
C
100
AcDbDictionary
281
     1
  3
Standard
350
18
  0
DICTIONARY
  5
19
102
{ACAD_REACTORS
330
C
102
}
330
C
100
AcDbDictionary
281
     1
  0
ACDBDICTIONARYWDFLT
  5
E
102
{ACAD_REACTORS
330
C
102
}
330
C
100
AcDbDictionary
281
     1
  3
Normal
350
F
100
AcDbDictionaryWithDefault
340
F
  0
DICTIONARY
  5
D3
102
{ACAD_REACTORS
330
C
102
}
330
C
100
AcDbDictionary
281
     1
  0
DICTIONARY
  5
2A
102
{ACAD_REACTORS
330
C
102
}
330
C
100
AcDbDictionary
281
     1
  3
2dWireframe
350
2F
  3
3D Hidden
350
31
  3
3dWireframe
350
30
  3
Basic
350
32
  3
Brighten
350
36
  3
ColorChange
350
3A
  3
Conceptual
350
34
  3
Dim
350
35
  3
Facepattern
350
39
  3
Flat
350
2B
  3
FlatWithEdges
350
2C
  3
Gouraud
350
2D
  3
GouraudWithEdges
350
2E
  3
Linepattern
350
38
  3
Realistic
350
33
  3
Thicken
350
37
  0
LAYOUT
  5
1E
102
{ACAD_REACTORS
330
1A
102
}
330
1A
100
AcDbPlotSettings
  1

  2
none_device
  4

  6

 40
0.0
 41
0.0
 42
0.0
 43
0.0
 44
0.0
 45
0.0
 46
0.0
 47
0.0
 48
0.0
 49
0.0
140
0.0
141
0.0
142
1.0
143
1.0
 70
   688
 72
     0
 73
     0
 74
     5
  7

 75
    16
 76
     0
 77
     2
 78
   300
147
1.0
148
0.0
149
0.0
100
AcDbLayout
  1
Layout1
 70
     1
 71
     1
 10
0.0
 20
0.0
 11
12.0
 21
9.0
 12
0.0
 22
0.0
 32
0.0
 14
1.000000000000000E+20
 24
1.000000000000000E+20
 34
1.000000000000000E+20
 15
-1.000000000000000E+20
 25
-1.000000000000000E+20
 35
-1.000000000000000E+20
146
0.0
 13
0.0
 23
0.0
 33
0.0
 16
1.0
 26
0.0
 36
0.0
 17
0.0
 27
1.0
 37
0.0
 76
     0
330
1B
  0
LAYOUT
  5
26
102
{ACAD_REACTORS
330
1A
102
}
330
1A
100
AcDbPlotSettings
  1

  2
none_device
  4

  6

 40
0.0
 41
0.0
 42
0.0
 43
0.0
 44
0.0
 45
0.0
 46
0.0
 47
0.0
 48
0.0
 49
0.0
140
0.0
141
0.0
142
1.0
143
1.0
 70
   688
 72
     0
 73
     0
 74
     5
  7

 75
    16
 76
     0
 77
     2
 78
   300
147
1.0
148
0.0
149
0.0
100
AcDbLayout
  1
Layout2
 70
     1
 71
     2
 10
0.0
 20
0.0
 11
0.0
 21
0.0
 12
0.0
 22
0.0
 32
0.0
 14
0.0
 24
0.0
 34
0.0
 15
0.0
 25
0.0
 35
0.0
146
0.0
 13
0.0
 23
0.0
 33
0.0
 16
1.0
 26
0.0
 36
0.0
 17
0.0
 27
1.0
 37
0.0
 76
     0
330
23
  0
LAYOUT
  5
22
102
{ACAD_REACTORS
330
1A
102
}
330
1A
100
AcDbPlotSettings
  1

  2
none_device
  4

  6

 40
0.0
 41
0.0
 42
0.0
 43
0.0
 44
0.0
 45
0.0
 46
0.0
 47
0.0
 48
0.0
 49
0.0
140
0.0
141
0.0
142
1.0
143
1.0
 70
  1712
 72
     0
 73
     0
 74
     0
  7

 75
     0
 76
     0
 77
     2
 78
   300
147
1.0
148
0.0
149
0.0
100
AcDbLayout
  1
Model
 70
     1
 71
     0
 10
0.0
 20
0.0
 11
12.0
 21
9.0
 12
0.0
 22
0.0
 32
0.0
 14
1.000000000000000E+20
 24
1.000000000000000E+20
 34
1.000000000000000E+20
 15
-1.000000000000000E+20
 25
-1.000000000000000E+20
 35
-1.000000000000000E+20
146
0.0
 13
0.0
 23
0.0
 33
0.0
 16
1.0
 26
0.0
 36
0.0
 17
0.0
 27
1.0
 37
0.0
 76
     0
330
1F
331
29
  0
MATERIAL
  5
3D
102
{ACAD_REACTORS
330
3B
102
}
330
3B
100
AcDbMaterial
  1
ByBlock
 72
     1
 94
      127
  0
MATERIAL
  5
3C
102
{ACAD_REACTORS
330
3B
102
}
330
3B
100
AcDbMaterial
  1
ByLayer
 72
     1
 94
      127
  0
MATERIAL
  5
3E
102
{ACAD_REACTORS
330
3B
102
}
330
3B
100
AcDbMaterial
  1
Global
 72
     1
 94
      127
  0
MLINESTYLE
  5
18
102
{ACAD_REACTORS
330
17
102
}
330
17
100
AcDbMlineStyle
  2
Standard
 70
     0
  3

 62
   256
 51
90.0
 52
90.0
 71
     2
 49
0.5
 62
   256
  6
BYLAYER
 49
-0.5
 62
   256
  6
BYLAYER
  0
ACDBPLACEHOLDER
  5
F
102
{ACAD_REACTORS
330
E
102
}
330
E
  0
VISUALSTYLE
  5
2F
102
{ACAD_REACTORS
330
2A
102
}
330
2A
100
AcDbVisualStyle
  2
2dWireframe
 70
     4
177
     2
291
     0
 71
     0
176
     1
 72
     2
176
     1
 73
     0
176
     1
 90
        0
176
     1
 40
-0.6
176
     1
 41
-30.0
176
     1
 62
     5
 63
     7
421
 16777215
176
     1
 74
     1
176
     1
 91
        4
176
     1
 64
     7
176
     1
 65
   257
176
     1
 75
     1
176
     1
175
     1
176
     1
 42
1.0
176
     1
 92
        0
176
     1
 66
   257
176
     1
 43
1.0
176
     1
 76
     1
176
     1
 77
     6
176
     1
 78
     2
176
     1
 67
     7
176
     1
 79
     5
176
     1
170
     0
176
     1
171
     0
176
     1
290
     0
176
     1
 93
        1
176
     1
 44
0.0
176
     1
173
     0
176
     1
  0
VISUALSTYLE
  5
31
102
{ACAD_REACTORS
330
2A
102
}
330
2A
100
AcDbVisualStyle
  2
3D Hidden
 70
     6
177
     2
291
     0
 71
     1
176
     1
 72
     2
176
     1
 73
     2
176
     1
 90
        0
176
     1
 40
-0.6
176
     1
 41
-30.0
176
     1
 62
     5
 63
     7
421
 16777215
176
     1
 74
     2
176
     1
 91
        2
176
     1
 64
     7
176
     1
 65
   257
176
     1
 75
     2
176
     1
175
     1
176
     1
 42
40.0
176
     1
 92
        0
176
     1
 66
   257
176
     1
 43
1.0
176
     1
 76
     1
176
     1
 77
     6
176
     1
 78
     2
176
     1
 67
     7
176
     1
 79
     3
176
     1
170
     0
176
     1
171
     0
176
     1
290
     0
176
     1
 93
        1
176
     1
 44
0.0
176
     1
173
     0
176
     1
  0
VISUALSTYLE
  5
30
102
{ACAD_REACTORS
330
2A
102
}
330
2A
100
AcDbVisualStyle
  2
3dWireframe
 70
     5
177
     2
291
     0
 71
     0
176
     1
 72
     2
176
     1
 73
     0
176
     1
 90
        0
176
     1
 40
-0.6
176
     1
 41
-30.0
176
     1
 62
     5
 63
     7
421
 16777215
176
     1
 74
     1
176
     1
 91
        4
176
     1
 64
     7
176
     1
 65
   257
176
     1
 75
     1
176
     1
175
     1
176
     1
 42
1.0
176
     1
 92
        0
176
     1
 66
   257
176
     1
 43
1.0
176
     1
 76
     1
176
     1
 77
     6
176
     1
 78
     2
176
     1
 67
     7
176
     1
 79
     5
176
     1
170
     0
176
     1
171
     0
176
     1
290
     0
176
     1
 93
        1
176
     1
 44
0.0
176
     1
173
     0
176
     1
  0
VISUALSTYLE
  5
32
102
{ACAD_REACTORS
330
2A
102
}
330
2A
100
AcDbVisualStyle
  2
Basic
 70
     7
177
     2
291
     1
 71
     1
176
     1
 72
     0
176
     1
 73
     1
176
     1
 90
        0
176
     1
 40
-0.6
176
     1
 41
-30.0
176
     1
 62
     5
 63
     7
421
 16777215
176
     1
 74
     0
176
     1
 91
        4
176
     1
 64
     7
176
     1
 65
   257
176
     1
 75
     1
176
     1
175
     1
176
     1
 42
1.0
176
     1
 92
        8
176
     1
 66
     7
176
     1
 43
1.0
176
     1
 76
     1
176
     1
 77
     6
176
     1
 78
     2
176
     1
 67
     7
176
     1
 79
     5
176
     1
170
     0
176
     1
171
     0
176
     1
290
     0
176
     1
 93
        1
176
     1
 44
0.0
176
     1
173
     0
176
     1
  0
VISUALSTYLE
  5
36
102
{ACAD_REACTORS
330
2A
102
}
330
2A
100
AcDbVisualStyle
  2
Brighten
 70
    12
177
     2
291
     1
 71
     2
176
     1
 72
     2
176
     1
 73
     0
176
     1
 90
        0
176
     1
 40
-0.6
176
     1
 41
-30.0
176
     1
 62
     5
 63
     7
421
 16777215
176
     1
 74
     1
176
     1
 91
        4
176
     1
 64
     7
176
     1
 65
   257
176
     1
 75
     1
176
     1
175
     1
176
     1
 42
1.0
176
     1
 92
        8
176
     1
 66
     7
176
     1
 43
1.0
176
     1
 76
     1
176
     1
 77
     6
176
     1
 78
     2
176
     1
 67
     7
176
     1
 79
     5
176
     1
170
     0
176
     1
171
     0
176
     1
290
     0
176
     1
 93
        1
176
     1
 44
50.0
176
     1
173
     0
176
     1
  0
VISUALSTYLE
  5
3A
102
{ACAD_REACTORS
330
2A
102
}
330
2A
100
AcDbVisualStyle
  2
ColorChange
 70
    16
177
     2
291
     1
 71
     2
176
     1
 72
     2
176
     1
 73
     3
176
     1
 90
        0
176
     1
 40
-0.6
176
     1
 41
-30.0
176
     1
 62
     5
 63
     8
421
  8421504
176
     1
 74
     1
176
     1
 91
        4
176
     1
 64
     7
176
     1
 65
   257
176
     1
 75
     1
176
     1
175
     1
176
     1
 42
1.0
176
     1
 92
        8
176
     1
 66
     8
424
  8421504
176
     1
 43
1.0
176
     1
 76
     1
176
     1
 77
     6
176
     1
 78
     2
176
     1
 67
     7
176
     1
 79
     5
176
     1
170
     0
176
     1
171
     0
176
     1
290
     0
176
     1
 93
        1
176
     1
 44
0.0
176
     1
173
     0
176
     1
  0
VISUALSTYLE
  5
34
102
{ACAD_REACTORS
330
2A
102
}
330
2A
100
AcDbVisualStyle
  2
Conceptual
 70
     9
177
     2
291
     0
 71
     3
176
     1
 72
     2
176
     1
 73
     0
176
     1
 90
        0
176
     1
 40
-0.6
176
     1
 41
-30.0
176
     1
 62
     5
 63
     7
421
 16777215
176
     1
 74
     2
176
     1
 91
        2
176
     1
 64
     7
176
     1
 65
   257
176
     1
 75
     1
176
     1
175
     1
176
     1
 42
40.0
176
     1
 92
        8
176
     1
 66
     7
176
     1
 43
1.0
176
     1
 76
     1
176
     1
 77
     6
176
     1
 78
     2
176
     1
 67
     7
176
     1
 79
     3
176
     1
170
     0
176
     1
171
     0
176
     1
290
     0
176
     1
 93
        1
176
     1
 44
0.0
176
     1
173
     0
176
     1
  0
VISUALSTYLE
  5
35
102
{ACAD_REACTORS
330
2A
102
}
330
2A
100
AcDbVisualStyle
  2
Dim
 70
    11
177
     2
291
     1
 71
     2
176
     1
 72
     2
176
     1
 73
     0
176
     1
 90
        0
176
     1
 40
-0.6
176
     1
 41
-30.0
176
     1
 62
     5
 63
     7
421
 16777215
176
     1
 74
     1
176
     1
 91
        4
176
     1
 64
     7
176
     1
 65
   257
176
     1
 75
     1
176
     1
175
     1
176
     1
 42
1.0
176
     1
 92
        8
176
     1
 66
     7
176
     1
 43
1.0
176
     1
 76
     1
176
     1
 77
     6
176
     1
 78
     2
176
     1
 67
     7
176
     1
 79
     5
176
     1
170
     0
176
     1
171
     0
176
     1
290
     0
176
     1
 93
        1
176
     1
 44
-50.0
176
     1
173
     0
176
     1
  0
VISUALSTYLE
  5
39
102
{ACAD_REACTORS
330
2A
102
}
330
2A
100
AcDbVisualStyle
  2
Facepattern
 70
    15
177
     2
291
     1
 71
     2
176
     1
 72
     2
176
     1
 73
     0
176
     1
 90
        0
176
     1
 40
-0.6
176
     1
 41
-30.0
176
     1
 62
     5
 63
     7
421
 16777215
176
     1
 74
     1
176
     1
 91
        4
176
     1
 64
     7
176
     1
 65
   257
176
     1
 75
     1
176
     1
175
     1
176
     1
 42
1.0
176
     1
 92
        8
176
     1
 66
     7
176
     1
 43
1.0
176
     1
 76
     1
176
     1
 77
     6
176
     1
 78
     2
176
     1
 67
     7
176
     1
 79
     5
176
     1
170
     0
176
     1
171
     0
176
     1
290
     0
176
     1
 93
        1
176
     1
 44
0.0
176
     1
173
     0
176
     1
  0
VISUALSTYLE
  5
2B
102
{ACAD_REACTORS
330
2A
102
}
330
2A
100
AcDbVisualStyle
  2
Flat
 70
     0
177
     2
291
     1
 71
     2
176
     1
 72
     1
176
     1
 73
     1
176
     1
 90
        2
176
     1
 40
-0.6
176
     1
 41
30.0
176
     1
 62
     5
 63
     7
421
 16777215
176
     1
 74
     0
176
     1
 91
        4
176
     1
 64
     7
176
     1
 65
   257
176
     1
 75
     1
176
     1
175
     1
176
     1
 42
1.0
176
     1
 92
        8
176
     1
 66
     7
176
     1
 43
1.0
176
     1
 76
     1
176
     1
 77
     6
176
     1
 78
     2
176
     1
 67
     7
176
     1
 79
     5
176
     1
170
     0
176
     1
171
     0
176
     1
290
     0
176
     1
 93
       13
176
     1
 44
0.0
176
     1
173
     0
176
     1
  0
VISUALSTYLE
  5
2C
102
{ACAD_REACTORS
330
2A
102
}
330
2A
100
AcDbVisualStyle
  2
FlatWithEdges
 70
     1
177
     2
291
     1
 71
     2
176
     1
 72
     1
176
     1
 73
     1
176
     1
 90
        2
176
     1
 40
-0.6
176
     1
 41
30.0
176
     1
 62
     5
 63
     7
421
 16777215
176
     1
 74
     1
176
     1
 91
        4
176
     1
 64
     7
176
     1
 65
   257
176
     1
 75
     1
176
     1
175
     1
176
     1
 42
1.0
176
     1
 92
        0
176
     1
 66
   257
176
     1
 43
1.0
176
     1
 76
     1
176
     1
 77
     6
176
     1
 78
     2
176
     1
 67
     7
176
     1
 79
     5
176
     1
170
     0
176
     1
171
     0
176
     1
290
     0
176
     1
 93
       13
176
     1
 44
0.0
176
     1
173
     0
176
     1
  0
VISUALSTYLE
  5
2D
102
{ACAD_REACTORS
330
2A
102
}
330
2A
100
AcDbVisualStyle
  2
Gouraud
 70
     2
177
     2
291
     1
 71
     2
176
     1
 72
     2
176
     1
 73
     1
176
     1
 90
        2
176
     1
 40
-0.6
176
     1
 41
30.0
176
     1
 62
     5
 63
     7
421
 16777215
176
     1
 74
     0
176
     1
 91
        4
176
     1
 64
     7
176
     1
 65
   257
176
     1
 75
     1
176
     1
175
     1
176
     1
 42
1.0
176
     1
 92
        0
176
     1
 66
     7
176
     1
 43
1.0
176
     1
 76
     1
176
     1
 77
     6
176
     1
 78
     2
176
     1
 67
     7
176
     1
 79
     5
176
     1
170
     0
176
     1
171
     0
176
     1
290
     0
176
     1
 93
       13
176
     1
 44
0.0
176
     1
173
     0
176
     1
  0
VISUALSTYLE
  5
2E
102
{ACAD_REACTORS
330
2A
102
}
330
2A
100
AcDbVisualStyle
  2
GouraudWithEdges
 70
     3
177
     2
291
     1
 71
     2
176
     1
 72
     2
176
     1
 73
     1
176
     1
 90
        2
176
     1
 40
-0.6
176
     1
 41
30.0
176
     1
 62
     5
 63
     7
421
 16777215
176
     1
 74
     1
176
     1
 91
        4
176
     1
 64
     7
176
     1
 65
   257
176
     1
 75
     1
176
     1
175
     1
176
     1
 42
1.0
176
     1
 92
        0
176
     1
 66
   257
176
     1
 43
1.0
176
     1
 76
     1
176
     1
 77
     6
176
     1
 78
     2
176
     1
 67
     7
176
     1
 79
     5
176
     1
170
     0
176
     1
171
     0
176
     1
290
     0
176
     1
 93
       13
176
     1
 44
0.0
176
     1
173
     0
176
     1
  0
VISUALSTYLE
  5
38
102
{ACAD_REACTORS
330
2A
102
}
330
2A
100
AcDbVisualStyle
  2
Linepattern
 70
    14
177
     2
291
     1
 71
     2
176
     1
 72
     2
176
     1
 73
     0
176
     1
 90
        0
176
     1
 40
-0.6
176
     1
 41
-30.0
176
     1
 62
     5
 63
     7
421
 16777215
176
     1
 74
     1
176
     1
 91
        4
176
     1
 64
     7
176
     1
 65
   257
176
     1
 75
     7
176
     1
175
     7
176
     1
 42
1.0
176
     1
 92
        8
176
     1
 66
     7
176
     1
 43
1.0
176
     1
 76
     1
176
     1
 77
     6
176
     1
 78
     2
176
     1
 67
     7
176
     1
 79
     5
176
     1
170
     0
176
     1
171
     0
176
     1
290
     0
176
     1
 93
        1
176
     1
 44
0.0
176
     1
173
     0
176
     1
  0
VISUALSTYLE
  5
33
102
{ACAD_REACTORS
330
2A
102
}
330
2A
100
AcDbVisualStyle
  2
Realistic
 70
     8
177
     2
291
     0
 71
     2
176
     1
 72
     2
176
     1
 73
     0
176
     1
 90
        0
176
     1
 40
-0.6
176
     1
 41
-30.0
176
     1
 62
     5
 63
     7
421
 16777215
176
     1
 74
     1
176
     1
 91
        0
176
     1
 64
     7
176
     1
 65
   257
176
     1
 75
     1
176
     1
175
     1
176
     1
 42
1.0
176
     1
 92
        8
176
     1
 66
     8
424
  7895160
176
     1
 43
1.0
176
     1
 76
     1
176
     1
 77
     6
176
     1
 78
     2
176
     1
 67
     7
176
     1
 79
     5
176
     1
170
     0
176
     1
171
     0
176
     1
290
     0
176
     1
 93
       13
176
     1
 44
0.0
176
     1
173
     0
176
     1
  0
VISUALSTYLE
  5
37
102
{ACAD_REACTORS
330
2A
102
}
330
2A
100
AcDbVisualStyle
  2
Thicken
 70
    13
177
     2
291
     1
 71
     2
176
     1
 72
     2
176
     1
 73
     0
176
     1
 90
        0
176
     1
 40
-0.6
176
     1
 41
-30.0
176
     1
 62
     5
 63
     7
421
 16777215
176
     1
 74
     1
176
     1
 91
        4
176
     1
 64
     7
176
     1
 65
   257
176
     1
 75
     1
176
     1
175
     1
176
     1
 42
1.0
176
     1
 92
       12
176
     1
 66
     7
176
     1
 43
1.0
176
     1
 76
     1
176
     1
 77
     6
176
     1
 78
     2
176
     1
 67
     7
176
     1
 79
     5
176
     1
170
     0
176
     1
171
     0
176
     1
290
     0
176
     1
 93
        1
176
     1
 44
0.0
176
     1
173
     0
176
     1
  0
ENDSEC
  0
EOF
