  0
SECTION
  2
HEADER
  9
$ACADVER
  1
AC1024
  9
$ACADMAINTVER
 70
     6
  9
$DWGCODEPAGE
  3
UNDEFINED
  9
$INSBASE
 10
0.0
 20
0.0
 30
0.0
  9
$EXTMIN
 10
1.000000000000000E+20
 20
1.000000000000000E+20
 30
1.000000000000000E+20
  9
$EXTMAX
 10
-1.000000000000000E+20
 20
-1.000000000000000E+20
 30
-1.000000000000000E+20
  9
$LIMMIN
 10
0.0
 20
0.0
  9
$LIMMAX
 10
12.0
 20
9.0
  9
$ORTHOMODE
 70
     0
  9
$REGENMODE
 70
     1
  9
$FILLMODE
 70
     1
  9
$QTEXTMODE
 70
     0
  9
$MIRRTEXT
 70
     1
  9
$LTSCALE
 40
1.0
  9
$ATTMODE
 70
     1
  9
$TEXTSIZE
 40
0.2
  9
$TRACEWID
 40
0.05
  9
$TEXTSTYLE
  7
Standard
  9
$CLAYER
  8
0
  9
$CELTYPE
  6
ByLayer
  9
$CECOLOR
 62
   256
  9
$CELTSCALE
 40
1.0
  9
$DISPSILH
 70
     0
  9
$DIMSCALE
 40
1.0
  9
$DIMASZ
 40
0.18
  9
$DIMEXO
 40
0.0625
  9
$DIMDLI
 40
0.38
  9
$DIMRND
 40
0.0
  9
$DIMDLE
 40
0.0
  9
$DIMEXE
 40
0.18
  9
$DIMTP
 40
0.0
  9
$DIMTM
 40
0.0
  9
$DIMTXT
 40
0.18
  9
$DIMCEN
 40
0.09
  9
$DIMTSZ
 40
0.0
  9
$DIMTOL
 70
     0
  9
$DIMLIM
 70
     0
  9
$DIMTIH
 70
     1
  9
$DIMTOH
 70
     1
  9
$DIMSE1
 70
     0
  9
$DIMSE2
 70
     0
  9
$DIMTAD
 70
     0
  9
$DIMZIN
 70
     0
  9
$DIMBLK
  1

  9
$DIMASO
 70
     1
  9
$DIMSHO
 70
     1
  9
$DIMPOST
  1

  9
$DIMAPOST
  1

  9
$DIMALT
 70
     0
  9
$DIMALTD
 70
     2
  9
$DIMALTF
 40
25.4
  9
$DIMLFAC
 40
1.0
  9
$DIMTOFL
 70
     0
  9
$DIMTVP
 40
0.0
  9
$DIMTIX
 70
     0
  9
$DIMSOXD
 70
     0
  9
$DIMSAH
 70
     0
  9
$DIMBLK1
  1

  9
$DIMBLK2
  1

  9
$DIMSTYLE
  2
Standard
  9
$DIMCLRD
 70
     0
  9
$DIMCLRE
 70
     0
  9
$DIMCLRT
 70
     0
  9
$DIMTFAC
 40
1.0
  9
$DIMGAP
 40
0.09
  9
$DIMJUST
 70
     0
  9
$DIMSD1
 70
     0
  9
$DIMSD2
 70
     0
  9
$DIMTOLJ
 70
     1
  9
$DIMTZIN
 70
     0
  9
$DIMALTZ
 70
     0
  9
$DIMALTTZ
 70
     0
  9
$DIMUPT
 70
     0
  9
$DIMDEC
 70
     4
  9
$DIMTDEC
 70
     4
  9
$DIMALTU
 70
     2
  9
$DIMALTTD
 70
     2
  9
$DIMTXSTY
  7
Standard
  9
$DIMAUNIT
 70
     0
  9
$DIMADEC
 70
     0
  9
$DIMALTRND
 40
0.0
  9
$DIMAZIN
 70
     0
  9
$DIMDSEP
 70
    46
  9
$DIMATFIT
 70
     3
  9
$DIMFRAC
 70
     0
  9
$DIMLDRBLK
  1

  9
$DIMLUNIT
 70
     2
  9
$DIMLWD
 70
    -2
  9
$DIMLWE
 70
    -2
  9
$DIMTMOVE
 70
     0
  9
$DIMFXL
 40
1.0
  9
$DIMFXLON
 70
     0
  9
$DIMJOGANG
 40
0.7853981633974483
  9
$DIMTFILL
 70
     0
  9
$DIMTFILLCLR
 70
     0
  9
$DIMARCSYM
 70
     0
  9
$DIMLTYPE
  6

  9
$DIMLTEX1
  6

  9
$DIMLTEX2
  6

  9
$DIMTXTDIRECTION
 70
     0
  9
$LUNITS
 70
     2
  9
$LUPREC
 70
     4
  9
$SKETCHINC
 40
0.1
  9
$FILLETRAD
 40
0.5
  9
$AUNITS
 70
     0
  9
$AUPREC
 70
     0
  9
$MENU
  1
.
  9
$ELEVATION
 40
0.0
  9
$PELEVATION
 40
0.0
  9
$THICKNESS
 40
0.0
  9
$LIMCHECK
 70
     0
  9
$CHAMFERA
 40
0.5
  9
$CHAMFERB
 40
0.5
  9
$CHAMFERC
 40
1.0
  9
$CHAMFERD
 40
0.0
  9
$SKPOLY
 70
     0
  9
$TDCREATE
 40
2457917.622800915
  9
$TDUCREATE
 40
2457917.247800926
  9
$TDUPDATE
 40
2457917.622800915
  9
$TDUUPDATE
 40
2457917.247800926
  9
$TDINDWG
 40
0.0000000116
  9
$TDUSRTIMER
 40
0.0000000116
  9
$USRTIMER
 70
     1
  9
$ANGBASE
 50
0.0
  9
$ANGDIR
 70
     0
  9
$PDMODE
 70
     0
  9
$PDSIZE
 40
0.0
  9
$PLINEWID
 40
0.0
  9
$SPLFRAME
 70
     0
  9
$SPLINETYPE
 70
     6
  9
$SPLINESEGS
 70
     8
  9
$HANDSEED
  5
E7
  9
$SURFTAB1
 70
     6
  9
$SURFTAB2
 70
     6
  9
$SURFTYPE
 70
     6
  9
$SURFU
 70
     6
  9
$SURFV
 70
     6
  9
$UCSBASE
  2

  9
$UCSNAME
  2

  9
$UCSORG
 10
0.0
 20
0.0
 30
0.0
  9
$UCSXDIR
 10
1.0
 20
0.0
 30
0.0
  9
$UCSYDIR
 10
0.0
 20
1.0
 30
0.0
  9
$UCSORTHOREF
  2

  9
$UCSORTHOVIEW
 70
     0
  9
$UCSORGTOP
 10
0.0
 20
0.0
 30
0.0
  9
$UCSORGBOTTOM
 10
0.0
 20
0.0
 30
0.0
  9
$UCSORGLEFT
 10
0.0
 20
0.0
 30
0.0
  9
$UCSORGRIGHT
 10
0.0
 20
0.0
 30
0.0
  9
$UCSORGFRONT
 10
0.0
 20
0.0
 30
0.0
  9
$UCSORGBACK
 10
0.0
 20
0.0
 30
0.0
  9
$PUCSBASE
  2

  9
$PUCSNAME
  2

  9
$PUCSORG
 10
0.0
 20
0.0
 30
0.0
  9
$PUCSXDIR
 10
1.0
 20
0.0
 30
0.0
  9
$PUCSYDIR
 10
0.0
 20
1.0
 30
0.0
  9
$PUCSORTHOREF
  2

  9
$PUCSORTHOVIEW
 70
     0
  9
$PUCSORGTOP
 10
0.0
 20
0.0
 30
0.0
  9
$PUCSORGBOTTOM
 10
0.0
 20
0.0
 30
0.0
  9
$PUCSORGLEFT
 10
0.0
 20
0.0
 30
0.0
  9
$PUCSORGRIGHT
 10
0.0
 20
0.0
 30
0.0
  9
$PUCSORGFRONT
 10
0.0
 20
0.0
 30
0.0
  9
$PUCSORGBACK
 10
0.0
 20
0.0
 30
0.0
  9
$USERI1
 70
     0
  9
$USERI2
 70
     0
  9
$USERI3
 70
     0
  9
$USERI4
 70
     0
  9
$USERI5
 70
     0
  9
$USERR1
 40
0.0
  9
$USERR2
 40
0.0
  9
$USERR3
 40
0.0
  9
$USERR4
 40
0.0
  9
$USERR5
 40
0.0
  9
$WORLDVIEW
 70
     1
  9
$SHADEDGE
 70
     3
  9
$SHADEDIF
 70
    70
  9
$TILEMODE
 70
     1
  9
$MAXACTVP
 70
    64
  9
$PINSBASE
 10
0.0
 20
0.0
 30
0.0
  9
$PLIMCHECK
 70
     0
  9
$PEXTMIN
 10
1.000000000000000E+20
 20
1.000000000000000E+20
 30
1.000000000000000E+20
  9
$PEXTMAX
 10
-1.000000000000000E+20
 20
-1.000000000000000E+20
 30
-1.000000000000000E+20
  9
$PLIMMIN
 10
0.0
 20
0.0
  9
$PLIMMAX
 10
12.0
 20
9.0
  9
$UNITMODE
 70
     0
  9
$VISRETAIN
 70
     1
  9
$PLINEGEN
 70
     0
  9
$PSLTSCALE
 70
     1
  9
$TREEDEPTH
 70
  3020
  9
$CMLSTYLE
  2
Standard
  9
$CMLJUST
 70
     0
  9
$CMLSCALE
 40
1.0
  9
$PROXYGRAPHICS
 70
     1
  9
$MEASUREMENT
 70
     0
  9
$CELWEIGHT
370
    -1
  9
$ENDCAPS
280
     0
  9
$JOINSTYLE
280
     0
  9
$LWDISPLAY
290
     1
  9
$INSUNITS
 70
     1
  9
$HYPERLINKBASE
  1

  9
$STYLESHEET
  1

  9
$XEDIT
290
     1
  9
$CEPSNTYPE
380
     0
  9
$PSTYLEMODE
290
     1
  9
$FINGERPRINTGUID
  2
{3D255E1A-E7B1-C10A-19D8-4BB33C9C9366}
  9
$VERSIONGUID
  2
{FAEB1C32-E019-11D5-929B-00C0DF256EC4}
  9
$EXTNAMES
290
     1
  9
$PSVPSCALE
 40
0.0
  9
$OLESTARTUP
290
     0
  9
$SORTENTS
280
   127
  9
$INDEXCTL
280
     0
  9
$HIDETEXT
280
     1
  9
$XCLIPFRAME
280
     2
  9
$HALOGAP
280
     0
  9
$OBSCOLOR
 70
   257
  9
$OBSLTYPE
280
     0
  9
$INTERSECTIONDISPLAY
280
     0
  9
$INTERSECTIONCOLOR
 70
   257
  9
$DIMASSOC
280
     2
  9
$PROJECTNAME
  1

  9
$CAMERADISPLAY
290
     0
  9
$LENSLENGTH
 40
50.0
  9
$CAMERAHEIGHT
 40
0.0
  9
$STEPSPERSEC
 40
2.0
  9
$STEPSIZE
 40
6.0
  9
$3DDWFPREC
 40
2.0
  9
$PSOLWIDTH
 40
0.25
  9
$PSOLHEIGHT
 40
4.0
  9
$LOFTANG1
 40
1.570796326794897
  9
$LOFTANG2
 40
1.570796326794897
  9
$LOFTMAG1
 40
0.0
  9
$LOFTMAG2
 40
0.0
  9
$LOFTPARAM
 70
     7
  9
$LOFTNORMALS
280
     1
  9
$LATITUDE
 40
37.795
  9
$LONGITUDE
 40
-122.394
  9
$NORTHDIRECTION
 40
0.0
  9
$TIMEZONE
 70
 -8000
  9
$LIGHTGLYPHDISPLAY
280
     1
  9
$TILEMODELIGHTSYNCH
280
     1
  9
$CMATERIAL
347
3C
  9
$SOLIDHIST
280
     1
  9
$SHOWHIST
280
     1
  9
$DWFFRAME
280
     2
  9
$DGNFRAME
280
     2
  9
$REALWORLDSCALE
290
     1
  9
$INTERFERECOLOR
 62
   256
  9
$CSHADOW
280
     0
  9
$SHADOWPLANELOCATION
 40
0.0
  0
ENDSEC
  0
SECTION
  2
CLASSES
  0
CLASS
  1
ACDBDICTIONARYWDFLT
  2
AcDbDictionaryWithDefault
  3
ObjectDBX Classes
 90
        0
 91
        4
280
     0
281
     0
  0
CLASS
  1
VISUALSTYLE
  2
AcDbVisualStyle
  3
ObjectDBX Classes
 90
     4095
 91
        4
280
     0
281
     0
  0
CLASS
  1
MATERIAL
  2
AcDbMaterial
  3
ObjectDBX Classes
 90
     1153
 91
        4
280
     0
281
     0
  0
CLASS
  1
SUN
  2
AcDbSun
  3
SCENEOE
 90
     1024
 91
        4
280
     0
281
     0
  0
ENDSEC
  0
SECTION
  2
TABLES
  0
TABLE
  2
VPORT
  5
8
330
0
100
AcDbSymbolTable
 70
     1
  0
VPORT
  5
29
330
8
100
AcDbSymbolTableRecord
100
AcDbViewportTableRecord
  2
*Active
 70
     0
 10
0.0
 20
0.0
 11
1.0
 21
1.0
 12
0.0
 22
0.0
 13
0.0
 23
0.0
 14
0.5
 24
0.5
 15
0.5
 25
0.5
 16
0.0
 26
0.0
 36
1.0
 17
91.00082462281999
 27
-128.4993055234307
 37
0.0
 40
256.9986110468615
 41
0.7081814508812795
 42
50.0
 43
0.0
 44
0.0
 50
0.0
 51
0.0
 71
     0
 72
   100
 73
     1
 74
     3
 75
     0
 76
     0
 77
     0
 78
     0
281
     0
 65
     1
110
0.0
120
0.0
130
0.0
111
1.0
121
0.0
131
0.0
112
0.0
122
1.0
132
0.0
 79
     0
146
0.0
 60
     3
 61
     5
292
     1
282
     1
141
0.0
142
0.0
 63
   250
361
3F
  0
ENDTAB
  0
TABLE
  2
LTYPE
  5
5
330
0
100
AcDbSymbolTable
 70
     1
  0
LTYPE
  5
14
330
5
100
AcDbSymbolTableRecord
100
AcDbLinetypeTableRecord
  2
ByBlock
 70
     0
  3

 72
    65
 73
     0
 40
0.0
  0
LTYPE
  5
15
330
5
100
AcDbSymbolTableRecord
100
AcDbLinetypeTableRecord
  2
ByLayer
 70
     0
  3

 72
    65
 73
     0
 40
0.0
  0
LTYPE
  5
16
330
5
100
AcDbSymbolTableRecord
100
AcDbLinetypeTableRecord
  2
Continuous
 70
     0
  3
Solid line
 72
    65
 73
     0
 40
0.0
  0
ENDTAB
  0
TABLE
  2
LAYER
  5
2
330
0
100
AcDbSymbolTable
 70
     2
  0
LAYER
  5
10
330
2
100
AcDbSymbolTableRecord
100
AcDbLayerTableRecord
  2
0
 70
     0
 62
     7
  6
Continuous
370
    -3
390
F
347
3E
  0
LAYER
  5
40
330
2
100
AcDbSymbolTableRecord
100
AcDbLayerTableRecord
  2
_U+30EC_U+30A4_U+30E4_U+30FC 1
 70
     0
 62
     7
  6
Continuous
370
    -3
390
F
347
3E
  0
ENDTAB
  0
TABLE
  2
STYLE
  5
3
330
0
100
AcDbSymbolTable
 70
     1
  0
STYLE
  5
11
330
3
100
AcDbSymbolTableRecord
100
AcDbTextStyleTableRecord
  2
Standard
 70
     0
 40
0.0
 41
1.0
 50
0.0
 71
     0
 42
0.2
  3
txt
  4

  0
ENDTAB
  0
TABLE
  2
VIEW
  5
6
330
0
100
AcDbSymbolTable
 70
     0
  0
ENDTAB
  0
TABLE
  2
UCS
  5
7
330
0
100
AcDbSymbolTable
 70
     0
  0
ENDTAB
  0
TABLE
  2
APPID
  5
9
330
0
100
AcDbSymbolTable
 70
     1
  0
APPID
  5
12
330
9
100
AcDbSymbolTableRecord
100
AcDbRegAppTableRecord
  2
ACAD
 70
     0
  0
ENDTAB
  0
TABLE
  2
DIMSTYLE
  5
A
330
0
100
AcDbSymbolTable
 70
     1
100
AcDbDimStyleTable
  0
DIMSTYLE
105
27
330
A
100
AcDbSymbolTableRecord
100
AcDbDimStyleTableRecord
  2
Standard
 70
     0
178
     0
340
11
  0
ENDTAB
  0
TABLE
  2
BLOCK_RECORD
  5
1
330
0
100
AcDbSymbolTable
 70
     6
  0
BLOCK_RECORD
  5
1F
330
1
100
AcDbSymbolTableRecord
100
AcDbBlockTableRecord
  2
*Model_Space
340
22
 70
     0
280
     1
281
     0
  0
BLOCK_RECORD
  5
1B
330
1
100
AcDbSymbolTableRecord
100
AcDbBlockTableRecord
  2
*Paper_Space
340
1E
 70
     0
280
     1
281
     0
  0
BLOCK_RECORD
  5
23
330
1
100
AcDbSymbolTableRecord
100
AcDbBlockTableRecord
  2
*Paper_Space0
340
26
 70
     0
280
     1
281
     0
  0
BLOCK_RECORD
  5
93
330
1
100
AcDbSymbolTableRecord
100
AcDbBlockTableRecord
  2
block 2
340
0
102
{BLKREFS
331
94
102
}
 70
     0
280
     1
281
     0
  0
BLOCK_RECORD
  5
B1
330
1
100
AcDbSymbolTableRecord
100
AcDbBlockTableRecord
  2
block 3
340
0
102
{BLKREFS
331
B2
102
}
 70
     0
280
     1
281
     0
  0
BLOCK_RECORD
  5
BF
330
1
100
AcDbSymbolTableRecord
100
AcDbBlockTableRecord
  2
block 4
340
0
102
{BLKREFS
331
C0
102
}
 70
     0
280
     1
281
     0
  0
BLOCK_RECORD
  5
CF
330
1
100
AcDbSymbolTableRecord
100
AcDbBlockTableRecord
  2
block 5
340
0
102
{BLKREFS
331
D0
102
}
 70
     0
280
     1
281
     0
  0
BLOCK_RECORD
  5
DF
330
1
100
AcDbSymbolTableRecord
100
AcDbBlockTableRecord
  2
block 6
340
0
102
{BLKREFS
331
E0
102
}
 70
     0
280
     1
281
     0
  0
ENDTAB
  0
ENDSEC
  0
SECTION
  2
BLOCKS
  0
BLOCK
  5
20
330
1F
100
AcDbEntity
  8
0
100
AcDbBlockBegin
  2
*Model_Space
 70
     0
 10
0.0
 20
0.0
 30
0.0
  3
*Model_Space
  1

  0
ENDBLK
  5
21
330
1F
100
AcDbEntity
  8
0
100
AcDbBlockEnd
  0
BLOCK
  5
1C
330
1B
100
AcDbEntity
 67
     1
  8
0
100
AcDbBlockBegin
  2
*Paper_Space
 70
     0
 10
0.0
 20
0.0
 30
0.0
  3
*Paper_Space
  1

  0
ENDBLK
  5
1D
330
1B
100
AcDbEntity
 67
     1
  8
0
100
AcDbBlockEnd
  0
BLOCK
  5
24
330
23
100
AcDbEntity
  8
0
100
AcDbBlockBegin
  2
*Paper_Space0
 70
     0
 10
0.0
 20
0.0
 30
0.0
  3
*Paper_Space0
  1

  0
ENDBLK
  5
25
330
23
100
AcDbEntity
  8
0
100
AcDbBlockEnd
  0
BLOCK
  5
95
330
93
100
AcDbEntity
  8
0
100
AcDbBlockBegin
  2
block 2
 70
     0
 10
0.0
 20
0.0
 30
0.0
  3
block 2
  1

  0
SPLINE
  5
97
330
93
100
AcDbEntity
  8
_U+30EC_U+30A4_U+30E4_U+30FC 1
370
     0
100
AcDbSpline
210
0.0
220
0.0
230
1.0
 70
    11
 71
     3
 72
    26
 73
    22
 74
     0
 42
0.0000000001
 43
0.0000000001
 12
1.0
 22
0.0
 32
0.0
 13
1.0
 23
0.0
 33
0.0
 40
0.0
 40
0.0
 40
0.0
 40
0.0
 40
1.0
 40
1.0
 40
1.0
 40
2.0
 40
2.0
 40
2.0
 40
3.0
 40
3.0
 40
3.0
 40
4.0
 40
4.0
 40
4.0
 40
5.0
 40
5.0
 40
5.0
 40
6.0
 40
6.0
 40
6.0
 40
7.0
 40
7.0
 40
7.0
 40
7.0
 10
101.8242756906898
 20
-134.6412217545341
 30
0.0
 10
101.8242756906898
 20
-134.6412217545341
 30
0.0
 10
100.7201225876672
 20
-134.6412217545341
 30
0.0
 10
100.7201225876672
 20
-134.6412217545341
 30
0.0
 10
100.7201225876672
 20
-134.6412217545341
 30
0.0
 10
100.7201225876672
 20
-134.9712619020211
 30
0.0
 10
100.7201225876672
 20
-134.9712619020211
 30
0.0
 10
100.7201225876672
 20
-134.9712619020211
 30
0.0
 10
100.5719834818015
 20
-134.9712619020211
 30
0.0
 10
100.5719834818015
 20
-134.9712619020211
 30
0.0
 10
100.5571695712149
 20
-134.639154697243
 30
0.0
 10
100.3942165547626
 20
-134.5926459081921
 30
0.0
 10
100.2798393846523
 20
-134.563018087019
 30
0.0
 10
100.2798393846523
 20
-134.563018087019
 30
0.0
 10
100.2798393846523
 20
-134.4169460384444
 30
0.0
 10
100.2798393846523
 20
-134.4169460384444
 30
0.0
 10
100.2798393846523
 20
-134.4169460384444
 30
0.0
 10
101.8242756906898
 20
-134.4169460384444
 30
0.0
 10
101.8242756906898
 20
-134.4169460384444
 30
0.0
 10
101.8242756906898
 20
-134.4169460384444
 30
0.0
 10
101.8242756906898
 20
-134.6412217545341
 30
0.0
 10
101.8242756906898
 20
-134.6412217545341
 30
0.0
  0
HATCH
  5
98
330
93
100
AcDbEntity
  8
_U+30EC_U+30A4_U+30E4_U+30FC 1
 62
   179
420
  2234388
100
AcDbHatch
 10
0.0
 20
0.0
 30
0.0
210
0.0
220
0.0
230
1.0
  2
SOLID
 70
     1
 71
     0
 91
        1
 92
        1
 93
        1
 72
     4
 94
        3
 73
     0
 74
     1
 95
       26
 96
       22
 40
0.0
 40
0.0
 40
0.0
 40
0.0
 40
1.0
 40
1.0
 40
1.0
 40
2.0
 40
2.0
 40
2.0
 40
3.0
 40
3.0
 40
3.0
 40
4.0
 40
4.0
 40
4.0
 40
5.0
 40
5.0
 40
5.0
 40
6.0
 40
6.0
 40
6.0
 40
7.0
 40
7.0
 40
7.0
 40
7.0
 10
101.8242756906898
 20
-134.6412217545341
 10
101.8242756906898
 20
-134.6412217545341
 10
100.7201225876672
 20
-134.6412217545341
 10
100.7201225876672
 20
-134.6412217545341
 10
100.7201225876672
 20
-134.6412217545341
 10
100.7201225876672
 20
-134.9712619020211
 10
100.7201225876672
 20
-134.9712619020211
 10
100.7201225876672
 20
-134.9712619020211
 10
100.5719834818015
 20
-134.9712619020211
 10
100.5719834818015
 20
-134.9712619020211
 10
100.5571695712149
 20
-134.639154697243
 10
100.3942165547626
 20
-134.5926459081921
 10
100.2798393846523
 20
-134.563018087019
 10
100.2798393846523
 20
-134.563018087019
 10
100.2798393846523
 20
-134.4169460384444
 10
100.2798393846523
 20
-134.4169460384444
 10
100.2798393846523
 20
-134.4169460384444
 10
101.8242756906898
 20
-134.4169460384444
 10
101.8242756906898
 20
-134.4169460384444
 10
101.8242756906898
 20
-134.4169460384444
 10
101.8242756906898
 20
-134.6412217545341
 10
101.8242756906898
 20
-134.6412217545341
 97
        0
 97
        0
 75
     2
 76
     1
 98
        0
  0
SPLINE
  5
99
330
93
100
AcDbEntity
  8
_U+30EC_U+30A4_U+30E4_U+30FC 1
370
     0
100
AcDbSpline
210
0.0
220
0.0
230
1.0
 70
    11
 71
     3
 72
    44
 73
    40
 74
     0
 42
0.0000000001
 43
0.0000000001
 12
1.0
 22
0.0
 32
0.0
 13
1.0
 23
0.0
 33
0.0
 40
0.0
 40
0.0
 40
0.0
 40
0.0
 40
1.0
 40
1.0
 40
1.0
 40
2.0
 40
2.0
 40
2.0
 40
3.0
 40
3.0
 40
3.0
 40
4.0
 40
4.0
 40
4.0
 40
5.0
 40
5.0
 40
5.0
 40
6.0
 40
6.0
 40
6.0
 40
7.0
 40
7.0
 40
7.0
 40
8.0
 40
8.0
 40
8.0
 40
9.0
 40
9.0
 40
9.0
 40
10.0
 40
10.0
 40
10.0
 40
11.0
 40
11.0
 40
11.0
 40
12.0
 40
12.0
 40
12.0
 40
13.0
 40
13.0
 40
13.0
 40
13.0
 10
101.2423990632311
 20
-133.322783712329
 30
0.0
 10
101.4012179651011
 20
-133.5405137469968
 30
0.0
 10
101.475287518034
 20
-133.6335313250986
 30
0.0
 10
101.6189479997689
 20
-133.6824516809891
 30
0.0
 10
101.6189479997689
 20
-133.6824516809891
 30
0.0
 10
101.6189479997689
 20
-132.9038601013227
 30
0.0
 10
101.6189479997689
 20
-132.9038601013227
 30
0.0
 10
101.6189479997689
 20
-132.9038601013227
 30
0.0
 10
101.8242756906898
 20
-132.9038601013227
 30
0.0
 10
101.8242756906898
 20
-132.9038601013227
 30
0.0
 10
101.8242756906898
 20
-132.9038601013227
 30
0.0
 10
101.8242756906898
 20
-133.9318765941212
 30
0.0
 10
101.8242756906898
 20
-133.9318765941212
 30
0.0
 10
101.4666747793208
 20
-133.9001817156569
 30
0.0
 10
101.3884711118057
 20
-133.8347249014372
 30
0.0
 10
101.090125842783
 20
-133.4495632261862
 30
0.0
 10
100.8913438332841
 20
-133.1935926316322
 30
0.0
 10
100.8234754522247
 20
-133.1281358174124
 30
0.0
 10
100.6860161423632
 20
-133.1281358174124
 30
0.0
 10
100.5675048576706
 20
-133.1281358174124
 30
0.0
 10
100.4365912292311
 20
-133.2001383130541
 30
0.0
 10
100.4365912292311
 20
-133.3968532652619
 30
0.0
 10
100.4365912292311
 20
-133.6569579743983
 30
0.0
 10
100.6670681171943
 20
-133.6655707131114
 30
0.0
 10
100.7835123445958
 20
-133.6697048276937
 30
0.0
 10
100.7835123445958
 20
-133.6697048276937
 30
0.0
 10
100.7835123445958
 20
-133.8939805437834
 30
0.0
 10
100.7835123445958
 20
-133.8939805437834
 30
0.0
 10
100.6563883211901
 20
-133.8853678050703
 30
0.0
 10
100.5444227179195
 20
-133.8746880090661
 30
0.0
 10
100.4259114332269
 20
-133.7944172842597
 30
0.0
 10
100.2650254740657
 20
-133.6845187382803
 30
0.0
 10
100.2312635383102
 20
-133.4981390725283
 30
0.0
 10
100.2312635383102
 20
-133.3820393546753
 30
0.0
 10
100.2312635383102
 20
-133.1047091681127
 30
0.0
 10
100.4152316372226
 20
-132.8973144199007
 30
0.0
 10
100.6880831996544
 20
-132.8973144199007
 30
0.0
 10
100.916837539875
 20
-132.8973144199007
 30
0.0
 10
101.0160562898502
 20
-133.0137586473021
 30
0.0
 10
101.2423990632311
 20
-133.322783712329
 30
0.0
  0
HATCH
  5
9A
330
93
100
AcDbEntity
  8
_U+30EC_U+30A4_U+30E4_U+30FC 1
 62
   179
420
  2234388
100
AcDbHatch
 10
0.0
 20
0.0
 30
0.0
210
0.0
220
0.0
230
1.0
  2
SOLID
 70
     1
 71
     0
 91
        1
 92
        1
 93
        1
 72
     4
 94
        3
 73
     0
 74
     1
 95
       44
 96
       40
 40
0.0
 40
0.0
 40
0.0
 40
0.0
 40
1.0
 40
1.0
 40
1.0
 40
2.0
 40
2.0
 40
2.0
 40
3.0
 40
3.0
 40
3.0
 40
4.0
 40
4.0
 40
4.0
 40
5.0
 40
5.0
 40
5.0
 40
6.0
 40
6.0
 40
6.0
 40
7.0
 40
7.0
 40
7.0
 40
8.0
 40
8.0
 40
8.0
 40
9.0
 40
9.0
 40
9.0
 40
10.0
 40
10.0
 40
10.0
 40
11.0
 40
11.0
 40
11.0
 40
12.0
 40
12.0
 40
12.0
 40
13.0
 40
13.0
 40
13.0
 40
13.0
 10
101.2423990632311
 20
-133.322783712329
 10
101.4012179651011
 20
-133.5405137469968
 10
101.475287518034
 20
-133.6335313250986
 10
101.6189479997689
 20
-133.6824516809891
 10
101.6189479997689
 20
-133.6824516809891
 10
101.6189479997689
 20
-132.9038601013227
 10
101.6189479997689
 20
-132.9038601013227
 10
101.6189479997689
 20
-132.9038601013227
 10
101.8242756906898
 20
-132.9038601013227
 10
101.8242756906898
 20
-132.9038601013227
 10
101.8242756906898
 20
-132.9038601013227
 10
101.8242756906898
 20
-133.9318765941212
 10
101.8242756906898
 20
-133.9318765941212
 10
101.4666747793208
 20
-133.9001817156569
 10
101.3884711118057
 20
-133.8347249014372
 10
101.090125842783
 20
-133.4495632261862
 10
100.8913438332841
 20
-133.1935926316322
 10
100.8234754522247
 20
-133.1281358174124
 10
100.6860161423632
 20
-133.1281358174124
 10
100.5675048576706
 20
-133.1281358174124
 10
100.4365912292311
 20
-133.2001383130541
 10
100.4365912292311
 20
-133.3968532652619
 10
100.4365912292311
 20
-133.6569579743983
 10
100.6670681171943
 20
-133.6655707131114
 10
100.7835123445958
 20
-133.6697048276937
 10
100.7835123445958
 20
-133.6697048276937
 10
100.7835123445958
 20
-133.8939805437834
 10
100.7835123445958
 20
-133.8939805437834
 10
100.6563883211901
 20
-133.8853678050703
 10
100.5444227179195
 20
-133.8746880090661
 10
100.4259114332269
 20
-133.7944172842597
 10
100.2650254740657
 20
-133.6845187382803
 10
100.2312635383102
 20
-133.4981390725283
 10
100.2312635383102
 20
-133.3820393546753
 10
100.2312635383102
 20
-133.1047091681127
 10
100.4152316372226
 20
-132.8973144199007
 10
100.6880831996544
 20
-132.8973144199007
 10
100.916837539875
 20
-132.8973144199007
 10
101.0160562898502
 20
-133.0137586473021
 10
101.2423990632311
 20
-133.322783712329
 97
        0
 97
        0
 75
     2
 76
     1
 98
        0
  0
POLYLINE
  5
9B
330
93
100
AcDbEntity
  8
_U+30EC_U+30A4_U+30E4_U+30FC 1
370
     0
100
AcDb2dPolyline
 66
     1
 10
0.0
 20
0.0
 30
0.0
  0
VERTEX
  5
9C
330
9B
100
AcDbEntity
  8
_U+30EC_U+30A4_U+30E4_U+30FC 1
370
     0
100
AcDbVertex
100
AcDb2dVertex
 10
101.8242756906898
 20
-132.6788953661358
 30
0.0
  0
VERTEX
  5
9D
330
9B
100
AcDbEntity
  8
_U+30EC_U+30A4_U+30E4_U+30FC 1
370
     0
100
AcDbVertex
100
AcDb2dVertex
 10
101.572439210718
 20
-132.6788953661358
 30
0.0
  0
VERTEX
  5
9E
330
9B
100
AcDbEntity
  8
_U+30EC_U+30A4_U+30E4_U+30FC 1
370
     0
100
AcDbVertex
100
AcDb2dVertex
 10
101.572439210718
 20
-132.4270588861641
 30
0.0
  0
VERTEX
  5
9F
330
9B
100
AcDbEntity
  8
_U+30EC_U+30A4_U+30E4_U+30FC 1
370
     0
100
AcDbVertex
100
AcDb2dVertex
 10
101.8242756906898
 20
-132.4270588861641
 30
0.0
  0
VERTEX
  5
A0
330
9B
100
AcDbEntity
  8
_U+30EC_U+30A4_U+30E4_U+30FC 1
370
     0
100
AcDbVertex
100
AcDb2dVertex
 10
101.8242756906898
 20
-132.6788953661358
 30
0.0
  0
SEQEND
  5
A1
330
9B
100
AcDbEntity
  8
_U+30EC_U+30A4_U+30E4_U+30FC 1
370
     0
  0
HATCH
  5
A2
330
93
100
AcDbEntity
  8
_U+30EC_U+30A4_U+30E4_U+30FC 1
 62
   179
420
  2234388
100
AcDbHatch
 10
0.0
 20
0.0
 30
0.0
210
0.0
220
0.0
230
1.0
  2
SOLID
 70
     1
 71
     0
 91
        1
 92
        1
 93
        4
 72
     1
 10
101.8242756906898
 20
-132.6788953661358
 11
101.572439210718
 21
-132.6788953661358
 72
     1
 10
101.572439210718
 20
-132.6788953661358
 11
101.572439210718
 21
-132.4270588861641
 72
     1
 10
101.572439210718
 20
-132.4270588861641
 11
101.8242756906898
 21
-132.4270588861641
 72
     1
 10
101.8242756906898
 20
-132.4270588861641
 11
101.8242756906898
 21
-132.6788953661358
 97
        0
 75
     2
 76
     1
 98
        0
  0
SPLINE
  5
A3
330
93
100
AcDbEntity
  8
_U+30EC_U+30A4_U+30E4_U+30FC 1
370
     0
100
AcDbSpline
210
0.0
220
0.0
230
1.0
 70
    11
 71
     3
 72
    53
 73
    49
 74
     0
 42
0.0000000001
 43
0.0000000001
 12
1.0
 22
0.0
 32
0.0
 13
1.0
 23
0.0
 33
0.0
 40
0.0
 40
0.0
 40
0.0
 40
0.0
 40
1.0
 40
1.0
 40
1.0
 40
2.0
 40
2.0
 40
2.0
 40
3.0
 40
3.0
 40
3.0
 40
4.0
 40
4.0
 40
4.0
 40
5.0
 40
5.0
 40
5.0
 40
6.0
 40
6.0
 40
6.0
 40
7.0
 40
7.0
 40
7.0
 40
8.0
 40
8.0
 40
8.0
 40
9.0
 40
9.0
 40
9.0
 40
10.0
 40
10.0
 40
10.0
 40
11.0
 40
11.0
 40
11.0
 40
12.0
 40
12.0
 40
12.0
 40
13.0
 40
13.0
 40
13.0
 40
14.0
 40
14.0
 40
14.0
 40
15.0
 40
15.0
 40
15.0
 40
16.0
 40
16.0
 40
16.0
 40
16.0
 10
101.8749185943229
 20
-131.7097900061351
 30
0.0
 10
101.8749185943229
 20
-131.7879936736502
 30
0.0
 10
101.8580376264452
 20
-131.8896239904651
 30
0.0
 10
101.7946478695166
 20
-131.99125430728
 30
0.0
 10
101.6847493235371
 20
-132.1645426101881
 30
0.0
 10
101.5534911855491
 20
-132.1859022021966
 30
0.0
 10
101.4456596968608
 20
-132.2048502273655
 30
0.0
 10
101.4456596968608
 20
-132.2048502273655
 30
0.0
 10
101.4456596968608
 20
-131.9826415685668
 30
0.0
 10
101.4456596968608
 20
-131.9826415685668
 30
0.0
 10
101.6444417063597
 20
-131.9278645503514
 30
0.0
 10
101.6740695275329
 20
-131.8007405269456
 30
0.0
 10
101.6740695275329
 20
-131.7077229488439
 30
0.0
 10
101.6740695275329
 20
-131.5681965816913
 30
0.0
 10
101.5745062680092
 20
-131.4159233612432
 30
0.0
 10
101.3419623227548
 20
-131.4159233612432
 30
0.0
 10
101.0859917282007
 20
-131.4159233612432
 30
0.0
 10
101.0160562898502
 20
-131.5957573455733
 30
0.0
 10
101.0160562898502
 20
-131.716335687557
 30
0.0
 10
101.0160562898502
 20
-131.7480305660213
 30
0.0
 10
101.0160562898502
 20
-131.8896239904651
 30
0.0
 10
101.145247370547
 20
-131.9785074539845
 30
0.0
 10
101.145247370547
 20
-131.9785074539845
 30
0.0
 10
101.1262993453782
 20
-132.1542073237323
 30
0.0
 10
101.1262993453782
 20
-132.1542073237323
 30
0.0
 10
101.1262993453782
 20
-132.1542073237323
 30
0.0
 10
100.2798393846523
 20
-132.0336289817485
 30
0.0
 10
100.2798393846523
 20
-132.0336289817485
 30
0.0
 10
100.2798393846523
 20
-132.0336289817485
 30
0.0
 10
100.2798393846523
 20
-131.2550374020821
 30
0.0
 10
100.2798393846523
 20
-131.2550374020821
 30
0.0
 10
100.2798393846523
 20
-131.2550374020821
 30
0.0
 10
100.4744872795689
 20
-131.2550374020821
 30
0.0
 10
100.4744872795689
 20
-131.2550374020821
 30
0.0
 10
100.4744872795689
 20
-131.2550374020821
 30
0.0
 10
100.4744872795689
 20
-131.8706759652962
 30
0.0
 10
100.4744872795689
 20
-131.8706759652962
 30
0.0
 10
100.4744872795689
 20
-131.8706759652962
 30
0.0
 10
100.8975450051576
 20
-131.936132779516
 30
0.0
 10
100.8975450051576
 20
-131.936132779516
 30
0.0
 10
100.8637830694021
 20
-131.8748100798785
 30
0.0
 10
100.8234754522247
 20
-131.792472297781
 30
0.0
 10
100.8234754522247
 20
-131.6739610130885
 30
0.0
 10
100.8234754522247
 20
-131.4200574758256
 30
0.0
 10
101.0098551179767
 20
-131.1830349064404
 30
0.0
 10
101.3230142975859
 20
-131.1830349064404
 30
0.0
 10
101.6403075917774
 20
-131.1830349064404
 30
0.0
 10
101.8749185943229
 20
-131.4073106225301
 30
0.0
 10
101.8749185943229
 20
-131.7097900061351
 30
0.0
  0
HATCH
  5
A4
330
93
100
AcDbEntity
  8
_U+30EC_U+30A4_U+30E4_U+30FC 1
 62
   179
420
  2234388
100
AcDbHatch
 10
0.0
 20
0.0
 30
0.0
210
0.0
220
0.0
230
1.0
  2
SOLID
 70
     1
 71
     0
 91
        1
 92
        1
 93
        1
 72
     4
 94
        3
 73
     0
 74
     1
 95
       53
 96
       49
 40
0.0
 40
0.0
 40
0.0
 40
0.0
 40
1.0
 40
1.0
 40
1.0
 40
2.0
 40
2.0
 40
2.0
 40
3.0
 40
3.0
 40
3.0
 40
4.0
 40
4.0
 40
4.0
 40
5.0
 40
5.0
 40
5.0
 40
6.0
 40
6.0
 40
6.0
 40
7.0
 40
7.0
 40
7.0
 40
8.0
 40
8.0
 40
8.0
 40
9.0
 40
9.0
 40
9.0
 40
10.0
 40
10.0
 40
10.0
 40
11.0
 40
11.0
 40
11.0
 40
12.0
 40
12.0
 40
12.0
 40
13.0
 40
13.0
 40
13.0
 40
14.0
 40
14.0
 40
14.0
 40
15.0
 40
15.0
 40
15.0
 40
16.0
 40
16.0
 40
16.0
 40
16.0
 10
101.8749185943229
 20
-131.7097900061351
 10
101.8749185943229
 20
-131.7879936736502
 10
101.8580376264452
 20
-131.8896239904651
 10
101.7946478695166
 20
-131.99125430728
 10
101.6847493235371
 20
-132.1645426101881
 10
101.5534911855491
 20
-132.1859022021966
 10
101.4456596968608
 20
-132.2048502273655
 10
101.4456596968608
 20
-132.2048502273655
 10
101.4456596968608
 20
-131.9826415685668
 10
101.4456596968608
 20
-131.9826415685668
 10
101.6444417063597
 20
-131.9278645503514
 10
101.6740695275329
 20
-131.8007405269456
 10
101.6740695275329
 20
-131.7077229488439
 10
101.6740695275329
 20
-131.5681965816913
 10
101.5745062680092
 20
-131.4159233612432
 10
101.3419623227548
 20
-131.4159233612432
 10
101.0859917282007
 20
-131.4159233612432
 10
101.0160562898502
 20
-131.5957573455733
 10
101.0160562898502
 20
-131.716335687557
 10
101.0160562898502
 20
-131.7480305660213
 10
101.0160562898502
 20
-131.8896239904651
 10
101.145247370547
 20
-131.9785074539845
 10
101.145247370547
 20
-131.9785074539845
 10
101.1262993453782
 20
-132.1542073237323
 10
101.1262993453782
 20
-132.1542073237323
 10
101.1262993453782
 20
-132.1542073237323
 10
100.2798393846523
 20
-132.0336289817485
 10
100.2798393846523
 20
-132.0336289817485
 10
100.2798393846523
 20
-132.0336289817485
 10
100.2798393846523
 20
-131.2550374020821
 10
100.2798393846523
 20
-131.2550374020821
 10
100.2798393846523
 20
-131.2550374020821
 10
100.4744872795689
 20
-131.2550374020821
 10
100.4744872795689
 20
-131.2550374020821
 10
100.4744872795689
 20
-131.2550374020821
 10
100.4744872795689
 20
-131.8706759652962
 10
100.4744872795689
 20
-131.8706759652962
 10
100.4744872795689
 20
-131.8706759652962
 10
100.8975450051576
 20
-131.936132779516
 10
100.8975450051576
 20
-131.936132779516
 10
100.8637830694021
 20
-131.8748100798785
 10
100.8234754522247
 20
-131.792472297781
 10
100.8234754522247
 20
-131.6739610130885
 10
100.8234754522247
 20
-131.4200574758256
 10
101.0098551179767
 20
-131.1830349064404
 10
101.3230142975859
 20
-131.1830349064404
 10
101.6403075917774
 20
-131.1830349064404
 10
101.8749185943229
 20
-131.4073106225301
 10
101.8749185943229
 20
-131.7097900061351
 97
        0
 97
        0
 75
     2
 76
     1
 98
        0
  0
ENDBLK
  5
96
330
93
100
AcDbEntity
  8
0
100
AcDbBlockEnd
  0
BLOCK
  5
B3
330
B1
100
AcDbEntity
  8
0
100
AcDbBlockBegin
  2
block 3
 70
     0
 10
0.0
 20
0.0
 30
0.0
  3
block 3
  1

  0
SPLINE
  5
B5
330
B1
100
AcDbEntity
  8
_U+30EC_U+30A4_U+30E4_U+30FC 1
370
     0
100
AcDbSpline
210
0.0
220
0.0
230
1.0
 70
    11
 71
     3
 72
    44
 73
    40
 74
     0
 42
0.0000000001
 43
0.0000000001
 12
1.0
 22
0.0
 32
0.0
 13
1.0
 23
0.0
 33
0.0
 40
0.0
 40
0.0
 40
0.0
 40
0.0
 40
1.0
 40
1.0
 40
1.0
 40
2.0
 40
2.0
 40
2.0
 40
3.0
 40
3.0
 40
3.0
 40
4.0
 40
4.0
 40
4.0
 40
5.0
 40
5.0
 40
5.0
 40
6.0
 40
6.0
 40
6.0
 40
7.0
 40
7.0
 40
7.0
 40
8.0
 40
8.0
 40
8.0
 40
9.0
 40
9.0
 40
9.0
 40
10.0
 40
10.0
 40
10.0
 40
11.0
 40
11.0
 40
11.0
 40
12.0
 40
12.0
 40
12.0
 40
13.0
 40
13.0
 40
13.0
 40
13.0
 10
80.76389022503473
 20
-120.7621378278824
 30
0.0
 10
80.54598793559268
 20
-120.9207844749781
 30
0.0
 10
80.45279810271667
 20
-120.994854027911
 30
0.0
 10
80.40422225637464
 20
-121.1386867644202
 30
0.0
 10
80.40422225637464
 20
-121.1386867644202
 30
0.0
 10
81.18264158126685
 20
-121.1386867644202
 30
0.0
 10
81.18264158126685
 20
-121.1386867644202
 30
0.0
 10
81.18264158126685
 20
-121.1386867644202
 30
0.0
 10
81.18264158126685
 20
-121.3438422005668
 30
0.0
 10
81.18264158126685
 20
-121.3438422005668
 30
0.0
 10
81.18264158126685
 20
-121.3438422005668
 30
0.0
 10
80.1546250884683
 20
-121.3438422005668
 30
0.0
 10
80.1546250884683
 20
-121.3438422005668
 30
0.0
 10
80.18631996693259
 20
-120.9862412891979
 30
0.0
 10
80.2519490359266
 20
-120.9080376216827
 30
0.0
 10
80.63693845640327
 20
-120.6096923526601
 30
0.0
 10
80.89290905095733
 20
-120.4109103431612
 30
0.0
 10
80.95836586517707
 20
-120.343214216876
 30
0.0
 10
80.95836586517707
 20
-120.2057549070145
 30
0.0
 10
80.95836586517707
 20
-120.0872436223219
 30
0.0
 10
80.88653562430962
 20
-119.9561577391082
 30
0.0
 10
80.68982067210186
 20
-119.9561577391082
 30
0.0
 10
80.42954370819123
 20
-119.9561577391082
 30
0.0
 10
80.42110322425236
 20
-120.1866346270714
 30
0.0
 10
80.41679685489581
 20
-120.3030788544728
 30
0.0
 10
80.41679685489581
 20
-120.3030788544728
 30
0.0
 10
80.1926933935803
 20
-120.3030788544728
 30
0.0
 10
80.1926933935803
 20
-120.3030788544728
 30
0.0
 10
80.20113387751917
 20
-120.1761270858414
 30
0.0
 10
80.21164141874918
 20
-120.0639892277965
 30
0.0
 10
80.29208439832976
 20
-119.9454779431039
 30
0.0
 10
80.40198294430922
 20
-119.784764238717
 30
0.0
 10
80.58819035528698
 20
-119.7508300481873
 30
0.0
 10
80.70463458268843
 20
-119.7508300481873
 30
0.0
 10
80.98179251447678
 20
-119.7508300481873
 30
0.0
 10
81.18901500791455
 20
-119.9349704018739
 30
0.0
 10
81.18901500791455
 20
-120.2078219643057
 30
0.0
 10
81.18901500791455
 20
-120.4362317949778
 30
0.0
 10
81.07274303528737
 20
-120.5357950545015
 30
0.0
 10
80.76389022503473
 20
-120.7621378278824
 30
0.0
  0
HATCH
  5
B6
330
B1
100
AcDbEntity
  8
_U+30EC_U+30A4_U+30E4_U+30FC 1
 62
   179
420
  2234388
100
AcDbHatch
 10
0.0
 20
0.0
 30
0.0
210
0.0
220
0.0
230
1.0
  2
SOLID
 70
     1
 71
     0
 91
        1
 92
        1
 93
        1
 72
     4
 94
        3
 73
     0
 74
     1
 95
       44
 96
       40
 40
0.0
 40
0.0
 40
0.0
 40
0.0
 40
1.0
 40
1.0
 40
1.0
 40
2.0
 40
2.0
 40
2.0
 40
3.0
 40
3.0
 40
3.0
 40
4.0
 40
4.0
 40
4.0
 40
5.0
 40
5.0
 40
5.0
 40
6.0
 40
6.0
 40
6.0
 40
7.0
 40
7.0
 40
7.0
 40
8.0
 40
8.0
 40
8.0
 40
9.0
 40
9.0
 40
9.0
 40
10.0
 40
10.0
 40
10.0
 40
11.0
 40
11.0
 40
11.0
 40
12.0
 40
12.0
 40
12.0
 40
13.0
 40
13.0
 40
13.0
 40
13.0
 10
80.76389022503473
 20
-120.7621378278824
 10
80.54598793559268
 20
-120.9207844749781
 10
80.45279810271667
 20
-120.994854027911
 10
80.40422225637464
 20
-121.1386867644202
 10
80.40422225637464
 20
-121.1386867644202
 10
81.18264158126685
 20
-121.1386867644202
 10
81.18264158126685
 20
-121.1386867644202
 10
81.18264158126685
 20
-121.1386867644202
 10
81.18264158126685
 20
-121.3438422005668
 10
81.18264158126685
 20
-121.3438422005668
 10
81.18264158126685
 20
-121.3438422005668
 10
80.1546250884683
 20
-121.3438422005668
 10
80.1546250884683
 20
-121.3438422005668
 10
80.18631996693259
 20
-120.9862412891979
 10
80.2519490359266
 20
-120.9080376216827
 10
80.63693845640327
 20
-120.6096923526601
 10
80.89290905095733
 20
-120.4109103431612
 10
80.95836586517707
 20
-120.343214216876
 10
80.95836586517707
 20
-120.2057549070145
 10
80.95836586517707
 20
-120.0872436223219
 10
80.88653562430962
 20
-119.9561577391082
 10
80.68982067210186
 20
-119.9561577391082
 10
80.42954370819123
 20
-119.9561577391082
 10
80.42110322425236
 20
-120.1866346270714
 10
80.41679685489581
 20
-120.3030788544728
 10
80.41679685489581
 20
-120.3030788544728
 10
80.1926933935803
 20
-120.3030788544728
 10
80.1926933935803
 20
-120.3030788544728
 10
80.20113387751917
 20
-120.1761270858414
 10
80.21164141874918
 20
-120.0639892277965
 10
80.29208439832976
 20
-119.9454779431039
 10
80.40198294430922
 20
-119.784764238717
 10
80.58819035528698
 20
-119.7508300481873
 10
80.70463458268843
 20
-119.7508300481873
 10
80.98179251447678
 20
-119.7508300481873
 10
81.18901500791455
 20
-119.9349704018739
 10
81.18901500791455
 20
-120.2078219643057
 10
81.18901500791455
 20
-120.4362317949778
 10
81.07274303528737
 20
-120.5357950545015
 10
80.76389022503473
 20
-120.7621378278824
 97
        0
 97
        0
 75
     2
 76
     1
 98
        0
  0
ENDBLK
  5
B4
330
B1
100
AcDbEntity
  8
0
100
AcDbBlockEnd
  0
BLOCK
  5
C1
330
BF
100
AcDbEntity
  8
0
100
AcDbBlockBegin
  2
block 4
 70
     0
 10
0.0
 20
0.0
 30
0.0
  3
block 4
  1

  0
SPLINE
  5
C3
330
BF
100
AcDbEntity
  8
_U+30EC_U+30A4_U+30E4_U+30FC 1
370
     0
100
AcDbSpline
210
0.0
220
0.0
230
1.0
 70
    11
 71
     3
 72
    26
 73
    22
 74
     0
 42
0.0000000001
 43
0.0000000001
 12
1.0
 22
0.0
 32
0.0
 13
1.0
 23
0.0
 33
0.0
 40
0.0
 40
0.0
 40
0.0
 40
0.0
 40
1.0
 40
1.0
 40
1.0
 40
2.0
 40
2.0
 40
2.0
 40
3.0
 40
3.0
 40
3.0
 40
4.0
 40
4.0
 40
4.0
 40
5.0
 40
5.0
 40
5.0
 40
6.0
 40
6.0
 40
6.0
 40
7.0
 40
7.0
 40
7.0
 40
7.0
 10
88.53361407291868
 20
-121.3438422005668
 30
0.0
 10
88.53361407291868
 20
-121.3438422005668
 30
0.0
 10
88.53361407291868
 20
-120.23951684277
 30
0.0
 10
88.53361407291868
 20
-120.23951684277
 30
0.0
 10
88.53361407291868
 20
-120.23951684277
 30
0.0
 10
88.20357392543175
 20
-120.23951684277
 30
0.0
 10
88.20357392543175
 20
-120.23951684277
 30
0.0
 10
88.20357392543175
 20
-120.23951684277
 30
0.0
 10
88.20357392543175
 20
-120.0915499916785
 30
0.0
 10
88.20357392543175
 20
-120.0915499916785
 30
0.0
 10
88.53568113020984
 20
-120.0767360810919
 30
0.0
 10
88.58218991926071
 20
-119.9137830646396
 30
0.0
 10
88.61181774043385
 20
-119.7995781493036
 30
0.0
 10
88.61181774043385
 20
-119.7995781493036
 30
0.0
 10
88.75788978900844
 20
-119.7995781493036
 30
0.0
 10
88.75788978900844
 20
-119.7995781493036
 30
0.0
 10
88.75788978900844
 20
-119.7995781493036
 30
0.0
 10
88.75788978900844
 20
-121.3438422005668
 30
0.0
 10
88.75788978900844
 20
-121.3438422005668
 30
0.0
 10
88.75788978900844
 20
-121.3438422005668
 30
0.0
 10
88.53361407291868
 20
-121.3438422005668
 30
0.0
 10
88.53361407291868
 20
-121.3438422005668
 30
0.0
  0
HATCH
  5
C4
330
BF
100
AcDbEntity
  8
_U+30EC_U+30A4_U+30E4_U+30FC 1
 62
   179
420
  2234388
100
AcDbHatch
 10
0.0
 20
0.0
 30
0.0
210
0.0
220
0.0
230
1.0
  2
SOLID
 70
     1
 71
     0
 91
        1
 92
        1
 93
        1
 72
     4
 94
        3
 73
     0
 74
     1
 95
       26
 96
       22
 40
0.0
 40
0.0
 40
0.0
 40
0.0
 40
1.0
 40
1.0
 40
1.0
 40
2.0
 40
2.0
 40
2.0
 40
3.0
 40
3.0
 40
3.0
 40
4.0
 40
4.0
 40
4.0
 40
5.0
 40
5.0
 40
5.0
 40
6.0
 40
6.0
 40
6.0
 40
7.0
 40
7.0
 40
7.0
 40
7.0
 10
88.53361407291868
 20
-121.3438422005668
 10
88.53361407291868
 20
-121.3438422005668
 10
88.53361407291868
 20
-120.23951684277
 10
88.53361407291868
 20
-120.23951684277
 10
88.53361407291868
 20
-120.23951684277
 10
88.20357392543175
 20
-120.23951684277
 10
88.20357392543175
 20
-120.23951684277
 10
88.20357392543175
 20
-120.23951684277
 10
88.20357392543175
 20
-120.0915499916785
 10
88.20357392543175
 20
-120.0915499916785
 10
88.53568113020984
 20
-120.0767360810919
 10
88.58218991926071
 20
-119.9137830646396
 10
88.61181774043385
 20
-119.7995781493036
 10
88.61181774043385
 20
-119.7995781493036
 10
88.75788978900844
 20
-119.7995781493036
 10
88.75788978900844
 20
-119.7995781493036
 10
88.75788978900844
 20
-119.7995781493036
 10
88.75788978900844
 20
-121.3438422005668
 10
88.75788978900844
 20
-121.3438422005668
 10
88.75788978900844
 20
-121.3438422005668
 10
88.53361407291868
 20
-121.3438422005668
 10
88.53361407291868
 20
-121.3438422005668
 97
        0
 97
        0
 75
     2
 76
     1
 98
        0
  0
SPLINE
  5
C5
330
BF
100
AcDbEntity
  8
_U+30EC_U+30A4_U+30E4_U+30FC 1
370
     0
100
AcDbSpline
210
0.0
220
0.0
230
1.0
 70
    11
 71
     3
 72
    53
 73
    49
 74
     0
 42
0.0000000001
 43
0.0000000001
 12
1.0
 22
0.0
 32
0.0
 13
1.0
 23
0.0
 33
0.0
 40
0.0
 40
0.0
 40
0.0
 40
0.0
 40
1.0
 40
1.0
 40
1.0
 40
2.0
 40
2.0
 40
2.0
 40
3.0
 40
3.0
 40
3.0
 40
4.0
 40
4.0
 40
4.0
 40
5.0
 40
5.0
 40
5.0
 40
6.0
 40
6.0
 40
6.0
 40
7.0
 40
7.0
 40
7.0
 40
8.0
 40
8.0
 40
8.0
 40
9.0
 40
9.0
 40
9.0
 40
10.0
 40
10.0
 40
10.0
 40
11.0
 40
11.0
 40
11.0
 40
12.0
 40
12.0
 40
12.0
 40
13.0
 40
13.0
 40
13.0
 40
14.0
 40
14.0
 40
14.0
 40
15.0
 40
15.0
 40
15.0
 40
16.0
 40
16.0
 40
16.0
 40
16.0
 10
89.74025876662743
 20
-121.3946573589743
 30
0.0
 10
89.66205509911227
 20
-121.3946573589743
 30
0.0
 10
89.5604247822974
 20
-121.3776041363223
 30
0.0
 10
89.45879446548253
 20
-121.3142143793937
 30
0.0
 10
89.28550616257446
 20
-121.2041435786399
 30
0.0
 10
89.26414657056591
 20
-121.0730576954262
 30
0.0
 10
89.24519854539703
 20
-120.9652262067379
 30
0.0
 10
89.24519854539703
 20
-120.9652262067379
 30
0.0
 10
89.46740720419565
 20
-120.9652262067379
 30
0.0
 10
89.46740720419565
 20
-120.9652262067379
 30
0.0
 10
89.52218422241113
 20
-121.1640082162368
 30
0.0
 10
89.64930824581684
 20
-121.1936360374099
 30
0.0
 10
89.74232582391859
 20
-121.1936360374099
 30
0.0
 10
89.8818521910712
 20
-121.1936360374099
 30
0.0
 10
90.03412541151926
 20
-121.0942450326605
 30
0.0
 10
90.03412541151926
 20
-120.8615288326318
 30
0.0
 10
90.03412541151926
 20
-120.6055582380778
 30
0.0
 10
89.85429142718921
 20
-120.5357950545015
 30
0.0
 10
89.73371308520547
 20
-120.5357950545015
 30
0.0
 10
89.70201820674117
 20
-120.5357950545015
 30
0.0
 10
89.5604247822974
 20
-120.5357950545015
 30
0.0
 10
89.47154131877795
 20
-120.6648138804241
 30
0.0
 10
89.47154131877795
 20
-120.6648138804241
 30
0.0
 10
89.2958414490302
 20
-120.6456936004809
 30
0.0
 10
89.2958414490302
 20
-120.6456936004809
 30
0.0
 10
89.2958414490302
 20
-120.6456936004809
 30
0.0
 10
89.41641979101395
 20
-119.7995781493036
 30
0.0
 10
89.41641979101395
 20
-119.7995781493036
 30
0.0
 10
89.41641979101395
 20
-119.7995781493036
 30
0.0
 10
90.19501137068042
 20
-119.7995781493036
 30
0.0
 10
90.19501137068042
 20
-119.7995781493036
 30
0.0
 10
90.19501137068042
 20
-119.7995781493036
 30
0.0
 10
90.19501137068042
 20
-119.9942260442202
 30
0.0
 10
90.19501137068042
 20
-119.9942260442202
 30
0.0
 10
90.19501137068042
 20
-119.9942260442202
 30
0.0
 10
89.57937280746627
 20
-119.9942260442202
 30
0.0
 10
89.57937280746627
 20
-119.9942260442202
 30
0.0
 10
89.57937280746627
 20
-119.9942260442202
 30
0.0
 10
89.51391599324653
 20
-120.4172837698089
 30
0.0
 10
89.51391599324653
 20
-120.4172837698089
 30
0.0
 10
89.57523869288397
 20
-120.3833495792792
 30
0.0
 10
89.65757647498144
 20
-120.343214216876
 30
0.0
 10
89.77608775967404
 20
-120.343214216876
 30
0.0
 10
90.02999129693696
 20
-120.343214216876
 30
0.0
 10
90.26701386632215
 20
-120.5294216278538
 30
0.0
 10
90.26701386632215
 20
-120.8424085526887
 30
0.0
 10
90.26701386632215
 20
-121.1598741016545
 30
0.0
 10
90.04273815023238
 20
-121.3946573589743
 30
0.0
 10
89.74025876662743
 20
-121.3946573589743
 30
0.0
  0
HATCH
  5
C6
330
BF
100
AcDbEntity
  8
_U+30EC_U+30A4_U+30E4_U+30FC 1
 62
   179
420
  2234388
100
AcDbHatch
 10
0.0
 20
0.0
 30
0.0
210
0.0
220
0.0
230
1.0
  2
SOLID
 70
     1
 71
     0
 91
        1
 92
        1
 93
        1
 72
     4
 94
        3
 73
     0
 74
     1
 95
       53
 96
       49
 40
0.0
 40
0.0
 40
0.0
 40
0.0
 40
1.0
 40
1.0
 40
1.0
 40
2.0
 40
2.0
 40
2.0
 40
3.0
 40
3.0
 40
3.0
 40
4.0
 40
4.0
 40
4.0
 40
5.0
 40
5.0
 40
5.0
 40
6.0
 40
6.0
 40
6.0
 40
7.0
 40
7.0
 40
7.0
 40
8.0
 40
8.0
 40
8.0
 40
9.0
 40
9.0
 40
9.0
 40
10.0
 40
10.0
 40
10.0
 40
11.0
 40
11.0
 40
11.0
 40
12.0
 40
12.0
 40
12.0
 40
13.0
 40
13.0
 40
13.0
 40
14.0
 40
14.0
 40
14.0
 40
15.0
 40
15.0
 40
15.0
 40
16.0
 40
16.0
 40
16.0
 40
16.0
 10
89.74025876662743
 20
-121.3946573589743
 10
89.66205509911227
 20
-121.3946573589743
 10
89.5604247822974
 20
-121.3776041363223
 10
89.45879446548253
 20
-121.3142143793937
 10
89.28550616257446
 20
-121.2041435786399
 10
89.26414657056591
 20
-121.0730576954262
 10
89.24519854539703
 20
-120.9652262067379
 10
89.24519854539703
 20
-120.9652262067379
 10
89.46740720419565
 20
-120.9652262067379
 10
89.46740720419565
 20
-120.9652262067379
 10
89.52218422241113
 20
-121.1640082162368
 10
89.64930824581684
 20
-121.1936360374099
 10
89.74232582391859
 20
-121.1936360374099
 10
89.8818521910712
 20
-121.1936360374099
 10
90.03412541151926
 20
-121.0942450326605
 10
90.03412541151926
 20
-120.8615288326318
 10
90.03412541151926
 20
-120.6055582380778
 10
89.85429142718921
 20
-120.5357950545015
 10
89.73371308520547
 20
-120.5357950545015
 10
89.70201820674117
 20
-120.5357950545015
 10
89.5604247822974
 20
-120.5357950545015
 10
89.47154131877795
 20
-120.6648138804241
 10
89.47154131877795
 20
-120.6648138804241
 10
89.2958414490302
 20
-120.6456936004809
 10
89.2958414490302
 20
-120.6456936004809
 10
89.2958414490302
 20
-120.6456936004809
 10
89.41641979101395
 20
-119.7995781493036
 10
89.41641979101395
 20
-119.7995781493036
 10
89.41641979101395
 20
-119.7995781493036
 10
90.19501137068042
 20
-119.7995781493036
 10
90.19501137068042
 20
-119.7995781493036
 10
90.19501137068042
 20
-119.7995781493036
 10
90.19501137068042
 20
-119.9942260442202
 10
90.19501137068042
 20
-119.9942260442202
 10
90.19501137068042
 20
-119.9942260442202
 10
89.57937280746627
 20
-119.9942260442202
 10
89.57937280746627
 20
-119.9942260442202
 10
89.57937280746627
 20
-119.9942260442202
 10
89.51391599324653
 20
-120.4172837698089
 10
89.51391599324653
 20
-120.4172837698089
 10
89.57523869288397
 20
-120.3833495792792
 10
89.65757647498144
 20
-120.343214216876
 10
89.77608775967404
 20
-120.343214216876
 10
90.02999129693696
 20
-120.343214216876
 10
90.26701386632215
 20
-120.5294216278538
 10
90.26701386632215
 20
-120.8424085526887
 10
90.26701386632215
 20
-121.1598741016545
 10
90.04273815023238
 20
-121.3946573589743
 10
89.74025876662743
 20
-121.3946573589743
 97
        0
 97
        0
 75
     2
 76
     1
 98
        0
  0
ENDBLK
  5
C2
330
BF
100
AcDbEntity
  8
0
100
AcDbBlockEnd
  0
BLOCK
  5
D1
330
CF
100
AcDbEntity
  8
0
100
AcDbBlockBegin
  2
block 5
 70
     0
 10
0.0
 20
0.0
 30
0.0
  3
block 5
  1

  0
SPLINE
  5
D3
330
CF
100
AcDbEntity
  8
_U+30EC_U+30A4_U+30E4_U+30FC 1
370
     0
100
AcDbSpline
210
0.0
220
0.0
230
1.0
 70
    11
 71
     3
 72
    44
 73
    40
 74
     0
 42
0.0000000001
 43
0.0000000001
 12
1.0
 22
0.0
 32
0.0
 13
1.0
 23
0.0
 33
0.0
 40
0.0
 40
0.0
 40
0.0
 40
0.0
 40
1.0
 40
1.0
 40
1.0
 40
2.0
 40
2.0
 40
2.0
 40
3.0
 40
3.0
 40
3.0
 40
4.0
 40
4.0
 40
4.0
 40
5.0
 40
5.0
 40
5.0
 40
6.0
 40
6.0
 40
6.0
 40
7.0
 40
7.0
 40
7.0
 40
8.0
 40
8.0
 40
8.0
 40
9.0
 40
9.0
 40
9.0
 40
10.0
 40
10.0
 40
10.0
 40
11.0
 40
11.0
 40
11.0
 40
12.0
 40
12.0
 40
12.0
 40
13.0
 40
13.0
 40
13.0
 40
13.0
 10
97.76354164222579
 20
-120.7621378278824
 30
0.0
 10
97.545811607558
 20
-120.9207844749781
 30
0.0
 10
97.45279402945626
 20
-120.994854027911
 30
0.0
 10
97.4038736735657
 20
-121.1386867644202
 30
0.0
 10
97.4038736735657
 20
-121.1386867644202
 30
0.0
 10
98.18246525323217
 20
-121.1386867644202
 30
0.0
 10
98.18246525323217
 20
-121.1386867644202
 30
0.0
 10
98.18246525323217
 20
-121.1386867644202
 30
0.0
 10
98.18246525323217
 20
-121.3438422005668
 30
0.0
 10
98.18246525323217
 20
-121.3438422005668
 30
0.0
 10
98.18246525323217
 20
-121.3438422005668
 30
0.0
 10
97.15444876043361
 20
-121.3438422005668
 30
0.0
 10
97.15444876043361
 20
-121.3438422005668
 30
0.0
 10
97.18614363889792
 20
-120.9862412891979
 30
0.0
 10
97.25160045311766
 20
-120.9080376216827
 30
0.0
 10
97.63676212836859
 20
-120.6096923526601
 30
0.0
 10
97.89273272292266
 20
-120.4109103431612
 30
0.0
 10
97.9581895371424
 20
-120.343214216876
 30
0.0
 10
97.9581895371424
 20
-120.2057549070145
 30
0.0
 10
97.9581895371424
 20
-120.0872436223219
 30
0.0
 10
97.88618704150068
 20
-119.9561577391082
 30
0.0
 10
97.68947208929292
 20
-119.9561577391082
 30
0.0
 10
97.42936738015655
 20
-119.9561577391082
 30
0.0
 10
97.42075464144342
 20
-120.1866346270714
 30
0.0
 10
97.41662052686112
 20
-120.3030788544728
 30
0.0
 10
97.41662052686112
 20
-120.3030788544728
 30
0.0
 10
97.19234481077136
 20
-120.3030788544728
 30
0.0
 10
97.19234481077136
 20
-120.3030788544728
 30
0.0
 10
97.20095754948449
 20
-120.1761270858414
 30
0.0
 10
97.21163734548877
 20
-120.0639892277965
 30
0.0
 10
97.29190807029508
 20
-119.9454779431039
 30
0.0
 10
97.40180661627456
 20
-119.784764238717
 30
0.0
 10
97.58818628202657
 20
-119.7508300481873
 30
0.0
 10
97.70428599987949
 20
-119.7508300481873
 30
0.0
 10
97.9816161864421
 20
-119.7508300481873
 30
0.0
 10
98.18901093465414
 20
-119.9349704018739
 30
0.0
 10
98.18901093465414
 20
-120.2078219643057
 30
0.0
 10
98.18901093465414
 20
-120.4362317949778
 30
0.0
 10
98.07256670725269
 20
-120.5357950545015
 30
0.0
 10
97.76354164222579
 20
-120.7621378278824
 30
0.0
  0
HATCH
  5
D4
330
CF
100
AcDbEntity
  8
_U+30EC_U+30A4_U+30E4_U+30FC 1
 62
   179
420
  2234388
100
AcDbHatch
 10
0.0
 20
0.0
 30
0.0
210
0.0
220
0.0
230
1.0
  2
SOLID
 70
     1
 71
     0
 91
        1
 92
        1
 93
        1
 72
     4
 94
        3
 73
     0
 74
     1
 95
       44
 96
       40
 40
0.0
 40
0.0
 40
0.0
 40
0.0
 40
1.0
 40
1.0
 40
1.0
 40
2.0
 40
2.0
 40
2.0
 40
3.0
 40
3.0
 40
3.0
 40
4.0
 40
4.0
 40
4.0
 40
5.0
 40
5.0
 40
5.0
 40
6.0
 40
6.0
 40
6.0
 40
7.0
 40
7.0
 40
7.0
 40
8.0
 40
8.0
 40
8.0
 40
9.0
 40
9.0
 40
9.0
 40
10.0
 40
10.0
 40
10.0
 40
11.0
 40
11.0
 40
11.0
 40
12.0
 40
12.0
 40
12.0
 40
13.0
 40
13.0
 40
13.0
 40
13.0
 10
97.76354164222579
 20
-120.7621378278824
 10
97.545811607558
 20
-120.9207844749781
 10
97.45279402945626
 20
-120.994854027911
 10
97.4038736735657
 20
-121.1386867644202
 10
97.4038736735657
 20
-121.1386867644202
 10
98.18246525323217
 20
-121.1386867644202
 10
98.18246525323217
 20
-121.1386867644202
 10
98.18246525323217
 20
-121.1386867644202
 10
98.18246525323217
 20
-121.3438422005668
 10
98.18246525323217
 20
-121.3438422005668
 10
98.18246525323217
 20
-121.3438422005668
 10
97.15444876043361
 20
-121.3438422005668
 10
97.15444876043361
 20
-121.3438422005668
 10
97.18614363889792
 20
-120.9862412891979
 10
97.25160045311766
 20
-120.9080376216827
 10
97.63676212836859
 20
-120.6096923526601
 10
97.89273272292266
 20
-120.4109103431612
 10
97.9581895371424
 20
-120.343214216876
 10
97.9581895371424
 20
-120.2057549070145
 10
97.9581895371424
 20
-120.0872436223219
 10
97.88618704150068
 20
-119.9561577391082
 10
97.68947208929292
 20
-119.9561577391082
 10
97.42936738015655
 20
-119.9561577391082
 10
97.42075464144342
 20
-120.1866346270714
 10
97.41662052686112
 20
-120.3030788544728
 10
97.41662052686112
 20
-120.3030788544728
 10
97.19234481077136
 20
-120.3030788544728
 10
97.19234481077136
 20
-120.3030788544728
 10
97.20095754948449
 20
-120.1761270858414
 10
97.21163734548877
 20
-120.0639892277965
 10
97.29190807029508
 20
-119.9454779431039
 10
97.40180661627456
 20
-119.784764238717
 10
97.58818628202657
 20
-119.7508300481873
 10
97.70428599987949
 20
-119.7508300481873
 10
97.9816161864421
 20
-119.7508300481873
 10
98.18901093465414
 20
-119.9349704018739
 10
98.18901093465414
 20
-120.2078219643057
 10
98.18901093465414
 20
-120.4362317949778
 10
98.07256670725269
 20
-120.5357950545015
 10
97.76354164222579
 20
-120.7621378278824
 97
        0
 97
        0
 75
     2
 76
     1
 98
        0
  0
ENDBLK
  5
D2
330
CF
100
AcDbEntity
  8
0
100
AcDbBlockEnd
  0
BLOCK
  5
E1
330
DF
100
AcDbEntity
  8
0
100
AcDbBlockBegin
  2
block 6
 70
     0
 10
0.0
 20
0.0
 30
0.0
  3
block 6
  1

  0
SPLINE
  5
E3
330
DF
100
AcDbEntity
  8
_U+30EC_U+30A4_U+30E4_U+30FC 1
370
     0
100
AcDbSpline
210
0.0
220
0.0
230
1.0
 70
    11
 71
     3
 72
    26
 73
    22
 74
     0
 42
0.0000000001
 43
0.0000000001
 12
1.0
 22
0.0
 32
0.0
 13
1.0
 23
0.0
 33
0.0
 40
0.0
 40
0.0
 40
0.0
 40
0.0
 40
1.0
 40
1.0
 40
1.0
 40
2.0
 40
2.0
 40
2.0
 40
3.0
 40
3.0
 40
3.0
 40
4.0
 40
4.0
 40
4.0
 40
5.0
 40
5.0
 40
5.0
 40
6.0
 40
6.0
 40
6.0
 40
7.0
 40
7.0
 40
7.0
 40
7.0
 10
84.21949325151458
 20
-134.039363573261
 30
0.0
 10
84.21949325151458
 20
-134.039363573261
 30
0.0
 10
84.21949325151458
 20
-132.9352104702384
 30
0.0
 10
84.21949325151458
 20
-132.9352104702384
 30
0.0
 10
84.21949325151458
 20
-132.9352104702384
 30
0.0
 10
83.88945310402764
 20
-132.9352104702384
 30
0.0
 10
83.88945310402764
 20
-132.9352104702384
 30
0.0
 10
83.88945310402764
 20
-132.9352104702384
 30
0.0
 10
83.88945310402764
 20
-132.7870713643727
 30
0.0
 10
83.88945310402764
 20
-132.7870713643727
 30
0.0
 10
84.22190481835425
 20
-132.7722574537861
 30
0.0
 10
84.26841360740512
 20
-132.6093044373338
 30
0.0
 10
84.29804142857827
 20
-132.495271776772
 30
0.0
 10
84.29804142857827
 20
-132.495271776772
 30
0.0
 10
84.44376896760434
 20
-132.495271776772
 30
0.0
 10
84.44376896760434
 20
-132.495271776772
 30
0.0
 10
84.44376896760434
 20
-132.495271776772
 30
0.0
 10
84.44376896760434
 20
-134.039363573261
 30
0.0
 10
84.44376896760434
 20
-134.039363573261
 30
0.0
 10
84.44376896760434
 20
-134.039363573261
 30
0.0
 10
84.21949325151458
 20
-134.039363573261
 30
0.0
 10
84.21949325151458
 20
-134.039363573261
 30
0.0
  0
HATCH
  5
E4
330
DF
100
AcDbEntity
  8
_U+30EC_U+30A4_U+30E4_U+30FC 1
 62
   179
420
  2234388
100
AcDbHatch
 10
0.0
 20
0.0
 30
0.0
210
0.0
220
0.0
230
1.0
  2
SOLID
 70
     1
 71
     0
 91
        1
 92
        1
 93
        1
 72
     4
 94
        3
 73
     0
 74
     1
 95
       26
 96
       22
 40
0.0
 40
0.0
 40
0.0
 40
0.0
 40
1.0
 40
1.0
 40
1.0
 40
2.0
 40
2.0
 40
2.0
 40
3.0
 40
3.0
 40
3.0
 40
4.0
 40
4.0
 40
4.0
 40
5.0
 40
5.0
 40
5.0
 40
6.0
 40
6.0
 40
6.0
 40
7.0
 40
7.0
 40
7.0
 40
7.0
 10
84.21949325151458
 20
-134.039363573261
 10
84.21949325151458
 20
-134.039363573261
 10
84.21949325151458
 20
-132.9352104702384
 10
84.21949325151458
 20
-132.9352104702384
 10
84.21949325151458
 20
-132.9352104702384
 10
83.88945310402764
 20
-132.9352104702384
 10
83.88945310402764
 20
-132.9352104702384
 10
83.88945310402764
 20
-132.9352104702384
 10
83.88945310402764
 20
-132.7870713643727
 10
83.88945310402764
 20
-132.7870713643727
 10
84.22190481835425
 20
-132.7722574537861
 10
84.26841360740512
 20
-132.6093044373338
 10
84.29804142857827
 20
-132.495271776772
 10
84.29804142857827
 20
-132.495271776772
 10
84.44376896760434
 20
-132.495271776772
 10
84.44376896760434
 20
-132.495271776772
 10
84.44376896760434
 20
-132.495271776772
 10
84.44376896760434
 20
-134.039363573261
 10
84.44376896760434
 20
-134.039363573261
 10
84.44376896760434
 20
-134.039363573261
 10
84.21949325151458
 20
-134.039363573261
 10
84.21949325151458
 20
-134.039363573261
 97
        0
 97
        0
 75
     2
 76
     1
 98
        0
  0
ENDBLK
  5
E2
330
DF
100
AcDbEntity
  8
0
100
AcDbBlockEnd
  0
ENDSEC
  0
SECTION
  2
ENTITIES
  0
POLYLINE
  5
41
330
1F
100
AcDbEntity
  8
_U+30EC_U+30A4_U+30E4_U+30FC 1
370
     0
100
AcDb2dPolyline
 66
     1
 10
0.0
 20
0.0
 30
0.0
  0
VERTEX
  5
42
330
41
100
AcDbEntity
  8
_U+30EC_U+30A4_U+30E4_U+30FC 1
370
     0
100
AcDbVertex
100
AcDb2dVertex
 10
96.67073947816841
 20
-138.4900780209328
 30
0.0
  0
VERTEX
  5
43
330
41
100
AcDbEntity
  8
_U+30EC_U+30A4_U+30E4_U+30FC 1
370
     0
100
AcDbVertex
100
AcDb2dVertex
 10
81.67080513862639
 20
-138.4900780209328
 30
0.0
  0
VERTEX
  5
44
330
41
100
AcDbEntity
  8
_U+30EC_U+30A4_U+30E4_U+30FC 1
370
     0
100
AcDbVertex
100
AcDb2dVertex
 10
81.67080513862639
 20
-125.9900677462803
 30
0.0
  0
VERTEX
  5
45
330
41
100
AcDbEntity
  8
_U+30EC_U+30A4_U+30E4_U+30FC 1
370
     0
100
AcDbVertex
100
AcDb2dVertex
 10
79.6705904674339
 20
-125.9900677462803
 30
0.0
  0
VERTEX
  5
46
330
41
100
AcDbEntity
  8
_U+30EC_U+30A4_U+30E4_U+30FC 1
370
     0
100
AcDbVertex
100
AcDb2dVertex
 10
79.6705904674339
 20
-126.9898399682525
 30
0.0
  0
VERTEX
  5
47
330
41
100
AcDbEntity
  8
_U+30EC_U+30A4_U+30E4_U+30FC 1
370
     0
100
AcDbVertex
100
AcDb2dVertex
 10
80.67103294191048
 20
-126.9898399682525
 30
0.0
  0
VERTEX
  5
48
330
41
100
AcDbEntity
  8
_U+30EC_U+30A4_U+30E4_U+30FC 1
370
     0
100
AcDbVertex
100
AcDb2dVertex
 10
80.67103294191048
 20
-139.3899435762637
 30
0.0
  0
VERTEX
  5
49
330
41
100
AcDbEntity
  8
_U+30EC_U+30A4_U+30E4_U+30FC 1
370
     0
100
AcDbVertex
100
AcDb2dVertex
 10
97.67051167488432
 20
-139.3899435762637
 30
0.0
  0
VERTEX
  5
4A
330
41
100
AcDbEntity
  8
_U+30EC_U+30A4_U+30E4_U+30FC 1
370
     0
100
AcDbVertex
100
AcDb2dVertex
 10
97.67051167488432
 20
-126.9898399682525
 30
0.0
  0
VERTEX
  5
4B
330
41
100
AcDbEntity
  8
_U+30EC_U+30A4_U+30E4_U+30FC 1
370
     0
100
AcDbVertex
100
AcDb2dVertex
 10
98.67098942713778
 20
-126.9898399682525
 30
0.0
  0
VERTEX
  5
4C
330
41
100
AcDbEntity
  8
_U+30EC_U+30A4_U+30E4_U+30FC 1
370
     0
100
AcDbVertex
100
AcDb2dVertex
 10
98.67098942713778
 20
-125.9900677462803
 30
0.0
  0
VERTEX
  5
4D
330
41
100
AcDbEntity
  8
_U+30EC_U+30A4_U+30E4_U+30FC 1
370
     0
100
AcDbVertex
100
AcDb2dVertex
 10
96.67073947816841
 20
-125.9900677462803
 30
0.0
  0
VERTEX
  5
4E
330
41
100
AcDbEntity
  8
_U+30EC_U+30A4_U+30E4_U+30FC 1
370
     0
100
AcDbVertex
100
AcDb2dVertex
 10
96.67073947816841
 20
-138.4900780209328
 30
0.0
  0
SEQEND
  5
50
330
41
100
AcDbEntity
  8
_U+30EC_U+30A4_U+30E4_U+30FC 1
370
     0
  0
HATCH
  5
4F
330
1F
100
AcDbEntity
  8
_U+30EC_U+30A4_U+30E4_U+30FC 1
 62
   253
420
 11711154
100
AcDbHatch
 10
0.0
 20
0.0
 30
0.0
210
0.0
220
0.0
230
1.0
  2
SOLID
 70
     1
 71
     0
 91
        1
 92
        1
 93
       12
 72
     1
 10
96.67073947816841
 20
-138.4900780209328
 11
81.67080513862639
 21
-138.4900780209328
 72
     1
 10
81.67080513862639
 20
-138.4900780209328
 11
81.67080513862639
 21
-125.9900677462803
 72
     1
 10
81.67080513862639
 20
-125.9900677462803
 11
79.6705904674339
 21
-125.9900677462803
 72
     1
 10
79.6705904674339
 20
-125.9900677462803
 11
79.6705904674339
 21
-126.9898399682525
 72
     1
 10
79.6705904674339
 20
-126.9898399682525
 11
80.67103294191048
 21
-126.9898399682525
 72
     1
 10
80.67103294191048
 20
-126.9898399682525
 11
80.67103294191048
 21
-139.3899435762637
 72
     1
 10
80.67103294191048
 20
-139.3899435762637
 11
97.67051167488432
 21
-139.3899435762637
 72
     1
 10
97.67051167488432
 20
-139.3899435762637
 11
97.67051167488432
 21
-126.9898399682525
 72
     1
 10
97.67051167488432
 20
-126.9898399682525
 11
98.67098942713778
 21
-126.9898399682525
 72
     1
 10
98.67098942713778
 20
-126.9898399682525
 11
98.67098942713778
 21
-125.9900677462803
 72
     1
 10
98.67098942713778
 20
-125.9900677462803
 11
96.67073947816841
 21
-125.9900677462803
 72
     1
 10
96.67073947816841
 20
-125.9900677462803
 11
96.67073947816841
 21
-138.4900780209328
 97
        0
 75
     2
 76
     1
 98
        0
  0
POLYLINE
  5
51
330
1F
100
AcDbEntity
  8
_U+30EC_U+30A4_U+30E4_U+30FC 1
 62
   179
420
  2234388
370
    25
100
AcDb2dPolyline
 66
     1
 10
0.0
 20
0.0
 30
0.0
  0
VERTEX
  5
52
330
51
100
AcDbEntity
  8
_U+30EC_U+30A4_U+30E4_U+30FC 1
 62
   179
420
  2234388
370
    25
100
AcDbVertex
100
AcDb2dVertex
 10
80.67103294191048
 20
-139.3899435762637
 30
0.0
  0
VERTEX
  5
53
330
51
100
AcDbEntity
  8
_U+30EC_U+30A4_U+30E4_U+30FC 1
 62
   179
420
  2234388
370
    25
100
AcDbVertex
100
AcDb2dVertex
 10
97.67051167488432
 20
-139.3899435762637
 30
0.0
  0
SEQEND
  5
54
330
51
100
AcDbEntity
  8
_U+30EC_U+30A4_U+30E4_U+30FC 1
 62
   179
420
  2234388
370
    25
  0
POLYLINE
  5
55
330
1F
100
AcDbEntity
  8
_U+30EC_U+30A4_U+30E4_U+30FC 1
 62
   179
420
  2234388
370
    25
100
AcDb2dPolyline
 66
     1
 10
0.0
 20
0.0
 30
0.0
  0
VERTEX
  5
56
330
55
100
AcDbEntity
  8
_U+30EC_U+30A4_U+30E4_U+30FC 1
 62
   179
420
  2234388
370
    25
100
AcDbVertex
100
AcDb2dVertex
 10
97.67051167488432
 20
-126.9898399682525
 30
0.0
  0
VERTEX
  5
57
330
55
100
AcDbEntity
  8
_U+30EC_U+30A4_U+30E4_U+30FC 1
 62
   179
420
  2234388
370
    25
100
AcDbVertex
100
AcDb2dVertex
 10
97.67051167488432
 20
-139.3899435762637
 30
0.0
  0
SEQEND
  5
58
330
55
100
AcDbEntity
  8
_U+30EC_U+30A4_U+30E4_U+30FC 1
 62
   179
420
  2234388
370
    25
  0
POLYLINE
  5
59
330
1F
100
AcDbEntity
  8
_U+30EC_U+30A4_U+30E4_U+30FC 1
 62
   179
420
  2234388
370
    25
100
AcDb2dPolyline
 66
     1
 10
0.0
 20
0.0
 30
0.0
  0
VERTEX
  5
5A
330
59
100
AcDbEntity
  8
_U+30EC_U+30A4_U+30E4_U+30FC 1
 62
   179
420
  2234388
370
    25
100
AcDbVertex
100
AcDb2dVertex
 10
80.67103294191048
 20
-126.9898399682525
 30
0.0
  0
VERTEX
  5
5B
330
59
100
AcDbEntity
  8
_U+30EC_U+30A4_U+30E4_U+30FC 1
 62
   179
420
  2234388
370
    25
100
AcDbVertex
100
AcDb2dVertex
 10
80.67103294191048
 20
-139.3899435762637
 30
0.0
  0
SEQEND
  5
5C
330
59
100
AcDbEntity
  8
_U+30EC_U+30A4_U+30E4_U+30FC 1
 62
   179
420
  2234388
370
    25
  0
POLYLINE
  5
5D
330
1F
100
AcDbEntity
  8
_U+30EC_U+30A4_U+30E4_U+30FC 1
 62
   179
420
  2234388
370
    25
100
AcDb2dPolyline
 66
     1
 10
0.0
 20
0.0
 30
0.0
  0
VERTEX
  5
5E
330
5D
100
AcDbEntity
  8
_U+30EC_U+30A4_U+30E4_U+30FC 1
 62
   179
420
  2234388
370
    25
100
AcDbVertex
100
AcDb2dVertex
 10
81.67080513862639
 20
-125.9897149685026
 30
0.0
  0
VERTEX
  5
5F
330
5D
100
AcDbEntity
  8
_U+30EC_U+30A4_U+30E4_U+30FC 1
 62
   179
420
  2234388
370
    25
100
AcDbVertex
100
AcDb2dVertex
 10
81.67080513862639
 20
-138.4900780209328
 30
0.0
  0
SEQEND
  5
60
330
5D
100
AcDbEntity
  8
_U+30EC_U+30A4_U+30E4_U+30FC 1
 62
   179
420
  2234388
370
    25
  0
POLYLINE
  5
61
330
1F
100
AcDbEntity
  8
_U+30EC_U+30A4_U+30E4_U+30FC 1
 62
   179
420
  2234388
370
    25
100
AcDb2dPolyline
 66
     1
 10
0.0
 20
0.0
 30
0.0
  0
VERTEX
  5
62
330
61
100
AcDbEntity
  8
_U+30EC_U+30A4_U+30E4_U+30FC 1
 62
   179
420
  2234388
370
    25
100
AcDbVertex
100
AcDb2dVertex
 10
81.67080513862639
 20
-138.4900780209328
 30
0.0
  0
VERTEX
  5
63
330
61
100
AcDbEntity
  8
_U+30EC_U+30A4_U+30E4_U+30FC 1
 62
   179
420
  2234388
370
    25
100
AcDbVertex
100
AcDb2dVertex
 10
96.67073947816841
 20
-138.4900780209328
 30
0.0
  0
SEQEND
  5
64
330
61
100
AcDbEntity
  8
_U+30EC_U+30A4_U+30E4_U+30FC 1
 62
   179
420
  2234388
370
    25
  0
POLYLINE
  5
65
330
1F
100
AcDbEntity
  8
_U+30EC_U+30A4_U+30E4_U+30FC 1
 62
   179
420
  2234388
370
    25
100
AcDb2dPolyline
 66
     1
 10
0.0
 20
0.0
 30
0.0
  0
VERTEX
  5
66
330
65
100
AcDbEntity
  8
_U+30EC_U+30A4_U+30E4_U+30FC 1
 62
   179
420
  2234388
370
    25
100
AcDbVertex
100
AcDb2dVertex
 10
96.67073947816841
 20
-125.9897149685026
 30
0.0
  0
VERTEX
  5
67
330
65
100
AcDbEntity
  8
_U+30EC_U+30A4_U+30E4_U+30FC 1
 62
   179
420
  2234388
370
    25
100
AcDbVertex
100
AcDb2dVertex
 10
96.67073947816841
 20
-138.4900780209328
 30
0.0
  0
SEQEND
  5
68
330
65
100
AcDbEntity
  8
_U+30EC_U+30A4_U+30E4_U+30FC 1
 62
   179
420
  2234388
370
    25
  0
POLYLINE
  5
69
330
1F
100
AcDbEntity
  8
_U+30EC_U+30A4_U+30E4_U+30FC 1
 62
   179
420
  2234388
370
    25
100
AcDb2dPolyline
 66
     1
 10
0.0
 20
0.0
 30
0.0
  0
VERTEX
  5
6A
330
69
100
AcDbEntity
  8
_U+30EC_U+30A4_U+30E4_U+30FC 1
 62
   179
420
  2234388
370
    25
100
AcDbVertex
100
AcDb2dVertex
 10
97.67051167488432
 20
-126.9898399682525
 30
0.0
  0
VERTEX
  5
6B
330
69
100
AcDbEntity
  8
_U+30EC_U+30A4_U+30E4_U+30FC 1
 62
   179
420
  2234388
370
    25
100
AcDbVertex
100
AcDb2dVertex
 10
98.67098942713778
 20
-126.9898399682525
 30
0.0
  0
SEQEND
  5
6C
330
69
100
AcDbEntity
  8
_U+30EC_U+30A4_U+30E4_U+30FC 1
 62
   179
420
  2234388
370
    25
  0
POLYLINE
  5
6D
330
1F
100
AcDbEntity
  8
_U+30EC_U+30A4_U+30E4_U+30FC 1
 62
   179
420
  2234388
370
    25
100
AcDb2dPolyline
 66
     1
 10
0.0
 20
0.0
 30
0.0
  0
VERTEX
  5
6E
330
6D
100
AcDbEntity
  8
_U+30EC_U+30A4_U+30E4_U+30FC 1
 62
   179
420
  2234388
370
    25
100
AcDbVertex
100
AcDb2dVertex
 10
98.67098942713778
 20
-125.9897149685026
 30
0.0
  0
VERTEX
  5
6F
330
6D
100
AcDbEntity
  8
_U+30EC_U+30A4_U+30E4_U+30FC 1
 62
   179
420
  2234388
370
    25
100
AcDbVertex
100
AcDb2dVertex
 10
98.67098942713778
 20
-126.9898399682525
 30
0.0
  0
SEQEND
  5
70
330
6D
100
AcDbEntity
  8
_U+30EC_U+30A4_U+30E4_U+30FC 1
 62
   179
420
  2234388
370
    25
  0
POLYLINE
  5
71
330
1F
100
AcDbEntity
  8
_U+30EC_U+30A4_U+30E4_U+30FC 1
 62
   179
420
  2234388
370
    25
100
AcDb2dPolyline
 66
     1
 10
0.0
 20
0.0
 30
0.0
  0
VERTEX
  5
72
330
71
100
AcDbEntity
  8
_U+30EC_U+30A4_U+30E4_U+30FC 1
 62
   179
420
  2234388
370
    25
100
AcDbVertex
100
AcDb2dVertex
 10
96.67073947816841
 20
-125.9897149685026
 30
0.0
  0
VERTEX
  5
73
330
71
100
AcDbEntity
  8
_U+30EC_U+30A4_U+30E4_U+30FC 1
 62
   179
420
  2234388
370
    25
100
AcDbVertex
100
AcDb2dVertex
 10
98.67028387160023
 20
-125.9897149685026
 30
0.0
  0
SEQEND
  5
74
330
71
100
AcDbEntity
  8
_U+30EC_U+30A4_U+30E4_U+30FC 1
 62
   179
420
  2234388
370
    25
  0
POLYLINE
  5
75
330
1F
100
AcDbEntity
  8
_U+30EC_U+30A4_U+30E4_U+30FC 1
 62
   179
420
  2234388
370
    25
100
AcDb2dPolyline
 66
     1
 10
0.0
 20
0.0
 30
0.0
  0
VERTEX
  5
76
330
75
100
AcDbEntity
  8
_U+30EC_U+30A4_U+30E4_U+30FC 1
 62
   179
420
  2234388
370
    25
100
AcDbVertex
100
AcDb2dVertex
 10
79.6705904674339
 20
-125.9897149685026
 30
0.0
  0
VERTEX
  5
77
330
75
100
AcDbEntity
  8
_U+30EC_U+30A4_U+30E4_U+30FC 1
 62
   179
420
  2234388
370
    25
100
AcDbVertex
100
AcDb2dVertex
 10
79.6705904674339
 20
-126.9898399682525
 30
0.0
  0
SEQEND
  5
78
330
75
100
AcDbEntity
  8
_U+30EC_U+30A4_U+30E4_U+30FC 1
 62
   179
420
  2234388
370
    25
  0
POLYLINE
  5
79
330
1F
100
AcDbEntity
  8
_U+30EC_U+30A4_U+30E4_U+30FC 1
 62
   179
420
  2234388
370
    25
100
AcDb2dPolyline
 66
     1
 10
0.0
 20
0.0
 30
0.0
  0
VERTEX
  5
7A
330
79
100
AcDbEntity
  8
_U+30EC_U+30A4_U+30E4_U+30FC 1
 62
   179
420
  2234388
370
    25
100
AcDbVertex
100
AcDb2dVertex
 10
79.6705904674339
 20
-126.9898399682525
 30
0.0
  0
VERTEX
  5
7B
330
79
100
AcDbEntity
  8
_U+30EC_U+30A4_U+30E4_U+30FC 1
 62
   179
420
  2234388
370
    25
100
AcDbVertex
100
AcDb2dVertex
 10
80.67103294191048
 20
-126.9898399682525
 30
0.0
  0
SEQEND
  5
7C
330
79
100
AcDbEntity
  8
_U+30EC_U+30A4_U+30E4_U+30FC 1
 62
   179
420
  2234388
370
    25
  0
POLYLINE
  5
7D
330
1F
100
AcDbEntity
  8
_U+30EC_U+30A4_U+30E4_U+30FC 1
 62
   179
420
  2234388
370
    25
100
AcDb2dPolyline
 66
     1
 10
0.0
 20
0.0
 30
0.0
  0
VERTEX
  5
7E
330
7D
100
AcDbEntity
  8
_U+30EC_U+30A4_U+30E4_U+30FC 1
 62
   179
420
  2234388
370
    25
100
AcDbVertex
100
AcDb2dVertex
 10
79.6705904674339
 20
-125.9897149685026
 30
0.0
  0
VERTEX
  5
7F
330
7D
100
AcDbEntity
  8
_U+30EC_U+30A4_U+30E4_U+30FC 1
 62
   179
420
  2234388
370
    25
100
AcDbVertex
100
AcDb2dVertex
 10
81.67080513862639
 20
-125.9897149685026
 30
0.0
  0
SEQEND
  5
80
330
7D
100
AcDbEntity
  8
_U+30EC_U+30A4_U+30E4_U+30FC 1
 62
   179
420
  2234388
370
    25
  0
SPLINE
  5
81
330
1F
100
AcDbEntity
  8
_U+30EC_U+30A4_U+30E4_U+30FC 1
 62
   179
420
  2234388
370
     9
100
AcDbSpline
210
0.0
220
0.0
230
1.0
 70
    11
 71
     3
 72
    17
 73
    13
 74
     0
 42
0.0000000001
 43
0.0000000001
 12
1.0
 22
0.0
 32
0.0
 13
1.0
 23
0.0
 33
0.0
 40
0.0
 40
0.0
 40
0.0
 40
0.0
 40
1.0
 40
1.0
 40
1.0
 40
2.0
 40
2.0
 40
2.0
 40
3.0
 40
3.0
 40
3.0
 40
4.0
 40
4.0
 40
4.0
 40
4.0
 10
79.77049713155174
 20
-121.9896383028361
 30
0.0
 10
79.77049713155174
 20
-121.934499136183
 30
0.0
 10
79.72639991045453
 20
-121.8897316361941
 30
0.0
 10
79.6705904674339
 20
-121.8897316361941
 30
0.0
 10
79.61545130217395
 20
-121.8897316361941
 30
0.0
 10
79.57068380331607
 20
-121.934499136183
 30
0.0
 10
79.57068380331607
 20
-121.9896383028361
 30
0.0
 10
79.57068380331607
 20
-122.044742191711
 30
0.0
 10
79.61545130217395
 20
-122.0895449694777
 30
0.0
 10
79.6705904674339
 20
-122.0895449694777
 30
0.0
 10
79.72639991045453
 20
-122.0895449694777
 30
0.0
 10
79.77049713155174
 20
-122.044742191711
 30
0.0
 10
79.77049713155174
 20
-121.9896383028361
 30
0.0
  0
SPLINE
  5
82
330
1F
100
AcDbEntity
  8
_U+30EC_U+30A4_U+30E4_U+30FC 1
 62
   179
420
  2234388
370
     9
100
AcDbSpline
210
0.0
220
0.0
230
1.0
 70
    11
 71
     3
 72
    17
 73
    13
 74
     0
 42
0.0000000001
 43
0.0000000001
 12
1.0
 22
0.0
 32
0.0
 13
1.0
 23
0.0
 33
0.0
 40
0.0
 40
0.0
 40
0.0
 40
0.0
 40
1.0
 40
1.0
 40
1.0
 40
2.0
 40
2.0
 40
2.0
 40
3.0
 40
3.0
 40
3.0
 40
4.0
 40
4.0
 40
4.0
 40
4.0
 10
81.77071386844628
 20
-121.9896383028361
 30
0.0
 10
81.77071386844628
 20
-121.934499136183
 30
0.0
 10
81.72594430388635
 20
-121.8897316361941
 30
0.0
 10
81.67080513862639
 20
-121.8897316361941
 30
0.0
 10
81.61570125114332
 20
-121.8897316361941
 30
0.0
 10
81.57089847450857
 20
-121.934499136183
 30
0.0
 10
81.57089847450857
 20
-121.9896383028361
 30
0.0
 10
81.57089847450857
 20
-122.044742191711
 30
0.0
 10
81.61570125114332
 20
-122.0895449694777
 30
0.0
 10
81.67080513862639
 20
-122.0895449694777
 30
0.0
 10
81.72594430388635
 20
-122.0895449694777
 30
0.0
 10
81.77071386844628
 20
-122.044742191711
 30
0.0
 10
81.77071386844628
 20
-121.9896383028361
 30
0.0
  0
SPLINE
  5
83
330
1F
100
AcDbEntity
  8
_U+30EC_U+30A4_U+30E4_U+30FC 1
 62
   179
420
  2234388
370
     9
100
AcDbSpline
210
0.0
220
0.0
230
1.0
 70
    11
 71
     3
 72
    17
 73
    13
 74
     0
 42
0.0000000001
 43
0.0000000001
 12
1.0
 22
0.0
 32
0.0
 13
1.0
 23
0.0
 33
0.0
 40
0.0
 40
0.0
 40
0.0
 40
0.0
 40
1.0
 40
1.0
 40
1.0
 40
2.0
 40
2.0
 40
2.0
 40
3.0
 40
3.0
 40
3.0
 40
4.0
 40
4.0
 40
4.0
 40
4.0
 10
96.77064614228625
 20
-121.9896383028361
 30
0.0
 10
96.77064614228625
 20
-121.934499136183
 30
0.0
 10
96.72587864342836
 20
-121.8897316361941
 30
0.0
 10
96.67073947816841
 20
-121.8897316361941
 30
0.0
 10
96.61563559068534
 20
-121.8897316361941
 30
0.0
 10
96.57083281405058
 20
-121.934499136183
 30
0.0
 10
96.57083281405058
 20
-121.9896383028361
 30
0.0
 10
96.57083281405058
 20
-122.044742191711
 30
0.0
 10
96.61563559068534
 20
-122.0895449694777
 30
0.0
 10
96.67073947816841
 20
-122.0895449694777
 30
0.0
 10
96.72587864342836
 20
-122.0895449694777
 30
0.0
 10
96.77064614228625
 20
-122.044742191711
 30
0.0
 10
96.77064614228625
 20
-121.9896383028361
 30
0.0
  0
SPLINE
  5
84
330
1F
100
AcDbEntity
  8
_U+30EC_U+30A4_U+30E4_U+30FC 1
 62
   179
420
  2234388
370
     9
100
AcDbSpline
210
0.0
220
0.0
230
1.0
 70
    11
 71
     3
 72
    17
 73
    13
 74
     0
 42
0.0000000001
 43
0.0000000001
 12
1.0
 22
0.0
 32
0.0
 13
1.0
 23
0.0
 33
0.0
 40
0.0
 40
0.0
 40
0.0
 40
0.0
 40
1.0
 40
1.0
 40
1.0
 40
2.0
 40
2.0
 40
2.0
 40
3.0
 40
3.0
 40
3.0
 40
4.0
 40
4.0
 40
4.0
 40
4.0
 10
98.77089609125562
 20
-121.9896383028361
 30
0.0
 10
98.77089609125562
 20
-121.934499136183
 30
0.0
 10
98.72609331462085
 20
-121.8897316361941
 30
0.0
 10
98.67098942713778
 20
-121.8897316361941
 30
0.0
 10
98.61517998411716
 20
-121.8897316361941
 30
0.0
 10
98.57108276301994
 20
-121.934499136183
 30
0.0
 10
98.57108276301994
 20
-121.9896383028361
 30
0.0
 10
98.57108276301994
 20
-122.044742191711
 30
0.0
 10
98.61517998411716
 20
-122.0895449694777
 30
0.0
 10
98.67098942713778
 20
-122.0895449694777
 30
0.0
 10
98.72609331462085
 20
-122.0895449694777
 30
0.0
 10
98.77089609125562
 20
-122.044742191711
 30
0.0
 10
98.77089609125562
 20
-121.9896383028361
 30
0.0
  0
SPLINE
  5
85
330
1F
100
AcDbEntity
  8
_U+30EC_U+30A4_U+30E4_U+30FC 1
 62
   179
420
  2234388
370
     9
100
AcDbSpline
210
0.0
220
0.0
230
1.0
 70
    11
 71
     3
 72
    17
 73
    13
 74
     0
 42
0.0000000001
 43
0.0000000001
 12
1.0
 22
0.0
 32
0.0
 13
1.0
 23
0.0
 33
0.0
 40
0.0
 40
0.0
 40
0.0
 40
0.0
 40
1.0
 40
1.0
 40
1.0
 40
2.0
 40
2.0
 40
2.0
 40
3.0
 40
3.0
 40
3.0
 40
4.0
 40
4.0
 40
4.0
 40
4.0
 10
102.5708444188019
 20
-126.8895805238331
 30
0.0
 10
102.5708444188019
 20
-126.8344766349582
 30
0.0
 10
102.5260416410352
 20
-126.7896738571915
 30
0.0
 10
102.4709351635264
 20
-126.7896738571915
 30
0.0
 10
102.4150904427289
 20
-126.7896738571915
 30
0.0
 10
102.370322943871
 20
-126.8344766349582
 30
0.0
 10
102.370322943871
 20
-126.8895805238331
 30
0.0
 10
102.370322943871
 20
-126.9450371904858
 30
0.0
 10
102.4150904427289
 20
-126.9898399682525
 30
0.0
 10
102.4709351635264
 20
-126.9898399682525
 30
0.0
 10
102.5260416410352
 20
-126.9898399682525
 30
0.0
 10
102.5708444188019
 20
-126.9450371904858
 30
0.0
 10
102.5708444188019
 20
-126.8895805238331
 30
0.0
  0
SPLINE
  5
86
330
1F
100
AcDbEntity
  8
_U+30EC_U+30A4_U+30E4_U+30FC 1
 62
   179
420
  2234388
370
     9
100
AcDbSpline
210
0.0
220
0.0
230
1.0
 70
    11
 71
     3
 72
    17
 73
    13
 74
     0
 42
0.0000000001
 43
0.0000000001
 12
1.0
 22
0.0
 32
0.0
 13
1.0
 23
0.0
 33
0.0
 40
0.0
 40
0.0
 40
0.0
 40
0.0
 40
1.0
 40
1.0
 40
1.0
 40
2.0
 40
2.0
 40
2.0
 40
3.0
 40
3.0
 40
3.0
 40
4.0
 40
4.0
 40
4.0
 40
4.0
 10
102.5708444188019
 20
-139.3899435762637
 30
0.0
 10
102.5708444188019
 20
-139.3348044096107
 30
0.0
 10
102.5260416410352
 20
-139.2900369096221
 30
0.0
 10
102.4709351635264
 20
-139.2900369096221
 30
0.0
 10
102.4150904427289
 20
-139.2900369096221
 30
0.0
 10
102.370322943871
 20
-139.3348044096107
 30
0.0
 10
102.370322943871
 20
-139.3899435762637
 30
0.0
 10
102.370322943871
 20
-139.4457530206942
 30
0.0
 10
102.4150904427289
 20
-139.4905557984609
 30
0.0
 10
102.4709351635264
 20
-139.4905557984609
 30
0.0
 10
102.5260416410352
 20
-139.4905557984609
 30
0.0
 10
102.5708444188019
 20
-139.4457530206942
 30
0.0
 10
102.5708444188019
 20
-139.3899435762637
 30
0.0
  0
POLYLINE
  5
87
330
1F
100
AcDbEntity
  8
_U+30EC_U+30A4_U+30E4_U+30FC 1
 62
   179
420
  2234388
370
     9
100
AcDb2dPolyline
 66
     1
 10
0.0
 20
0.0
 30
0.0
  0
VERTEX
  5
88
330
87
100
AcDbEntity
  8
_U+30EC_U+30A4_U+30E4_U+30FC 1
 62
   179
420
  2234388
370
     9
100
AcDbVertex
100
AcDb2dVertex
 10
102.4709351635264
 20
-139.3899435762637
 30
0.0
  0
VERTEX
  5
89
330
87
100
AcDbEntity
  8
_U+30EC_U+30A4_U+30E4_U+30FC 1
 62
   179
420
  2234388
370
     9
100
AcDbVertex
100
AcDb2dVertex
 10
102.4709351635264
 20
-126.8899333016109
 30
0.0
  0
SEQEND
  5
8A
330
87
100
AcDbEntity
  8
_U+30EC_U+30A4_U+30E4_U+30FC 1
 62
   179
420
  2234388
370
     9
  0
POLYLINE
  5
8B
330
1F
100
AcDbEntity
  8
_U+30EC_U+30A4_U+30E4_U+30FC 1
 62
   179
420
  2234388
370
     9
100
AcDb2dPolyline
 66
     1
 10
0.0
 20
0.0
 30
0.0
  0
VERTEX
  5
8C
330
8B
100
AcDbEntity
  8
_U+30EC_U+30A4_U+30E4_U+30FC 1
 62
   179
420
  2234388
370
     9
100
AcDbVertex
100
AcDb2dVertex
 10
99.17052274772696
 20
-139.3899435762637
 30
0.0
  0
VERTEX
  5
8D
330
8B
100
AcDbEntity
  8
_U+30EC_U+30A4_U+30E4_U+30FC 1
 62
   179
420
  2234388
370
     9
100
AcDbVertex
100
AcDb2dVertex
 10
103.6704854107011
 20
-139.3899435762637
 30
0.0
  0
SEQEND
  5
8E
330
8B
100
AcDbEntity
  8
_U+30EC_U+30A4_U+30E4_U+30FC 1
 62
   179
420
  2234388
370
     9
  0
POLYLINE
  5
8F
330
1F
100
AcDbEntity
  8
_U+30EC_U+30A4_U+30E4_U+30FC 1
 62
   179
420
  2234388
370
     9
100
AcDb2dPolyline
 66
     1
 10
0.0
 20
0.0
 30
0.0
  0
VERTEX
  5
90
330
8F
100
AcDbEntity
  8
_U+30EC_U+30A4_U+30E4_U+30FC 1
 62
   179
420
  2234388
370
     9
100
AcDbVertex
100
AcDb2dVertex
 10
101.1707374189195
 20
-126.8895805238331
 30
0.0
  0
VERTEX
  5
91
330
8F
100
AcDbEntity
  8
_U+30EC_U+30A4_U+30E4_U+30FC 1
 62
   179
420
  2234388
370
     9
100
AcDbVertex
100
AcDb2dVertex
 10
103.6704854107011
 20
-126.8895805238331
 30
0.0
  0
SEQEND
  5
92
330
8F
100
AcDbEntity
  8
_U+30EC_U+30A4_U+30E4_U+30FC 1
 62
   179
420
  2234388
370
     9
  0
INSERT
  5
94
330
1F
100
AcDbEntity
  8
_U+30EC_U+30A4_U+30E4_U+30FC 1
100
AcDbBlockReference
  2
block 2
 10
0.0
 20
0.0
 30
0.0
  0
POLYLINE
  5
A5
330
1F
100
AcDbEntity
  8
_U+30EC_U+30A4_U+30E4_U+30FC 1
 62
   179
420
  2234388
370
     9
100
AcDb2dPolyline
 66
     1
 10
0.0
 20
0.0
 30
0.0
  0
VERTEX
  5
A6
330
A5
100
AcDbEntity
  8
_U+30EC_U+30A4_U+30E4_U+30FC 1
 62
   179
420
  2234388
370
     9
100
AcDbVertex
100
AcDb2dVertex
 10
79.6705904674339
 20
-121.9896383028361
 30
0.0
  0
VERTEX
  5
A7
330
A5
100
AcDbEntity
  8
_U+30EC_U+30A4_U+30E4_U+30FC 1
 62
   179
420
  2234388
370
     9
100
AcDbVertex
100
AcDb2dVertex
 10
81.67080513862639
 20
-121.9896383028361
 30
0.0
  0
SEQEND
  5
A8
330
A5
100
AcDbEntity
  8
_U+30EC_U+30A4_U+30E4_U+30FC 1
 62
   179
420
  2234388
370
     9
  0
POLYLINE
  5
A9
330
1F
100
AcDbEntity
  8
_U+30EC_U+30A4_U+30E4_U+30FC 1
 62
   179
420
  2234388
370
     9
100
AcDb2dPolyline
 66
     1
 10
0.0
 20
0.0
 30
0.0
  0
VERTEX
  5
AA
330
A9
100
AcDbEntity
  8
_U+30EC_U+30A4_U+30E4_U+30FC 1
 62
   179
420
  2234388
370
     9
100
AcDbVertex
100
AcDb2dVertex
 10
79.6705904674339
 20
-123.4496444135819
 30
0.0
  0
VERTEX
  5
AB
330
A9
100
AcDbEntity
  8
_U+30EC_U+30A4_U+30E4_U+30FC 1
 62
   179
420
  2234388
370
     9
100
AcDbVertex
100
AcDb2dVertex
 10
79.6705904674339
 20
-120.9898660808635
 30
0.0
  0
SEQEND
  5
AC
330
A9
100
AcDbEntity
  8
_U+30EC_U+30A4_U+30E4_U+30FC 1
 62
   179
420
  2234388
370
     9
  0
POLYLINE
  5
AD
330
1F
100
AcDbEntity
  8
_U+30EC_U+30A4_U+30E4_U+30FC 1
 62
   179
420
  2234388
370
     9
100
AcDb2dPolyline
 66
     1
 10
0.0
 20
0.0
 30
0.0
  0
VERTEX
  5
AE
330
AD
100
AcDbEntity
  8
_U+30EC_U+30A4_U+30E4_U+30FC 1
 62
   179
420
  2234388
370
     9
100
AcDbVertex
100
AcDb2dVertex
 10
81.67080513862639
 20
-123.4496444135819
 30
0.0
  0
VERTEX
  5
AF
330
AD
100
AcDbEntity
  8
_U+30EC_U+30A4_U+30E4_U+30FC 1
 62
   179
420
  2234388
370
     9
100
AcDbVertex
100
AcDb2dVertex
 10
81.67080513862639
 20
-120.9898660808635
 30
0.0
  0
SEQEND
  5
B0
330
AD
100
AcDbEntity
  8
_U+30EC_U+30A4_U+30E4_U+30FC 1
 62
   179
420
  2234388
370
     9
  0
INSERT
  5
B2
330
1F
100
AcDbEntity
  8
_U+30EC_U+30A4_U+30E4_U+30FC 1
100
AcDbBlockReference
  2
block 3
 10
0.0
 20
0.0
 30
0.0
  0
POLYLINE
  5
B7
330
1F
100
AcDbEntity
  8
_U+30EC_U+30A4_U+30E4_U+30FC 1
 62
   179
420
  2234388
370
     9
100
AcDb2dPolyline
 66
     1
 10
0.0
 20
0.0
 30
0.0
  0
VERTEX
  5
B8
330
B7
100
AcDbEntity
  8
_U+30EC_U+30A4_U+30E4_U+30FC 1
 62
   179
420
  2234388
370
     9
100
AcDbVertex
100
AcDb2dVertex
 10
81.67080513862639
 20
-121.9896383028361
 30
0.0
  0
VERTEX
  5
B9
330
B7
100
AcDbEntity
  8
_U+30EC_U+30A4_U+30E4_U+30FC 1
 62
   179
420
  2234388
370
     9
100
AcDbVertex
100
AcDb2dVertex
 10
96.67073947816841
 20
-121.9896383028361
 30
0.0
  0
SEQEND
  5
BA
330
B7
100
AcDbEntity
  8
_U+30EC_U+30A4_U+30E4_U+30FC 1
 62
   179
420
  2234388
370
     9
  0
POLYLINE
  5
BB
330
1F
100
AcDbEntity
  8
_U+30EC_U+30A4_U+30E4_U+30FC 1
 62
   179
420
  2234388
370
     9
100
AcDb2dPolyline
 66
     1
 10
0.0
 20
0.0
 30
0.0
  0
VERTEX
  5
BC
330
BB
100
AcDbEntity
  8
_U+30EC_U+30A4_U+30E4_U+30FC 1
 62
   179
420
  2234388
370
     9
100
AcDbVertex
100
AcDb2dVertex
 10
96.67073947816841
 20
-123.4496444135819
 30
0.0
  0
VERTEX
  5
BD
330
BB
100
AcDbEntity
  8
_U+30EC_U+30A4_U+30E4_U+30FC 1
 62
   179
420
  2234388
370
     9
100
AcDbVertex
100
AcDb2dVertex
 10
96.67073947816841
 20
-120.9898660808635
 30
0.0
  0
SEQEND
  5
BE
330
BB
100
AcDbEntity
  8
_U+30EC_U+30A4_U+30E4_U+30FC 1
 62
   179
420
  2234388
370
     9
  0
INSERT
  5
C0
330
1F
100
AcDbEntity
  8
_U+30EC_U+30A4_U+30E4_U+30FC 1
100
AcDbBlockReference
  2
block 4
 10
0.0
 20
0.0
 30
0.0
  0
POLYLINE
  5
C7
330
1F
100
AcDbEntity
  8
_U+30EC_U+30A4_U+30E4_U+30FC 1
 62
   179
420
  2234388
370
     9
100
AcDb2dPolyline
 66
     1
 10
0.0
 20
0.0
 30
0.0
  0
VERTEX
  5
C8
330
C7
100
AcDbEntity
  8
_U+30EC_U+30A4_U+30E4_U+30FC 1
 62
   179
420
  2234388
370
     9
100
AcDbVertex
100
AcDb2dVertex
 10
96.67073947816841
 20
-121.9896383028361
 30
0.0
  0
VERTEX
  5
C9
330
C7
100
AcDbEntity
  8
_U+30EC_U+30A4_U+30E4_U+30FC 1
 62
   179
420
  2234388
370
     9
100
AcDbVertex
100
AcDb2dVertex
 10
98.67098942713778
 20
-121.9896383028361
 30
0.0
  0
SEQEND
  5
CA
330
C7
100
AcDbEntity
  8
_U+30EC_U+30A4_U+30E4_U+30FC 1
 62
   179
420
  2234388
370
     9
  0
POLYLINE
  5
CB
330
1F
100
AcDbEntity
  8
_U+30EC_U+30A4_U+30E4_U+30FC 1
 62
   179
420
  2234388
370
     9
100
AcDb2dPolyline
 66
     1
 10
0.0
 20
0.0
 30
0.0
  0
VERTEX
  5
CC
330
CB
100
AcDbEntity
  8
_U+30EC_U+30A4_U+30E4_U+30FC 1
 62
   179
420
  2234388
370
     9
100
AcDbVertex
100
AcDb2dVertex
 10
98.67098942713778
 20
-123.4496444135819
 30
0.0
  0
VERTEX
  5
CD
330
CB
100
AcDbEntity
  8
_U+30EC_U+30A4_U+30E4_U+30FC 1
 62
   179
420
  2234388
370
     9
100
AcDbVertex
100
AcDb2dVertex
 10
98.67098942713778
 20
-120.9898660808635
 30
0.0
  0
SEQEND
  5
CE
330
CB
100
AcDbEntity
  8
_U+30EC_U+30A4_U+30E4_U+30FC 1
 62
   179
420
  2234388
370
     9
  0
INSERT
  5
D0
330
1F
100
AcDbEntity
  8
_U+30EC_U+30A4_U+30E4_U+30FC 1
100
AcDbBlockReference
  2
block 5
 10
0.0
 20
0.0
 30
0.0
  0
SPLINE
  5
D5
330
1F
100
AcDbEntity
  8
_U+30EC_U+30A4_U+30E4_U+30FC 1
 62
   179
420
  2234388
370
     9
100
AcDbSpline
210
0.0
220
0.0
230
1.0
 70
    11
 71
     3
 72
    17
 73
    13
 74
     0
 42
0.0000000001
 43
0.0000000001
 12
1.0
 22
0.0
 32
0.0
 13
1.0
 23
0.0
 33
0.0
 40
0.0
 40
0.0
 40
0.0
 40
0.0
 40
1.0
 40
1.0
 40
1.0
 40
2.0
 40
2.0
 40
2.0
 40
3.0
 40
3.0
 40
3.0
 40
4.0
 40
4.0
 40
4.0
 40
4.0
 10
80.77094164647406
 20
-134.6853344107732
 30
0.0
 10
80.77094164647406
 20
-134.6301952441201
 30
0.0
 10
80.72617210717044
 20
-134.5854277441316
 30
0.0
 10
80.67103294191048
 20
-134.5854277441316
 30
0.0
 10
80.61522349888986
 20
-134.5854277441316
 30
0.0
 10
80.57045600003198
 20
-134.6301952441201
 30
0.0
 10
80.57045600003198
 20
-134.6853344107732
 30
0.0
 10
80.57045600003198
 20
-134.7404382996481
 30
0.0
 10
80.61522349888986
 20
-134.7852410774148
 30
0.0
 10
80.67103294191048
 20
-134.7852410774148
 30
0.0
 10
80.72617210717044
 20
-134.7852410774148
 30
0.0
 10
80.77094164647406
 20
-134.7404382996481
 30
0.0
 10
80.77094164647406
 20
-134.6853344107732
 30
0.0
  0
SPLINE
  5
D6
330
1F
100
AcDbEntity
  8
_U+30EC_U+30A4_U+30E4_U+30FC 1
 62
   179
420
  2234388
370
     9
100
AcDbSpline
210
0.0
220
0.0
230
1.0
 70
    11
 71
     3
 72
    17
 73
    13
 74
     0
 42
0.0000000001
 43
0.0000000001
 12
1.0
 22
0.0
 32
0.0
 13
1.0
 23
0.0
 33
0.0
 40
0.0
 40
0.0
 40
0.0
 40
0.0
 40
1.0
 40
1.0
 40
1.0
 40
2.0
 40
2.0
 40
2.0
 40
3.0
 40
3.0
 40
3.0
 40
4.0
 40
4.0
 40
4.0
 40
4.0
 10
81.77071386844628
 20
-134.6853344107732
 30
0.0
 10
81.77071386844628
 20
-134.6301952441201
 30
0.0
 10
81.72594430388635
 20
-134.5854277441316
 30
0.0
 10
81.67080513862639
 20
-134.5854277441316
 30
0.0
 10
81.61570125114332
 20
-134.5854277441316
 30
0.0
 10
81.57089847450857
 20
-134.6301952441201
 30
0.0
 10
81.57089847450857
 20
-134.6853344107732
 30
0.0
 10
81.57089847450857
 20
-134.7404382996481
 30
0.0
 10
81.61570125114332
 20
-134.7852410774148
 30
0.0
 10
81.67080513862639
 20
-134.7852410774148
 30
0.0
 10
81.72594430388635
 20
-134.7852410774148
 30
0.0
 10
81.77071386844628
 20
-134.7404382996481
 30
0.0
 10
81.77071386844628
 20
-134.6853344107732
 30
0.0
  0
POLYLINE
  5
D7
330
1F
100
AcDbEntity
  8
_U+30EC_U+30A4_U+30E4_U+30FC 1
 62
   179
420
  2234388
370
     9
100
AcDb2dPolyline
 66
     1
 10
0.0
 20
0.0
 30
0.0
  0
VERTEX
  5
D8
330
D7
100
AcDbEntity
  8
_U+30EC_U+30A4_U+30E4_U+30FC 1
 62
   179
420
  2234388
370
     9
100
AcDbVertex
100
AcDb2dVertex
 10
81.67080513862639
 20
-134.6853344107732
 30
0.0
  0
VERTEX
  5
D9
330
D7
100
AcDbEntity
  8
_U+30EC_U+30A4_U+30E4_U+30FC 1
 62
   179
420
  2234388
370
     9
100
AcDbVertex
100
AcDb2dVertex
 10
85.44111754243771
 20
-134.6853344107732
 30
0.0
  0
SEQEND
  5
DA
330
D7
100
AcDbEntity
  8
_U+30EC_U+30A4_U+30E4_U+30FC 1
 62
   179
420
  2234388
370
     9
  0
POLYLINE
  5
DB
330
1F
100
AcDbEntity
  8
_U+30EC_U+30A4_U+30E4_U+30FC 1
 62
   179
420
  2234388
370
     9
100
AcDb2dPolyline
 66
     1
 10
0.0
 20
0.0
 30
0.0
  0
VERTEX
  5
DC
330
DB
100
AcDbEntity
  8
_U+30EC_U+30A4_U+30E4_U+30FC 1
 62
   179
420
  2234388
370
     9
100
AcDbVertex
100
AcDb2dVertex
 10
79.6705904674339
 20
-134.6853344107732
 30
0.0
  0
VERTEX
  5
DD
330
DB
100
AcDbEntity
  8
_U+30EC_U+30A4_U+30E4_U+30FC 1
 62
   179
420
  2234388
370
     9
100
AcDbVertex
100
AcDb2dVertex
 10
81.67080513862639
 20
-134.6853344107732
 30
0.0
  0
SEQEND
  5
DE
330
DB
100
AcDbEntity
  8
_U+30EC_U+30A4_U+30E4_U+30FC 1
 62
   179
420
  2234388
370
     9
  0
INSERT
  5
E0
330
1F
100
AcDbEntity
  8
_U+30EC_U+30A4_U+30E4_U+30FC 1
100
AcDbBlockReference
  2
block 6
 10
0.0
 20
0.0
 30
0.0
  0
ENDSEC
  0
SECTION
  2
OBJECTS
  0
DICTIONARY
  5
C
330
0
100
AcDbDictionary
281
     1
  3
ACAD_GROUP
350
D
  3
ACAD_LAYOUT
350
1A
  3
ACAD_MATERIAL
350
3B
  3
ACAD_MLEADERSTYLE
350
E6
  3
ACAD_MLINESTYLE
350
17
  3
ACAD_PLOTSETTINGS
350
19
  3
ACAD_PLOTSTYLENAME
350
E
  3
ACAD_TABLESTYLE
350
E5
  3
ACAD_VISUALSTYLE
350
2A
  0
SUN
  5
3F
330
29
100
AcDbSun
 90
        1
290
     0
 63
     7
421
 16777215
 40
1.0
291
     1
 91
  2455826
 92
 54000000
292
     0
 70
     2
 71
   256
280
     1
  0
DICTIONARY
  5
D
102
{ACAD_REACTORS
330
C
102
}
330
C
100
AcDbDictionary
281
     1
  0
DICTIONARY
  5
1A
102
{ACAD_REACTORS
330
C
102
}
330
C
100
AcDbDictionary
281
     1
  3
Layout1
350
1E
  3
Layout2
350
26
  3
Model
350
22
  0
DICTIONARY
  5
3B
102
{ACAD_REACTORS
330
C
102
}
330
C
100
AcDbDictionary
281
     1
  3
ByBlock
350
3D
  3
ByLayer
350
3C
  3
Global
350
3E
  0
DICTIONARY
  5
E6
102
{ACAD_REACTORS
330
C
102
}
330
C
100
AcDbDictionary
281
     1
  0
DICTIONARY
  5
17
102
{ACAD_REACTORS
330
C
102
}
330
C
100
AcDbDictionary
281
     1
  3
Standard
350
18
  0
DICTIONARY
  5
19
102
{ACAD_REACTORS
330
C
102
}
330
C
100
AcDbDictionary
281
     1
  0
ACDBDICTIONARYWDFLT
  5
E
102
{ACAD_REACTORS
330
C
102
}
330
C
100
AcDbDictionary
281
     1
  3
Normal
350
F
100
AcDbDictionaryWithDefault
340
F
  0
DICTIONARY
  5
E5
102
{ACAD_REACTORS
330
C
102
}
330
C
100
AcDbDictionary
281
     1
  0
DICTIONARY
  5
2A
102
{ACAD_REACTORS
330
C
102
}
330
C
100
AcDbDictionary
281
     1
  3
2dWireframe
350
2F
  3
3D Hidden
350
31
  3
3dWireframe
350
30
  3
Basic
350
32
  3
Brighten
350
36
  3
ColorChange
350
3A
  3
Conceptual
350
34
  3
Dim
350
35
  3
Facepattern
350
39
  3
Flat
350
2B
  3
FlatWithEdges
350
2C
  3
Gouraud
350
2D
  3
GouraudWithEdges
350
2E
  3
Linepattern
350
38
  3
Realistic
350
33
  3
Thicken
350
37
  0
LAYOUT
  5
1E
102
{ACAD_REACTORS
330
1A
102
}
330
1A
100
AcDbPlotSettings
  1

  2
none_device
  4

  6

 40
0.0
 41
0.0
 42
0.0
 43
0.0
 44
0.0
 45
0.0
 46
0.0
 47
0.0
 48
0.0
 49
0.0
140
0.0
141
0.0
142
1.0
143
1.0
 70
   688
 72
     0
 73
     0
 74
     5
  7

 75
    16
 76
     0
 77
     2
 78
   300
147
1.0
148
0.0
149
0.0
100
AcDbLayout
  1
Layout1
 70
     1
 71
     1
 10
0.0
 20
0.0
 11
12.0
 21
9.0
 12
0.0
 22
0.0
 32
0.0
 14
1.000000000000000E+20
 24
1.000000000000000E+20
 34
1.000000000000000E+20
 15
-1.000000000000000E+20
 25
-1.000000000000000E+20
 35
-1.000000000000000E+20
146
0.0
 13
0.0
 23
0.0
 33
0.0
 16
1.0
 26
0.0
 36
0.0
 17
0.0
 27
1.0
 37
0.0
 76
     0
330
1B
  0
LAYOUT
  5
26
102
{ACAD_REACTORS
330
1A
102
}
330
1A
100
AcDbPlotSettings
  1

  2
none_device
  4

  6

 40
0.0
 41
0.0
 42
0.0
 43
0.0
 44
0.0
 45
0.0
 46
0.0
 47
0.0
 48
0.0
 49
0.0
140
0.0
141
0.0
142
1.0
143
1.0
 70
   688
 72
     0
 73
     0
 74
     5
  7

 75
    16
 76
     0
 77
     2
 78
   300
147
1.0
148
0.0
149
0.0
100
AcDbLayout
  1
Layout2
 70
     1
 71
     2
 10
0.0
 20
0.0
 11
0.0
 21
0.0
 12
0.0
 22
0.0
 32
0.0
 14
0.0
 24
0.0
 34
0.0
 15
0.0
 25
0.0
 35
0.0
146
0.0
 13
0.0
 23
0.0
 33
0.0
 16
1.0
 26
0.0
 36
0.0
 17
0.0
 27
1.0
 37
0.0
 76
     0
330
23
  0
LAYOUT
  5
22
102
{ACAD_REACTORS
330
1A
102
}
330
1A
100
AcDbPlotSettings
  1

  2
none_device
  4

  6

 40
0.0
 41
0.0
 42
0.0
 43
0.0
 44
0.0
 45
0.0
 46
0.0
 47
0.0
 48
0.0
 49
0.0
140
0.0
141
0.0
142
1.0
143
1.0
 70
  1712
 72
     0
 73
     0
 74
     0
  7

 75
     0
 76
     0
 77
     2
 78
   300
147
1.0
148
0.0
149
0.0
100
AcDbLayout
  1
Model
 70
     1
 71
     0
 10
0.0
 20
0.0
 11
12.0
 21
9.0
 12
0.0
 22
0.0
 32
0.0
 14
1.000000000000000E+20
 24
1.000000000000000E+20
 34
1.000000000000000E+20
 15
-1.000000000000000E+20
 25
-1.000000000000000E+20
 35
-1.000000000000000E+20
146
0.0
 13
0.0
 23
0.0
 33
0.0
 16
1.0
 26
0.0
 36
0.0
 17
0.0
 27
1.0
 37
0.0
 76
     0
330
1F
331
29
  0
MATERIAL
  5
3D
102
{ACAD_REACTORS
330
3B
102
}
330
3B
100
AcDbMaterial
  1
ByBlock
 72
     1
 94
      127
  0
MATERIAL
  5
3C
102
{ACAD_REACTORS
330
3B
102
}
330
3B
100
AcDbMaterial
  1
ByLayer
 72
     1
 94
      127
  0
MATERIAL
  5
3E
102
{ACAD_REACTORS
330
3B
102
}
330
3B
100
AcDbMaterial
  1
Global
 72
     1
 94
      127
  0
MLINESTYLE
  5
18
102
{ACAD_REACTORS
330
17
102
}
330
17
100
AcDbMlineStyle
  2
Standard
 70
     0
  3

 62
   256
 51
90.0
 52
90.0
 71
     2
 49
0.5
 62
   256
  6
BYLAYER
 49
-0.5
 62
   256
  6
BYLAYER
  0
ACDBPLACEHOLDER
  5
F
102
{ACAD_REACTORS
330
E
102
}
330
E
  0
VISUALSTYLE
  5
2F
102
{ACAD_REACTORS
330
2A
102
}
330
2A
100
AcDbVisualStyle
  2
2dWireframe
 70
     4
177
     2
291
     0
 71
     0
176
     1
 72
     2
176
     1
 73
     0
176
     1
 90
        0
176
     1
 40
-0.6
176
     1
 41
-30.0
176
     1
 62
     5
 63
     7
421
 16777215
176
     1
 74
     1
176
     1
 91
        4
176
     1
 64
     7
176
     1
 65
   257
176
     1
 75
     1
176
     1
175
     1
176
     1
 42
1.0
176
     1
 92
        0
176
     1
 66
   257
176
     1
 43
1.0
176
     1
 76
     1
176
     1
 77
     6
176
     1
 78
     2
176
     1
 67
     7
176
     1
 79
     5
176
     1
170
     0
176
     1
171
     0
176
     1
290
     0
176
     1
 93
        1
176
     1
 44
0.0
176
     1
173
     0
176
     1
  0
VISUALSTYLE
  5
31
102
{ACAD_REACTORS
330
2A
102
}
330
2A
100
AcDbVisualStyle
  2
3D Hidden
 70
     6
177
     2
291
     0
 71
     1
176
     1
 72
     2
176
     1
 73
     2
176
     1
 90
        0
176
     1
 40
-0.6
176
     1
 41
-30.0
176
     1
 62
     5
 63
     7
421
 16777215
176
     1
 74
     2
176
     1
 91
        2
176
     1
 64
     7
176
     1
 65
   257
176
     1
 75
     2
176
     1
175
     1
176
     1
 42
40.0
176
     1
 92
        0
176
     1
 66
   257
176
     1
 43
1.0
176
     1
 76
     1
176
     1
 77
     6
176
     1
 78
     2
176
     1
 67
     7
176
     1
 79
     3
176
     1
170
     0
176
     1
171
     0
176
     1
290
     0
176
     1
 93
        1
176
     1
 44
0.0
176
     1
173
     0
176
     1
  0
VISUALSTYLE
  5
30
102
{ACAD_REACTORS
330
2A
102
}
330
2A
100
AcDbVisualStyle
  2
3dWireframe
 70
     5
177
     2
291
     0
 71
     0
176
     1
 72
     2
176
     1
 73
     0
176
     1
 90
        0
176
     1
 40
-0.6
176
     1
 41
-30.0
176
     1
 62
     5
 63
     7
421
 16777215
176
     1
 74
     1
176
     1
 91
        4
176
     1
 64
     7
176
     1
 65
   257
176
     1
 75
     1
176
     1
175
     1
176
     1
 42
1.0
176
     1
 92
        0
176
     1
 66
   257
176
     1
 43
1.0
176
     1
 76
     1
176
     1
 77
     6
176
     1
 78
     2
176
     1
 67
     7
176
     1
 79
     5
176
     1
170
     0
176
     1
171
     0
176
     1
290
     0
176
     1
 93
        1
176
     1
 44
0.0
176
     1
173
     0
176
     1
  0
VISUALSTYLE
  5
32
102
{ACAD_REACTORS
330
2A
102
}
330
2A
100
AcDbVisualStyle
  2
Basic
 70
     7
177
     2
291
     1
 71
     1
176
     1
 72
     0
176
     1
 73
     1
176
     1
 90
        0
176
     1
 40
-0.6
176
     1
 41
-30.0
176
     1
 62
     5
 63
     7
421
 16777215
176
     1
 74
     0
176
     1
 91
        4
176
     1
 64
     7
176
     1
 65
   257
176
     1
 75
     1
176
     1
175
     1
176
     1
 42
1.0
176
     1
 92
        8
176
     1
 66
     7
176
     1
 43
1.0
176
     1
 76
     1
176
     1
 77
     6
176
     1
 78
     2
176
     1
 67
     7
176
     1
 79
     5
176
     1
170
     0
176
     1
171
     0
176
     1
290
     0
176
     1
 93
        1
176
     1
 44
0.0
176
     1
173
     0
176
     1
  0
VISUALSTYLE
  5
36
102
{ACAD_REACTORS
330
2A
102
}
330
2A
100
AcDbVisualStyle
  2
Brighten
 70
    12
177
     2
291
     1
 71
     2
176
     1
 72
     2
176
     1
 73
     0
176
     1
 90
        0
176
     1
 40
-0.6
176
     1
 41
-30.0
176
     1
 62
     5
 63
     7
421
 16777215
176
     1
 74
     1
176
     1
 91
        4
176
     1
 64
     7
176
     1
 65
   257
176
     1
 75
     1
176
     1
175
     1
176
     1
 42
1.0
176
     1
 92
        8
176
     1
 66
     7
176
     1
 43
1.0
176
     1
 76
     1
176
     1
 77
     6
176
     1
 78
     2
176
     1
 67
     7
176
     1
 79
     5
176
     1
170
     0
176
     1
171
     0
176
     1
290
     0
176
     1
 93
        1
176
     1
 44
50.0
176
     1
173
     0
176
     1
  0
VISUALSTYLE
  5
3A
102
{ACAD_REACTORS
330
2A
102
}
330
2A
100
AcDbVisualStyle
  2
ColorChange
 70
    16
177
     2
291
     1
 71
     2
176
     1
 72
     2
176
     1
 73
     3
176
     1
 90
        0
176
     1
 40
-0.6
176
     1
 41
-30.0
176
     1
 62
     5
 63
     8
421
  8421504
176
     1
 74
     1
176
     1
 91
        4
176
     1
 64
     7
176
     1
 65
   257
176
     1
 75
     1
176
     1
175
     1
176
     1
 42
1.0
176
     1
 92
        8
176
     1
 66
     8
424
  8421504
176
     1
 43
1.0
176
     1
 76
     1
176
     1
 77
     6
176
     1
 78
     2
176
     1
 67
     7
176
     1
 79
     5
176
     1
170
     0
176
     1
171
     0
176
     1
290
     0
176
     1
 93
        1
176
     1
 44
0.0
176
     1
173
     0
176
     1
  0
VISUALSTYLE
  5
34
102
{ACAD_REACTORS
330
2A
102
}
330
2A
100
AcDbVisualStyle
  2
Conceptual
 70
     9
177
     2
291
     0
 71
     3
176
     1
 72
     2
176
     1
 73
     0
176
     1
 90
        0
176
     1
 40
-0.6
176
     1
 41
-30.0
176
     1
 62
     5
 63
     7
421
 16777215
176
     1
 74
     2
176
     1
 91
        2
176
     1
 64
     7
176
     1
 65
   257
176
     1
 75
     1
176
     1
175
     1
176
     1
 42
40.0
176
     1
 92
        8
176
     1
 66
     7
176
     1
 43
1.0
176
     1
 76
     1
176
     1
 77
     6
176
     1
 78
     2
176
     1
 67
     7
176
     1
 79
     3
176
     1
170
     0
176
     1
171
     0
176
     1
290
     0
176
     1
 93
        1
176
     1
 44
0.0
176
     1
173
     0
176
     1
  0
VISUALSTYLE
  5
35
102
{ACAD_REACTORS
330
2A
102
}
330
2A
100
AcDbVisualStyle
  2
Dim
 70
    11
177
     2
291
     1
 71
     2
176
     1
 72
     2
176
     1
 73
     0
176
     1
 90
        0
176
     1
 40
-0.6
176
     1
 41
-30.0
176
     1
 62
     5
 63
     7
421
 16777215
176
     1
 74
     1
176
     1
 91
        4
176
     1
 64
     7
176
     1
 65
   257
176
     1
 75
     1
176
     1
175
     1
176
     1
 42
1.0
176
     1
 92
        8
176
     1
 66
     7
176
     1
 43
1.0
176
     1
 76
     1
176
     1
 77
     6
176
     1
 78
     2
176
     1
 67
     7
176
     1
 79
     5
176
     1
170
     0
176
     1
171
     0
176
     1
290
     0
176
     1
 93
        1
176
     1
 44
-50.0
176
     1
173
     0
176
     1
  0
VISUALSTYLE
  5
39
102
{ACAD_REACTORS
330
2A
102
}
330
2A
100
AcDbVisualStyle
  2
Facepattern
 70
    15
177
     2
291
     1
 71
     2
176
     1
 72
     2
176
     1
 73
     0
176
     1
 90
        0
176
     1
 40
-0.6
176
     1
 41
-30.0
176
     1
 62
     5
 63
     7
421
 16777215
176
     1
 74
     1
176
     1
 91
        4
176
     1
 64
     7
176
     1
 65
   257
176
     1
 75
     1
176
     1
175
     1
176
     1
 42
1.0
176
     1
 92
        8
176
     1
 66
     7
176
     1
 43
1.0
176
     1
 76
     1
176
     1
 77
     6
176
     1
 78
     2
176
     1
 67
     7
176
     1
 79
     5
176
     1
170
     0
176
     1
171
     0
176
     1
290
     0
176
     1
 93
        1
176
     1
 44
0.0
176
     1
173
     0
176
     1
  0
VISUALSTYLE
  5
2B
102
{ACAD_REACTORS
330
2A
102
}
330
2A
100
AcDbVisualStyle
  2
Flat
 70
     0
177
     2
291
     1
 71
     2
176
     1
 72
     1
176
     1
 73
     1
176
     1
 90
        2
176
     1
 40
-0.6
176
     1
 41
30.0
176
     1
 62
     5
 63
     7
421
 16777215
176
     1
 74
     0
176
     1
 91
        4
176
     1
 64
     7
176
     1
 65
   257
176
     1
 75
     1
176
     1
175
     1
176
     1
 42
1.0
176
     1
 92
        8
176
     1
 66
     7
176
     1
 43
1.0
176
     1
 76
     1
176
     1
 77
     6
176
     1
 78
     2
176
     1
 67
     7
176
     1
 79
     5
176
     1
170
     0
176
     1
171
     0
176
     1
290
     0
176
     1
 93
       13
176
     1
 44
0.0
176
     1
173
     0
176
     1
  0
VISUALSTYLE
  5
2C
102
{ACAD_REACTORS
330
2A
102
}
330
2A
100
AcDbVisualStyle
  2
FlatWithEdges
 70
     1
177
     2
291
     1
 71
     2
176
     1
 72
     1
176
     1
 73
     1
176
     1
 90
        2
176
     1
 40
-0.6
176
     1
 41
30.0
176
     1
 62
     5
 63
     7
421
 16777215
176
     1
 74
     1
176
     1
 91
        4
176
     1
 64
     7
176
     1
 65
   257
176
     1
 75
     1
176
     1
175
     1
176
     1
 42
1.0
176
     1
 92
        0
176
     1
 66
   257
176
     1
 43
1.0
176
     1
 76
     1
176
     1
 77
     6
176
     1
 78
     2
176
     1
 67
     7
176
     1
 79
     5
176
     1
170
     0
176
     1
171
     0
176
     1
290
     0
176
     1
 93
       13
176
     1
 44
0.0
176
     1
173
     0
176
     1
  0
VISUALSTYLE
  5
2D
102
{ACAD_REACTORS
330
2A
102
}
330
2A
100
AcDbVisualStyle
  2
Gouraud
 70
     2
177
     2
291
     1
 71
     2
176
     1
 72
     2
176
     1
 73
     1
176
     1
 90
        2
176
     1
 40
-0.6
176
     1
 41
30.0
176
     1
 62
     5
 63
     7
421
 16777215
176
     1
 74
     0
176
     1
 91
        4
176
     1
 64
     7
176
     1
 65
   257
176
     1
 75
     1
176
     1
175
     1
176
     1
 42
1.0
176
     1
 92
        0
176
     1
 66
     7
176
     1
 43
1.0
176
     1
 76
     1
176
     1
 77
     6
176
     1
 78
     2
176
     1
 67
     7
176
     1
 79
     5
176
     1
170
     0
176
     1
171
     0
176
     1
290
     0
176
     1
 93
       13
176
     1
 44
0.0
176
     1
173
     0
176
     1
  0
VISUALSTYLE
  5
2E
102
{ACAD_REACTORS
330
2A
102
}
330
2A
100
AcDbVisualStyle
  2
GouraudWithEdges
 70
     3
177
     2
291
     1
 71
     2
176
     1
 72
     2
176
     1
 73
     1
176
     1
 90
        2
176
     1
 40
-0.6
176
     1
 41
30.0
176
     1
 62
     5
 63
     7
421
 16777215
176
     1
 74
     1
176
     1
 91
        4
176
     1
 64
     7
176
     1
 65
   257
176
     1
 75
     1
176
     1
175
     1
176
     1
 42
1.0
176
     1
 92
        0
176
     1
 66
   257
176
     1
 43
1.0
176
     1
 76
     1
176
     1
 77
     6
176
     1
 78
     2
176
     1
 67
     7
176
     1
 79
     5
176
     1
170
     0
176
     1
171
     0
176
     1
290
     0
176
     1
 93
       13
176
     1
 44
0.0
176
     1
173
     0
176
     1
  0
VISUALSTYLE
  5
38
102
{ACAD_REACTORS
330
2A
102
}
330
2A
100
AcDbVisualStyle
  2
Linepattern
 70
    14
177
     2
291
     1
 71
     2
176
     1
 72
     2
176
     1
 73
     0
176
     1
 90
        0
176
     1
 40
-0.6
176
     1
 41
-30.0
176
     1
 62
     5
 63
     7
421
 16777215
176
     1
 74
     1
176
     1
 91
        4
176
     1
 64
     7
176
     1
 65
   257
176
     1
 75
     7
176
     1
175
     7
176
     1
 42
1.0
176
     1
 92
        8
176
     1
 66
     7
176
     1
 43
1.0
176
     1
 76
     1
176
     1
 77
     6
176
     1
 78
     2
176
     1
 67
     7
176
     1
 79
     5
176
     1
170
     0
176
     1
171
     0
176
     1
290
     0
176
     1
 93
        1
176
     1
 44
0.0
176
     1
173
     0
176
     1
  0
VISUALSTYLE
  5
33
102
{ACAD_REACTORS
330
2A
102
}
330
2A
100
AcDbVisualStyle
  2
Realistic
 70
     8
177
     2
291
     0
 71
     2
176
     1
 72
     2
176
     1
 73
     0
176
     1
 90
        0
176
     1
 40
-0.6
176
     1
 41
-30.0
176
     1
 62
     5
 63
     7
421
 16777215
176
     1
 74
     1
176
     1
 91
        0
176
     1
 64
     7
176
     1
 65
   257
176
     1
 75
     1
176
     1
175
     1
176
     1
 42
1.0
176
     1
 92
        8
176
     1
 66
     8
424
  7895160
176
     1
 43
1.0
176
     1
 76
     1
176
     1
 77
     6
176
     1
 78
     2
176
     1
 67
     7
176
     1
 79
     5
176
     1
170
     0
176
     1
171
     0
176
     1
290
     0
176
     1
 93
       13
176
     1
 44
0.0
176
     1
173
     0
176
     1
  0
VISUALSTYLE
  5
37
102
{ACAD_REACTORS
330
2A
102
}
330
2A
100
AcDbVisualStyle
  2
Thicken
 70
    13
177
     2
291
     1
 71
     2
176
     1
 72
     2
176
     1
 73
     0
176
     1
 90
        0
176
     1
 40
-0.6
176
     1
 41
-30.0
176
     1
 62
     5
 63
     7
421
 16777215
176
     1
 74
     1
176
     1
 91
        4
176
     1
 64
     7
176
     1
 65
   257
176
     1
 75
     1
176
     1
175
     1
176
     1
 42
1.0
176
     1
 92
       12
176
     1
 66
     7
176
     1
 43
1.0
176
     1
 76
     1
176
     1
 77
     6
176
     1
 78
     2
176
     1
 67
     7
176
     1
 79
     5
176
     1
170
     0
176
     1
171
     0
176
     1
290
     0
176
     1
 93
        1
176
     1
 44
0.0
176
     1
173
     0
176
     1
  0
ENDSEC
  0
EOF
