  0
SECTION
  2
HEADER
  9
$ACADVER
  1
AC1024
  9
$ACADMAINTVER
 70
     6
  9
$DWGCODEPAGE
  3
UNDEFINED
  9
$INSBASE
 10
0.0
 20
0.0
 30
0.0
  9
$EXTMIN
 10
1.000000000000000E+20
 20
1.000000000000000E+20
 30
1.000000000000000E+20
  9
$EXTMAX
 10
-1.000000000000000E+20
 20
-1.000000000000000E+20
 30
-1.000000000000000E+20
  9
$LIMMIN
 10
0.0
 20
0.0
  9
$LIMMAX
 10
12.0
 20
9.0
  9
$ORTHOMODE
 70
     0
  9
$REGENMODE
 70
     1
  9
$FILLMODE
 70
     1
  9
$QTEXTMODE
 70
     0
  9
$MIRRTEXT
 70
     1
  9
$LTSCALE
 40
1.0
  9
$ATTMODE
 70
     1
  9
$TEXTSIZE
 40
0.2
  9
$TRACEWID
 40
0.05
  9
$TEXTSTYLE
  7
Standard
  9
$CLAYER
  8
0
  9
$CELTYPE
  6
ByLayer
  9
$CECOLOR
 62
   256
  9
$CELTSCALE
 40
1.0
  9
$DISPSILH
 70
     0
  9
$DIMSCALE
 40
1.0
  9
$DIMASZ
 40
0.18
  9
$DIMEXO
 40
0.0625
  9
$DIMDLI
 40
0.38
  9
$DIMRND
 40
0.0
  9
$DIMDLE
 40
0.0
  9
$DIMEXE
 40
0.18
  9
$DIMTP
 40
0.0
  9
$DIMTM
 40
0.0
  9
$DIMTXT
 40
0.18
  9
$DIMCEN
 40
0.09
  9
$DIMTSZ
 40
0.0
  9
$DIMTOL
 70
     0
  9
$DIMLIM
 70
     0
  9
$DIMTIH
 70
     1
  9
$DIMTOH
 70
     1
  9
$DIMSE1
 70
     0
  9
$DIMSE2
 70
     0
  9
$DIMTAD
 70
     0
  9
$DIMZIN
 70
     0
  9
$DIMBLK
  1

  9
$DIMASO
 70
     1
  9
$DIMSHO
 70
     1
  9
$DIMPOST
  1

  9
$DIMAPOST
  1

  9
$DIMALT
 70
     0
  9
$DIMALTD
 70
     2
  9
$DIMALTF
 40
25.4
  9
$DIMLFAC
 40
1.0
  9
$DIMTOFL
 70
     0
  9
$DIMTVP
 40
0.0
  9
$DIMTIX
 70
     0
  9
$DIMSOXD
 70
     0
  9
$DIMSAH
 70
     0
  9
$DIMBLK1
  1

  9
$DIMBLK2
  1

  9
$DIMSTYLE
  2
Standard
  9
$DIMCLRD
 70
     0
  9
$DIMCLRE
 70
     0
  9
$DIMCLRT
 70
     0
  9
$DIMTFAC
 40
1.0
  9
$DIMGAP
 40
0.09
  9
$DIMJUST
 70
     0
  9
$DIMSD1
 70
     0
  9
$DIMSD2
 70
     0
  9
$DIMTOLJ
 70
     1
  9
$DIMTZIN
 70
     0
  9
$DIMALTZ
 70
     0
  9
$DIMALTTZ
 70
     0
  9
$DIMUPT
 70
     0
  9
$DIMDEC
 70
     4
  9
$DIMTDEC
 70
     4
  9
$DIMALTU
 70
     2
  9
$DIMALTTD
 70
     2
  9
$DIMTXSTY
  7
Standard
  9
$DIMAUNIT
 70
     0
  9
$DIMADEC
 70
     0
  9
$DIMALTRND
 40
0.0
  9
$DIMAZIN
 70
     0
  9
$DIMDSEP
 70
    46
  9
$DIMATFIT
 70
     3
  9
$DIMFRAC
 70
     0
  9
$DIMLDRBLK
  1

  9
$DIMLUNIT
 70
     2
  9
$DIMLWD
 70
    -2
  9
$DIMLWE
 70
    -2
  9
$DIMTMOVE
 70
     0
  9
$DIMFXL
 40
1.0
  9
$DIMFXLON
 70
     0
  9
$DIMJOGANG
 40
0.7853981633974483
  9
$DIMTFILL
 70
     0
  9
$DIMTFILLCLR
 70
     0
  9
$DIMARCSYM
 70
     0
  9
$DIMLTYPE
  6

  9
$DIMLTEX1
  6

  9
$DIMLTEX2
  6

  9
$DIMTXTDIRECTION
 70
     0
  9
$LUNITS
 70
     2
  9
$LUPREC
 70
     4
  9
$SKETCHINC
 40
0.1
  9
$FILLETRAD
 40
0.5
  9
$AUNITS
 70
     0
  9
$AUPREC
 70
     0
  9
$MENU
  1
.
  9
$ELEVATION
 40
0.0
  9
$PELEVATION
 40
0.0
  9
$THICKNESS
 40
0.0
  9
$LIMCHECK
 70
     0
  9
$CHAMFERA
 40
0.5
  9
$CHAMFERB
 40
0.5
  9
$CHAMFERC
 40
1.0
  9
$CHAMFERD
 40
0.0
  9
$SKPOLY
 70
     0
  9
$TDCREATE
 40
2457917.622766204
  9
$TDUCREATE
 40
2457917.247766204
  9
$TDUPDATE
 40
2457917.622766204
  9
$TDUUPDATE
 40
2457917.247766204
  9
$TDINDWG
 40
0.0000000116
  9
$TDUSRTIMER
 40
0.0000000116
  9
$USRTIMER
 70
     1
  9
$ANGBASE
 50
0.0
  9
$ANGDIR
 70
     0
  9
$PDMODE
 70
     0
  9
$PDSIZE
 40
0.0
  9
$PLINEWID
 40
0.0
  9
$SPLFRAME
 70
     0
  9
$SPLINETYPE
 70
     6
  9
$SPLINESEGS
 70
     8
  9
$HANDSEED
  5
E7
  9
$SURFTAB1
 70
     6
  9
$SURFTAB2
 70
     6
  9
$SURFTYPE
 70
     6
  9
$SURFU
 70
     6
  9
$SURFV
 70
     6
  9
$UCSBASE
  2

  9
$UCSNAME
  2

  9
$UCSORG
 10
0.0
 20
0.0
 30
0.0
  9
$UCSXDIR
 10
1.0
 20
0.0
 30
0.0
  9
$UCSYDIR
 10
0.0
 20
1.0
 30
0.0
  9
$UCSORTHOREF
  2

  9
$UCSORTHOVIEW
 70
     0
  9
$UCSORGTOP
 10
0.0
 20
0.0
 30
0.0
  9
$UCSORGBOTTOM
 10
0.0
 20
0.0
 30
0.0
  9
$UCSORGLEFT
 10
0.0
 20
0.0
 30
0.0
  9
$UCSORGRIGHT
 10
0.0
 20
0.0
 30
0.0
  9
$UCSORGFRONT
 10
0.0
 20
0.0
 30
0.0
  9
$UCSORGBACK
 10
0.0
 20
0.0
 30
0.0
  9
$PUCSBASE
  2

  9
$PUCSNAME
  2

  9
$PUCSORG
 10
0.0
 20
0.0
 30
0.0
  9
$PUCSXDIR
 10
1.0
 20
0.0
 30
0.0
  9
$PUCSYDIR
 10
0.0
 20
1.0
 30
0.0
  9
$PUCSORTHOREF
  2

  9
$PUCSORTHOVIEW
 70
     0
  9
$PUCSORGTOP
 10
0.0
 20
0.0
 30
0.0
  9
$PUCSORGBOTTOM
 10
0.0
 20
0.0
 30
0.0
  9
$PUCSORGLEFT
 10
0.0
 20
0.0
 30
0.0
  9
$PUCSORGRIGHT
 10
0.0
 20
0.0
 30
0.0
  9
$PUCSORGFRONT
 10
0.0
 20
0.0
 30
0.0
  9
$PUCSORGBACK
 10
0.0
 20
0.0
 30
0.0
  9
$USERI1
 70
     0
  9
$USERI2
 70
     0
  9
$USERI3
 70
     0
  9
$USERI4
 70
     0
  9
$USERI5
 70
     0
  9
$USERR1
 40
0.0
  9
$USERR2
 40
0.0
  9
$USERR3
 40
0.0
  9
$USERR4
 40
0.0
  9
$USERR5
 40
0.0
  9
$WORLDVIEW
 70
     1
  9
$SHADEDGE
 70
     3
  9
$SHADEDIF
 70
    70
  9
$TILEMODE
 70
     1
  9
$MAXACTVP
 70
    64
  9
$PINSBASE
 10
0.0
 20
0.0
 30
0.0
  9
$PLIMCHECK
 70
     0
  9
$PEXTMIN
 10
1.000000000000000E+20
 20
1.000000000000000E+20
 30
1.000000000000000E+20
  9
$PEXTMAX
 10
-1.000000000000000E+20
 20
-1.000000000000000E+20
 30
-1.000000000000000E+20
  9
$PLIMMIN
 10
0.0
 20
0.0
  9
$PLIMMAX
 10
12.0
 20
9.0
  9
$UNITMODE
 70
     0
  9
$VISRETAIN
 70
     1
  9
$PLINEGEN
 70
     0
  9
$PSLTSCALE
 70
     1
  9
$TREEDEPTH
 70
  3020
  9
$CMLSTYLE
  2
Standard
  9
$CMLJUST
 70
     0
  9
$CMLSCALE
 40
1.0
  9
$PROXYGRAPHICS
 70
     1
  9
$MEASUREMENT
 70
     0
  9
$CELWEIGHT
370
    -1
  9
$ENDCAPS
280
     0
  9
$JOINSTYLE
280
     0
  9
$LWDISPLAY
290
     1
  9
$INSUNITS
 70
     1
  9
$HYPERLINKBASE
  1

  9
$STYLESHEET
  1

  9
$XEDIT
290
     1
  9
$CEPSNTYPE
380
     0
  9
$PSTYLEMODE
290
     1
  9
$FINGERPRINTGUID
  2
{DE3CF4AD-8C24-D54B-69DF-8CA7D8C8A3BC}
  9
$VERSIONGUID
  2
{FAEB1C32-E019-11D5-929B-00C0DF256EC4}
  9
$EXTNAMES
290
     1
  9
$PSVPSCALE
 40
0.0
  9
$OLESTARTUP
290
     0
  9
$SORTENTS
280
   127
  9
$INDEXCTL
280
     0
  9
$HIDETEXT
280
     1
  9
$XCLIPFRAME
280
     2
  9
$HALOGAP
280
     0
  9
$OBSCOLOR
 70
   257
  9
$OBSLTYPE
280
     0
  9
$INTERSECTIONDISPLAY
280
     0
  9
$INTERSECTIONCOLOR
 70
   257
  9
$DIMASSOC
280
     2
  9
$PROJECTNAME
  1

  9
$CAMERADISPLAY
290
     0
  9
$LENSLENGTH
 40
50.0
  9
$CAMERAHEIGHT
 40
0.0
  9
$STEPSPERSEC
 40
2.0
  9
$STEPSIZE
 40
6.0
  9
$3DDWFPREC
 40
2.0
  9
$PSOLWIDTH
 40
0.25
  9
$PSOLHEIGHT
 40
4.0
  9
$LOFTANG1
 40
1.570796326794897
  9
$LOFTANG2
 40
1.570796326794897
  9
$LOFTMAG1
 40
0.0
  9
$LOFTMAG2
 40
0.0
  9
$LOFTPARAM
 70
     7
  9
$LOFTNORMALS
280
     1
  9
$LATITUDE
 40
37.795
  9
$LONGITUDE
 40
-122.394
  9
$NORTHDIRECTION
 40
0.0
  9
$TIMEZONE
 70
 -8000
  9
$LIGHTGLYPHDISPLAY
280
     1
  9
$TILEMODELIGHTSYNCH
280
     1
  9
$CMATERIAL
347
3C
  9
$SOLIDHIST
280
     1
  9
$SHOWHIST
280
     1
  9
$DWFFRAME
280
     2
  9
$DGNFRAME
280
     2
  9
$REALWORLDSCALE
290
     1
  9
$INTERFERECOLOR
 62
   256
  9
$CSHADOW
280
     0
  9
$SHADOWPLANELOCATION
 40
0.0
  0
ENDSEC
  0
SECTION
  2
CLASSES
  0
CLASS
  1
ACDBDICTIONARYWDFLT
  2
AcDbDictionaryWithDefault
  3
ObjectDBX Classes
 90
        0
 91
        4
280
     0
281
     0
  0
CLASS
  1
VISUALSTYLE
  2
AcDbVisualStyle
  3
ObjectDBX Classes
 90
     4095
 91
        4
280
     0
281
     0
  0
CLASS
  1
MATERIAL
  2
AcDbMaterial
  3
ObjectDBX Classes
 90
     1153
 91
        4
280
     0
281
     0
  0
CLASS
  1
SUN
  2
AcDbSun
  3
SCENEOE
 90
     1024
 91
        4
280
     0
281
     0
  0
ENDSEC
  0
SECTION
  2
TABLES
  0
TABLE
  2
VPORT
  5
8
330
0
100
AcDbSymbolTable
 70
     1
  0
VPORT
  5
29
330
8
100
AcDbSymbolTableRecord
100
AcDbViewportTableRecord
  2
*Active
 70
     0
 10
0.0
 20
0.0
 11
1.0
 21
1.0
 12
0.0
 22
0.0
 13
0.0
 23
0.0
 14
0.5
 24
0.5
 15
0.5
 25
0.5
 16
0.0
 26
0.0
 36
1.0
 17
91.00082462281999
 27
-128.4993055234307
 37
0.0
 40
256.9986110468615
 41
0.7081814508812795
 42
50.0
 43
0.0
 44
0.0
 50
0.0
 51
0.0
 71
     0
 72
   100
 73
     1
 74
     3
 75
     0
 76
     0
 77
     0
 78
     0
281
     0
 65
     1
110
0.0
120
0.0
130
0.0
111
1.0
121
0.0
131
0.0
112
0.0
122
1.0
132
0.0
 79
     0
146
0.0
 60
     3
 61
     5
292
     1
282
     1
141
0.0
142
0.0
 63
   250
361
3F
  0
ENDTAB
  0
TABLE
  2
LTYPE
  5
5
330
0
100
AcDbSymbolTable
 70
     1
  0
LTYPE
  5
14
330
5
100
AcDbSymbolTableRecord
100
AcDbLinetypeTableRecord
  2
ByBlock
 70
     0
  3

 72
    65
 73
     0
 40
0.0
  0
LTYPE
  5
15
330
5
100
AcDbSymbolTableRecord
100
AcDbLinetypeTableRecord
  2
ByLayer
 70
     0
  3

 72
    65
 73
     0
 40
0.0
  0
LTYPE
  5
16
330
5
100
AcDbSymbolTableRecord
100
AcDbLinetypeTableRecord
  2
Continuous
 70
     0
  3
Solid line
 72
    65
 73
     0
 40
0.0
  0
ENDTAB
  0
TABLE
  2
LAYER
  5
2
330
0
100
AcDbSymbolTable
 70
     2
  0
LAYER
  5
10
330
2
100
AcDbSymbolTableRecord
100
AcDbLayerTableRecord
  2
0
 70
     0
 62
     7
  6
Continuous
370
    -3
390
F
347
3E
  0
LAYER
  5
40
330
2
100
AcDbSymbolTableRecord
100
AcDbLayerTableRecord
  2
_U+30EC_U+30A4_U+30E4_U+30FC 1
 70
     0
 62
     7
  6
Continuous
370
    -3
390
F
347
3E
  0
ENDTAB
  0
TABLE
  2
STYLE
  5
3
330
0
100
AcDbSymbolTable
 70
     1
  0
STYLE
  5
11
330
3
100
AcDbSymbolTableRecord
100
AcDbTextStyleTableRecord
  2
Standard
 70
     0
 40
0.0
 41
1.0
 50
0.0
 71
     0
 42
0.2
  3
txt
  4

  0
ENDTAB
  0
TABLE
  2
VIEW
  5
6
330
0
100
AcDbSymbolTable
 70
     0
  0
ENDTAB
  0
TABLE
  2
UCS
  5
7
330
0
100
AcDbSymbolTable
 70
     0
  0
ENDTAB
  0
TABLE
  2
APPID
  5
9
330
0
100
AcDbSymbolTable
 70
     1
  0
APPID
  5
12
330
9
100
AcDbSymbolTableRecord
100
AcDbRegAppTableRecord
  2
ACAD
 70
     0
  0
ENDTAB
  0
TABLE
  2
DIMSTYLE
  5
A
330
0
100
AcDbSymbolTable
 70
     1
100
AcDbDimStyleTable
  0
DIMSTYLE
105
27
330
A
100
AcDbSymbolTableRecord
100
AcDbDimStyleTableRecord
  2
Standard
 70
     0
178
     0
340
11
  0
ENDTAB
  0
TABLE
  2
BLOCK_RECORD
  5
1
330
0
100
AcDbSymbolTable
 70
     6
  0
BLOCK_RECORD
  5
1F
330
1
100
AcDbSymbolTableRecord
100
AcDbBlockTableRecord
  2
*Model_Space
340
22
 70
     0
280
     1
281
     0
  0
BLOCK_RECORD
  5
1B
330
1
100
AcDbSymbolTableRecord
100
AcDbBlockTableRecord
  2
*Paper_Space
340
1E
 70
     0
280
     1
281
     0
  0
BLOCK_RECORD
  5
23
330
1
100
AcDbSymbolTableRecord
100
AcDbBlockTableRecord
  2
*Paper_Space0
340
26
 70
     0
280
     1
281
     0
  0
BLOCK_RECORD
  5
93
330
1
100
AcDbSymbolTableRecord
100
AcDbBlockTableRecord
  2
block 2
340
0
102
{BLKREFS
331
94
102
}
 70
     0
280
     1
281
     0
  0
BLOCK_RECORD
  5
B0
330
1
100
AcDbSymbolTableRecord
100
AcDbBlockTableRecord
  2
block 3
340
0
102
{BLKREFS
331
B1
102
}
 70
     0
280
     1
281
     0
  0
BLOCK_RECORD
  5
BE
330
1
100
AcDbSymbolTableRecord
100
AcDbBlockTableRecord
  2
block 4
340
0
102
{BLKREFS
331
BF
102
}
 70
     0
280
     1
281
     0
  0
BLOCK_RECORD
  5
CF
330
1
100
AcDbSymbolTableRecord
100
AcDbBlockTableRecord
  2
block 5
340
0
102
{BLKREFS
331
D0
102
}
 70
     0
280
     1
281
     0
  0
BLOCK_RECORD
  5
DF
330
1
100
AcDbSymbolTableRecord
100
AcDbBlockTableRecord
  2
block 6
340
0
102
{BLKREFS
331
E0
102
}
 70
     0
280
     1
281
     0
  0
ENDTAB
  0
ENDSEC
  0
SECTION
  2
BLOCKS
  0
BLOCK
  5
20
330
1F
100
AcDbEntity
  8
0
100
AcDbBlockBegin
  2
*Model_Space
 70
     0
 10
0.0
 20
0.0
 30
0.0
  3
*Model_Space
  1

  0
ENDBLK
  5
21
330
1F
100
AcDbEntity
  8
0
100
AcDbBlockEnd
  0
BLOCK
  5
1C
330
1B
100
AcDbEntity
 67
     1
  8
0
100
AcDbBlockBegin
  2
*Paper_Space
 70
     0
 10
0.0
 20
0.0
 30
0.0
  3
*Paper_Space
  1

  0
ENDBLK
  5
1D
330
1B
100
AcDbEntity
 67
     1
  8
0
100
AcDbBlockEnd
  0
BLOCK
  5
24
330
23
100
AcDbEntity
  8
0
100
AcDbBlockBegin
  2
*Paper_Space0
 70
     0
 10
0.0
 20
0.0
 30
0.0
  3
*Paper_Space0
  1

  0
ENDBLK
  5
25
330
23
100
AcDbEntity
  8
0
100
AcDbBlockEnd
  0
BLOCK
  5
95
330
93
100
AcDbEntity
  8
0
100
AcDbBlockBegin
  2
block 2
 70
     0
 10
0.0
 20
0.0
 30
0.0
  3
block 2
  1

  0
SPLINE
  5
97
330
93
100
AcDbEntity
  8
_U+30EC_U+30A4_U+30E4_U+30FC 1
370
     0
100
AcDbSpline
210
0.0
220
0.0
230
1.0
 70
    11
 71
     3
 72
    32
 73
    28
 74
     0
 42
0.0000000001
 43
0.0000000001
 12
1.0
 22
0.0
 32
0.0
 13
1.0
 23
0.0
 33
0.0
 40
0.0
 40
0.0
 40
0.0
 40
0.0
 40
1.0
 40
1.0
 40
1.0
 40
2.0
 40
2.0
 40
2.0
 40
3.0
 40
3.0
 40
3.0
 40
4.0
 40
4.0
 40
4.0
 40
5.0
 40
5.0
 40
5.0
 40
6.0
 40
6.0
 40
6.0
 40
7.0
 40
7.0
 40
7.0
 40
8.0
 40
8.0
 40
8.0
 40
9.0
 40
9.0
 40
9.0
 40
9.0
 10
99.25457896824192
 20
-134.1347927182024
 30
0.0
 10
99.25457896824192
 20
-134.3080810211105
 30
0.0
 10
99.18498803943987
 20
-134.5537163292088
 30
0.0
 10
98.85288083466179
 20
-134.5916123795465
 30
0.0
 10
98.85288083466179
 20
-134.5916123795465
 30
0.0
 10
98.85288083466179
 20
-134.3780164594611
 30
0.0
 10
98.85288083466179
 20
-134.3780164594611
 30
0.0
 10
98.91213647700808
 20
-134.3673366634568
 30
0.0
 10
99.0599310733253
 20
-134.3356417849925
 30
0.0
 10
99.0599310733253
 20
-134.1327256609113
 30
0.0
 10
99.0599310733253
 20
-133.8405815637621
 30
0.0
 10
98.73023543538689
 20
-133.8026855134243
 30
0.0
 10
98.524907744466
 20
-133.7899386601289
 30
0.0
 10
98.60517846927232
 20
-133.8808891809395
 30
0.0
 10
98.66236705432746
 20
-133.9484130524504
 30
0.0
 10
98.66236705432746
 20
-134.1303140940716
 30
0.0
 10
98.66236705432746
 20
-134.3101480784016
 30
0.0
 10
98.5566026229303
 20
-134.6129719715551
 30
0.0
 10
98.15042586521935
 20
-134.6129719715551
 30
0.0
 10
97.83106551373669
 20
-134.6129719715551
 30
0.0
 10
97.61092391222921
 20
-134.4138454525076
 30
0.0
 10
97.61092391222921
 20
-134.0965521583161
 30
0.0
 10
97.61092391222921
 20
-133.5825439119169
 30
0.0
 10
98.16523977580592
 20
-133.5718641159126
 30
0.0
 10
98.37883569589141
 20
-133.5718641159126
 30
0.0
 10
98.60931258385462
 20
-133.5718641159126
 30
0.0
 10
99.25457896824192
 20
-133.59115665063
 30
0.0
 10
99.25457896824192
 20
-134.1347927182024
 30
0.0
  0
SPLINE
  5
98
330
93
100
AcDbEntity
  8
_U+30EC_U+30A4_U+30E4_U+30FC 1
370
     0
100
AcDbSpline
210
0.0
220
0.0
230
1.0
 70
    11
 71
     3
 72
    17
 73
    13
 74
     0
 42
0.0000000001
 43
0.0000000001
 12
1.0
 22
0.0
 32
0.0
 13
1.0
 23
0.0
 33
0.0
 40
0.0
 40
0.0
 40
0.0
 40
0.0
 40
1.0
 40
1.0
 40
1.0
 40
2.0
 40
2.0
 40
2.0
 40
3.0
 40
3.0
 40
3.0
 40
4.0
 40
4.0
 40
4.0
 40
4.0
 10
97.80350474985468
 20
-134.094485101025
 30
0.0
 10
97.80350474985468
 20
-134.2129963857176
 30
0.0
 10
97.86069333490983
 20
-134.3886962554653
 30
0.0
 10
98.14629175063705
 20
-134.3886962554653
 30
0.0
 10
98.37263452401795
 20
-134.3886962554653
 30
0.0
 10
98.46771915941085
 20
-134.2488253787642
 30
0.0
 10
98.46771915941085
 20
-134.1134331261939
 30
0.0
 10
98.46771915941085
 20
-133.8512613597664
 30
0.0
 10
98.25825735390767
 20
-133.8130207998801
 30
0.0
 10
98.14181312650622
 20
-133.8130207998801
 30
0.0
 10
97.966457766307
 20
-133.8130207998801
 30
0.0
 10
97.80350474985468
 20
-133.9084499448215
 30
0.0
 10
97.80350474985468
 20
-134.094485101025
 30
0.0
  0
HATCH
  5
99
330
93
100
AcDbEntity
  8
_U+30EC_U+30A4_U+30E4_U+30FC 1
 62
   179
420
  2234388
100
AcDbHatch
 10
0.0
 20
0.0
 30
0.0
210
0.0
220
0.0
230
1.0
  2
SOLID
 70
     1
 71
     0
 91
        2
 92
        1
 93
        1
 72
     4
 94
        3
 73
     0
 74
     1
 95
       32
 96
       28
 40
0.0
 40
0.0
 40
0.0
 40
0.0
 40
1.0
 40
1.0
 40
1.0
 40
2.0
 40
2.0
 40
2.0
 40
3.0
 40
3.0
 40
3.0
 40
4.0
 40
4.0
 40
4.0
 40
5.0
 40
5.0
 40
5.0
 40
6.0
 40
6.0
 40
6.0
 40
7.0
 40
7.0
 40
7.0
 40
8.0
 40
8.0
 40
8.0
 40
9.0
 40
9.0
 40
9.0
 40
9.0
 10
99.25457896824192
 20
-134.1347927182024
 10
99.25457896824192
 20
-134.3080810211105
 10
99.18498803943987
 20
-134.5537163292088
 10
98.85288083466179
 20
-134.5916123795465
 10
98.85288083466179
 20
-134.5916123795465
 10
98.85288083466179
 20
-134.3780164594611
 10
98.85288083466179
 20
-134.3780164594611
 10
98.91213647700808
 20
-134.3673366634568
 10
99.0599310733253
 20
-134.3356417849925
 10
99.0599310733253
 20
-134.1327256609113
 10
99.0599310733253
 20
-133.8405815637621
 10
98.73023543538689
 20
-133.8026855134243
 10
98.524907744466
 20
-133.7899386601289
 10
98.60517846927232
 20
-133.8808891809395
 10
98.66236705432746
 20
-133.9484130524504
 10
98.66236705432746
 20
-134.1303140940716
 10
98.66236705432746
 20
-134.3101480784016
 10
98.5566026229303
 20
-134.6129719715551
 10
98.15042586521935
 20
-134.6129719715551
 10
97.83106551373669
 20
-134.6129719715551
 10
97.61092391222921
 20
-134.4138454525076
 10
97.61092391222921
 20
-134.0965521583161
 10
97.61092391222921
 20
-133.5825439119169
 10
98.16523977580592
 20
-133.5718641159126
 10
98.37883569589141
 20
-133.5718641159126
 10
98.60931258385462
 20
-133.5718641159126
 10
99.25457896824192
 20
-133.59115665063
 10
99.25457896824192
 20
-134.1347927182024
 97
        0
 97
        0
 92
        1
 93
        1
 72
     4
 94
        3
 73
     0
 74
     1
 95
       17
 96
       13
 40
0.0
 40
0.0
 40
0.0
 40
0.0
 40
1.0
 40
1.0
 40
1.0
 40
2.0
 40
2.0
 40
2.0
 40
3.0
 40
3.0
 40
3.0
 40
4.0
 40
4.0
 40
4.0
 40
4.0
 10
97.80350474985468
 20
-134.094485101025
 10
97.80350474985468
 20
-134.2129963857176
 10
97.86069333490983
 20
-134.3886962554653
 10
98.14629175063705
 20
-134.3886962554653
 10
98.37263452401795
 20
-134.3886962554653
 10
98.46771915941085
 20
-134.2488253787642
 10
98.46771915941085
 20
-134.1134331261939
 10
98.46771915941085
 20
-133.8512613597664
 10
98.25825735390767
 20
-133.8130207998801
 10
98.14181312650622
 20
-133.8130207998801
 10
97.966457766307
 20
-133.8130207998801
 10
97.80350474985468
 20
-133.9084499448215
 10
97.80350474985468
 20
-134.094485101025
 97
        0
 97
        0
 75
     2
 76
     1
 98
        0
  0
POLYLINE
  5
9A
330
93
100
AcDbEntity
  8
_U+30EC_U+30A4_U+30E4_U+30FC 1
370
     0
100
AcDb2dPolyline
 66
     1
 10
0.0
 20
0.0
 30
0.0
  0
VERTEX
  5
9B
330
9A
100
AcDbEntity
  8
_U+30EC_U+30A4_U+30E4_U+30FC 1
370
     0
100
AcDbVertex
100
AcDb2dVertex
 10
99.20393606460874
 20
-133.3555121194389
 30
0.0
  0
VERTEX
  5
9C
330
9A
100
AcDbEntity
  8
_U+30EC_U+30A4_U+30E4_U+30FC 1
370
     0
100
AcDbVertex
100
AcDb2dVertex
 10
98.95209958463698
 20
-133.3555121194389
 30
0.0
  0
VERTEX
  5
9D
330
9A
100
AcDbEntity
  8
_U+30EC_U+30A4_U+30E4_U+30FC 1
370
     0
100
AcDbVertex
100
AcDb2dVertex
 10
98.95209958463698
 20
-133.1036756394672
 30
0.0
  0
VERTEX
  5
9E
330
9A
100
AcDbEntity
  8
_U+30EC_U+30A4_U+30E4_U+30FC 1
370
     0
100
AcDbVertex
100
AcDb2dVertex
 10
99.20393606460874
 20
-133.1036756394672
 30
0.0
  0
VERTEX
  5
9F
330
9A
100
AcDbEntity
  8
_U+30EC_U+30A4_U+30E4_U+30FC 1
370
     0
100
AcDbVertex
100
AcDb2dVertex
 10
99.20393606460874
 20
-133.3555121194389
 30
0.0
  0
SEQEND
  5
A0
330
9A
100
AcDbEntity
  8
_U+30EC_U+30A4_U+30E4_U+30FC 1
370
     0
  0
HATCH
  5
A1
330
93
100
AcDbEntity
  8
_U+30EC_U+30A4_U+30E4_U+30FC 1
 62
   179
420
  2234388
100
AcDbHatch
 10
0.0
 20
0.0
 30
0.0
210
0.0
220
0.0
230
1.0
  2
SOLID
 70
     1
 71
     0
 91
        1
 92
        1
 93
        4
 72
     1
 10
99.20393606460874
 20
-133.3555121194389
 11
98.95209958463698
 21
-133.3555121194389
 72
     1
 10
98.95209958463698
 20
-133.3555121194389
 11
98.95209958463698
 21
-133.1036756394672
 72
     1
 10
98.95209958463698
 20
-133.1036756394672
 11
99.20393606460874
 21
-133.1036756394672
 72
     1
 10
99.20393606460874
 20
-133.1036756394672
 11
99.20393606460874
 21
-133.3555121194389
 97
        0
 75
     2
 76
     1
 98
        0
  0
SPLINE
  5
A2
330
93
100
AcDbEntity
  8
_U+30EC_U+30A4_U+30E4_U+30FC 1
370
     0
100
AcDbSpline
210
0.0
220
0.0
230
1.0
 70
    11
 71
     3
 72
    53
 73
    49
 74
     0
 42
0.0000000001
 43
0.0000000001
 12
1.0
 22
0.0
 32
0.0
 13
1.0
 23
0.0
 33
0.0
 40
0.0
 40
0.0
 40
0.0
 40
0.0
 40
1.0
 40
1.0
 40
1.0
 40
2.0
 40
2.0
 40
2.0
 40
3.0
 40
3.0
 40
3.0
 40
4.0
 40
4.0
 40
4.0
 40
5.0
 40
5.0
 40
5.0
 40
6.0
 40
6.0
 40
6.0
 40
7.0
 40
7.0
 40
7.0
 40
8.0
 40
8.0
 40
8.0
 40
9.0
 40
9.0
 40
9.0
 40
10.0
 40
10.0
 40
10.0
 40
11.0
 40
11.0
 40
11.0
 40
12.0
 40
12.0
 40
12.0
 40
13.0
 40
13.0
 40
13.0
 40
14.0
 40
14.0
 40
14.0
 40
15.0
 40
15.0
 40
15.0
 40
16.0
 40
16.0
 40
16.0
 40
16.0
 10
99.25457896824192
 20
-132.3864067594381
 30
0.0
 10
99.25457896824192
 20
-132.4646104269533
 30
0.0
 10
99.23769800036419
 20
-132.5662407437682
 30
0.0
 10
99.17430824343559
 20
-132.667871060583
 30
0.0
 10
99.06440969745613
 20
-132.8411593634911
 30
0.0
 10
98.9331515594681
 20
-132.8625189554997
 30
0.0
 10
98.82532007077978
 20
-132.8814669806685
 30
0.0
 10
98.82532007077978
 20
-132.8814669806685
 30
0.0
 10
98.82532007077978
 20
-132.6592583218699
 30
0.0
 10
98.82532007077978
 20
-132.6592583218699
 30
0.0
 10
99.0241020802787
 20
-132.6044813036544
 30
0.0
 10
99.05372990145185
 20
-132.4773572802487
 30
0.0
 10
99.05372990145185
 20
-132.384339702147
 30
0.0
 10
99.05372990145185
 20
-132.2448133349943
 30
0.0
 10
98.95416664192813
 20
-132.0925401145463
 30
0.0
 10
98.72162269667376
 20
-132.0925401145463
 30
0.0
 10
98.4656521021197
 20
-132.0925401145463
 30
0.0
 10
98.39571666376914
 20
-132.2723740988764
 30
0.0
 10
98.39571666376914
 20
-132.3929524408601
 30
0.0
 10
98.39571666376914
 20
-132.4246473193244
 30
0.0
 10
98.39571666376914
 20
-132.5662407437682
 30
0.0
 10
98.524907744466
 20
-132.6551242072876
 30
0.0
 10
98.524907744466
 20
-132.6551242072876
 30
0.0
 10
98.50595971929712
 20
-132.8308240770353
 30
0.0
 10
98.50595971929712
 20
-132.8308240770353
 30
0.0
 10
98.50595971929712
 20
-132.8308240770353
 30
0.0
 10
97.65949975857124
 20
-132.7102457350516
 30
0.0
 10
97.65949975857124
 20
-132.7102457350516
 30
0.0
 10
97.65949975857124
 20
-132.7102457350516
 30
0.0
 10
97.65949975857124
 20
-131.9316541553852
 30
0.0
 10
97.65949975857124
 20
-131.9316541553852
 30
0.0
 10
97.65949975857124
 20
-131.9316541553852
 30
0.0
 10
97.85414765348786
 20
-131.9316541553852
 30
0.0
 10
97.85414765348786
 20
-131.9316541553852
 30
0.0
 10
97.85414765348786
 20
-131.9316541553852
 30
0.0
 10
97.85414765348786
 20
-132.5472927185993
 30
0.0
 10
97.85414765348786
 20
-132.5472927185993
 30
0.0
 10
97.85414765348786
 20
-132.5472927185993
 30
0.0
 10
98.27720537907653
 20
-132.612749532819
 30
0.0
 10
98.27720537907653
 20
-132.612749532819
 30
0.0
 10
98.24344344332108
 20
-132.5514268331816
 30
0.0
 10
98.20313582614367
 20
-132.4690890510841
 30
0.0
 10
98.20313582614367
 20
-132.3505777663915
 30
0.0
 10
98.20313582614367
 20
-132.0966742291286
 30
0.0
 10
98.38951549189568
 20
-131.8596516597434
 30
0.0
 10
98.7026746715049
 20
-131.8596516597434
 30
0.0
 10
99.0199679656964
 20
-131.8596516597434
 30
0.0
 10
99.25457896824192
 20
-132.0839273758332
 30
0.0
 10
99.25457896824192
 20
-132.3864067594381
 30
0.0
  0
HATCH
  5
A3
330
93
100
AcDbEntity
  8
_U+30EC_U+30A4_U+30E4_U+30FC 1
 62
   179
420
  2234388
100
AcDbHatch
 10
0.0
 20
0.0
 30
0.0
210
0.0
220
0.0
230
1.0
  2
SOLID
 70
     1
 71
     0
 91
        1
 92
        1
 93
        1
 72
     4
 94
        3
 73
     0
 74
     1
 95
       53
 96
       49
 40
0.0
 40
0.0
 40
0.0
 40
0.0
 40
1.0
 40
1.0
 40
1.0
 40
2.0
 40
2.0
 40
2.0
 40
3.0
 40
3.0
 40
3.0
 40
4.0
 40
4.0
 40
4.0
 40
5.0
 40
5.0
 40
5.0
 40
6.0
 40
6.0
 40
6.0
 40
7.0
 40
7.0
 40
7.0
 40
8.0
 40
8.0
 40
8.0
 40
9.0
 40
9.0
 40
9.0
 40
10.0
 40
10.0
 40
10.0
 40
11.0
 40
11.0
 40
11.0
 40
12.0
 40
12.0
 40
12.0
 40
13.0
 40
13.0
 40
13.0
 40
14.0
 40
14.0
 40
14.0
 40
15.0
 40
15.0
 40
15.0
 40
16.0
 40
16.0
 40
16.0
 40
16.0
 10
99.25457896824192
 20
-132.3864067594381
 10
99.25457896824192
 20
-132.4646104269533
 10
99.23769800036419
 20
-132.5662407437682
 10
99.17430824343559
 20
-132.667871060583
 10
99.06440969745613
 20
-132.8411593634911
 10
98.9331515594681
 20
-132.8625189554997
 10
98.82532007077978
 20
-132.8814669806685
 10
98.82532007077978
 20
-132.8814669806685
 10
98.82532007077978
 20
-132.6592583218699
 10
98.82532007077978
 20
-132.6592583218699
 10
99.0241020802787
 20
-132.6044813036544
 10
99.05372990145185
 20
-132.4773572802487
 10
99.05372990145185
 20
-132.384339702147
 10
99.05372990145185
 20
-132.2448133349943
 10
98.95416664192813
 20
-132.0925401145463
 10
98.72162269667376
 20
-132.0925401145463
 10
98.4656521021197
 20
-132.0925401145463
 10
98.39571666376914
 20
-132.2723740988764
 10
98.39571666376914
 20
-132.3929524408601
 10
98.39571666376914
 20
-132.4246473193244
 10
98.39571666376914
 20
-132.5662407437682
 10
98.524907744466
 20
-132.6551242072876
 10
98.524907744466
 20
-132.6551242072876
 10
98.50595971929712
 20
-132.8308240770353
 10
98.50595971929712
 20
-132.8308240770353
 10
98.50595971929712
 20
-132.8308240770353
 10
97.65949975857124
 20
-132.7102457350516
 10
97.65949975857124
 20
-132.7102457350516
 10
97.65949975857124
 20
-132.7102457350516
 10
97.65949975857124
 20
-131.9316541553852
 10
97.65949975857124
 20
-131.9316541553852
 10
97.65949975857124
 20
-131.9316541553852
 10
97.85414765348786
 20
-131.9316541553852
 10
97.85414765348786
 20
-131.9316541553852
 10
97.85414765348786
 20
-131.9316541553852
 10
97.85414765348786
 20
-132.5472927185993
 10
97.85414765348786
 20
-132.5472927185993
 10
97.85414765348786
 20
-132.5472927185993
 10
98.27720537907653
 20
-132.612749532819
 10
98.27720537907653
 20
-132.612749532819
 10
98.24344344332108
 20
-132.5514268331816
 10
98.20313582614367
 20
-132.4690890510841
 10
98.20313582614367
 20
-132.3505777663915
 10
98.20313582614367
 20
-132.0966742291286
 10
98.38951549189568
 20
-131.8596516597434
 10
98.7026746715049
 20
-131.8596516597434
 10
99.0199679656964
 20
-131.8596516597434
 10
99.25457896824192
 20
-132.0839273758332
 10
99.25457896824192
 20
-132.3864067594381
 97
        0
 97
        0
 75
     2
 76
     1
 98
        0
  0
ENDBLK
  5
96
330
93
100
AcDbEntity
  8
0
100
AcDbBlockEnd
  0
BLOCK
  5
B2
330
B0
100
AcDbEntity
  8
0
100
AcDbBlockBegin
  2
block 3
 70
     0
 10
0.0
 20
0.0
 30
0.0
  3
block 3
  1

  0
SPLINE
  5
B4
330
B0
100
AcDbEntity
  8
_U+30EC_U+30A4_U+30E4_U+30FC 1
370
     0
100
AcDbSpline
210
0.0
220
0.0
230
1.0
 70
    11
 71
     3
 72
    44
 73
    40
 74
     0
 42
0.0000000001
 43
0.0000000001
 12
1.0
 22
0.0
 32
0.0
 13
1.0
 23
0.0
 33
0.0
 40
0.0
 40
0.0
 40
0.0
 40
0.0
 40
1.0
 40
1.0
 40
1.0
 40
2.0
 40
2.0
 40
2.0
 40
3.0
 40
3.0
 40
3.0
 40
4.0
 40
4.0
 40
4.0
 40
5.0
 40
5.0
 40
5.0
 40
6.0
 40
6.0
 40
6.0
 40
7.0
 40
7.0
 40
7.0
 40
8.0
 40
8.0
 40
8.0
 40
9.0
 40
9.0
 40
9.0
 40
10.0
 40
10.0
 40
10.0
 40
11.0
 40
11.0
 40
11.0
 40
12.0
 40
12.0
 40
12.0
 40
13.0
 40
13.0
 40
13.0
 40
13.0
 10
83.14341767669679
 20
-122.3510158656796
 30
0.0
 10
82.92551538725473
 20
-122.5096625127754
 30
0.0
 10
82.83232555437873
 20
-122.5837320657082
 30
0.0
 10
82.78374970803671
 20
-122.7275648022174
 30
0.0
 10
82.78374970803671
 20
-122.7275648022174
 30
0.0
 10
83.5621690329289
 20
-122.7275648022174
 30
0.0
 10
83.5621690329289
 20
-122.7275648022174
 30
0.0
 10
83.5621690329289
 20
-122.7275648022174
 30
0.0
 10
83.5621690329289
 20
-122.932720238364
 30
0.0
 10
83.5621690329289
 20
-122.932720238364
 30
0.0
 10
83.5621690329289
 20
-122.932720238364
 30
0.0
 10
82.53415254013035
 20
-122.932720238364
 30
0.0
 10
82.53415254013035
 20
-122.932720238364
 30
0.0
 10
82.56584741859466
 20
-122.5751193269951
 30
0.0
 10
82.63147648758866
 20
-122.4969156594799
 30
0.0
 10
83.01646590806533
 20
-122.1985703904573
 30
0.0
 10
83.2724365026194
 20
-121.9997883809584
 30
0.0
 10
83.33789331683914
 20
-121.9320922546732
 30
0.0
 10
83.33789331683914
 20
-121.7946329448118
 30
0.0
 10
83.33789331683914
 20
-121.6761216601192
 30
0.0
 10
83.26606307597169
 20
-121.5450357769054
 30
0.0
 10
83.06934812376392
 20
-121.5450357769054
 30
0.0
 10
82.80907115985329
 20
-121.5450357769054
 30
0.0
 10
82.80063067591443
 20
-121.7755126648686
 30
0.0
 10
82.79632430655786
 20
-121.8919568922701
 30
0.0
 10
82.79632430655786
 20
-121.8919568922701
 30
0.0
 10
82.57222084524237
 20
-121.8919568922701
 30
0.0
 10
82.57222084524237
 20
-121.8919568922701
 30
0.0
 10
82.58066132918123
 20
-121.7650051236386
 30
0.0
 10
82.59116887041124
 20
-121.6528672655937
 30
0.0
 10
82.67161184999182
 20
-121.5343559809011
 30
0.0
 10
82.7815103959713
 20
-121.3736422765142
 30
0.0
 10
82.96771780694904
 20
-121.3397080859845
 30
0.0
 10
83.08416203435048
 20
-121.3397080859845
 30
0.0
 10
83.36131996613884
 20
-121.3397080859845
 30
0.0
 10
83.56854245957662
 20
-121.5238484396711
 30
0.0
 10
83.56854245957662
 20
-121.7967000021029
 30
0.0
 10
83.56854245957662
 20
-122.025109832775
 30
0.0
 10
83.45227048694943
 20
-122.1246730922987
 30
0.0
 10
83.14341767669679
 20
-122.3510158656796
 30
0.0
  0
HATCH
  5
B5
330
B0
100
AcDbEntity
  8
_U+30EC_U+30A4_U+30E4_U+30FC 1
 62
   179
420
  2234388
100
AcDbHatch
 10
0.0
 20
0.0
 30
0.0
210
0.0
220
0.0
230
1.0
  2
SOLID
 70
     1
 71
     0
 91
        1
 92
        1
 93
        1
 72
     4
 94
        3
 73
     0
 74
     1
 95
       44
 96
       40
 40
0.0
 40
0.0
 40
0.0
 40
0.0
 40
1.0
 40
1.0
 40
1.0
 40
2.0
 40
2.0
 40
2.0
 40
3.0
 40
3.0
 40
3.0
 40
4.0
 40
4.0
 40
4.0
 40
5.0
 40
5.0
 40
5.0
 40
6.0
 40
6.0
 40
6.0
 40
7.0
 40
7.0
 40
7.0
 40
8.0
 40
8.0
 40
8.0
 40
9.0
 40
9.0
 40
9.0
 40
10.0
 40
10.0
 40
10.0
 40
11.0
 40
11.0
 40
11.0
 40
12.0
 40
12.0
 40
12.0
 40
13.0
 40
13.0
 40
13.0
 40
13.0
 10
83.14341767669679
 20
-122.3510158656796
 10
82.92551538725473
 20
-122.5096625127754
 10
82.83232555437873
 20
-122.5837320657082
 10
82.78374970803671
 20
-122.7275648022174
 10
82.78374970803671
 20
-122.7275648022174
 10
83.5621690329289
 20
-122.7275648022174
 10
83.5621690329289
 20
-122.7275648022174
 10
83.5621690329289
 20
-122.7275648022174
 10
83.5621690329289
 20
-122.932720238364
 10
83.5621690329289
 20
-122.932720238364
 10
83.5621690329289
 20
-122.932720238364
 10
82.53415254013035
 20
-122.932720238364
 10
82.53415254013035
 20
-122.932720238364
 10
82.56584741859466
 20
-122.5751193269951
 10
82.63147648758866
 20
-122.4969156594799
 10
83.01646590806533
 20
-122.1985703904573
 10
83.2724365026194
 20
-121.9997883809584
 10
83.33789331683914
 20
-121.9320922546732
 10
83.33789331683914
 20
-121.7946329448118
 10
83.33789331683914
 20
-121.6761216601192
 10
83.26606307597169
 20
-121.5450357769054
 10
83.06934812376392
 20
-121.5450357769054
 10
82.80907115985329
 20
-121.5450357769054
 10
82.80063067591443
 20
-121.7755126648686
 10
82.79632430655786
 20
-121.8919568922701
 10
82.79632430655786
 20
-121.8919568922701
 10
82.57222084524237
 20
-121.8919568922701
 10
82.57222084524237
 20
-121.8919568922701
 10
82.58066132918123
 20
-121.7650051236386
 10
82.59116887041124
 20
-121.6528672655937
 10
82.67161184999182
 20
-121.5343559809011
 10
82.7815103959713
 20
-121.3736422765142
 10
82.96771780694904
 20
-121.3397080859845
 10
83.08416203435048
 20
-121.3397080859845
 10
83.36131996613884
 20
-121.3397080859845
 10
83.56854245957662
 20
-121.5238484396711
 10
83.56854245957662
 20
-121.7967000021029
 10
83.56854245957662
 20
-122.025109832775
 10
83.45227048694943
 20
-122.1246730922987
 10
83.14341767669679
 20
-122.3510158656796
 97
        0
 97
        0
 75
     2
 76
     1
 98
        0
  0
ENDBLK
  5
B3
330
B0
100
AcDbEntity
  8
0
100
AcDbBlockEnd
  0
BLOCK
  5
C0
330
BE
100
AcDbEntity
  8
0
100
AcDbBlockBegin
  2
block 4
 70
     0
 10
0.0
 20
0.0
 30
0.0
  3
block 4
  1

  0
SPLINE
  5
C2
330
BE
100
AcDbEntity
  8
_U+30EC_U+30A4_U+30E4_U+30FC 1
370
     0
100
AcDbSpline
210
0.0
220
0.0
230
1.0
 70
    11
 71
     3
 72
    26
 73
    22
 74
     0
 42
0.0000000001
 43
0.0000000001
 12
1.0
 22
0.0
 32
0.0
 13
1.0
 23
0.0
 33
0.0
 40
0.0
 40
0.0
 40
0.0
 40
0.0
 40
1.0
 40
1.0
 40
1.0
 40
2.0
 40
2.0
 40
2.0
 40
3.0
 40
3.0
 40
3.0
 40
4.0
 40
4.0
 40
4.0
 40
5.0
 40
5.0
 40
5.0
 40
6.0
 40
6.0
 40
6.0
 40
7.0
 40
7.0
 40
7.0
 40
7.0
 10
88.31330021663696
 20
-122.932720238364
 30
0.0
 10
88.31330021663696
 20
-122.932720238364
 30
0.0
 10
88.31330021663696
 20
-121.8283948805672
 30
0.0
 10
88.31330021663696
 20
-121.8283948805672
 30
0.0
 10
88.31330021663696
 20
-121.8283948805672
 30
0.0
 10
87.98326006915002
 20
-121.8283948805672
 30
0.0
 10
87.98326006915002
 20
-121.8283948805672
 30
0.0
 10
87.98326006915002
 20
-121.8283948805672
 30
0.0
 10
87.98326006915002
 20
-121.6804280294757
 30
0.0
 10
87.98326006915002
 20
-121.6804280294757
 30
0.0
 10
88.3153672739281
 20
-121.6656141188892
 30
0.0
 10
88.36187606297898
 20
-121.5026611024368
 30
0.0
 10
88.39150388415213
 20
-121.3884561871008
 30
0.0
 10
88.39150388415213
 20
-121.3884561871008
 30
0.0
 10
88.53757593272672
 20
-121.3884561871008
 30
0.0
 10
88.53757593272672
 20
-121.3884561871008
 30
0.0
 10
88.53757593272672
 20
-121.3884561871008
 30
0.0
 10
88.53757593272672
 20
-122.932720238364
 30
0.0
 10
88.53757593272672
 20
-122.932720238364
 30
0.0
 10
88.53757593272672
 20
-122.932720238364
 30
0.0
 10
88.31330021663696
 20
-122.932720238364
 30
0.0
 10
88.31330021663696
 20
-122.932720238364
 30
0.0
  0
HATCH
  5
C3
330
BE
100
AcDbEntity
  8
_U+30EC_U+30A4_U+30E4_U+30FC 1
 62
   179
420
  2234388
100
AcDbHatch
 10
0.0
 20
0.0
 30
0.0
210
0.0
220
0.0
230
1.0
  2
SOLID
 70
     1
 71
     0
 91
        1
 92
        1
 93
        1
 72
     4
 94
        3
 73
     0
 74
     1
 95
       26
 96
       22
 40
0.0
 40
0.0
 40
0.0
 40
0.0
 40
1.0
 40
1.0
 40
1.0
 40
2.0
 40
2.0
 40
2.0
 40
3.0
 40
3.0
 40
3.0
 40
4.0
 40
4.0
 40
4.0
 40
5.0
 40
5.0
 40
5.0
 40
6.0
 40
6.0
 40
6.0
 40
7.0
 40
7.0
 40
7.0
 40
7.0
 10
88.31330021663696
 20
-122.932720238364
 10
88.31330021663696
 20
-122.932720238364
 10
88.31330021663696
 20
-121.8283948805672
 10
88.31330021663696
 20
-121.8283948805672
 10
88.31330021663696
 20
-121.8283948805672
 10
87.98326006915002
 20
-121.8283948805672
 10
87.98326006915002
 20
-121.8283948805672
 10
87.98326006915002
 20
-121.8283948805672
 10
87.98326006915002
 20
-121.6804280294757
 10
87.98326006915002
 20
-121.6804280294757
 10
88.3153672739281
 20
-121.6656141188892
 10
88.36187606297898
 20
-121.5026611024368
 10
88.39150388415213
 20
-121.3884561871008
 10
88.39150388415213
 20
-121.3884561871008
 10
88.53757593272672
 20
-121.3884561871008
 10
88.53757593272672
 20
-121.3884561871008
 10
88.53757593272672
 20
-121.3884561871008
 10
88.53757593272672
 20
-122.932720238364
 10
88.53757593272672
 20
-122.932720238364
 10
88.53757593272672
 20
-122.932720238364
 10
88.31330021663696
 20
-122.932720238364
 10
88.31330021663696
 20
-122.932720238364
 97
        0
 97
        0
 75
     2
 76
     1
 98
        0
  0
SPLINE
  5
C4
330
BE
100
AcDbEntity
  8
_U+30EC_U+30A4_U+30E4_U+30FC 1
370
     0
100
AcDbSpline
210
0.0
220
0.0
230
1.0
 70
    11
 71
     3
 72
    29
 73
    25
 74
     0
 42
0.0000000001
 43
0.0000000001
 12
1.0
 22
0.0
 32
0.0
 13
1.0
 23
0.0
 33
0.0
 40
0.0
 40
0.0
 40
0.0
 40
0.0
 40
1.0
 40
1.0
 40
1.0
 40
2.0
 40
2.0
 40
2.0
 40
3.0
 40
3.0
 40
3.0
 40
4.0
 40
4.0
 40
4.0
 40
5.0
 40
5.0
 40
5.0
 40
6.0
 40
6.0
 40
6.0
 40
7.0
 40
7.0
 40
7.0
 40
8.0
 40
8.0
 40
8.0
 40
8.0
 10
89.93680146406095
 20
-122.7549533113252
 30
0.0
 10
89.8286254658241
 20
-122.9644151168283
 30
0.0
 10
89.65533716291603
 20
-122.9835353967715
 30
0.0
 10
89.53889293551458
 20
-122.9835353967715
 30
0.0
 10
89.37800697635342
 20
-122.9835353967715
 30
0.0
 10
89.23641355190965
 20
-122.9370266077206
 30
0.0
 10
89.14132891651676
 20
-122.7549533113252
 30
0.0
 10
89.03763154241074
 20
-122.5603054164085
 30
0.0
 10
89.01833900769334
 20
-122.3234551017976
 30
0.0
 10
89.01833900769334
 20
-122.1605020853453
 30
0.0
 10
89.01833900769334
 20
-122.0166693488361
 30
0.0
 10
89.03556448511958
 20
-121.7650051236386
 30
0.0
 10
89.14132891651676
 20
-121.5660508593654
 30
0.0
 10
89.24916040520507
 20
-121.36296248051
 30
0.0
 10
89.41004636436624
 20
-121.3397080859845
 30
0.0
 10
89.53889293551458
 20
-121.3397080859845
 30
0.0
 10
89.6977118373846
 20
-121.3397080859845
 30
0.0
 10
89.84137231911953
 20
-121.3841498177442
 30
0.0
 10
89.93680146406095
 20
-121.5660508593654
 30
0.0
 10
90.03602021403614
 20
-121.7586316969909
 30
0.0
 10
90.05944686333584
 20
-121.987041527663
 30
0.0
 10
90.05944686333584
 20
-122.1605020853453
 30
0.0
 10
90.05944686333584
 20
-122.3318955857365
 30
0.0
 10
90.03808727132729
 20
-122.562544728474
 30
0.0
 10
89.93680146406095
 20
-122.7549533113252
 30
0.0
  0
SPLINE
  5
C5
330
BE
100
AcDbEntity
  8
_U+30EC_U+30A4_U+30E4_U+30FC 1
370
     0
100
AcDbSpline
210
0.0
220
0.0
230
1.0
 70
    11
 71
     3
 72
    17
 73
    13
 74
     0
 42
0.0000000001
 43
0.0000000001
 12
1.0
 22
0.0
 32
0.0
 13
1.0
 23
0.0
 33
0.0
 40
0.0
 40
0.0
 40
0.0
 40
0.0
 40
1.0
 40
1.0
 40
1.0
 40
2.0
 40
2.0
 40
2.0
 40
3.0
 40
3.0
 40
3.0
 40
4.0
 40
4.0
 40
4.0
 40
4.0
 10
89.53889293551458
 20
-121.53228892361
 30
0.0
 10
89.28912351283397
 20
-121.53228892361
 30
0.0
 10
89.2426147237831
 20
-121.815820282046
 30
0.0
 10
89.2426147237831
 20
-122.1605020853453
 30
0.0
 10
89.2426147237831
 20
-122.4800346916022
 30
0.0
 10
89.27878822637823
 20
-122.7888875018549
 30
0.0
 10
89.53889293551458
 20
-122.7888875018549
 30
0.0
 10
89.78659530090405
 20
-122.7888875018549
 30
0.0
 10
89.83517114724607
 20
-122.50742320071
 30
0.0
 10
89.83517114724607
 20
-122.1605020853453
 30
0.0
 10
89.83517114724607
 20
-121.8411417338626
 30
0.0
 10
89.7969305873598
 20
-121.53228892361
 30
0.0
 10
89.53889293551458
 20
-121.53228892361
 30
0.0
  0
HATCH
  5
C6
330
BE
100
AcDbEntity
  8
_U+30EC_U+30A4_U+30E4_U+30FC 1
 62
   179
420
  2234388
100
AcDbHatch
 10
0.0
 20
0.0
 30
0.0
210
0.0
220
0.0
230
1.0
  2
SOLID
 70
     1
 71
     0
 91
        2
 92
        1
 93
        1
 72
     4
 94
        3
 73
     0
 74
     1
 95
       29
 96
       25
 40
0.0
 40
0.0
 40
0.0
 40
0.0
 40
1.0
 40
1.0
 40
1.0
 40
2.0
 40
2.0
 40
2.0
 40
3.0
 40
3.0
 40
3.0
 40
4.0
 40
4.0
 40
4.0
 40
5.0
 40
5.0
 40
5.0
 40
6.0
 40
6.0
 40
6.0
 40
7.0
 40
7.0
 40
7.0
 40
8.0
 40
8.0
 40
8.0
 40
8.0
 10
89.93680146406095
 20
-122.7549533113252
 10
89.8286254658241
 20
-122.9644151168283
 10
89.65533716291603
 20
-122.9835353967715
 10
89.53889293551458
 20
-122.9835353967715
 10
89.37800697635342
 20
-122.9835353967715
 10
89.23641355190965
 20
-122.9370266077206
 10
89.14132891651676
 20
-122.7549533113252
 10
89.03763154241074
 20
-122.5603054164085
 10
89.01833900769334
 20
-122.3234551017976
 10
89.01833900769334
 20
-122.1605020853453
 10
89.01833900769334
 20
-122.0166693488361
 10
89.03556448511958
 20
-121.7650051236386
 10
89.14132891651676
 20
-121.5660508593654
 10
89.24916040520507
 20
-121.36296248051
 10
89.41004636436624
 20
-121.3397080859845
 10
89.53889293551458
 20
-121.3397080859845
 10
89.6977118373846
 20
-121.3397080859845
 10
89.84137231911953
 20
-121.3841498177442
 10
89.93680146406095
 20
-121.5660508593654
 10
90.03602021403614
 20
-121.7586316969909
 10
90.05944686333584
 20
-121.987041527663
 10
90.05944686333584
 20
-122.1605020853453
 10
90.05944686333584
 20
-122.3318955857365
 10
90.03808727132729
 20
-122.562544728474
 10
89.93680146406095
 20
-122.7549533113252
 97
        0
 97
        0
 92
        1
 93
        1
 72
     4
 94
        3
 73
     0
 74
     1
 95
       17
 96
       13
 40
0.0
 40
0.0
 40
0.0
 40
0.0
 40
1.0
 40
1.0
 40
1.0
 40
2.0
 40
2.0
 40
2.0
 40
3.0
 40
3.0
 40
3.0
 40
4.0
 40
4.0
 40
4.0
 40
4.0
 10
89.53889293551458
 20
-121.53228892361
 10
89.28912351283397
 20
-121.53228892361
 10
89.2426147237831
 20
-121.815820282046
 10
89.2426147237831
 20
-122.1605020853453
 10
89.2426147237831
 20
-122.4800346916022
 10
89.27878822637823
 20
-122.7888875018549
 10
89.53889293551458
 20
-122.7888875018549
 10
89.78659530090405
 20
-122.7888875018549
 10
89.83517114724607
 20
-122.50742320071
 10
89.83517114724607
 20
-122.1605020853453
 10
89.83517114724607
 20
-121.8411417338626
 10
89.7969305873598
 20
-121.53228892361
 10
89.53889293551458
 20
-121.53228892361
 97
        0
 97
        0
 75
     2
 76
     1
 98
        0
  0
ENDBLK
  5
C1
330
BE
100
AcDbEntity
  8
0
100
AcDbBlockEnd
  0
BLOCK
  5
D1
330
CF
100
AcDbEntity
  8
0
100
AcDbBlockBegin
  2
block 5
 70
     0
 10
0.0
 20
0.0
 30
0.0
  3
block 5
  1

  0
SPLINE
  5
D3
330
CF
100
AcDbEntity
  8
_U+30EC_U+30A4_U+30E4_U+30FC 1
370
     0
100
AcDbSpline
210
0.0
220
0.0
230
1.0
 70
    11
 71
     3
 72
    44
 73
    40
 74
     0
 42
0.0000000001
 43
0.0000000001
 12
1.0
 22
0.0
 32
0.0
 13
1.0
 23
0.0
 33
0.0
 40
0.0
 40
0.0
 40
0.0
 40
0.0
 40
1.0
 40
1.0
 40
1.0
 40
2.0
 40
2.0
 40
2.0
 40
3.0
 40
3.0
 40
3.0
 40
4.0
 40
4.0
 40
4.0
 40
5.0
 40
5.0
 40
5.0
 40
6.0
 40
6.0
 40
6.0
 40
7.0
 40
7.0
 40
7.0
 40
8.0
 40
8.0
 40
8.0
 40
9.0
 40
9.0
 40
9.0
 40
10.0
 40
10.0
 40
10.0
 40
11.0
 40
11.0
 40
11.0
 40
12.0
 40
12.0
 40
12.0
 40
13.0
 40
13.0
 40
13.0
 40
13.0
 10
95.14285750659623
 20
-122.3510158656796
 30
0.0
 10
94.92512747192845
 20
-122.5096625127754
 30
0.0
 10
94.8321098938267
 20
-122.5837320657082
 30
0.0
 10
94.78318953793615
 20
-122.7275648022174
 30
0.0
 10
94.78318953793615
 20
-122.7275648022174
 30
0.0
 10
95.56178111760262
 20
-122.7275648022174
 30
0.0
 10
95.56178111760262
 20
-122.7275648022174
 30
0.0
 10
95.56178111760262
 20
-122.7275648022174
 30
0.0
 10
95.56178111760262
 20
-122.932720238364
 30
0.0
 10
95.56178111760262
 20
-122.932720238364
 30
0.0
 10
95.56178111760262
 20
-122.932720238364
 30
0.0
 10
94.53376462480406
 20
-122.932720238364
 30
0.0
 10
94.53376462480406
 20
-122.932720238364
 30
0.0
 10
94.56545950326836
 20
-122.5751193269951
 30
0.0
 10
94.63091631748811
 20
-122.4969156594799
 30
0.0
 10
95.01607799273904
 20
-122.1985703904573
 30
0.0
 10
95.2720485872931
 20
-121.9997883809584
 30
0.0
 10
95.33750540151286
 20
-121.9320922546732
 30
0.0
 10
95.33750540151286
 20
-121.7946329448118
 30
0.0
 10
95.33750540151286
 20
-121.6761216601192
 30
0.0
 10
95.26550290587113
 20
-121.5450357769054
 30
0.0
 10
95.06878795366336
 20
-121.5450357769054
 30
0.0
 10
94.808683244527
 20
-121.5450357769054
 30
0.0
 10
94.80007050581388
 20
-121.7755126648686
 30
0.0
 10
94.79593639123158
 20
-121.8919568922701
 30
0.0
 10
94.79593639123158
 20
-121.8919568922701
 30
0.0
 10
94.57166067514181
 20
-121.8919568922701
 30
0.0
 10
94.57166067514181
 20
-121.8919568922701
 30
0.0
 10
94.58027341385494
 20
-121.7650051236386
 30
0.0
 10
94.59095320985921
 20
-121.6528672655937
 30
0.0
 10
94.67122393466553
 20
-121.5343559809011
 30
0.0
 10
94.781122480645
 20
-121.3736422765142
 30
0.0
 10
94.96750214639702
 20
-121.3397080859845
 30
0.0
 10
95.08360186424994
 20
-121.3397080859845
 30
0.0
 10
95.36093205081255
 20
-121.3397080859845
 30
0.0
 10
95.56832679902459
 20
-121.5238484396711
 30
0.0
 10
95.56832679902459
 20
-121.7967000021029
 30
0.0
 10
95.56832679902459
 20
-122.025109832775
 30
0.0
 10
95.45188257162314
 20
-122.1246730922987
 30
0.0
 10
95.14285750659623
 20
-122.3510158656796
 30
0.0
  0
HATCH
  5
D4
330
CF
100
AcDbEntity
  8
_U+30EC_U+30A4_U+30E4_U+30FC 1
 62
   179
420
  2234388
100
AcDbHatch
 10
0.0
 20
0.0
 30
0.0
210
0.0
220
0.0
230
1.0
  2
SOLID
 70
     1
 71
     0
 91
        1
 92
        1
 93
        1
 72
     4
 94
        3
 73
     0
 74
     1
 95
       44
 96
       40
 40
0.0
 40
0.0
 40
0.0
 40
0.0
 40
1.0
 40
1.0
 40
1.0
 40
2.0
 40
2.0
 40
2.0
 40
3.0
 40
3.0
 40
3.0
 40
4.0
 40
4.0
 40
4.0
 40
5.0
 40
5.0
 40
5.0
 40
6.0
 40
6.0
 40
6.0
 40
7.0
 40
7.0
 40
7.0
 40
8.0
 40
8.0
 40
8.0
 40
9.0
 40
9.0
 40
9.0
 40
10.0
 40
10.0
 40
10.0
 40
11.0
 40
11.0
 40
11.0
 40
12.0
 40
12.0
 40
12.0
 40
13.0
 40
13.0
 40
13.0
 40
13.0
 10
95.14285750659623
 20
-122.3510158656796
 10
94.92512747192845
 20
-122.5096625127754
 10
94.8321098938267
 20
-122.5837320657082
 10
94.78318953793615
 20
-122.7275648022174
 10
94.78318953793615
 20
-122.7275648022174
 10
95.56178111760262
 20
-122.7275648022174
 10
95.56178111760262
 20
-122.7275648022174
 10
95.56178111760262
 20
-122.7275648022174
 10
95.56178111760262
 20
-122.932720238364
 10
95.56178111760262
 20
-122.932720238364
 10
95.56178111760262
 20
-122.932720238364
 10
94.53376462480406
 20
-122.932720238364
 10
94.53376462480406
 20
-122.932720238364
 10
94.56545950326836
 20
-122.5751193269951
 10
94.63091631748811
 20
-122.4969156594799
 10
95.01607799273904
 20
-122.1985703904573
 10
95.2720485872931
 20
-121.9997883809584
 10
95.33750540151286
 20
-121.9320922546732
 10
95.33750540151286
 20
-121.7946329448118
 10
95.33750540151286
 20
-121.6761216601192
 10
95.26550290587113
 20
-121.5450357769054
 10
95.06878795366336
 20
-121.5450357769054
 10
94.808683244527
 20
-121.5450357769054
 10
94.80007050581388
 20
-121.7755126648686
 10
94.79593639123158
 20
-121.8919568922701
 10
94.79593639123158
 20
-121.8919568922701
 10
94.57166067514181
 20
-121.8919568922701
 10
94.57166067514181
 20
-121.8919568922701
 10
94.58027341385494
 20
-121.7650051236386
 10
94.59095320985921
 20
-121.6528672655937
 10
94.67122393466553
 20
-121.5343559809011
 10
94.781122480645
 20
-121.3736422765142
 10
94.96750214639702
 20
-121.3397080859845
 10
95.08360186424994
 20
-121.3397080859845
 10
95.36093205081255
 20
-121.3397080859845
 10
95.56832679902459
 20
-121.5238484396711
 10
95.56832679902459
 20
-121.7967000021029
 10
95.56832679902459
 20
-122.025109832775
 10
95.45188257162314
 20
-122.1246730922987
 10
95.14285750659623
 20
-122.3510158656796
 97
        0
 97
        0
 75
     2
 76
     1
 98
        0
  0
ENDBLK
  5
D2
330
CF
100
AcDbEntity
  8
0
100
AcDbBlockEnd
  0
BLOCK
  5
E1
330
DF
100
AcDbEntity
  8
0
100
AcDbBlockBegin
  2
block 6
 70
     0
 10
0.0
 20
0.0
 30
0.0
  3
block 6
  1

  0
SPLINE
  5
E3
330
DF
100
AcDbEntity
  8
_U+30EC_U+30A4_U+30E4_U+30FC 1
370
     0
100
AcDbSpline
210
0.0
220
0.0
230
1.0
 70
    11
 71
     3
 72
    26
 73
    22
 74
     0
 42
0.0000000001
 43
0.0000000001
 12
1.0
 22
0.0
 32
0.0
 13
1.0
 23
0.0
 33
0.0
 40
0.0
 40
0.0
 40
0.0
 40
0.0
 40
1.0
 40
1.0
 40
1.0
 40
2.0
 40
2.0
 40
2.0
 40
3.0
 40
3.0
 40
3.0
 40
4.0
 40
4.0
 40
4.0
 40
5.0
 40
5.0
 40
5.0
 40
6.0
 40
6.0
 40
6.0
 40
7.0
 40
7.0
 40
7.0
 40
7.0
 10
86.59902070317663
 20
-132.6282524625027
 30
0.0
 10
86.59902070317663
 20
-132.6282524625027
 30
0.0
 10
86.59902070317663
 20
-131.5240993594801
 30
0.0
 10
86.59902070317663
 20
-131.5240993594801
 30
0.0
 10
86.59902070317663
 20
-131.5240993594801
 30
0.0
 10
86.26898055568971
 20
-131.5240993594801
 30
0.0
 10
86.26898055568971
 20
-131.5240993594801
 30
0.0
 10
86.26898055568971
 20
-131.5240993594801
 30
0.0
 10
86.26898055568971
 20
-131.3759602536144
 30
0.0
 10
86.26898055568971
 20
-131.3759602536144
 30
0.0
 10
86.60143227001632
 20
-131.3611463430278
 30
0.0
 10
86.64794105906718
 20
-131.1981933265754
 30
0.0
 10
86.67756888024033
 20
-131.0841606660137
 30
0.0
 10
86.67756888024033
 20
-131.0841606660137
 30
0.0
 10
86.8232964192664
 20
-131.0841606660137
 30
0.0
 10
86.8232964192664
 20
-131.0841606660137
 30
0.0
 10
86.8232964192664
 20
-131.0841606660137
 30
0.0
 10
86.8232964192664
 20
-132.6282524625027
 30
0.0
 10
86.8232964192664
 20
-132.6282524625027
 30
0.0
 10
86.8232964192664
 20
-132.6282524625027
 30
0.0
 10
86.59902070317663
 20
-132.6282524625027
 30
0.0
 10
86.59902070317663
 20
-132.6282524625027
 30
0.0
  0
HATCH
  5
E4
330
DF
100
AcDbEntity
  8
_U+30EC_U+30A4_U+30E4_U+30FC 1
 62
   179
420
  2234388
100
AcDbHatch
 10
0.0
 20
0.0
 30
0.0
210
0.0
220
0.0
230
1.0
  2
SOLID
 70
     1
 71
     0
 91
        1
 92
        1
 93
        1
 72
     4
 94
        3
 73
     0
 74
     1
 95
       26
 96
       22
 40
0.0
 40
0.0
 40
0.0
 40
0.0
 40
1.0
 40
1.0
 40
1.0
 40
2.0
 40
2.0
 40
2.0
 40
3.0
 40
3.0
 40
3.0
 40
4.0
 40
4.0
 40
4.0
 40
5.0
 40
5.0
 40
5.0
 40
6.0
 40
6.0
 40
6.0
 40
7.0
 40
7.0
 40
7.0
 40
7.0
 10
86.59902070317663
 20
-132.6282524625027
 10
86.59902070317663
 20
-132.6282524625027
 10
86.59902070317663
 20
-131.5240993594801
 10
86.59902070317663
 20
-131.5240993594801
 10
86.59902070317663
 20
-131.5240993594801
 10
86.26898055568971
 20
-131.5240993594801
 10
86.26898055568971
 20
-131.5240993594801
 10
86.26898055568971
 20
-131.5240993594801
 10
86.26898055568971
 20
-131.3759602536144
 10
86.26898055568971
 20
-131.3759602536144
 10
86.60143227001632
 20
-131.3611463430278
 10
86.64794105906718
 20
-131.1981933265754
 10
86.67756888024033
 20
-131.0841606660137
 10
86.67756888024033
 20
-131.0841606660137
 10
86.8232964192664
 20
-131.0841606660137
 10
86.8232964192664
 20
-131.0841606660137
 10
86.8232964192664
 20
-131.0841606660137
 10
86.8232964192664
 20
-132.6282524625027
 10
86.8232964192664
 20
-132.6282524625027
 10
86.8232964192664
 20
-132.6282524625027
 10
86.59902070317663
 20
-132.6282524625027
 10
86.59902070317663
 20
-132.6282524625027
 97
        0
 97
        0
 75
     2
 76
     1
 98
        0
  0
ENDBLK
  5
E2
330
DF
100
AcDbEntity
  8
0
100
AcDbBlockEnd
  0
ENDSEC
  0
SECTION
  2
ENTITIES
  0
POLYLINE
  5
41
330
1F
100
AcDbEntity
  8
_U+30EC_U+30A4_U+30E4_U+30FC 1
370
     0
100
AcDb2dPolyline
 66
     1
 10
0.0
 20
0.0
 30
0.0
  0
VERTEX
  5
42
330
41
100
AcDbEntity
  8
_U+30EC_U+30A4_U+30E4_U+30FC 1
370
     0
100
AcDbVertex
100
AcDb2dVertex
 10
94.05005926724975
 20
-137.0789669101745
 30
0.0
  0
VERTEX
  5
43
330
41
100
AcDbEntity
  8
_U+30EC_U+30A4_U+30E4_U+30FC 1
370
     0
100
AcDbVertex
100
AcDb2dVertex
 10
84.05001109009875
 20
-137.0789669101745
 30
0.0
  0
VERTEX
  5
44
330
41
100
AcDbEntity
  8
_U+30EC_U+30A4_U+30E4_U+30FC 1
370
     0
100
AcDbVertex
100
AcDb2dVertex
 10
84.05001109009875
 20
-127.5789435792163
 30
0.0
  0
VERTEX
  5
45
330
41
100
AcDbEntity
  8
_U+30EC_U+30A4_U+30E4_U+30FC 1
370
     0
100
AcDbVertex
100
AcDb2dVertex
 10
82.05011386837623
 20
-127.5789435792163
 30
0.0
  0
VERTEX
  5
46
330
41
100
AcDbEntity
  8
_U+30EC_U+30A4_U+30E4_U+30FC 1
370
     0
100
AcDbVertex
100
AcDb2dVertex
 10
82.05011386837623
 20
-128.5787158011885
 30
0.0
  0
VERTEX
  5
47
330
41
100
AcDbEntity
  8
_U+30EC_U+30A4_U+30E4_U+30FC 1
370
     0
100
AcDbVertex
100
AcDb2dVertex
 10
83.05006038121644
 20
-128.5787158011885
 30
0.0
  0
VERTEX
  5
48
330
41
100
AcDbEntity
  8
_U+30EC_U+30A4_U+30E4_U+30FC 1
370
     0
100
AcDbVertex
100
AcDb2dVertex
 10
83.05006038121644
 20
-137.9788324655054
 30
0.0
  0
VERTEX
  5
49
330
41
100
AcDbEntity
  8
_U+30EC_U+30A4_U+30E4_U+30FC 1
370
     0
100
AcDbVertex
100
AcDb2dVertex
 10
95.05018424173444
 20
-137.9788324655054
 30
0.0
  0
VERTEX
  5
4A
330
41
100
AcDbEntity
  8
_U+30EC_U+30A4_U+30E4_U+30FC 1
370
     0
100
AcDbVertex
100
AcDb2dVertex
 10
95.05018424173444
 20
-128.5787158011885
 30
0.0
  0
VERTEX
  5
4B
330
41
100
AcDbEntity
  8
_U+30EC_U+30A4_U+30E4_U+30FC 1
370
     0
100
AcDbVertex
100
AcDb2dVertex
 10
96.04995643845035
 20
-128.5787158011885
 30
0.0
  0
VERTEX
  5
4C
330
41
100
AcDbEntity
  8
_U+30EC_U+30A4_U+30E4_U+30FC 1
370
     0
100
AcDbVertex
100
AcDb2dVertex
 10
96.04995643845035
 20
-127.5789435792163
 30
0.0
  0
VERTEX
  5
4D
330
41
100
AcDbEntity
  8
_U+30EC_U+30A4_U+30E4_U+30FC 1
370
     0
100
AcDbVertex
100
AcDb2dVertex
 10
94.05005926724975
 20
-127.5789435792163
 30
0.0
  0
VERTEX
  5
4E
330
41
100
AcDbEntity
  8
_U+30EC_U+30A4_U+30E4_U+30FC 1
370
     0
100
AcDbVertex
100
AcDb2dVertex
 10
94.05005926724975
 20
-137.0789669101745
 30
0.0
  0
SEQEND
  5
50
330
41
100
AcDbEntity
  8
_U+30EC_U+30A4_U+30E4_U+30FC 1
370
     0
  0
HATCH
  5
4F
330
1F
100
AcDbEntity
  8
_U+30EC_U+30A4_U+30E4_U+30FC 1
 62
   253
420
 11711154
100
AcDbHatch
 10
0.0
 20
0.0
 30
0.0
210
0.0
220
0.0
230
1.0
  2
SOLID
 70
     1
 71
     0
 91
        1
 92
        1
 93
       12
 72
     1
 10
94.05005926724975
 20
-137.0789669101745
 11
84.05001109009875
 21
-137.0789669101745
 72
     1
 10
84.05001109009875
 20
-137.0789669101745
 11
84.05001109009875
 21
-127.5789435792163
 72
     1
 10
84.05001109009875
 20
-127.5789435792163
 11
82.05011386837623
 21
-127.5789435792163
 72
     1
 10
82.05011386837623
 20
-127.5789435792163
 11
82.05011386837623
 21
-128.5787158011885
 72
     1
 10
82.05011386837623
 20
-128.5787158011885
 11
83.05006038121644
 21
-128.5787158011885
 72
     1
 10
83.05006038121644
 20
-128.5787158011885
 11
83.05006038121644
 21
-137.9788324655054
 72
     1
 10
83.05006038121644
 20
-137.9788324655054
 11
95.05018424173444
 21
-137.9788324655054
 72
     1
 10
95.05018424173444
 20
-137.9788324655054
 11
95.05018424173444
 21
-128.5787158011885
 72
     1
 10
95.05018424173444
 20
-128.5787158011885
 11
96.04995643845035
 21
-128.5787158011885
 72
     1
 10
96.04995643845035
 20
-128.5787158011885
 11
96.04995643845035
 21
-127.5789435792163
 72
     1
 10
96.04995643845035
 20
-127.5789435792163
 11
94.05005926724975
 21
-127.5789435792163
 72
     1
 10
94.05005926724975
 20
-127.5789435792163
 11
94.05005926724975
 21
-137.0789669101745
 97
        0
 75
     2
 76
     1
 98
        0
  0
POLYLINE
  5
51
330
1F
100
AcDbEntity
  8
_U+30EC_U+30A4_U+30E4_U+30FC 1
 62
   179
420
  2234388
370
    25
100
AcDb2dPolyline
 66
     1
 10
0.0
 20
0.0
 30
0.0
  0
VERTEX
  5
52
330
51
100
AcDbEntity
  8
_U+30EC_U+30A4_U+30E4_U+30FC 1
 62
   179
420
  2234388
370
    25
100
AcDbVertex
100
AcDb2dVertex
 10
83.05006038121644
 20
-137.9788324655054
 30
0.0
  0
VERTEX
  5
53
330
51
100
AcDbEntity
  8
_U+30EC_U+30A4_U+30E4_U+30FC 1
 62
   179
420
  2234388
370
    25
100
AcDbVertex
100
AcDb2dVertex
 10
95.05018424173444
 20
-137.9788324655054
 30
0.0
  0
SEQEND
  5
54
330
51
100
AcDbEntity
  8
_U+30EC_U+30A4_U+30E4_U+30FC 1
 62
   179
420
  2234388
370
    25
  0
POLYLINE
  5
55
330
1F
100
AcDbEntity
  8
_U+30EC_U+30A4_U+30E4_U+30FC 1
 62
   179
420
  2234388
370
    25
100
AcDb2dPolyline
 66
     1
 10
0.0
 20
0.0
 30
0.0
  0
VERTEX
  5
56
330
55
100
AcDbEntity
  8
_U+30EC_U+30A4_U+30E4_U+30FC 1
 62
   179
420
  2234388
370
    25
100
AcDbVertex
100
AcDb2dVertex
 10
95.05018424173444
 20
-128.5787158011885
 30
0.0
  0
VERTEX
  5
57
330
55
100
AcDbEntity
  8
_U+30EC_U+30A4_U+30E4_U+30FC 1
 62
   179
420
  2234388
370
    25
100
AcDbVertex
100
AcDb2dVertex
 10
95.05018424173444
 20
-137.9788324655054
 30
0.0
  0
SEQEND
  5
58
330
55
100
AcDbEntity
  8
_U+30EC_U+30A4_U+30E4_U+30FC 1
 62
   179
420
  2234388
370
    25
  0
POLYLINE
  5
59
330
1F
100
AcDbEntity
  8
_U+30EC_U+30A4_U+30E4_U+30FC 1
 62
   179
420
  2234388
370
    25
100
AcDb2dPolyline
 66
     1
 10
0.0
 20
0.0
 30
0.0
  0
VERTEX
  5
5A
330
59
100
AcDbEntity
  8
_U+30EC_U+30A4_U+30E4_U+30FC 1
 62
   179
420
  2234388
370
    25
100
AcDbVertex
100
AcDb2dVertex
 10
83.05006038121644
 20
-128.5787158011885
 30
0.0
  0
VERTEX
  5
5B
330
59
100
AcDbEntity
  8
_U+30EC_U+30A4_U+30E4_U+30FC 1
 62
   179
420
  2234388
370
    25
100
AcDbVertex
100
AcDb2dVertex
 10
83.05006038121644
 20
-137.9788324655054
 30
0.0
  0
SEQEND
  5
5C
330
59
100
AcDbEntity
  8
_U+30EC_U+30A4_U+30E4_U+30FC 1
 62
   179
420
  2234388
370
    25
  0
POLYLINE
  5
5D
330
1F
100
AcDbEntity
  8
_U+30EC_U+30A4_U+30E4_U+30FC 1
 62
   179
420
  2234388
370
    25
100
AcDb2dPolyline
 66
     1
 10
0.0
 20
0.0
 30
0.0
  0
VERTEX
  5
5E
330
5D
100
AcDbEntity
  8
_U+30EC_U+30A4_U+30E4_U+30FC 1
 62
   179
420
  2234388
370
    25
100
AcDbVertex
100
AcDb2dVertex
 10
84.05001109009875
 20
-127.5789435792163
 30
0.0
  0
VERTEX
  5
5F
330
5D
100
AcDbEntity
  8
_U+30EC_U+30A4_U+30E4_U+30FC 1
 62
   179
420
  2234388
370
    25
100
AcDbVertex
100
AcDb2dVertex
 10
84.05001109009875
 20
-137.0789669101745
 30
0.0
  0
SEQEND
  5
60
330
5D
100
AcDbEntity
  8
_U+30EC_U+30A4_U+30E4_U+30FC 1
 62
   179
420
  2234388
370
    25
  0
POLYLINE
  5
61
330
1F
100
AcDbEntity
  8
_U+30EC_U+30A4_U+30E4_U+30FC 1
 62
   179
420
  2234388
370
    25
100
AcDb2dPolyline
 66
     1
 10
0.0
 20
0.0
 30
0.0
  0
VERTEX
  5
62
330
61
100
AcDbEntity
  8
_U+30EC_U+30A4_U+30E4_U+30FC 1
 62
   179
420
  2234388
370
    25
100
AcDbVertex
100
AcDb2dVertex
 10
84.05001109009875
 20
-137.0789669101745
 30
0.0
  0
VERTEX
  5
63
330
61
100
AcDbEntity
  8
_U+30EC_U+30A4_U+30E4_U+30FC 1
 62
   179
420
  2234388
370
    25
100
AcDbVertex
100
AcDb2dVertex
 10
94.05005926724975
 20
-137.0789669101745
 30
0.0
  0
SEQEND
  5
64
330
61
100
AcDbEntity
  8
_U+30EC_U+30A4_U+30E4_U+30FC 1
 62
   179
420
  2234388
370
    25
  0
POLYLINE
  5
65
330
1F
100
AcDbEntity
  8
_U+30EC_U+30A4_U+30E4_U+30FC 1
 62
   179
420
  2234388
370
    25
100
AcDb2dPolyline
 66
     1
 10
0.0
 20
0.0
 30
0.0
  0
VERTEX
  5
66
330
65
100
AcDbEntity
  8
_U+30EC_U+30A4_U+30E4_U+30FC 1
 62
   179
420
  2234388
370
    25
100
AcDbVertex
100
AcDb2dVertex
 10
94.05005926724975
 20
-127.5789435792163
 30
0.0
  0
VERTEX
  5
67
330
65
100
AcDbEntity
  8
_U+30EC_U+30A4_U+30E4_U+30FC 1
 62
   179
420
  2234388
370
    25
100
AcDbVertex
100
AcDb2dVertex
 10
94.05005926724975
 20
-137.0789669101745
 30
0.0
  0
SEQEND
  5
68
330
65
100
AcDbEntity
  8
_U+30EC_U+30A4_U+30E4_U+30FC 1
 62
   179
420
  2234388
370
    25
  0
POLYLINE
  5
69
330
1F
100
AcDbEntity
  8
_U+30EC_U+30A4_U+30E4_U+30FC 1
 62
   179
420
  2234388
370
    25
100
AcDb2dPolyline
 66
     1
 10
0.0
 20
0.0
 30
0.0
  0
VERTEX
  5
6A
330
69
100
AcDbEntity
  8
_U+30EC_U+30A4_U+30E4_U+30FC 1
 62
   179
420
  2234388
370
    25
100
AcDbVertex
100
AcDb2dVertex
 10
95.05018424173444
 20
-128.5787158011885
 30
0.0
  0
VERTEX
  5
6B
330
69
100
AcDbEntity
  8
_U+30EC_U+30A4_U+30E4_U+30FC 1
 62
   179
420
  2234388
370
    25
100
AcDbVertex
100
AcDb2dVertex
 10
96.04995643845035
 20
-128.5787158011885
 30
0.0
  0
SEQEND
  5
6C
330
69
100
AcDbEntity
  8
_U+30EC_U+30A4_U+30E4_U+30FC 1
 62
   179
420
  2234388
370
    25
  0
POLYLINE
  5
6D
330
1F
100
AcDbEntity
  8
_U+30EC_U+30A4_U+30E4_U+30FC 1
 62
   179
420
  2234388
370
    25
100
AcDb2dPolyline
 66
     1
 10
0.0
 20
0.0
 30
0.0
  0
VERTEX
  5
6E
330
6D
100
AcDbEntity
  8
_U+30EC_U+30A4_U+30E4_U+30FC 1
 62
   179
420
  2234388
370
    25
100
AcDbVertex
100
AcDb2dVertex
 10
96.04995643845035
 20
-127.5789435792163
 30
0.0
  0
VERTEX
  5
6F
330
6D
100
AcDbEntity
  8
_U+30EC_U+30A4_U+30E4_U+30FC 1
 62
   179
420
  2234388
370
    25
100
AcDbVertex
100
AcDb2dVertex
 10
96.04995643845035
 20
-128.5787158011885
 30
0.0
  0
SEQEND
  5
70
330
6D
100
AcDbEntity
  8
_U+30EC_U+30A4_U+30E4_U+30FC 1
 62
   179
420
  2234388
370
    25
  0
POLYLINE
  5
71
330
1F
100
AcDbEntity
  8
_U+30EC_U+30A4_U+30E4_U+30FC 1
 62
   179
420
  2234388
370
    25
100
AcDb2dPolyline
 66
     1
 10
0.0
 20
0.0
 30
0.0
  0
VERTEX
  5
72
330
71
100
AcDbEntity
  8
_U+30EC_U+30A4_U+30E4_U+30FC 1
 62
   179
420
  2234388
370
    25
100
AcDbVertex
100
AcDb2dVertex
 10
94.05005926724975
 20
-127.5789435792163
 30
0.0
  0
VERTEX
  5
73
330
71
100
AcDbEntity
  8
_U+30EC_U+30A4_U+30E4_U+30FC 1
 62
   179
420
  2234388
370
    25
100
AcDbVertex
100
AcDb2dVertex
 10
96.04995643845035
 20
-127.5789435792163
 30
0.0
  0
SEQEND
  5
74
330
71
100
AcDbEntity
  8
_U+30EC_U+30A4_U+30E4_U+30FC 1
 62
   179
420
  2234388
370
    25
  0
POLYLINE
  5
75
330
1F
100
AcDbEntity
  8
_U+30EC_U+30A4_U+30E4_U+30FC 1
 62
   179
420
  2234388
370
    25
100
AcDb2dPolyline
 66
     1
 10
0.0
 20
0.0
 30
0.0
  0
VERTEX
  5
76
330
75
100
AcDbEntity
  8
_U+30EC_U+30A4_U+30E4_U+30FC 1
 62
   179
420
  2234388
370
    25
100
AcDbVertex
100
AcDb2dVertex
 10
82.05011386837623
 20
-127.5789435792163
 30
0.0
  0
VERTEX
  5
77
330
75
100
AcDbEntity
  8
_U+30EC_U+30A4_U+30E4_U+30FC 1
 62
   179
420
  2234388
370
    25
100
AcDbVertex
100
AcDb2dVertex
 10
82.05011386837623
 20
-128.5787158011885
 30
0.0
  0
SEQEND
  5
78
330
75
100
AcDbEntity
  8
_U+30EC_U+30A4_U+30E4_U+30FC 1
 62
   179
420
  2234388
370
    25
  0
POLYLINE
  5
79
330
1F
100
AcDbEntity
  8
_U+30EC_U+30A4_U+30E4_U+30FC 1
 62
   179
420
  2234388
370
    25
100
AcDb2dPolyline
 66
     1
 10
0.0
 20
0.0
 30
0.0
  0
VERTEX
  5
7A
330
79
100
AcDbEntity
  8
_U+30EC_U+30A4_U+30E4_U+30FC 1
 62
   179
420
  2234388
370
    25
100
AcDbVertex
100
AcDb2dVertex
 10
82.05011386837623
 20
-128.5787158011885
 30
0.0
  0
VERTEX
  5
7B
330
79
100
AcDbEntity
  8
_U+30EC_U+30A4_U+30E4_U+30FC 1
 62
   179
420
  2234388
370
    25
100
AcDbVertex
100
AcDb2dVertex
 10
83.05006038121644
 20
-128.5787158011885
 30
0.0
  0
SEQEND
  5
7C
330
79
100
AcDbEntity
  8
_U+30EC_U+30A4_U+30E4_U+30FC 1
 62
   179
420
  2234388
370
    25
  0
POLYLINE
  5
7D
330
1F
100
AcDbEntity
  8
_U+30EC_U+30A4_U+30E4_U+30FC 1
 62
   179
420
  2234388
370
    25
100
AcDb2dPolyline
 66
     1
 10
0.0
 20
0.0
 30
0.0
  0
VERTEX
  5
7E
330
7D
100
AcDbEntity
  8
_U+30EC_U+30A4_U+30E4_U+30FC 1
 62
   179
420
  2234388
370
    25
100
AcDbVertex
100
AcDb2dVertex
 10
82.05011386837623
 20
-127.5789435792163
 30
0.0
  0
VERTEX
  5
7F
330
7D
100
AcDbEntity
  8
_U+30EC_U+30A4_U+30E4_U+30FC 1
 62
   179
420
  2234388
370
    25
100
AcDbVertex
100
AcDb2dVertex
 10
84.05001109009875
 20
-127.5789435792163
 30
0.0
  0
SEQEND
  5
80
330
7D
100
AcDbEntity
  8
_U+30EC_U+30A4_U+30E4_U+30FC 1
 62
   179
420
  2234388
370
    25
  0
SPLINE
  5
81
330
1F
100
AcDbEntity
  8
_U+30EC_U+30A4_U+30E4_U+30FC 1
 62
   179
420
  2234388
370
     9
100
AcDbSpline
210
0.0
220
0.0
230
1.0
 70
    11
 71
     3
 72
    17
 73
    13
 74
     0
 42
0.0000000001
 43
0.0000000001
 12
1.0
 22
0.0
 32
0.0
 13
1.0
 23
0.0
 33
0.0
 40
0.0
 40
0.0
 40
0.0
 40
0.0
 40
1.0
 40
1.0
 40
1.0
 40
2.0
 40
2.0
 40
2.0
 40
3.0
 40
3.0
 40
3.0
 40
4.0
 40
4.0
 40
4.0
 40
4.0
 10
82.15001845973399
 20
-123.5791844135498
 30
0.0
 10
82.15001845973399
 20
-123.5240805246745
 30
0.0
 10
82.1053920719836
 20
-123.4792777469081
 30
0.0
 10
82.05011386837623
 20
-123.4792777469081
 30
0.0
 10
81.99483151924868
 20
-123.4792777469081
 30
0.0
 10
81.95002874261392
 20
-123.5240805246745
 30
0.0
 10
81.95002874261392
 20
-123.5791844135498
 30
0.0
 10
81.95002874261392
 20
-123.6343235802025
 30
0.0
 10
81.99483151924868
 20
-123.6790910801914
 30
0.0
 10
82.05011386837623
 20
-123.6790910801914
 30
0.0
 10
82.1053920719836
 20
-123.6790910801914
 30
0.0
 10
82.15001845973399
 20
-123.6343235802025
 30
0.0
 10
82.15001845973399
 20
-123.5791844135498
 30
0.0
  0
SPLINE
  5
82
330
1F
100
AcDbEntity
  8
_U+30EC_U+30A4_U+30E4_U+30FC 1
 62
   179
420
  2234388
370
     9
100
AcDbSpline
210
0.0
220
0.0
230
1.0
 70
    11
 71
     3
 72
    17
 73
    13
 74
     0
 42
0.0000000001
 43
0.0000000001
 12
1.0
 22
0.0
 32
0.0
 13
1.0
 23
0.0
 33
0.0
 40
0.0
 40
0.0
 40
0.0
 40
0.0
 40
1.0
 40
1.0
 40
1.0
 40
2.0
 40
2.0
 40
2.0
 40
3.0
 40
3.0
 40
3.0
 40
4.0
 40
4.0
 40
4.0
 40
4.0
 10
84.15023313092648
 20
-123.5791844135498
 30
0.0
 10
84.15023313092648
 20
-123.5240805246745
 30
0.0
 10
84.10546563206859
 20
-123.4792777469081
 30
0.0
 10
84.05001109009875
 20
-123.4792777469081
 30
0.0
 10
83.99486980155679
 20
-123.4792777469081
 30
0.0
 10
83.95010230269891
 20
-123.5240805246745
 30
0.0
 10
83.95010230269891
 20
-123.5791844135498
 30
0.0
 10
83.95010230269891
 20
-123.6343235802025
 30
0.0
 10
83.99486980155679
 20
-123.6790910801914
 30
0.0
 10
84.05001109009875
 20
-123.6790910801914
 30
0.0
 10
84.10546563206859
 20
-123.6790910801914
 30
0.0
 10
84.15023313092648
 20
-123.6343235802025
 30
0.0
 10
84.15023313092648
 20
-123.5791844135498
 30
0.0
  0
SPLINE
  5
83
330
1F
100
AcDbEntity
  8
_U+30EC_U+30A4_U+30E4_U+30FC 1
 62
   179
420
  2234388
370
     9
100
AcDbSpline
210
0.0
220
0.0
230
1.0
 70
    11
 71
     3
 72
    17
 73
    13
 74
     0
 42
0.0000000001
 43
0.0000000001
 12
1.0
 22
0.0
 32
0.0
 13
1.0
 23
0.0
 33
0.0
 40
0.0
 40
0.0
 40
0.0
 40
0.0
 40
1.0
 40
1.0
 40
1.0
 40
2.0
 40
2.0
 40
2.0
 40
3.0
 40
3.0
 40
3.0
 40
4.0
 40
4.0
 40
4.0
 40
4.0
 10
94.15031870913637
 20
-123.5791844135498
 30
0.0
 10
94.15031870913637
 20
-123.5240805246745
 30
0.0
 10
94.10555121027848
 20
-123.4792777469081
 30
0.0
 10
94.05041204501853
 20
-123.4792777469081
 30
0.0
 10
93.99460260199791
 20
-123.4792777469081
 30
0.0
 10
93.94983510314002
 20
-123.5240805246745
 30
0.0
 10
93.94983510314002
 20
-123.5791844135498
 30
0.0
 10
93.94983510314002
 20
-123.6343235802025
 30
0.0
 10
93.99460260199791
 20
-123.6790910801914
 30
0.0
 10
94.05041204501853
 20
-123.6790910801914
 30
0.0
 10
94.10555121027848
 20
-123.6790910801914
 30
0.0
 10
94.15031870913637
 20
-123.6343235802025
 30
0.0
 10
94.15031870913637
 20
-123.5791844135498
 30
0.0
  0
SPLINE
  5
84
330
1F
100
AcDbEntity
  8
_U+30EC_U+30A4_U+30E4_U+30FC 1
 62
   179
420
  2234388
370
     9
100
AcDbSpline
210
0.0
220
0.0
230
1.0
 70
    11
 71
     3
 72
    17
 73
    13
 74
     0
 42
0.0000000001
 43
0.0000000001
 12
1.0
 22
0.0
 32
0.0
 13
1.0
 23
0.0
 33
0.0
 40
0.0
 40
0.0
 40
0.0
 40
0.0
 40
1.0
 40
1.0
 40
1.0
 40
2.0
 40
2.0
 40
2.0
 40
3.0
 40
3.0
 40
3.0
 40
4.0
 40
4.0
 40
4.0
 40
4.0
 10
96.14986310256819
 20
-123.5791844135498
 30
0.0
 10
96.14986310256819
 20
-123.5240805246745
 30
0.0
 10
96.10506032593342
 20
-123.4792777469081
 30
0.0
 10
96.04995643845035
 20
-123.4792777469081
 30
0.0
 10
95.9948172731904
 20
-123.4792777469081
 30
0.0
 10
95.95004977433251
 20
-123.5240805246745
 30
0.0
 10
95.95004977433251
 20
-123.5791844135498
 30
0.0
 10
95.95004977433251
 20
-123.6343235802025
 30
0.0
 10
95.9948172731904
 20
-123.6790910801914
 30
0.0
 10
96.04995643845035
 20
-123.6790910801914
 30
0.0
 10
96.10506032593342
 20
-123.6790910801914
 30
0.0
 10
96.14986310256819
 20
-123.6343235802025
 30
0.0
 10
96.14986310256819
 20
-123.5791844135498
 30
0.0
  0
SPLINE
  5
85
330
1F
100
AcDbEntity
  8
_U+30EC_U+30A4_U+30E4_U+30FC 1
 62
   179
420
  2234388
370
     9
100
AcDbSpline
210
0.0
220
0.0
230
1.0
 70
    11
 71
     3
 72
    17
 73
    13
 74
     0
 42
0.0000000001
 43
0.0000000001
 12
1.0
 22
0.0
 32
0.0
 13
1.0
 23
0.0
 33
0.0
 40
0.0
 40
0.0
 40
0.0
 40
0.0
 40
1.0
 40
1.0
 40
1.0
 40
2.0
 40
2.0
 40
2.0
 40
3.0
 40
3.0
 40
3.0
 40
4.0
 40
4.0
 40
4.0
 40
4.0
 10
99.95012633894873
 20
-128.4788091345469
 30
0.0
 10
99.95012633894873
 20
-128.4236699678941
 30
0.0
 10
99.90535884009084
 20
-128.3789024679053
 30
0.0
 10
99.85022219725998
 20
-128.3789024679053
 30
0.0
 10
99.79476300957904
 20
-128.3789024679053
 30
0.0
 10
99.74999551072116
 20
-128.4236699678941
 30
0.0
 10
99.74999551072116
 20
-128.4788091345469
 30
0.0
 10
99.74999551072116
 20
-128.5342658011999
 30
0.0
 10
99.79476300957904
 20
-128.5790685789663
 30
0.0
 10
99.85022219725998
 20
-128.5790685789663
 30
0.0
 10
99.90535884009084
 20
-128.5790685789663
 30
0.0
 10
99.95012633894873
 20
-128.5342658011999
 30
0.0
 10
99.95012633894873
 20
-128.4788091345469
 30
0.0
  0
SPLINE
  5
86
330
1F
100
AcDbEntity
  8
_U+30EC_U+30A4_U+30E4_U+30FC 1
 62
   179
420
  2234388
370
     9
100
AcDbSpline
210
0.0
220
0.0
230
1.0
 70
    11
 71
     3
 72
    17
 73
    13
 74
     0
 42
0.0000000001
 43
0.0000000001
 12
1.0
 22
0.0
 32
0.0
 13
1.0
 23
0.0
 33
0.0
 40
0.0
 40
0.0
 40
0.0
 40
0.0
 40
1.0
 40
1.0
 40
1.0
 40
2.0
 40
2.0
 40
2.0
 40
3.0
 40
3.0
 40
3.0
 40
4.0
 40
4.0
 40
4.0
 40
4.0
 10
99.95012633894873
 20
-137.9788324655054
 30
0.0
 10
99.95012633894873
 20
-137.9236932988523
 30
0.0
 10
99.90535884009084
 20
-137.8789257988638
 30
0.0
 10
99.85022219725998
 20
-137.8789257988638
 30
0.0
 10
99.79476300957904
 20
-137.8789257988638
 30
0.0
 10
99.74999551072116
 20
-137.9236932988523
 30
0.0
 10
99.74999551072116
 20
-137.9788324655054
 30
0.0
 10
99.74999551072116
 20
-138.0346419099358
 30
0.0
 10
99.79476300957904
 20
-138.0794446877026
 30
0.0
 10
99.85022219725998
 20
-138.0794446877026
 30
0.0
 10
99.90535884009084
 20
-138.0794446877026
 30
0.0
 10
99.95012633894873
 20
-138.0346419099358
 30
0.0
 10
99.95012633894873
 20
-137.9788324655054
 30
0.0
  0
POLYLINE
  5
87
330
1F
100
AcDbEntity
  8
_U+30EC_U+30A4_U+30E4_U+30FC 1
 62
   179
420
  2234388
370
     9
100
AcDb2dPolyline
 66
     1
 10
0.0
 20
0.0
 30
0.0
  0
VERTEX
  5
88
330
87
100
AcDbEntity
  8
_U+30EC_U+30A4_U+30E4_U+30FC 1
 62
   179
420
  2234388
370
     9
100
AcDbVertex
100
AcDb2dVertex
 10
99.85022219725998
 20
-137.9788324655054
 30
0.0
  0
VERTEX
  5
89
330
87
100
AcDbEntity
  8
_U+30EC_U+30A4_U+30E4_U+30FC 1
 62
   179
420
  2234388
370
     9
100
AcDbVertex
100
AcDb2dVertex
 10
99.85022219725998
 20
-128.4788091345469
 30
0.0
  0
SEQEND
  5
8A
330
87
100
AcDbEntity
  8
_U+30EC_U+30A4_U+30E4_U+30FC 1
 62
   179
420
  2234388
370
     9
  0
POLYLINE
  5
8B
330
1F
100
AcDbEntity
  8
_U+30EC_U+30A4_U+30E4_U+30FC 1
 62
   179
420
  2234388
370
     9
100
AcDb2dPolyline
 66
     1
 10
0.0
 20
0.0
 30
0.0
  0
VERTEX
  5
8C
330
8B
100
AcDbEntity
  8
_U+30EC_U+30A4_U+30E4_U+30FC 1
 62
   179
420
  2234388
370
     9
100
AcDbVertex
100
AcDb2dVertex
 10
96.55016003680021
 20
-137.9788324655054
 30
0.0
  0
VERTEX
  5
8D
330
8B
100
AcDbEntity
  8
_U+30EC_U+30A4_U+30E4_U+30FC 1
 62
   179
420
  2234388
370
     9
100
AcDbVertex
100
AcDb2dVertex
 10
101.0501579775513
 20
-137.9788324655054
 30
0.0
  0
SEQEND
  5
8E
330
8B
100
AcDbEntity
  8
_U+30EC_U+30A4_U+30E4_U+30FC 1
 62
   179
420
  2234388
370
     9
  0
POLYLINE
  5
8F
330
1F
100
AcDbEntity
  8
_U+30EC_U+30A4_U+30E4_U+30FC 1
 62
   179
420
  2234388
370
     9
100
AcDb2dPolyline
 66
     1
 10
0.0
 20
0.0
 30
0.0
  0
VERTEX
  5
90
330
8F
100
AcDbEntity
  8
_U+30EC_U+30A4_U+30E4_U+30FC 1
 62
   179
420
  2234388
370
     9
100
AcDbVertex
100
AcDb2dVertex
 10
98.5500572080008
 20
-128.4788091345469
 30
0.0
  0
VERTEX
  5
91
330
8F
100
AcDbEntity
  8
_U+30EC_U+30A4_U+30E4_U+30FC 1
 62
   179
420
  2234388
370
     9
100
AcDbVertex
100
AcDb2dVertex
 10
101.0501579775513
 20
-128.4788091345469
 30
0.0
  0
SEQEND
  5
92
330
8F
100
AcDbEntity
  8
_U+30EC_U+30A4_U+30E4_U+30FC 1
 62
   179
420
  2234388
370
     9
  0
INSERT
  5
94
330
1F
100
AcDbEntity
  8
_U+30EC_U+30A4_U+30E4_U+30FC 1
100
AcDbBlockReference
  2
block 2
 10
0.0
 20
0.0
 30
0.0
  0
POLYLINE
  5
A4
330
1F
100
AcDbEntity
  8
_U+30EC_U+30A4_U+30E4_U+30FC 1
 62
   179
420
  2234388
370
     9
100
AcDb2dPolyline
 66
     1
 10
0.0
 20
0.0
 30
0.0
  0
VERTEX
  5
A5
330
A4
100
AcDbEntity
  8
_U+30EC_U+30A4_U+30E4_U+30FC 1
 62
   179
420
  2234388
370
     9
100
AcDbVertex
100
AcDb2dVertex
 10
82.04993540673176
 20
-123.5791844135498
 30
0.0
  0
VERTEX
  5
A6
330
A4
100
AcDbEntity
  8
_U+30EC_U+30A4_U+30E4_U+30FC 1
 62
   179
420
  2234388
370
     9
100
AcDbVertex
100
AcDb2dVertex
 10
84.05001109009875
 20
-123.5791844135498
 30
0.0
  0
SEQEND
  5
A7
330
A4
100
AcDbEntity
  8
_U+30EC_U+30A4_U+30E4_U+30FC 1
 62
   179
420
  2234388
370
     9
  0
POLYLINE
  5
A8
330
1F
100
AcDbEntity
  8
_U+30EC_U+30A4_U+30E4_U+30FC 1
 62
   179
420
  2234388
370
     9
100
AcDb2dPolyline
 66
     1
 10
0.0
 20
0.0
 30
0.0
  0
VERTEX
  5
A9
330
A8
100
AcDbEntity
  8
_U+30EC_U+30A4_U+30E4_U+30FC 1
 62
   179
420
  2234388
370
     9
100
AcDbVertex
100
AcDb2dVertex
 10
82.05011386837623
 20
-125.0392258020735
 30
0.0
  0
VERTEX
  5
AA
330
A8
100
AcDbEntity
  8
_U+30EC_U+30A4_U+30E4_U+30FC 1
 62
   179
420
  2234388
370
     9
100
AcDbVertex
100
AcDb2dVertex
 10
82.05011386837623
 20
-122.5787419137999
 30
0.0
  0
SEQEND
  5
AB
330
A8
100
AcDbEntity
  8
_U+30EC_U+30A4_U+30E4_U+30FC 1
 62
   179
420
  2234388
370
     9
  0
POLYLINE
  5
AC
330
1F
100
AcDbEntity
  8
_U+30EC_U+30A4_U+30E4_U+30FC 1
 62
   179
420
  2234388
370
     9
100
AcDb2dPolyline
 66
     1
 10
0.0
 20
0.0
 30
0.0
  0
VERTEX
  5
AD
330
AC
100
AcDbEntity
  8
_U+30EC_U+30A4_U+30E4_U+30FC 1
 62
   179
420
  2234388
370
     9
100
AcDbVertex
100
AcDb2dVertex
 10
84.05001109009875
 20
-125.0392258020735
 30
0.0
  0
VERTEX
  5
AE
330
AC
100
AcDbEntity
  8
_U+30EC_U+30A4_U+30E4_U+30FC 1
 62
   179
420
  2234388
370
     9
100
AcDbVertex
100
AcDb2dVertex
 10
84.05001109009875
 20
-122.5787419137999
 30
0.0
  0
SEQEND
  5
AF
330
AC
100
AcDbEntity
  8
_U+30EC_U+30A4_U+30E4_U+30FC 1
 62
   179
420
  2234388
370
     9
  0
INSERT
  5
B1
330
1F
100
AcDbEntity
  8
_U+30EC_U+30A4_U+30E4_U+30FC 1
100
AcDbBlockReference
  2
block 3
 10
0.0
 20
0.0
 30
0.0
  0
POLYLINE
  5
B6
330
1F
100
AcDbEntity
  8
_U+30EC_U+30A4_U+30E4_U+30FC 1
 62
   179
420
  2234388
370
     9
100
AcDb2dPolyline
 66
     1
 10
0.0
 20
0.0
 30
0.0
  0
VERTEX
  5
B7
330
B6
100
AcDbEntity
  8
_U+30EC_U+30A4_U+30E4_U+30FC 1
 62
   179
420
  2234388
370
     9
100
AcDbVertex
100
AcDb2dVertex
 10
84.05001109009875
 20
-123.5791844135498
 30
0.0
  0
VERTEX
  5
B8
330
B6
100
AcDbEntity
  8
_U+30EC_U+30A4_U+30E4_U+30FC 1
 62
   179
420
  2234388
370
     9
100
AcDbVertex
100
AcDb2dVertex
 10
94.05005926724975
 20
-123.5791844135498
 30
0.0
  0
SEQEND
  5
B9
330
B6
100
AcDbEntity
  8
_U+30EC_U+30A4_U+30E4_U+30FC 1
 62
   179
420
  2234388
370
     9
  0
POLYLINE
  5
BA
330
1F
100
AcDbEntity
  8
_U+30EC_U+30A4_U+30E4_U+30FC 1
 62
   179
420
  2234388
370
     9
100
AcDb2dPolyline
 66
     1
 10
0.0
 20
0.0
 30
0.0
  0
VERTEX
  5
BB
330
BA
100
AcDbEntity
  8
_U+30EC_U+30A4_U+30E4_U+30FC 1
 62
   179
420
  2234388
370
     9
100
AcDbVertex
100
AcDb2dVertex
 10
94.05005926724975
 20
-125.0392258020735
 30
0.0
  0
VERTEX
  5
BC
330
BA
100
AcDbEntity
  8
_U+30EC_U+30A4_U+30E4_U+30FC 1
 62
   179
420
  2234388
370
     9
100
AcDbVertex
100
AcDb2dVertex
 10
94.05005926724975
 20
-122.5787419137999
 30
0.0
  0
SEQEND
  5
BD
330
BA
100
AcDbEntity
  8
_U+30EC_U+30A4_U+30E4_U+30FC 1
 62
   179
420
  2234388
370
     9
  0
INSERT
  5
BF
330
1F
100
AcDbEntity
  8
_U+30EC_U+30A4_U+30E4_U+30FC 1
100
AcDbBlockReference
  2
block 4
 10
0.0
 20
0.0
 30
0.0
  0
POLYLINE
  5
C7
330
1F
100
AcDbEntity
  8
_U+30EC_U+30A4_U+30E4_U+30FC 1
 62
   179
420
  2234388
370
     9
100
AcDb2dPolyline
 66
     1
 10
0.0
 20
0.0
 30
0.0
  0
VERTEX
  5
C8
330
C7
100
AcDbEntity
  8
_U+30EC_U+30A4_U+30E4_U+30FC 1
 62
   179
420
  2234388
370
     9
100
AcDbVertex
100
AcDb2dVertex
 10
94.05005926724975
 20
-123.5791844135498
 30
0.0
  0
VERTEX
  5
C9
330
C7
100
AcDbEntity
  8
_U+30EC_U+30A4_U+30E4_U+30FC 1
 62
   179
420
  2234388
370
     9
100
AcDbVertex
100
AcDb2dVertex
 10
96.04995643845035
 20
-123.5791844135498
 30
0.0
  0
SEQEND
  5
CA
330
C7
100
AcDbEntity
  8
_U+30EC_U+30A4_U+30E4_U+30FC 1
 62
   179
420
  2234388
370
     9
  0
POLYLINE
  5
CB
330
1F
100
AcDbEntity
  8
_U+30EC_U+30A4_U+30E4_U+30FC 1
 62
   179
420
  2234388
370
     9
100
AcDb2dPolyline
 66
     1
 10
0.0
 20
0.0
 30
0.0
  0
VERTEX
  5
CC
330
CB
100
AcDbEntity
  8
_U+30EC_U+30A4_U+30E4_U+30FC 1
 62
   179
420
  2234388
370
     9
100
AcDbVertex
100
AcDb2dVertex
 10
96.04995643845035
 20
-125.0392258020735
 30
0.0
  0
VERTEX
  5
CD
330
CB
100
AcDbEntity
  8
_U+30EC_U+30A4_U+30E4_U+30FC 1
 62
   179
420
  2234388
370
     9
100
AcDbVertex
100
AcDb2dVertex
 10
96.04995643845035
 20
-122.5787419137999
 30
0.0
  0
SEQEND
  5
CE
330
CB
100
AcDbEntity
  8
_U+30EC_U+30A4_U+30E4_U+30FC 1
 62
   179
420
  2234388
370
     9
  0
INSERT
  5
D0
330
1F
100
AcDbEntity
  8
_U+30EC_U+30A4_U+30E4_U+30FC 1
100
AcDbBlockReference
  2
block 5
 10
0.0
 20
0.0
 30
0.0
  0
SPLINE
  5
D5
330
1F
100
AcDbEntity
  8
_U+30EC_U+30A4_U+30E4_U+30FC 1
 62
   179
420
  2234388
370
     9
100
AcDbSpline
210
0.0
220
0.0
230
1.0
 70
    11
 71
     3
 72
    17
 73
    13
 74
     0
 42
0.0000000001
 43
0.0000000001
 12
1.0
 22
0.0
 32
0.0
 13
1.0
 23
0.0
 33
0.0
 40
0.0
 40
0.0
 40
0.0
 40
0.0
 40
1.0
 40
1.0
 40
1.0
 40
2.0
 40
2.0
 40
2.0
 40
3.0
 40
3.0
 40
3.0
 40
4.0
 40
4.0
 40
4.0
 40
4.0
 10
83.15014343421866
 20
-133.2742233000149
 30
0.0
 10
83.15014343421866
 20
-133.2190841333618
 30
0.0
 10
83.10534065758391
 20
-133.1743166333732
 30
0.0
 10
83.05023886812621
 20
-133.1743166333732
 30
0.0
 10
82.9947448270721
 20
-133.1743166333732
 30
0.0
 10
82.94997732821422
 20
-133.2190841333618
 30
0.0
 10
82.94997732821422
 20
-133.2742233000149
 30
0.0
 10
82.94997732821422
 20
-133.3293271888898
 30
0.0
 10
82.9947448270721
 20
-133.3741299666565
 30
0.0
 10
83.05023886812621
 20
-133.3741299666565
 30
0.0
 10
83.10534065758391
 20
-133.3741299666565
 30
0.0
 10
83.15014343421866
 20
-133.3293271888898
 30
0.0
 10
83.15014343421866
 20
-133.2742233000149
 30
0.0
  0
SPLINE
  5
D6
330
1F
100
AcDbEntity
  8
_U+30EC_U+30A4_U+30E4_U+30FC 1
 62
   179
420
  2234388
370
     9
100
AcDbSpline
210
0.0
220
0.0
230
1.0
 70
    11
 71
     3
 72
    17
 73
    13
 74
     0
 42
0.0000000001
 43
0.0000000001
 12
1.0
 22
0.0
 32
0.0
 13
1.0
 23
0.0
 33
0.0
 40
0.0
 40
0.0
 40
0.0
 40
0.0
 40
1.0
 40
1.0
 40
1.0
 40
2.0
 40
2.0
 40
2.0
 40
3.0
 40
3.0
 40
3.0
 40
4.0
 40
4.0
 40
4.0
 40
4.0
 10
84.15005674204208
 20
-133.2742233000149
 30
0.0
 10
84.15005674204208
 20
-133.2190841333618
 30
0.0
 10
84.1052892431842
 20
-133.1743166333732
 30
0.0
 10
84.05015007792426
 20
-133.1743166333732
 30
0.0
 10
83.99504619044117
 20
-133.1743166333732
 30
0.0
 10
83.95024341380642
 20
-133.2190841333618
 30
0.0
 10
83.95024341380642
 20
-133.2742233000149
 30
0.0
 10
83.95024341380642
 20
-133.3293271888898
 30
0.0
 10
83.99504619044117
 20
-133.3741299666565
 30
0.0
 10
84.05015007792426
 20
-133.3741299666565
 30
0.0
 10
84.1052892431842
 20
-133.3741299666565
 30
0.0
 10
84.15005674204208
 20
-133.3293271888898
 30
0.0
 10
84.15005674204208
 20
-133.2742233000149
 30
0.0
  0
POLYLINE
  5
D7
330
1F
100
AcDbEntity
  8
_U+30EC_U+30A4_U+30E4_U+30FC 1
 62
   179
420
  2234388
370
     9
100
AcDb2dPolyline
 66
     1
 10
0.0
 20
0.0
 30
0.0
  0
VERTEX
  5
D8
330
D7
100
AcDbEntity
  8
_U+30EC_U+30A4_U+30E4_U+30FC 1
 62
   179
420
  2234388
370
     9
100
AcDbVertex
100
AcDb2dVertex
 10
84.05015007792426
 20
-133.2742233000149
 30
0.0
  0
VERTEX
  5
D9
330
D7
100
AcDbEntity
  8
_U+30EC_U+30A4_U+30E4_U+30FC 1
 62
   179
420
  2234388
370
     9
100
AcDbVertex
100
AcDb2dVertex
 10
87.82046248173556
 20
-133.2742233000149
 30
0.0
  0
SEQEND
  5
DA
330
D7
100
AcDbEntity
  8
_U+30EC_U+30A4_U+30E4_U+30FC 1
 62
   179
420
  2234388
370
     9
  0
POLYLINE
  5
DB
330
1F
100
AcDbEntity
  8
_U+30EC_U+30A4_U+30E4_U+30FC 1
 62
   179
420
  2234388
370
     9
100
AcDb2dPolyline
 66
     1
 10
0.0
 20
0.0
 30
0.0
  0
VERTEX
  5
DC
330
DB
100
AcDbEntity
  8
_U+30EC_U+30A4_U+30E4_U+30FC 1
 62
   179
420
  2234388
370
     9
100
AcDbVertex
100
AcDb2dVertex
 10
82.04993540673176
 20
-133.2742233000149
 30
0.0
  0
VERTEX
  5
DD
330
DB
100
AcDbEntity
  8
_U+30EC_U+30A4_U+30E4_U+30FC 1
 62
   179
420
  2234388
370
     9
100
AcDbVertex
100
AcDb2dVertex
 10
84.05015007792426
 20
-133.2742233000149
 30
0.0
  0
SEQEND
  5
DE
330
DB
100
AcDbEntity
  8
_U+30EC_U+30A4_U+30E4_U+30FC 1
 62
   179
420
  2234388
370
     9
  0
INSERT
  5
E0
330
1F
100
AcDbEntity
  8
_U+30EC_U+30A4_U+30E4_U+30FC 1
100
AcDbBlockReference
  2
block 6
 10
0.0
 20
0.0
 30
0.0
  0
ENDSEC
  0
SECTION
  2
OBJECTS
  0
DICTIONARY
  5
C
330
0
100
AcDbDictionary
281
     1
  3
ACAD_GROUP
350
D
  3
ACAD_LAYOUT
350
1A
  3
ACAD_MATERIAL
350
3B
  3
ACAD_MLEADERSTYLE
350
E6
  3
ACAD_MLINESTYLE
350
17
  3
ACAD_PLOTSETTINGS
350
19
  3
ACAD_PLOTSTYLENAME
350
E
  3
ACAD_TABLESTYLE
350
E5
  3
ACAD_VISUALSTYLE
350
2A
  0
SUN
  5
3F
330
29
100
AcDbSun
 90
        1
290
     0
 63
     7
421
 16777215
 40
1.0
291
     1
 91
  2455826
 92
 54000000
292
     0
 70
     2
 71
   256
280
     1
  0
DICTIONARY
  5
D
102
{ACAD_REACTORS
330
C
102
}
330
C
100
AcDbDictionary
281
     1
  0
DICTIONARY
  5
1A
102
{ACAD_REACTORS
330
C
102
}
330
C
100
AcDbDictionary
281
     1
  3
Layout1
350
1E
  3
Layout2
350
26
  3
Model
350
22
  0
DICTIONARY
  5
3B
102
{ACAD_REACTORS
330
C
102
}
330
C
100
AcDbDictionary
281
     1
  3
ByBlock
350
3D
  3
ByLayer
350
3C
  3
Global
350
3E
  0
DICTIONARY
  5
E6
102
{ACAD_REACTORS
330
C
102
}
330
C
100
AcDbDictionary
281
     1
  0
DICTIONARY
  5
17
102
{ACAD_REACTORS
330
C
102
}
330
C
100
AcDbDictionary
281
     1
  3
Standard
350
18
  0
DICTIONARY
  5
19
102
{ACAD_REACTORS
330
C
102
}
330
C
100
AcDbDictionary
281
     1
  0
ACDBDICTIONARYWDFLT
  5
E
102
{ACAD_REACTORS
330
C
102
}
330
C
100
AcDbDictionary
281
     1
  3
Normal
350
F
100
AcDbDictionaryWithDefault
340
F
  0
DICTIONARY
  5
E5
102
{ACAD_REACTORS
330
C
102
}
330
C
100
AcDbDictionary
281
     1
  0
DICTIONARY
  5
2A
102
{ACAD_REACTORS
330
C
102
}
330
C
100
AcDbDictionary
281
     1
  3
2dWireframe
350
2F
  3
3D Hidden
350
31
  3
3dWireframe
350
30
  3
Basic
350
32
  3
Brighten
350
36
  3
ColorChange
350
3A
  3
Conceptual
350
34
  3
Dim
350
35
  3
Facepattern
350
39
  3
Flat
350
2B
  3
FlatWithEdges
350
2C
  3
Gouraud
350
2D
  3
GouraudWithEdges
350
2E
  3
Linepattern
350
38
  3
Realistic
350
33
  3
Thicken
350
37
  0
LAYOUT
  5
1E
102
{ACAD_REACTORS
330
1A
102
}
330
1A
100
AcDbPlotSettings
  1

  2
none_device
  4

  6

 40
0.0
 41
0.0
 42
0.0
 43
0.0
 44
0.0
 45
0.0
 46
0.0
 47
0.0
 48
0.0
 49
0.0
140
0.0
141
0.0
142
1.0
143
1.0
 70
   688
 72
     0
 73
     0
 74
     5
  7

 75
    16
 76
     0
 77
     2
 78
   300
147
1.0
148
0.0
149
0.0
100
AcDbLayout
  1
Layout1
 70
     1
 71
     1
 10
0.0
 20
0.0
 11
12.0
 21
9.0
 12
0.0
 22
0.0
 32
0.0
 14
1.000000000000000E+20
 24
1.000000000000000E+20
 34
1.000000000000000E+20
 15
-1.000000000000000E+20
 25
-1.000000000000000E+20
 35
-1.000000000000000E+20
146
0.0
 13
0.0
 23
0.0
 33
0.0
 16
1.0
 26
0.0
 36
0.0
 17
0.0
 27
1.0
 37
0.0
 76
     0
330
1B
  0
LAYOUT
  5
26
102
{ACAD_REACTORS
330
1A
102
}
330
1A
100
AcDbPlotSettings
  1

  2
none_device
  4

  6

 40
0.0
 41
0.0
 42
0.0
 43
0.0
 44
0.0
 45
0.0
 46
0.0
 47
0.0
 48
0.0
 49
0.0
140
0.0
141
0.0
142
1.0
143
1.0
 70
   688
 72
     0
 73
     0
 74
     5
  7

 75
    16
 76
     0
 77
     2
 78
   300
147
1.0
148
0.0
149
0.0
100
AcDbLayout
  1
Layout2
 70
     1
 71
     2
 10
0.0
 20
0.0
 11
0.0
 21
0.0
 12
0.0
 22
0.0
 32
0.0
 14
0.0
 24
0.0
 34
0.0
 15
0.0
 25
0.0
 35
0.0
146
0.0
 13
0.0
 23
0.0
 33
0.0
 16
1.0
 26
0.0
 36
0.0
 17
0.0
 27
1.0
 37
0.0
 76
     0
330
23
  0
LAYOUT
  5
22
102
{ACAD_REACTORS
330
1A
102
}
330
1A
100
AcDbPlotSettings
  1

  2
none_device
  4

  6

 40
0.0
 41
0.0
 42
0.0
 43
0.0
 44
0.0
 45
0.0
 46
0.0
 47
0.0
 48
0.0
 49
0.0
140
0.0
141
0.0
142
1.0
143
1.0
 70
  1712
 72
     0
 73
     0
 74
     0
  7

 75
     0
 76
     0
 77
     2
 78
   300
147
1.0
148
0.0
149
0.0
100
AcDbLayout
  1
Model
 70
     1
 71
     0
 10
0.0
 20
0.0
 11
12.0
 21
9.0
 12
0.0
 22
0.0
 32
0.0
 14
1.000000000000000E+20
 24
1.000000000000000E+20
 34
1.000000000000000E+20
 15
-1.000000000000000E+20
 25
-1.000000000000000E+20
 35
-1.000000000000000E+20
146
0.0
 13
0.0
 23
0.0
 33
0.0
 16
1.0
 26
0.0
 36
0.0
 17
0.0
 27
1.0
 37
0.0
 76
     0
330
1F
331
29
  0
MATERIAL
  5
3D
102
{ACAD_REACTORS
330
3B
102
}
330
3B
100
AcDbMaterial
  1
ByBlock
 72
     1
 94
      127
  0
MATERIAL
  5
3C
102
{ACAD_REACTORS
330
3B
102
}
330
3B
100
AcDbMaterial
  1
ByLayer
 72
     1
 94
      127
  0
MATERIAL
  5
3E
102
{ACAD_REACTORS
330
3B
102
}
330
3B
100
AcDbMaterial
  1
Global
 72
     1
 94
      127
  0
MLINESTYLE
  5
18
102
{ACAD_REACTORS
330
17
102
}
330
17
100
AcDbMlineStyle
  2
Standard
 70
     0
  3

 62
   256
 51
90.0
 52
90.0
 71
     2
 49
0.5
 62
   256
  6
BYLAYER
 49
-0.5
 62
   256
  6
BYLAYER
  0
ACDBPLACEHOLDER
  5
F
102
{ACAD_REACTORS
330
E
102
}
330
E
  0
VISUALSTYLE
  5
2F
102
{ACAD_REACTORS
330
2A
102
}
330
2A
100
AcDbVisualStyle
  2
2dWireframe
 70
     4
177
     2
291
     0
 71
     0
176
     1
 72
     2
176
     1
 73
     0
176
     1
 90
        0
176
     1
 40
-0.6
176
     1
 41
-30.0
176
     1
 62
     5
 63
     7
421
 16777215
176
     1
 74
     1
176
     1
 91
        4
176
     1
 64
     7
176
     1
 65
   257
176
     1
 75
     1
176
     1
175
     1
176
     1
 42
1.0
176
     1
 92
        0
176
     1
 66
   257
176
     1
 43
1.0
176
     1
 76
     1
176
     1
 77
     6
176
     1
 78
     2
176
     1
 67
     7
176
     1
 79
     5
176
     1
170
     0
176
     1
171
     0
176
     1
290
     0
176
     1
 93
        1
176
     1
 44
0.0
176
     1
173
     0
176
     1
  0
VISUALSTYLE
  5
31
102
{ACAD_REACTORS
330
2A
102
}
330
2A
100
AcDbVisualStyle
  2
3D Hidden
 70
     6
177
     2
291
     0
 71
     1
176
     1
 72
     2
176
     1
 73
     2
176
     1
 90
        0
176
     1
 40
-0.6
176
     1
 41
-30.0
176
     1
 62
     5
 63
     7
421
 16777215
176
     1
 74
     2
176
     1
 91
        2
176
     1
 64
     7
176
     1
 65
   257
176
     1
 75
     2
176
     1
175
     1
176
     1
 42
40.0
176
     1
 92
        0
176
     1
 66
   257
176
     1
 43
1.0
176
     1
 76
     1
176
     1
 77
     6
176
     1
 78
     2
176
     1
 67
     7
176
     1
 79
     3
176
     1
170
     0
176
     1
171
     0
176
     1
290
     0
176
     1
 93
        1
176
     1
 44
0.0
176
     1
173
     0
176
     1
  0
VISUALSTYLE
  5
30
102
{ACAD_REACTORS
330
2A
102
}
330
2A
100
AcDbVisualStyle
  2
3dWireframe
 70
     5
177
     2
291
     0
 71
     0
176
     1
 72
     2
176
     1
 73
     0
176
     1
 90
        0
176
     1
 40
-0.6
176
     1
 41
-30.0
176
     1
 62
     5
 63
     7
421
 16777215
176
     1
 74
     1
176
     1
 91
        4
176
     1
 64
     7
176
     1
 65
   257
176
     1
 75
     1
176
     1
175
     1
176
     1
 42
1.0
176
     1
 92
        0
176
     1
 66
   257
176
     1
 43
1.0
176
     1
 76
     1
176
     1
 77
     6
176
     1
 78
     2
176
     1
 67
     7
176
     1
 79
     5
176
     1
170
     0
176
     1
171
     0
176
     1
290
     0
176
     1
 93
        1
176
     1
 44
0.0
176
     1
173
     0
176
     1
  0
VISUALSTYLE
  5
32
102
{ACAD_REACTORS
330
2A
102
}
330
2A
100
AcDbVisualStyle
  2
Basic
 70
     7
177
     2
291
     1
 71
     1
176
     1
 72
     0
176
     1
 73
     1
176
     1
 90
        0
176
     1
 40
-0.6
176
     1
 41
-30.0
176
     1
 62
     5
 63
     7
421
 16777215
176
     1
 74
     0
176
     1
 91
        4
176
     1
 64
     7
176
     1
 65
   257
176
     1
 75
     1
176
     1
175
     1
176
     1
 42
1.0
176
     1
 92
        8
176
     1
 66
     7
176
     1
 43
1.0
176
     1
 76
     1
176
     1
 77
     6
176
     1
 78
     2
176
     1
 67
     7
176
     1
 79
     5
176
     1
170
     0
176
     1
171
     0
176
     1
290
     0
176
     1
 93
        1
176
     1
 44
0.0
176
     1
173
     0
176
     1
  0
VISUALSTYLE
  5
36
102
{ACAD_REACTORS
330
2A
102
}
330
2A
100
AcDbVisualStyle
  2
Brighten
 70
    12
177
     2
291
     1
 71
     2
176
     1
 72
     2
176
     1
 73
     0
176
     1
 90
        0
176
     1
 40
-0.6
176
     1
 41
-30.0
176
     1
 62
     5
 63
     7
421
 16777215
176
     1
 74
     1
176
     1
 91
        4
176
     1
 64
     7
176
     1
 65
   257
176
     1
 75
     1
176
     1
175
     1
176
     1
 42
1.0
176
     1
 92
        8
176
     1
 66
     7
176
     1
 43
1.0
176
     1
 76
     1
176
     1
 77
     6
176
     1
 78
     2
176
     1
 67
     7
176
     1
 79
     5
176
     1
170
     0
176
     1
171
     0
176
     1
290
     0
176
     1
 93
        1
176
     1
 44
50.0
176
     1
173
     0
176
     1
  0
VISUALSTYLE
  5
3A
102
{ACAD_REACTORS
330
2A
102
}
330
2A
100
AcDbVisualStyle
  2
ColorChange
 70
    16
177
     2
291
     1
 71
     2
176
     1
 72
     2
176
     1
 73
     3
176
     1
 90
        0
176
     1
 40
-0.6
176
     1
 41
-30.0
176
     1
 62
     5
 63
     8
421
  8421504
176
     1
 74
     1
176
     1
 91
        4
176
     1
 64
     7
176
     1
 65
   257
176
     1
 75
     1
176
     1
175
     1
176
     1
 42
1.0
176
     1
 92
        8
176
     1
 66
     8
424
  8421504
176
     1
 43
1.0
176
     1
 76
     1
176
     1
 77
     6
176
     1
 78
     2
176
     1
 67
     7
176
     1
 79
     5
176
     1
170
     0
176
     1
171
     0
176
     1
290
     0
176
     1
 93
        1
176
     1
 44
0.0
176
     1
173
     0
176
     1
  0
VISUALSTYLE
  5
34
102
{ACAD_REACTORS
330
2A
102
}
330
2A
100
AcDbVisualStyle
  2
Conceptual
 70
     9
177
     2
291
     0
 71
     3
176
     1
 72
     2
176
     1
 73
     0
176
     1
 90
        0
176
     1
 40
-0.6
176
     1
 41
-30.0
176
     1
 62
     5
 63
     7
421
 16777215
176
     1
 74
     2
176
     1
 91
        2
176
     1
 64
     7
176
     1
 65
   257
176
     1
 75
     1
176
     1
175
     1
176
     1
 42
40.0
176
     1
 92
        8
176
     1
 66
     7
176
     1
 43
1.0
176
     1
 76
     1
176
     1
 77
     6
176
     1
 78
     2
176
     1
 67
     7
176
     1
 79
     3
176
     1
170
     0
176
     1
171
     0
176
     1
290
     0
176
     1
 93
        1
176
     1
 44
0.0
176
     1
173
     0
176
     1
  0
VISUALSTYLE
  5
35
102
{ACAD_REACTORS
330
2A
102
}
330
2A
100
AcDbVisualStyle
  2
Dim
 70
    11
177
     2
291
     1
 71
     2
176
     1
 72
     2
176
     1
 73
     0
176
     1
 90
        0
176
     1
 40
-0.6
176
     1
 41
-30.0
176
     1
 62
     5
 63
     7
421
 16777215
176
     1
 74
     1
176
     1
 91
        4
176
     1
 64
     7
176
     1
 65
   257
176
     1
 75
     1
176
     1
175
     1
176
     1
 42
1.0
176
     1
 92
        8
176
     1
 66
     7
176
     1
 43
1.0
176
     1
 76
     1
176
     1
 77
     6
176
     1
 78
     2
176
     1
 67
     7
176
     1
 79
     5
176
     1
170
     0
176
     1
171
     0
176
     1
290
     0
176
     1
 93
        1
176
     1
 44
-50.0
176
     1
173
     0
176
     1
  0
VISUALSTYLE
  5
39
102
{ACAD_REACTORS
330
2A
102
}
330
2A
100
AcDbVisualStyle
  2
Facepattern
 70
    15
177
     2
291
     1
 71
     2
176
     1
 72
     2
176
     1
 73
     0
176
     1
 90
        0
176
     1
 40
-0.6
176
     1
 41
-30.0
176
     1
 62
     5
 63
     7
421
 16777215
176
     1
 74
     1
176
     1
 91
        4
176
     1
 64
     7
176
     1
 65
   257
176
     1
 75
     1
176
     1
175
     1
176
     1
 42
1.0
176
     1
 92
        8
176
     1
 66
     7
176
     1
 43
1.0
176
     1
 76
     1
176
     1
 77
     6
176
     1
 78
     2
176
     1
 67
     7
176
     1
 79
     5
176
     1
170
     0
176
     1
171
     0
176
     1
290
     0
176
     1
 93
        1
176
     1
 44
0.0
176
     1
173
     0
176
     1
  0
VISUALSTYLE
  5
2B
102
{ACAD_REACTORS
330
2A
102
}
330
2A
100
AcDbVisualStyle
  2
Flat
 70
     0
177
     2
291
     1
 71
     2
176
     1
 72
     1
176
     1
 73
     1
176
     1
 90
        2
176
     1
 40
-0.6
176
     1
 41
30.0
176
     1
 62
     5
 63
     7
421
 16777215
176
     1
 74
     0
176
     1
 91
        4
176
     1
 64
     7
176
     1
 65
   257
176
     1
 75
     1
176
     1
175
     1
176
     1
 42
1.0
176
     1
 92
        8
176
     1
 66
     7
176
     1
 43
1.0
176
     1
 76
     1
176
     1
 77
     6
176
     1
 78
     2
176
     1
 67
     7
176
     1
 79
     5
176
     1
170
     0
176
     1
171
     0
176
     1
290
     0
176
     1
 93
       13
176
     1
 44
0.0
176
     1
173
     0
176
     1
  0
VISUALSTYLE
  5
2C
102
{ACAD_REACTORS
330
2A
102
}
330
2A
100
AcDbVisualStyle
  2
FlatWithEdges
 70
     1
177
     2
291
     1
 71
     2
176
     1
 72
     1
176
     1
 73
     1
176
     1
 90
        2
176
     1
 40
-0.6
176
     1
 41
30.0
176
     1
 62
     5
 63
     7
421
 16777215
176
     1
 74
     1
176
     1
 91
        4
176
     1
 64
     7
176
     1
 65
   257
176
     1
 75
     1
176
     1
175
     1
176
     1
 42
1.0
176
     1
 92
        0
176
     1
 66
   257
176
     1
 43
1.0
176
     1
 76
     1
176
     1
 77
     6
176
     1
 78
     2
176
     1
 67
     7
176
     1
 79
     5
176
     1
170
     0
176
     1
171
     0
176
     1
290
     0
176
     1
 93
       13
176
     1
 44
0.0
176
     1
173
     0
176
     1
  0
VISUALSTYLE
  5
2D
102
{ACAD_REACTORS
330
2A
102
}
330
2A
100
AcDbVisualStyle
  2
Gouraud
 70
     2
177
     2
291
     1
 71
     2
176
     1
 72
     2
176
     1
 73
     1
176
     1
 90
        2
176
     1
 40
-0.6
176
     1
 41
30.0
176
     1
 62
     5
 63
     7
421
 16777215
176
     1
 74
     0
176
     1
 91
        4
176
     1
 64
     7
176
     1
 65
   257
176
     1
 75
     1
176
     1
175
     1
176
     1
 42
1.0
176
     1
 92
        0
176
     1
 66
     7
176
     1
 43
1.0
176
     1
 76
     1
176
     1
 77
     6
176
     1
 78
     2
176
     1
 67
     7
176
     1
 79
     5
176
     1
170
     0
176
     1
171
     0
176
     1
290
     0
176
     1
 93
       13
176
     1
 44
0.0
176
     1
173
     0
176
     1
  0
VISUALSTYLE
  5
2E
102
{ACAD_REACTORS
330
2A
102
}
330
2A
100
AcDbVisualStyle
  2
GouraudWithEdges
 70
     3
177
     2
291
     1
 71
     2
176
     1
 72
     2
176
     1
 73
     1
176
     1
 90
        2
176
     1
 40
-0.6
176
     1
 41
30.0
176
     1
 62
     5
 63
     7
421
 16777215
176
     1
 74
     1
176
     1
 91
        4
176
     1
 64
     7
176
     1
 65
   257
176
     1
 75
     1
176
     1
175
     1
176
     1
 42
1.0
176
     1
 92
        0
176
     1
 66
   257
176
     1
 43
1.0
176
     1
 76
     1
176
     1
 77
     6
176
     1
 78
     2
176
     1
 67
     7
176
     1
 79
     5
176
     1
170
     0
176
     1
171
     0
176
     1
290
     0
176
     1
 93
       13
176
     1
 44
0.0
176
     1
173
     0
176
     1
  0
VISUALSTYLE
  5
38
102
{ACAD_REACTORS
330
2A
102
}
330
2A
100
AcDbVisualStyle
  2
Linepattern
 70
    14
177
     2
291
     1
 71
     2
176
     1
 72
     2
176
     1
 73
     0
176
     1
 90
        0
176
     1
 40
-0.6
176
     1
 41
-30.0
176
     1
 62
     5
 63
     7
421
 16777215
176
     1
 74
     1
176
     1
 91
        4
176
     1
 64
     7
176
     1
 65
   257
176
     1
 75
     7
176
     1
175
     7
176
     1
 42
1.0
176
     1
 92
        8
176
     1
 66
     7
176
     1
 43
1.0
176
     1
 76
     1
176
     1
 77
     6
176
     1
 78
     2
176
     1
 67
     7
176
     1
 79
     5
176
     1
170
     0
176
     1
171
     0
176
     1
290
     0
176
     1
 93
        1
176
     1
 44
0.0
176
     1
173
     0
176
     1
  0
VISUALSTYLE
  5
33
102
{ACAD_REACTORS
330
2A
102
}
330
2A
100
AcDbVisualStyle
  2
Realistic
 70
     8
177
     2
291
     0
 71
     2
176
     1
 72
     2
176
     1
 73
     0
176
     1
 90
        0
176
     1
 40
-0.6
176
     1
 41
-30.0
176
     1
 62
     5
 63
     7
421
 16777215
176
     1
 74
     1
176
     1
 91
        0
176
     1
 64
     7
176
     1
 65
   257
176
     1
 75
     1
176
     1
175
     1
176
     1
 42
1.0
176
     1
 92
        8
176
     1
 66
     8
424
  7895160
176
     1
 43
1.0
176
     1
 76
     1
176
     1
 77
     6
176
     1
 78
     2
176
     1
 67
     7
176
     1
 79
     5
176
     1
170
     0
176
     1
171
     0
176
     1
290
     0
176
     1
 93
       13
176
     1
 44
0.0
176
     1
173
     0
176
     1
  0
VISUALSTYLE
  5
37
102
{ACAD_REACTORS
330
2A
102
}
330
2A
100
AcDbVisualStyle
  2
Thicken
 70
    13
177
     2
291
     1
 71
     2
176
     1
 72
     2
176
     1
 73
     0
176
     1
 90
        0
176
     1
 40
-0.6
176
     1
 41
-30.0
176
     1
 62
     5
 63
     7
421
 16777215
176
     1
 74
     1
176
     1
 91
        4
176
     1
 64
     7
176
     1
 65
   257
176
     1
 75
     1
176
     1
175
     1
176
     1
 42
1.0
176
     1
 92
       12
176
     1
 66
     7
176
     1
 43
1.0
176
     1
 76
     1
176
     1
 77
     6
176
     1
 78
     2
176
     1
 67
     7
176
     1
 79
     5
176
     1
170
     0
176
     1
171
     0
176
     1
290
     0
176
     1
 93
        1
176
     1
 44
0.0
176
     1
173
     0
176
     1
  0
ENDSEC
  0
EOF
