  0
SECTION
  2
HEADER
  9
$ACADVER
  1
AC1024
  9
$ACADMAINTVER
 70
     6
  9
$DWGCODEPAGE
  3
UNDEFINED
  9
$INSBASE
 10
0.0
 20
0.0
 30
0.0
  9
$EXTMIN
 10
1.000000000000000E+20
 20
1.000000000000000E+20
 30
1.000000000000000E+20
  9
$EXTMAX
 10
-1.000000000000000E+20
 20
-1.000000000000000E+20
 30
-1.000000000000000E+20
  9
$LIMMIN
 10
0.0
 20
0.0
  9
$LIMMAX
 10
12.0
 20
9.0
  9
$ORTHOMODE
 70
     0
  9
$REGENMODE
 70
     1
  9
$FILLMODE
 70
     1
  9
$QTEXTMODE
 70
     0
  9
$MIRRTEXT
 70
     1
  9
$LTSCALE
 40
1.0
  9
$ATTMODE
 70
     1
  9
$TEXTSIZE
 40
0.2
  9
$TRACEWID
 40
0.05
  9
$TEXTSTYLE
  7
Standard
  9
$CLAYER
  8
0
  9
$CELTYPE
  6
ByLayer
  9
$CECOLOR
 62
   256
  9
$CELTSCALE
 40
1.0
  9
$DISPSILH
 70
     0
  9
$DIMSCALE
 40
1.0
  9
$DIMASZ
 40
0.18
  9
$DIMEXO
 40
0.0625
  9
$DIMDLI
 40
0.38
  9
$DIMRND
 40
0.0
  9
$DIMDLE
 40
0.0
  9
$DIMEXE
 40
0.18
  9
$DIMTP
 40
0.0
  9
$DIMTM
 40
0.0
  9
$DIMTXT
 40
0.18
  9
$DIMCEN
 40
0.09
  9
$DIMTSZ
 40
0.0
  9
$DIMTOL
 70
     0
  9
$DIMLIM
 70
     0
  9
$DIMTIH
 70
     1
  9
$DIMTOH
 70
     1
  9
$DIMSE1
 70
     0
  9
$DIMSE2
 70
     0
  9
$DIMTAD
 70
     0
  9
$DIMZIN
 70
     0
  9
$DIMBLK
  1

  9
$DIMASO
 70
     1
  9
$DIMSHO
 70
     1
  9
$DIMPOST
  1

  9
$DIMAPOST
  1

  9
$DIMALT
 70
     0
  9
$DIMALTD
 70
     2
  9
$DIMALTF
 40
25.4
  9
$DIMLFAC
 40
1.0
  9
$DIMTOFL
 70
     0
  9
$DIMTVP
 40
0.0
  9
$DIMTIX
 70
     0
  9
$DIMSOXD
 70
     0
  9
$DIMSAH
 70
     0
  9
$DIMBLK1
  1

  9
$DIMBLK2
  1

  9
$DIMSTYLE
  2
Standard
  9
$DIMCLRD
 70
     0
  9
$DIMCLRE
 70
     0
  9
$DIMCLRT
 70
     0
  9
$DIMTFAC
 40
1.0
  9
$DIMGAP
 40
0.09
  9
$DIMJUST
 70
     0
  9
$DIMSD1
 70
     0
  9
$DIMSD2
 70
     0
  9
$DIMTOLJ
 70
     1
  9
$DIMTZIN
 70
     0
  9
$DIMALTZ
 70
     0
  9
$DIMALTTZ
 70
     0
  9
$DIMUPT
 70
     0
  9
$DIMDEC
 70
     4
  9
$DIMTDEC
 70
     4
  9
$DIMALTU
 70
     2
  9
$DIMALTTD
 70
     2
  9
$DIMTXSTY
  7
Standard
  9
$DIMAUNIT
 70
     0
  9
$DIMADEC
 70
     0
  9
$DIMALTRND
 40
0.0
  9
$DIMAZIN
 70
     0
  9
$DIMDSEP
 70
    46
  9
$DIMATFIT
 70
     3
  9
$DIMFRAC
 70
     0
  9
$DIMLDRBLK
  1

  9
$DIMLUNIT
 70
     2
  9
$DIMLWD
 70
    -2
  9
$DIMLWE
 70
    -2
  9
$DIMTMOVE
 70
     0
  9
$DIMFXL
 40
1.0
  9
$DIMFXLON
 70
     0
  9
$DIMJOGANG
 40
0.7853981633974483
  9
$DIMTFILL
 70
     0
  9
$DIMTFILLCLR
 70
     0
  9
$DIMARCSYM
 70
     0
  9
$DIMLTYPE
  6

  9
$DIMLTEX1
  6

  9
$DIMLTEX2
  6

  9
$DIMTXTDIRECTION
 70
     0
  9
$LUNITS
 70
     2
  9
$LUPREC
 70
     4
  9
$SKETCHINC
 40
0.1
  9
$FILLETRAD
 40
0.5
  9
$AUNITS
 70
     0
  9
$AUPREC
 70
     0
  9
$MENU
  1
.
  9
$ELEVATION
 40
0.0
  9
$PELEVATION
 40
0.0
  9
$THICKNESS
 40
0.0
  9
$LIMCHECK
 70
     0
  9
$CHAMFERA
 40
0.5
  9
$CHAMFERB
 40
0.5
  9
$CHAMFERC
 40
1.0
  9
$CHAMFERD
 40
0.0
  9
$SKPOLY
 70
     0
  9
$TDCREATE
 40
2457917.622743056
  9
$TDUCREATE
 40
2457917.247743056
  9
$TDUPDATE
 40
2457917.622743056
  9
$TDUUPDATE
 40
2457917.247743056
  9
$TDINDWG
 40
0.0000000116
  9
$TDUSRTIMER
 40
0.0000000116
  9
$USRTIMER
 70
     1
  9
$ANGBASE
 50
0.0
  9
$ANGDIR
 70
     0
  9
$PDMODE
 70
     0
  9
$PDSIZE
 40
0.0
  9
$PLINEWID
 40
0.0
  9
$SPLFRAME
 70
     0
  9
$SPLINETYPE
 70
     6
  9
$SPLINESEGS
 70
     8
  9
$HANDSEED
  5
114
  9
$SURFTAB1
 70
     6
  9
$SURFTAB2
 70
     6
  9
$SURFTYPE
 70
     6
  9
$SURFU
 70
     6
  9
$SURFV
 70
     6
  9
$UCSBASE
  2

  9
$UCSNAME
  2

  9
$UCSORG
 10
0.0
 20
0.0
 30
0.0
  9
$UCSXDIR
 10
1.0
 20
0.0
 30
0.0
  9
$UCSYDIR
 10
0.0
 20
1.0
 30
0.0
  9
$UCSORTHOREF
  2

  9
$UCSORTHOVIEW
 70
     0
  9
$UCSORGTOP
 10
0.0
 20
0.0
 30
0.0
  9
$UCSORGBOTTOM
 10
0.0
 20
0.0
 30
0.0
  9
$UCSORGLEFT
 10
0.0
 20
0.0
 30
0.0
  9
$UCSORGRIGHT
 10
0.0
 20
0.0
 30
0.0
  9
$UCSORGFRONT
 10
0.0
 20
0.0
 30
0.0
  9
$UCSORGBACK
 10
0.0
 20
0.0
 30
0.0
  9
$PUCSBASE
  2

  9
$PUCSNAME
  2

  9
$PUCSORG
 10
0.0
 20
0.0
 30
0.0
  9
$PUCSXDIR
 10
1.0
 20
0.0
 30
0.0
  9
$PUCSYDIR
 10
0.0
 20
1.0
 30
0.0
  9
$PUCSORTHOREF
  2

  9
$PUCSORTHOVIEW
 70
     0
  9
$PUCSORGTOP
 10
0.0
 20
0.0
 30
0.0
  9
$PUCSORGBOTTOM
 10
0.0
 20
0.0
 30
0.0
  9
$PUCSORGLEFT
 10
0.0
 20
0.0
 30
0.0
  9
$PUCSORGRIGHT
 10
0.0
 20
0.0
 30
0.0
  9
$PUCSORGFRONT
 10
0.0
 20
0.0
 30
0.0
  9
$PUCSORGBACK
 10
0.0
 20
0.0
 30
0.0
  9
$USERI1
 70
     0
  9
$USERI2
 70
     0
  9
$USERI3
 70
     0
  9
$USERI4
 70
     0
  9
$USERI5
 70
     0
  9
$USERR1
 40
0.0
  9
$USERR2
 40
0.0
  9
$USERR3
 40
0.0
  9
$USERR4
 40
0.0
  9
$USERR5
 40
0.0
  9
$WORLDVIEW
 70
     1
  9
$SHADEDGE
 70
     3
  9
$SHADEDIF
 70
    70
  9
$TILEMODE
 70
     1
  9
$MAXACTVP
 70
    64
  9
$PINSBASE
 10
0.0
 20
0.0
 30
0.0
  9
$PLIMCHECK
 70
     0
  9
$PEXTMIN
 10
1.000000000000000E+20
 20
1.000000000000000E+20
 30
1.000000000000000E+20
  9
$PEXTMAX
 10
-1.000000000000000E+20
 20
-1.000000000000000E+20
 30
-1.000000000000000E+20
  9
$PLIMMIN
 10
0.0
 20
0.0
  9
$PLIMMAX
 10
12.0
 20
9.0
  9
$UNITMODE
 70
     0
  9
$VISRETAIN
 70
     1
  9
$PLINEGEN
 70
     0
  9
$PSLTSCALE
 70
     1
  9
$TREEDEPTH
 70
  3020
  9
$CMLSTYLE
  2
Standard
  9
$CMLJUST
 70
     0
  9
$CMLSCALE
 40
1.0
  9
$PROXYGRAPHICS
 70
     1
  9
$MEASUREMENT
 70
     0
  9
$CELWEIGHT
370
    -1
  9
$ENDCAPS
280
     0
  9
$JOINSTYLE
280
     0
  9
$LWDISPLAY
290
     1
  9
$INSUNITS
 70
     1
  9
$HYPERLINKBASE
  1

  9
$STYLESHEET
  1

  9
$XEDIT
290
     1
  9
$CEPSNTYPE
380
     0
  9
$PSTYLEMODE
290
     1
  9
$FINGERPRINTGUID
  2
{D4FD91D2-2801-124F-6513-1A4728E29FFE}
  9
$VERSIONGUID
  2
{FAEB1C32-E019-11D5-929B-00C0DF256EC4}
  9
$EXTNAMES
290
     1
  9
$PSVPSCALE
 40
0.0
  9
$OLESTARTUP
290
     0
  9
$SORTENTS
280
   127
  9
$INDEXCTL
280
     0
  9
$HIDETEXT
280
     1
  9
$XCLIPFRAME
280
     2
  9
$HALOGAP
280
     0
  9
$OBSCOLOR
 70
   257
  9
$OBSLTYPE
280
     0
  9
$INTERSECTIONDISPLAY
280
     0
  9
$INTERSECTIONCOLOR
 70
   257
  9
$DIMASSOC
280
     2
  9
$PROJECTNAME
  1

  9
$CAMERADISPLAY
290
     0
  9
$LENSLENGTH
 40
50.0
  9
$CAMERAHEIGHT
 40
0.0
  9
$STEPSPERSEC
 40
2.0
  9
$STEPSIZE
 40
6.0
  9
$3DDWFPREC
 40
2.0
  9
$PSOLWIDTH
 40
0.25
  9
$PSOLHEIGHT
 40
4.0
  9
$LOFTANG1
 40
1.570796326794897
  9
$LOFTANG2
 40
1.570796326794897
  9
$LOFTMAG1
 40
0.0
  9
$LOFTMAG2
 40
0.0
  9
$LOFTPARAM
 70
     7
  9
$LOFTNORMALS
280
     1
  9
$LATITUDE
 40
37.795
  9
$LONGITUDE
 40
-122.394
  9
$NORTHDIRECTION
 40
0.0
  9
$TIMEZONE
 70
 -8000
  9
$LIGHTGLYPHDISPLAY
280
     1
  9
$TILEMODELIGHTSYNCH
280
     1
  9
$CMATERIAL
347
3C
  9
$SOLIDHIST
280
     1
  9
$SHOWHIST
280
     1
  9
$DWFFRAME
280
     2
  9
$DGNFRAME
280
     2
  9
$REALWORLDSCALE
290
     1
  9
$INTERFERECOLOR
 62
   256
  9
$CSHADOW
280
     0
  9
$SHADOWPLANELOCATION
 40
0.0
  0
ENDSEC
  0
SECTION
  2
CLASSES
  0
CLASS
  1
ACDBDICTIONARYWDFLT
  2
AcDbDictionaryWithDefault
  3
ObjectDBX Classes
 90
        0
 91
        4
280
     0
281
     0
  0
CLASS
  1
VISUALSTYLE
  2
AcDbVisualStyle
  3
ObjectDBX Classes
 90
     4095
 91
        4
280
     0
281
     0
  0
CLASS
  1
MATERIAL
  2
AcDbMaterial
  3
ObjectDBX Classes
 90
     1153
 91
        4
280
     0
281
     0
  0
CLASS
  1
SUN
  2
AcDbSun
  3
SCENEOE
 90
     1024
 91
        4
280
     0
281
     0
  0
ENDSEC
  0
SECTION
  2
TABLES
  0
TABLE
  2
VPORT
  5
8
330
0
100
AcDbSymbolTable
 70
     1
  0
VPORT
  5
29
330
8
100
AcDbSymbolTableRecord
100
AcDbViewportTableRecord
  2
*Active
 70
     0
 10
0.0
 20
0.0
 11
1.0
 21
1.0
 12
0.0
 22
0.0
 13
0.0
 23
0.0
 14
0.5
 24
0.5
 15
0.5
 25
0.5
 16
0.0
 26
0.0
 36
1.0
 17
91.00082462281999
 27
-128.4993055234307
 37
0.0
 40
256.9986110468615
 41
0.7081814508812795
 42
50.0
 43
0.0
 44
0.0
 50
0.0
 51
0.0
 71
     0
 72
   100
 73
     1
 74
     3
 75
     0
 76
     0
 77
     0
 78
     0
281
     0
 65
     1
110
0.0
120
0.0
130
0.0
111
1.0
121
0.0
131
0.0
112
0.0
122
1.0
132
0.0
 79
     0
146
0.0
 60
     3
 61
     5
292
     1
282
     1
141
0.0
142
0.0
 63
   250
361
3F
  0
ENDTAB
  0
TABLE
  2
LTYPE
  5
5
330
0
100
AcDbSymbolTable
 70
     1
  0
LTYPE
  5
14
330
5
100
AcDbSymbolTableRecord
100
AcDbLinetypeTableRecord
  2
ByBlock
 70
     0
  3

 72
    65
 73
     0
 40
0.0
  0
LTYPE
  5
15
330
5
100
AcDbSymbolTableRecord
100
AcDbLinetypeTableRecord
  2
ByLayer
 70
     0
  3

 72
    65
 73
     0
 40
0.0
  0
LTYPE
  5
16
330
5
100
AcDbSymbolTableRecord
100
AcDbLinetypeTableRecord
  2
Continuous
 70
     0
  3
Solid line
 72
    65
 73
     0
 40
0.0
  0
ENDTAB
  0
TABLE
  2
LAYER
  5
2
330
0
100
AcDbSymbolTable
 70
     2
  0
LAYER
  5
10
330
2
100
AcDbSymbolTableRecord
100
AcDbLayerTableRecord
  2
0
 70
     0
 62
     7
  6
Continuous
370
    -3
390
F
347
3E
  0
LAYER
  5
40
330
2
100
AcDbSymbolTableRecord
100
AcDbLayerTableRecord
  2
_U+30EC_U+30A4_U+30E4_U+30FC 1
 70
     0
 62
     7
  6
Continuous
370
    -3
390
F
347
3E
  0
ENDTAB
  0
TABLE
  2
STYLE
  5
3
330
0
100
AcDbSymbolTable
 70
     1
  0
STYLE
  5
11
330
3
100
AcDbSymbolTableRecord
100
AcDbTextStyleTableRecord
  2
Standard
 70
     0
 40
0.0
 41
1.0
 50
0.0
 71
     0
 42
0.2
  3
txt
  4

  0
ENDTAB
  0
TABLE
  2
VIEW
  5
6
330
0
100
AcDbSymbolTable
 70
     0
  0
ENDTAB
  0
TABLE
  2
UCS
  5
7
330
0
100
AcDbSymbolTable
 70
     0
  0
ENDTAB
  0
TABLE
  2
APPID
  5
9
330
0
100
AcDbSymbolTable
 70
     1
  0
APPID
  5
12
330
9
100
AcDbSymbolTableRecord
100
AcDbRegAppTableRecord
  2
ACAD
 70
     0
  0
ENDTAB
  0
TABLE
  2
DIMSTYLE
  5
A
330
0
100
AcDbSymbolTable
 70
     1
100
AcDbDimStyleTable
  0
DIMSTYLE
105
27
330
A
100
AcDbSymbolTableRecord
100
AcDbDimStyleTableRecord
  2
Standard
 70
     0
178
     0
340
11
  0
ENDTAB
  0
TABLE
  2
BLOCK_RECORD
  5
1
330
0
100
AcDbSymbolTable
 70
     7
  0
BLOCK_RECORD
  5
1F
330
1
100
AcDbSymbolTableRecord
100
AcDbBlockTableRecord
  2
*Model_Space
340
22
 70
     0
280
     1
281
     0
  0
BLOCK_RECORD
  5
1B
330
1
100
AcDbSymbolTableRecord
100
AcDbBlockTableRecord
  2
*Paper_Space
340
1E
 70
     0
280
     1
281
     0
  0
BLOCK_RECORD
  5
23
330
1
100
AcDbSymbolTableRecord
100
AcDbBlockTableRecord
  2
*Paper_Space0
340
26
 70
     0
280
     1
281
     0
  0
BLOCK_RECORD
  5
A4
330
1
100
AcDbSymbolTableRecord
100
AcDbBlockTableRecord
  2
block 2
340
0
102
{BLKREFS
331
A5
102
}
 70
     0
280
     1
281
     0
  0
BLOCK_RECORD
  5
B4
330
1
100
AcDbSymbolTableRecord
100
AcDbBlockTableRecord
  2
block 3
340
0
102
{BLKREFS
331
B5
102
}
 70
     0
280
     1
281
     0
  0
BLOCK_RECORD
  5
C4
330
1
100
AcDbSymbolTableRecord
100
AcDbBlockTableRecord
  2
block 4
340
0
102
{BLKREFS
331
C5
102
}
 70
     0
280
     1
281
     0
  0
BLOCK_RECORD
  5
DC
330
1
100
AcDbSymbolTableRecord
100
AcDbBlockTableRecord
  2
block 5
340
0
102
{BLKREFS
331
DD
102
}
 70
     0
280
     1
281
     0
  0
BLOCK_RECORD
  5
F4
330
1
100
AcDbSymbolTableRecord
100
AcDbBlockTableRecord
  2
block 6
340
0
102
{BLKREFS
331
F5
102
}
 70
     0
280
     1
281
     0
  0
BLOCK_RECORD
  5
10C
330
1
100
AcDbSymbolTableRecord
100
AcDbBlockTableRecord
  2
block 7
340
0
102
{BLKREFS
331
10D
102
}
 70
     0
280
     1
281
     0
  0
ENDTAB
  0
ENDSEC
  0
SECTION
  2
BLOCKS
  0
BLOCK
  5
20
330
1F
100
AcDbEntity
  8
0
100
AcDbBlockBegin
  2
*Model_Space
 70
     0
 10
0.0
 20
0.0
 30
0.0
  3
*Model_Space
  1

  0
ENDBLK
  5
21
330
1F
100
AcDbEntity
  8
0
100
AcDbBlockEnd
  0
BLOCK
  5
1C
330
1B
100
AcDbEntity
 67
     1
  8
0
100
AcDbBlockBegin
  2
*Paper_Space
 70
     0
 10
0.0
 20
0.0
 30
0.0
  3
*Paper_Space
  1

  0
ENDBLK
  5
1D
330
1B
100
AcDbEntity
 67
     1
  8
0
100
AcDbBlockEnd
  0
BLOCK
  5
24
330
23
100
AcDbEntity
  8
0
100
AcDbBlockBegin
  2
*Paper_Space0
 70
     0
 10
0.0
 20
0.0
 30
0.0
  3
*Paper_Space0
  1

  0
ENDBLK
  5
25
330
23
100
AcDbEntity
  8
0
100
AcDbBlockEnd
  0
BLOCK
  5
A6
330
A4
100
AcDbEntity
  8
0
100
AcDbBlockBegin
  2
block 2
 70
     0
 10
0.0
 20
0.0
 30
0.0
  3
block 2
  1

  0
SPLINE
  5
A8
330
A4
100
AcDbEntity
  8
_U+30EC_U+30A4_U+30E4_U+30FC 1
370
     0
100
AcDbSpline
210
0.0
220
0.0
230
1.0
 70
    11
 71
     3
 72
    29
 73
    25
 74
     0
 42
0.0000000001
 43
0.0000000001
 12
1.0
 22
0.0
 32
0.0
 13
1.0
 23
0.0
 33
0.0
 40
0.0
 40
0.0
 40
0.0
 40
0.0
 40
1.0
 40
1.0
 40
1.0
 40
2.0
 40
2.0
 40
2.0
 40
3.0
 40
3.0
 40
3.0
 40
4.0
 40
4.0
 40
4.0
 40
5.0
 40
5.0
 40
5.0
 40
6.0
 40
6.0
 40
6.0
 40
7.0
 40
7.0
 40
7.0
 40
8.0
 40
8.0
 40
8.0
 40
8.0
 10
80.32291800292275
 20
-120.042629635788
 30
0.0
 10
80.05643986713868
 20
-120.042629635788
 30
0.0
 10
79.80253632987576
 20
-119.9049980711522
 30
0.0
 10
79.80253632987576
 20
-119.5560098984964
 30
0.0
 10
79.80253632987576
 20
-119.3000393039424
 30
0.0
 10
79.94430200909379
 20
-119.2047824137752
 30
0.0
 10
80.05006644049097
 20
-119.1434597141377
 30
0.0
 10
79.92518172915065
 20
-119.0842040717915
 30
0.0
 10
79.84904511892663
 20
-118.9699991564554
 30
0.0
 10
79.84904511892663
 20
-118.8092854520685
 30
0.0
 10
79.84904511892663
 20
-118.5341945775713
 30
0.0
 10
80.04799938319981
 20
-118.398802325001
 30
0.0
 10
80.32291800292275
 20
-118.398802325001
 30
0.0
 10
80.60644936135881
 20
-118.398802325001
 30
0.0
 10
80.79679088691886
 20
-118.5426350615102
 30
0.0
 10
80.79679088691886
 20
-118.8092854520685
 30
0.0
 10
80.79679088691886
 20
-118.9699991564554
 30
0.0
 10
80.71858721940369
 20
-119.0842040717915
 30
0.0
 10
80.59370250806339
 20
-119.1434597141377
 30
0.0
 10
80.68258597158282
 20
-119.1942748725452
 30
0.0
 10
80.84123261867859
 20
-119.2895317627123
 30
0.0
 10
80.84123261867859
 20
-119.5517035291399
 30
0.0
 10
80.84123261867859
 20
-119.9261854083865
 30
0.0
 10
80.56200762959908
 20
-120.042629635788
 30
0.0
 10
80.32291800292275
 20
-120.042629635788
 30
0.0
  0
SPLINE
  5
A9
330
A4
100
AcDbEntity
  8
_U+30EC_U+30A4_U+30E4_U+30FC 1
370
     0
100
AcDbSpline
210
0.0
220
0.0
230
1.0
 70
    11
 71
     3
 72
    17
 73
    13
 74
     0
 42
0.0000000001
 43
0.0000000001
 12
1.0
 22
0.0
 32
0.0
 13
1.0
 23
0.0
 33
0.0
 40
0.0
 40
0.0
 40
0.0
 40
0.0
 40
1.0
 40
1.0
 40
1.0
 40
2.0
 40
2.0
 40
2.0
 40
3.0
 40
3.0
 40
3.0
 40
4.0
 40
4.0
 40
4.0
 40
4.0
 10
80.32291800292275
 20
-119.2514634576003
 30
0.0
 10
80.17908526641357
 20
-119.2514634576003
 30
0.0
 10
80.02681204596553
 20
-119.3381076090544
 30
0.0
 10
80.02681204596553
 20
-119.5411959879098
 30
0.0
 10
80.02681204596553
 20
-119.7463514240565
 30
0.0
 10
80.15376381459699
 20
-119.8479817408713
 30
0.0
 10
80.32291800292275
 20
-119.8479817408713
 30
0.0
 10
80.5091254139005
 20
-119.8479817408713
 30
0.0
 10
80.61919621465424
 20
-119.7253363415964
 30
0.0
 10
80.61919621465424
 20
-119.5475694145576
 30
0.0
 10
80.61919621465424
 20
-119.3253607557589
 30
0.0
 10
80.45624319820192
 20
-119.2514634576003
 30
0.0
 10
80.32291800292275
 20
-119.2514634576003
 30
0.0
  0
SPLINE
  5
AA
330
A4
100
AcDbEntity
  8
_U+30EC_U+30A4_U+30E4_U+30FC 1
370
     0
100
AcDbSpline
210
0.0
220
0.0
230
1.0
 70
    11
 71
     3
 72
    17
 73
    13
 74
     0
 42
0.0000000001
 43
0.0000000001
 12
1.0
 22
0.0
 32
0.0
 13
1.0
 23
0.0
 33
0.0
 40
0.0
 40
0.0
 40
0.0
 40
0.0
 40
1.0
 40
1.0
 40
1.0
 40
2.0
 40
2.0
 40
2.0
 40
3.0
 40
3.0
 40
3.0
 40
4.0
 40
4.0
 40
4.0
 40
4.0
 10
80.32291800292275
 20
-118.5913831626265
 30
0.0
 10
80.15789792917928
 20
-118.5913831626265
 30
0.0
 10
80.07332083501639
 20
-118.6864677980194
 30
0.0
 10
80.07332083501639
 20
-118.8218600505897
 30
0.0
 10
80.07332083501639
 20
-118.9446777046388
 30
0.0
 10
80.14532333065812
 20
-119.0631889893314
 30
0.0
 10
80.32291800292275
 20
-119.0631889893314
 30
0.0
 10
80.50068492996164
 20
-119.0631889893314
 30
0.0
 10
80.57251517082909
 20
-118.9446777046388
 30
0.0
 10
80.57251517082909
 20
-118.8218600505897
 30
0.0
 10
80.57251517082909
 20
-118.6864677980194
 30
0.0
 10
80.48587101937507
 20
-118.5913831626265
 30
0.0
 10
80.32291800292275
 20
-118.5913831626265
 30
0.0
  0
HATCH
  5
AB
330
A4
100
AcDbEntity
  8
_U+30EC_U+30A4_U+30E4_U+30FC 1
 62
   179
420
  2234388
100
AcDbHatch
 10
0.0
 20
0.0
 30
0.0
210
0.0
220
0.0
230
1.0
  2
SOLID
 70
     1
 71
     0
 91
        3
 92
        1
 93
        1
 72
     4
 94
        3
 73
     0
 74
     1
 95
       29
 96
       25
 40
0.0
 40
0.0
 40
0.0
 40
0.0
 40
1.0
 40
1.0
 40
1.0
 40
2.0
 40
2.0
 40
2.0
 40
3.0
 40
3.0
 40
3.0
 40
4.0
 40
4.0
 40
4.0
 40
5.0
 40
5.0
 40
5.0
 40
6.0
 40
6.0
 40
6.0
 40
7.0
 40
7.0
 40
7.0
 40
8.0
 40
8.0
 40
8.0
 40
8.0
 10
80.32291800292275
 20
-120.042629635788
 10
80.05643986713868
 20
-120.042629635788
 10
79.80253632987576
 20
-119.9049980711522
 10
79.80253632987576
 20
-119.5560098984964
 10
79.80253632987576
 20
-119.3000393039424
 10
79.94430200909379
 20
-119.2047824137752
 10
80.05006644049097
 20
-119.1434597141377
 10
79.92518172915065
 20
-119.0842040717915
 10
79.84904511892663
 20
-118.9699991564554
 10
79.84904511892663
 20
-118.8092854520685
 10
79.84904511892663
 20
-118.5341945775713
 10
80.04799938319981
 20
-118.398802325001
 10
80.32291800292275
 20
-118.398802325001
 10
80.60644936135881
 20
-118.398802325001
 10
80.79679088691886
 20
-118.5426350615102
 10
80.79679088691886
 20
-118.8092854520685
 10
80.79679088691886
 20
-118.9699991564554
 10
80.71858721940369
 20
-119.0842040717915
 10
80.59370250806339
 20
-119.1434597141377
 10
80.68258597158282
 20
-119.1942748725452
 10
80.84123261867859
 20
-119.2895317627123
 10
80.84123261867859
 20
-119.5517035291399
 10
80.84123261867859
 20
-119.9261854083865
 10
80.56200762959908
 20
-120.042629635788
 10
80.32291800292275
 20
-120.042629635788
 97
        0
 97
        0
 92
        1
 93
        1
 72
     4
 94
        3
 73
     0
 74
     1
 95
       17
 96
       13
 40
0.0
 40
0.0
 40
0.0
 40
0.0
 40
1.0
 40
1.0
 40
1.0
 40
2.0
 40
2.0
 40
2.0
 40
3.0
 40
3.0
 40
3.0
 40
4.0
 40
4.0
 40
4.0
 40
4.0
 10
80.32291800292275
 20
-119.2514634576003
 10
80.17908526641357
 20
-119.2514634576003
 10
80.02681204596553
 20
-119.3381076090544
 10
80.02681204596553
 20
-119.5411959879098
 10
80.02681204596553
 20
-119.7463514240565
 10
80.15376381459699
 20
-119.8479817408713
 10
80.32291800292275
 20
-119.8479817408713
 10
80.5091254139005
 20
-119.8479817408713
 10
80.61919621465424
 20
-119.7253363415964
 10
80.61919621465424
 20
-119.5475694145576
 10
80.61919621465424
 20
-119.3253607557589
 10
80.45624319820192
 20
-119.2514634576003
 10
80.32291800292275
 20
-119.2514634576003
 97
        0
 97
        0
 92
        1
 93
        1
 72
     4
 94
        3
 73
     0
 74
     1
 95
       17
 96
       13
 40
0.0
 40
0.0
 40
0.0
 40
0.0
 40
1.0
 40
1.0
 40
1.0
 40
2.0
 40
2.0
 40
2.0
 40
3.0
 40
3.0
 40
3.0
 40
4.0
 40
4.0
 40
4.0
 40
4.0
 10
80.32291800292275
 20
-118.5913831626265
 10
80.15789792917928
 20
-118.5913831626265
 10
80.07332083501639
 20
-118.6864677980194
 10
80.07332083501639
 20
-118.8218600505897
 10
80.07332083501639
 20
-118.9446777046388
 10
80.14532333065812
 20
-119.0631889893314
 10
80.32291800292275
 20
-119.0631889893314
 10
80.50068492996164
 20
-119.0631889893314
 10
80.57251517082909
 20
-118.9446777046388
 10
80.57251517082909
 20
-118.8218600505897
 10
80.57251517082909
 20
-118.6864677980194
 10
80.48587101937507
 20
-118.5913831626265
 10
80.32291800292275
 20
-118.5913831626265
 97
        0
 97
        0
 75
     2
 76
     1
 98
        0
  0
ENDBLK
  5
A7
330
A4
100
AcDbEntity
  8
0
100
AcDbBlockEnd
  0
BLOCK
  5
B6
330
B4
100
AcDbEntity
  8
0
100
AcDbBlockBegin
  2
block 3
 70
     0
 10
0.0
 20
0.0
 30
0.0
  3
block 3
  1

  0
SPLINE
  5
B8
330
B4
100
AcDbEntity
  8
_U+30EC_U+30A4_U+30E4_U+30FC 1
370
     0
100
AcDbSpline
210
0.0
220
0.0
230
1.0
 70
    11
 71
     3
 72
    29
 73
    25
 74
     0
 42
0.0000000001
 43
0.0000000001
 12
1.0
 22
0.0
 32
0.0
 13
1.0
 23
0.0
 33
0.0
 40
0.0
 40
0.0
 40
0.0
 40
0.0
 40
1.0
 40
1.0
 40
1.0
 40
2.0
 40
2.0
 40
2.0
 40
3.0
 40
3.0
 40
3.0
 40
4.0
 40
4.0
 40
4.0
 40
5.0
 40
5.0
 40
5.0
 40
6.0
 40
6.0
 40
6.0
 40
7.0
 40
7.0
 40
7.0
 40
8.0
 40
8.0
 40
8.0
 40
8.0
 10
88.32294648399565
 20
-120.042629635788
 30
0.0
 10
88.05646834821158
 20
-120.042629635788
 30
0.0
 10
87.80256481094867
 20
-119.9049980711522
 30
0.0
 10
87.80256481094867
 20
-119.5560098984964
 30
0.0
 10
87.80256481094867
 20
-119.3000393039424
 30
0.0
 10
87.9443304901667
 20
-119.2047824137752
 30
0.0
 10
88.05009492156387
 20
-119.1434597141377
 30
0.0
 10
87.92521021022357
 20
-119.0842040717915
 30
0.0
 10
87.84907359999954
 20
-118.9699991564554
 30
0.0
 10
87.84907359999954
 20
-118.8092854520685
 30
0.0
 10
87.84907359999954
 20
-118.5341945775713
 30
0.0
 10
88.04802786427273
 20
-118.398802325001
 30
0.0
 10
88.32294648399565
 20
-118.398802325001
 30
0.0
 10
88.60647784243172
 20
-118.398802325001
 30
0.0
 10
88.79681936799177
 20
-118.5426350615102
 30
0.0
 10
88.79681936799177
 20
-118.8092854520685
 30
0.0
 10
88.79681936799177
 20
-118.9699991564554
 30
0.0
 10
88.7186157004766
 20
-119.0842040717915
 30
0.0
 10
88.59373098913629
 20
-119.1434597141377
 30
0.0
 10
88.68261445265574
 20
-119.1942748725452
 30
0.0
 10
88.84126109975149
 20
-119.2895317627123
 30
0.0
 10
88.84126109975149
 20
-119.5517035291399
 30
0.0
 10
88.84126109975149
 20
-119.9261854083865
 30
0.0
 10
88.562036110672
 20
-120.042629635788
 30
0.0
 10
88.32294648399565
 20
-120.042629635788
 30
0.0
  0
SPLINE
  5
B9
330
B4
100
AcDbEntity
  8
_U+30EC_U+30A4_U+30E4_U+30FC 1
370
     0
100
AcDbSpline
210
0.0
220
0.0
230
1.0
 70
    11
 71
     3
 72
    17
 73
    13
 74
     0
 42
0.0000000001
 43
0.0000000001
 12
1.0
 22
0.0
 32
0.0
 13
1.0
 23
0.0
 33
0.0
 40
0.0
 40
0.0
 40
0.0
 40
0.0
 40
1.0
 40
1.0
 40
1.0
 40
2.0
 40
2.0
 40
2.0
 40
3.0
 40
3.0
 40
3.0
 40
4.0
 40
4.0
 40
4.0
 40
4.0
 10
88.32294648399565
 20
-119.2514634576003
 30
0.0
 10
88.17911374748648
 20
-119.2514634576003
 30
0.0
 10
88.02684052703843
 20
-119.3381076090544
 30
0.0
 10
88.02684052703843
 20
-119.5411959879098
 30
0.0
 10
88.02684052703843
 20
-119.7463514240565
 30
0.0
 10
88.15379229566989
 20
-119.8479817408713
 30
0.0
 10
88.32294648399565
 20
-119.8479817408713
 30
0.0
 10
88.50915389497341
 20
-119.8479817408713
 30
0.0
 10
88.61922469572714
 20
-119.7253363415964
 30
0.0
 10
88.61922469572714
 20
-119.5475694145576
 30
0.0
 10
88.61922469572714
 20
-119.3253607557589
 30
0.0
 10
88.45627167927482
 20
-119.2514634576003
 30
0.0
 10
88.32294648399565
 20
-119.2514634576003
 30
0.0
  0
SPLINE
  5
BA
330
B4
100
AcDbEntity
  8
_U+30EC_U+30A4_U+30E4_U+30FC 1
370
     0
100
AcDbSpline
210
0.0
220
0.0
230
1.0
 70
    11
 71
     3
 72
    17
 73
    13
 74
     0
 42
0.0000000001
 43
0.0000000001
 12
1.0
 22
0.0
 32
0.0
 13
1.0
 23
0.0
 33
0.0
 40
0.0
 40
0.0
 40
0.0
 40
0.0
 40
1.0
 40
1.0
 40
1.0
 40
2.0
 40
2.0
 40
2.0
 40
3.0
 40
3.0
 40
3.0
 40
4.0
 40
4.0
 40
4.0
 40
4.0
 10
88.32294648399565
 20
-118.5913831626265
 30
0.0
 10
88.15792641025219
 20
-118.5913831626265
 30
0.0
 10
88.0733493160893
 20
-118.6864677980194
 30
0.0
 10
88.0733493160893
 20
-118.8218600505897
 30
0.0
 10
88.0733493160893
 20
-118.9446777046388
 30
0.0
 10
88.14535181173103
 20
-119.0631889893314
 30
0.0
 10
88.32294648399565
 20
-119.0631889893314
 30
0.0
 10
88.50071341103455
 20
-119.0631889893314
 30
0.0
 10
88.57254365190201
 20
-118.9446777046388
 30
0.0
 10
88.57254365190201
 20
-118.8218600505897
 30
0.0
 10
88.57254365190201
 20
-118.6864677980194
 30
0.0
 10
88.48589950044797
 20
-118.5913831626265
 30
0.0
 10
88.32294648399565
 20
-118.5913831626265
 30
0.0
  0
HATCH
  5
BB
330
B4
100
AcDbEntity
  8
_U+30EC_U+30A4_U+30E4_U+30FC 1
 62
   179
420
  2234388
100
AcDbHatch
 10
0.0
 20
0.0
 30
0.0
210
0.0
220
0.0
230
1.0
  2
SOLID
 70
     1
 71
     0
 91
        3
 92
        1
 93
        1
 72
     4
 94
        3
 73
     0
 74
     1
 95
       29
 96
       25
 40
0.0
 40
0.0
 40
0.0
 40
0.0
 40
1.0
 40
1.0
 40
1.0
 40
2.0
 40
2.0
 40
2.0
 40
3.0
 40
3.0
 40
3.0
 40
4.0
 40
4.0
 40
4.0
 40
5.0
 40
5.0
 40
5.0
 40
6.0
 40
6.0
 40
6.0
 40
7.0
 40
7.0
 40
7.0
 40
8.0
 40
8.0
 40
8.0
 40
8.0
 10
88.32294648399565
 20
-120.042629635788
 10
88.05646834821158
 20
-120.042629635788
 10
87.80256481094867
 20
-119.9049980711522
 10
87.80256481094867
 20
-119.5560098984964
 10
87.80256481094867
 20
-119.3000393039424
 10
87.9443304901667
 20
-119.2047824137752
 10
88.05009492156387
 20
-119.1434597141377
 10
87.92521021022357
 20
-119.0842040717915
 10
87.84907359999954
 20
-118.9699991564554
 10
87.84907359999954
 20
-118.8092854520685
 10
87.84907359999954
 20
-118.5341945775713
 10
88.04802786427273
 20
-118.398802325001
 10
88.32294648399565
 20
-118.398802325001
 10
88.60647784243172
 20
-118.398802325001
 10
88.79681936799177
 20
-118.5426350615102
 10
88.79681936799177
 20
-118.8092854520685
 10
88.79681936799177
 20
-118.9699991564554
 10
88.7186157004766
 20
-119.0842040717915
 10
88.59373098913629
 20
-119.1434597141377
 10
88.68261445265574
 20
-119.1942748725452
 10
88.84126109975149
 20
-119.2895317627123
 10
88.84126109975149
 20
-119.5517035291399
 10
88.84126109975149
 20
-119.9261854083865
 10
88.562036110672
 20
-120.042629635788
 10
88.32294648399565
 20
-120.042629635788
 97
        0
 97
        0
 92
        1
 93
        1
 72
     4
 94
        3
 73
     0
 74
     1
 95
       17
 96
       13
 40
0.0
 40
0.0
 40
0.0
 40
0.0
 40
1.0
 40
1.0
 40
1.0
 40
2.0
 40
2.0
 40
2.0
 40
3.0
 40
3.0
 40
3.0
 40
4.0
 40
4.0
 40
4.0
 40
4.0
 10
88.32294648399565
 20
-119.2514634576003
 10
88.17911374748648
 20
-119.2514634576003
 10
88.02684052703843
 20
-119.3381076090544
 10
88.02684052703843
 20
-119.5411959879098
 10
88.02684052703843
 20
-119.7463514240565
 10
88.15379229566989
 20
-119.8479817408713
 10
88.32294648399565
 20
-119.8479817408713
 10
88.50915389497341
 20
-119.8479817408713
 10
88.61922469572714
 20
-119.7253363415964
 10
88.61922469572714
 20
-119.5475694145576
 10
88.61922469572714
 20
-119.3253607557589
 10
88.45627167927482
 20
-119.2514634576003
 10
88.32294648399565
 20
-119.2514634576003
 97
        0
 97
        0
 92
        1
 93
        1
 72
     4
 94
        3
 73
     0
 74
     1
 95
       17
 96
       13
 40
0.0
 40
0.0
 40
0.0
 40
0.0
 40
1.0
 40
1.0
 40
1.0
 40
2.0
 40
2.0
 40
2.0
 40
3.0
 40
3.0
 40
3.0
 40
4.0
 40
4.0
 40
4.0
 40
4.0
 10
88.32294648399565
 20
-118.5913831626265
 10
88.15792641025219
 20
-118.5913831626265
 10
88.0733493160893
 20
-118.6864677980194
 10
88.0733493160893
 20
-118.8218600505897
 10
88.0733493160893
 20
-118.9446777046388
 10
88.14535181173103
 20
-119.0631889893314
 10
88.32294648399565
 20
-119.0631889893314
 10
88.50071341103455
 20
-119.0631889893314
 10
88.57254365190201
 20
-118.9446777046388
 10
88.57254365190201
 20
-118.8218600505897
 10
88.57254365190201
 20
-118.6864677980194
 10
88.48589950044797
 20
-118.5913831626265
 10
88.32294648399565
 20
-118.5913831626265
 97
        0
 97
        0
 75
     2
 76
     1
 98
        0
  0
ENDBLK
  5
B7
330
B4
100
AcDbEntity
  8
0
100
AcDbBlockEnd
  0
BLOCK
  5
C6
330
C4
100
AcDbEntity
  8
0
100
AcDbBlockBegin
  2
block 4
 70
     0
 10
0.0
 20
0.0
 30
0.0
  3
block 4
  1

  0
SPLINE
  5
C8
330
C4
100
AcDbEntity
  8
_U+30EC_U+30A4_U+30E4_U+30FC 1
370
     0
100
AcDbSpline
210
0.0
220
0.0
230
1.0
 70
    11
 71
     3
 72
    29
 73
    25
 74
     0
 42
0.0000000001
 43
0.0000000001
 12
1.0
 22
0.0
 32
0.0
 13
1.0
 23
0.0
 33
0.0
 40
0.0
 40
0.0
 40
0.0
 40
0.0
 40
1.0
 40
1.0
 40
1.0
 40
2.0
 40
2.0
 40
2.0
 40
3.0
 40
3.0
 40
3.0
 40
4.0
 40
4.0
 40
4.0
 40
5.0
 40
5.0
 40
5.0
 40
6.0
 40
6.0
 40
6.0
 40
7.0
 40
7.0
 40
7.0
 40
8.0
 40
8.0
 40
8.0
 40
8.0
 10
96.3228027102943
 20
-120.042629635788
 30
0.0
 10
96.05615231973597
 20
-120.042629635788
 30
0.0
 10
95.80259329202158
 20
-119.9049980711522
 30
0.0
 10
95.80259329202158
 20
-119.5560098984964
 30
0.0
 10
95.80259329202158
 20
-119.3000393039424
 30
0.0
 10
95.94418671646535
 20
-119.2047824137752
 30
0.0
 10
96.04995114786252
 20
-119.1434597141377
 30
0.0
 10
95.92523869129647
 20
-119.0842040717915
 30
0.0
 10
95.84875757152393
 20
-118.9699991564554
 30
0.0
 10
95.84875757152393
 20
-118.8092854520685
 30
0.0
 10
95.84875757152393
 20
-118.5341945775713
 30
0.0
 10
96.04788409057137
 20
-118.398802325001
 30
0.0
 10
96.3228027102943
 20
-118.398802325001
 30
0.0
 10
96.60633406873036
 20
-118.398802325001
 30
0.0
 10
96.79684784906468
 20
-118.5426350615102
 30
0.0
 10
96.79684784906468
 20
-118.8092854520685
 30
0.0
 10
96.79684784906468
 20
-118.9699991564554
 30
0.0
 10
96.71829967200098
 20
-119.0842040717915
 30
0.0
 10
96.59358721543494
 20
-119.1434597141377
 30
0.0
 10
96.68247067895439
 20
-119.1942748725452
 30
0.0
 10
96.84094507127588
 20
-119.2895317627123
 30
0.0
 10
96.84094507127588
 20
-119.5517035291399
 30
0.0
 10
96.84094507127588
 20
-119.9261854083865
 30
0.0
 10
96.56189233697064
 20
-120.042629635788
 30
0.0
 10
96.3228027102943
 20
-120.042629635788
 30
0.0
  0
SPLINE
  5
C9
330
C4
100
AcDbEntity
  8
_U+30EC_U+30A4_U+30E4_U+30FC 1
370
     0
100
AcDbSpline
210
0.0
220
0.0
230
1.0
 70
    11
 71
     3
 72
    17
 73
    13
 74
     0
 42
0.0000000001
 43
0.0000000001
 12
1.0
 22
0.0
 32
0.0
 13
1.0
 23
0.0
 33
0.0
 40
0.0
 40
0.0
 40
0.0
 40
0.0
 40
1.0
 40
1.0
 40
1.0
 40
2.0
 40
2.0
 40
2.0
 40
3.0
 40
3.0
 40
3.0
 40
4.0
 40
4.0
 40
4.0
 40
4.0
 10
96.3228027102943
 20
-119.2514634576003
 30
0.0
 10
96.17879771901086
 20
-119.2514634576003
 30
0.0
 10
96.02652449856282
 20
-119.3381076090544
 30
0.0
 10
96.02652449856282
 20
-119.5411959879098
 30
0.0
 10
96.02652449856282
 20
-119.7463514240565
 30
0.0
 10
96.15364852196853
 20
-119.8479817408713
 30
0.0
 10
96.3228027102943
 20
-119.8479817408713
 30
0.0
 10
96.5088378664978
 20
-119.8479817408713
 30
0.0
 10
96.61908092202579
 20
-119.7253363415964
 30
0.0
 10
96.61908092202579
 20
-119.5475694145576
 30
0.0
 10
96.61908092202579
 20
-119.3253607557589
 30
0.0
 10
96.45612790557347
 20
-119.2514634576003
 30
0.0
 10
96.3228027102943
 20
-119.2514634576003
 30
0.0
  0
SPLINE
  5
CA
330
C4
100
AcDbEntity
  8
_U+30EC_U+30A4_U+30E4_U+30FC 1
370
     0
100
AcDbSpline
210
0.0
220
0.0
230
1.0
 70
    11
 71
     3
 72
    17
 73
    13
 74
     0
 42
0.0000000001
 43
0.0000000001
 12
1.0
 22
0.0
 32
0.0
 13
1.0
 23
0.0
 33
0.0
 40
0.0
 40
0.0
 40
0.0
 40
0.0
 40
1.0
 40
1.0
 40
1.0
 40
2.0
 40
2.0
 40
2.0
 40
3.0
 40
3.0
 40
3.0
 40
4.0
 40
4.0
 40
4.0
 40
4.0
 10
96.3228027102943
 20
-118.5913831626265
 30
0.0
 10
96.15778263655083
 20
-118.5913831626265
 30
0.0
 10
96.07337779716221
 20
-118.6864677980194
 30
0.0
 10
96.07337779716221
 20
-118.8218600505897
 30
0.0
 10
96.07337779716221
 20
-118.9446777046388
 30
0.0
 10
96.14503578325541
 20
-119.0631889893314
 30
0.0
 10
96.3228027102943
 20
-119.0631889893314
 30
0.0
 10
96.5005696373332
 20
-119.0631889893314
 30
0.0
 10
96.57222762342639
 20
-118.9446777046388
 30
0.0
 10
96.57222762342639
 20
-118.8218600505897
 30
0.0
 10
96.57222762342639
 20
-118.6864677980194
 30
0.0
 10
96.48575572674662
 20
-118.5913831626265
 30
0.0
 10
96.3228027102943
 20
-118.5913831626265
 30
0.0
  0
HATCH
  5
CB
330
C4
100
AcDbEntity
  8
_U+30EC_U+30A4_U+30E4_U+30FC 1
 62
   179
420
  2234388
100
AcDbHatch
 10
0.0
 20
0.0
 30
0.0
210
0.0
220
0.0
230
1.0
  2
SOLID
 70
     1
 71
     0
 91
        3
 92
        1
 93
        1
 72
     4
 94
        3
 73
     0
 74
     1
 95
       29
 96
       25
 40
0.0
 40
0.0
 40
0.0
 40
0.0
 40
1.0
 40
1.0
 40
1.0
 40
2.0
 40
2.0
 40
2.0
 40
3.0
 40
3.0
 40
3.0
 40
4.0
 40
4.0
 40
4.0
 40
5.0
 40
5.0
 40
5.0
 40
6.0
 40
6.0
 40
6.0
 40
7.0
 40
7.0
 40
7.0
 40
8.0
 40
8.0
 40
8.0
 40
8.0
 10
96.3228027102943
 20
-120.042629635788
 10
96.05615231973597
 20
-120.042629635788
 10
95.80259329202158
 20
-119.9049980711522
 10
95.80259329202158
 20
-119.5560098984964
 10
95.80259329202158
 20
-119.3000393039424
 10
95.94418671646535
 20
-119.2047824137752
 10
96.04995114786252
 20
-119.1434597141377
 10
95.92523869129647
 20
-119.0842040717915
 10
95.84875757152393
 20
-118.9699991564554
 10
95.84875757152393
 20
-118.8092854520685
 10
95.84875757152393
 20
-118.5341945775713
 10
96.04788409057137
 20
-118.398802325001
 10
96.3228027102943
 20
-118.398802325001
 10
96.60633406873036
 20
-118.398802325001
 10
96.79684784906468
 20
-118.5426350615102
 10
96.79684784906468
 20
-118.8092854520685
 10
96.79684784906468
 20
-118.9699991564554
 10
96.71829967200098
 20
-119.0842040717915
 10
96.59358721543494
 20
-119.1434597141377
 10
96.68247067895439
 20
-119.1942748725452
 10
96.84094507127588
 20
-119.2895317627123
 10
96.84094507127588
 20
-119.5517035291399
 10
96.84094507127588
 20
-119.9261854083865
 10
96.56189233697064
 20
-120.042629635788
 10
96.3228027102943
 20
-120.042629635788
 97
        0
 97
        0
 92
        1
 93
        1
 72
     4
 94
        3
 73
     0
 74
     1
 95
       17
 96
       13
 40
0.0
 40
0.0
 40
0.0
 40
0.0
 40
1.0
 40
1.0
 40
1.0
 40
2.0
 40
2.0
 40
2.0
 40
3.0
 40
3.0
 40
3.0
 40
4.0
 40
4.0
 40
4.0
 40
4.0
 10
96.3228027102943
 20
-119.2514634576003
 10
96.17879771901086
 20
-119.2514634576003
 10
96.02652449856282
 20
-119.3381076090544
 10
96.02652449856282
 20
-119.5411959879098
 10
96.02652449856282
 20
-119.7463514240565
 10
96.15364852196853
 20
-119.8479817408713
 10
96.3228027102943
 20
-119.8479817408713
 10
96.5088378664978
 20
-119.8479817408713
 10
96.61908092202579
 20
-119.7253363415964
 10
96.61908092202579
 20
-119.5475694145576
 10
96.61908092202579
 20
-119.3253607557589
 10
96.45612790557347
 20
-119.2514634576003
 10
96.3228027102943
 20
-119.2514634576003
 97
        0
 97
        0
 92
        1
 93
        1
 72
     4
 94
        3
 73
     0
 74
     1
 95
       17
 96
       13
 40
0.0
 40
0.0
 40
0.0
 40
0.0
 40
1.0
 40
1.0
 40
1.0
 40
2.0
 40
2.0
 40
2.0
 40
3.0
 40
3.0
 40
3.0
 40
4.0
 40
4.0
 40
4.0
 40
4.0
 10
96.3228027102943
 20
-118.5913831626265
 10
96.15778263655083
 20
-118.5913831626265
 10
96.07337779716221
 20
-118.6864677980194
 10
96.07337779716221
 20
-118.8218600505897
 10
96.07337779716221
 20
-118.9446777046388
 10
96.14503578325541
 20
-119.0631889893314
 10
96.3228027102943
 20
-119.0631889893314
 10
96.5005696373332
 20
-119.0631889893314
 10
96.57222762342639
 20
-118.9446777046388
 10
96.57222762342639
 20
-118.8218600505897
 10
96.57222762342639
 20
-118.6864677980194
 10
96.48575572674662
 20
-118.5913831626265
 10
96.3228027102943
 20
-118.5913831626265
 97
        0
 97
        0
 75
     2
 76
     1
 98
        0
  0
ENDBLK
  5
C7
330
C4
100
AcDbEntity
  8
0
100
AcDbBlockEnd
  0
BLOCK
  5
DE
330
DC
100
AcDbEntity
  8
0
100
AcDbBlockBegin
  2
block 5
 70
     0
 10
0.0
 20
0.0
 30
0.0
  3
block 5
  1

  0
SPLINE
  5
E0
330
DC
100
AcDbEntity
  8
_U+30EC_U+30A4_U+30E4_U+30FC 1
370
     0
100
AcDbSpline
210
0.0
220
0.0
230
1.0
 70
    11
 71
     3
 72
    26
 73
    22
 74
     0
 42
0.0000000001
 43
0.0000000001
 12
1.0
 22
0.0
 32
0.0
 13
1.0
 23
0.0
 33
0.0
 40
0.0
 40
0.0
 40
0.0
 40
0.0
 40
1.0
 40
1.0
 40
1.0
 40
2.0
 40
2.0
 40
2.0
 40
3.0
 40
3.0
 40
3.0
 40
4.0
 40
4.0
 40
4.0
 40
5.0
 40
5.0
 40
5.0
 40
6.0
 40
6.0
 40
6.0
 40
7.0
 40
7.0
 40
7.0
 40
7.0
 10
103.7177001693831
 20
-122.6495333894765
 30
0.0
 10
103.7177001693831
 20
-122.6495333894765
 30
0.0
 10
102.6135470663605
 20
-122.6495333894765
 30
0.0
 10
102.6135470663605
 20
-122.6495333894765
 30
0.0
 10
102.6135470663605
 20
-122.6495333894765
 30
0.0
 10
102.6135470663605
 20
-122.9795735369634
 30
0.0
 10
102.6135470663605
 20
-122.9795735369634
 30
0.0
 10
102.6135470663605
 20
-122.9795735369634
 30
0.0
 10
102.4654079604948
 20
-122.9795735369634
 30
0.0
 10
102.4654079604948
 20
-122.9795735369634
 30
0.0
 10
102.4505940499082
 20
-122.6474663321854
 30
0.0
 10
102.2876410334559
 20
-122.6009575431345
 30
0.0
 10
102.1732638633456
 20
-122.5713297219613
 30
0.0
 10
102.1732638633456
 20
-122.5713297219613
 30
0.0
 10
102.1732638633456
 20
-122.4252576733868
 30
0.0
 10
102.1732638633456
 20
-122.4252576733868
 30
0.0
 10
102.1732638633456
 20
-122.4252576733868
 30
0.0
 10
103.7177001693831
 20
-122.4252576733868
 30
0.0
 10
103.7177001693831
 20
-122.4252576733868
 30
0.0
 10
103.7177001693831
 20
-122.4252576733868
 30
0.0
 10
103.7177001693831
 20
-122.6495333894765
 30
0.0
 10
103.7177001693831
 20
-122.6495333894765
 30
0.0
  0
HATCH
  5
E1
330
DC
100
AcDbEntity
  8
_U+30EC_U+30A4_U+30E4_U+30FC 1
 62
   179
420
  2234388
100
AcDbHatch
 10
0.0
 20
0.0
 30
0.0
210
0.0
220
0.0
230
1.0
  2
SOLID
 70
     1
 71
     0
 91
        1
 92
        1
 93
        1
 72
     4
 94
        3
 73
     0
 74
     1
 95
       26
 96
       22
 40
0.0
 40
0.0
 40
0.0
 40
0.0
 40
1.0
 40
1.0
 40
1.0
 40
2.0
 40
2.0
 40
2.0
 40
3.0
 40
3.0
 40
3.0
 40
4.0
 40
4.0
 40
4.0
 40
5.0
 40
5.0
 40
5.0
 40
6.0
 40
6.0
 40
6.0
 40
7.0
 40
7.0
 40
7.0
 40
7.0
 10
103.7177001693831
 20
-122.6495333894765
 10
103.7177001693831
 20
-122.6495333894765
 10
102.6135470663605
 20
-122.6495333894765
 10
102.6135470663605
 20
-122.6495333894765
 10
102.6135470663605
 20
-122.6495333894765
 10
102.6135470663605
 20
-122.9795735369634
 10
102.6135470663605
 20
-122.9795735369634
 10
102.6135470663605
 20
-122.9795735369634
 10
102.4654079604948
 20
-122.9795735369634
 10
102.4654079604948
 20
-122.9795735369634
 10
102.4505940499082
 20
-122.6474663321854
 10
102.2876410334559
 20
-122.6009575431345
 10
102.1732638633456
 20
-122.5713297219613
 10
102.1732638633456
 20
-122.5713297219613
 10
102.1732638633456
 20
-122.4252576733868
 10
102.1732638633456
 20
-122.4252576733868
 10
102.1732638633456
 20
-122.4252576733868
 10
103.7177001693831
 20
-122.4252576733868
 10
103.7177001693831
 20
-122.4252576733868
 10
103.7177001693831
 20
-122.4252576733868
 10
103.7177001693831
 20
-122.6495333894765
 10
103.7177001693831
 20
-122.6495333894765
 97
        0
 97
        0
 75
     2
 76
     1
 98
        0
  0
POLYLINE
  5
E2
330
DC
100
AcDbEntity
  8
_U+30EC_U+30A4_U+30E4_U+30FC 1
370
     0
100
AcDb2dPolyline
 66
     1
 10
0.0
 20
0.0
 30
0.0
  0
VERTEX
  5
E3
330
E2
100
AcDbEntity
  8
_U+30EC_U+30A4_U+30E4_U+30FC 1
370
     0
100
AcDbVertex
100
AcDb2dVertex
 10
103.7177001693831
 20
-121.8640516188396
 30
0.0
  0
VERTEX
  5
E4
330
E2
100
AcDbEntity
  8
_U+30EC_U+30A4_U+30E4_U+30FC 1
370
     0
100
AcDbVertex
100
AcDb2dVertex
 10
103.4658636894113
 20
-121.8640516188396
 30
0.0
  0
VERTEX
  5
E5
330
E2
100
AcDbEntity
  8
_U+30EC_U+30A4_U+30E4_U+30FC 1
370
     0
100
AcDbVertex
100
AcDb2dVertex
 10
103.4658636894113
 20
-121.6123873936421
 30
0.0
  0
VERTEX
  5
E6
330
E2
100
AcDbEntity
  8
_U+30EC_U+30A4_U+30E4_U+30FC 1
370
     0
100
AcDbVertex
100
AcDb2dVertex
 10
103.7177001693831
 20
-121.6123873936421
 30
0.0
  0
VERTEX
  5
E7
330
E2
100
AcDbEntity
  8
_U+30EC_U+30A4_U+30E4_U+30FC 1
370
     0
100
AcDbVertex
100
AcDb2dVertex
 10
103.7177001693831
 20
-121.8640516188396
 30
0.0
  0
SEQEND
  5
E8
330
E2
100
AcDbEntity
  8
_U+30EC_U+30A4_U+30E4_U+30FC 1
370
     0
  0
HATCH
  5
E9
330
DC
100
AcDbEntity
  8
_U+30EC_U+30A4_U+30E4_U+30FC 1
 62
   179
420
  2234388
100
AcDbHatch
 10
0.0
 20
0.0
 30
0.0
210
0.0
220
0.0
230
1.0
  2
SOLID
 70
     1
 71
     0
 91
        1
 92
        1
 93
        4
 72
     1
 10
103.7177001693831
 20
-121.8640516188396
 11
103.4658636894113
 21
-121.8640516188396
 72
     1
 10
103.4658636894113
 20
-121.8640516188396
 11
103.4658636894113
 21
-121.6123873936421
 72
     1
 10
103.4658636894113
 20
-121.6123873936421
 11
103.7177001693831
 21
-121.6123873936421
 72
     1
 10
103.7177001693831
 20
-121.6123873936421
 11
103.7177001693831
 21
-121.8640516188396
 97
        0
 75
     2
 76
     1
 98
        0
  0
SPLINE
  5
EA
330
DC
100
AcDbEntity
  8
_U+30EC_U+30A4_U+30E4_U+30FC 1
370
     0
100
AcDbSpline
210
0.0
220
0.0
230
1.0
 70
    11
 71
     3
 72
    53
 73
    49
 74
     0
 42
0.0000000001
 43
0.0000000001
 12
1.0
 22
0.0
 32
0.0
 13
1.0
 23
0.0
 33
0.0
 40
0.0
 40
0.0
 40
0.0
 40
0.0
 40
1.0
 40
1.0
 40
1.0
 40
2.0
 40
2.0
 40
2.0
 40
3.0
 40
3.0
 40
3.0
 40
4.0
 40
4.0
 40
4.0
 40
5.0
 40
5.0
 40
5.0
 40
6.0
 40
6.0
 40
6.0
 40
7.0
 40
7.0
 40
7.0
 40
8.0
 40
8.0
 40
8.0
 40
9.0
 40
9.0
 40
9.0
 40
10.0
 40
10.0
 40
10.0
 40
11.0
 40
11.0
 40
11.0
 40
12.0
 40
12.0
 40
12.0
 40
13.0
 40
13.0
 40
13.0
 40
14.0
 40
14.0
 40
14.0
 40
15.0
 40
15.0
 40
15.0
 40
16.0
 40
16.0
 40
16.0
 40
16.0
 10
103.7683430730163
 20
-120.8947740040645
 30
0.0
 10
103.7683430730163
 20
-120.9731499263539
 30
0.0
 10
103.7514621051385
 20
-121.0746079883945
 30
0.0
 10
103.6880723482099
 20
-121.1762383052094
 30
0.0
 10
103.5781738022305
 20
-121.3496988628917
 30
0.0
 10
103.4469156642424
 20
-121.370886200126
 30
0.0
 10
103.3390841755541
 20
-121.3898342252949
 30
0.0
 10
103.3390841755541
 20
-121.3898342252949
 30
0.0
 10
103.3390841755541
 20
-121.1677978212706
 30
0.0
 10
103.3390841755541
 20
-121.1677978212706
 30
0.0
 10
103.537866185053
 20
-121.1126762935066
 30
0.0
 10
103.5674940062262
 20
-120.9857245248751
 30
0.0
 10
103.5674940062262
 20
-120.8927069467734
 30
0.0
 10
103.5674940062262
 20
-120.7530083248465
 30
0.0
 10
103.4679307467025
 20
-120.6007351043984
 30
0.0
 10
103.2353868014481
 20
-120.6007351043984
 30
0.0
 10
102.979416206894
 20
-120.6007351043984
 30
0.0
 10
102.909825278092
 20
-120.7805690887285
 30
0.0
 10
102.909825278092
 20
-120.9011474307122
 30
0.0
 10
102.909825278092
 20
-120.9328423091765
 30
0.0
 10
102.909825278092
 20
-121.0746079883945
 30
0.0
 10
103.0386718492403
 20
-121.163491451914
 30
0.0
 10
103.0386718492403
 20
-121.163491451914
 30
0.0
 10
103.0193793145229
 20
-121.3390190668875
 30
0.0
 10
103.0193793145229
 20
-121.3390190668875
 30
0.0
 10
103.0193793145229
 20
-121.3390190668875
 30
0.0
 10
102.1732638633456
 20
-121.2184407249037
 30
0.0
 10
102.1732638633456
 20
-121.2184407249037
 30
0.0
 10
102.1732638633456
 20
-121.2184407249037
 30
0.0
 10
102.1732638633456
 20
-120.4400214000115
 30
0.0
 10
102.1732638633456
 20
-120.4400214000115
 30
0.0
 10
102.1732638633456
 20
-120.4400214000115
 30
0.0
 10
102.3682562678107
 20
-120.4400214000115
 30
0.0
 10
102.3682562678107
 20
-120.4400214000115
 30
0.0
 10
102.3682562678107
 20
-120.4400214000115
 30
0.0
 10
102.3682562678107
 20
-121.0556599632257
 30
0.0
 10
102.3682562678107
 20
-121.0556599632257
 30
0.0
 10
102.3682562678107
 20
-121.0556599632257
 30
0.0
 10
102.7913139933994
 20
-121.1211167774454
 30
0.0
 10
102.7913139933994
 20
-121.1211167774454
 30
0.0
 10
102.7572075480954
 20
-121.059794077808
 30
0.0
 10
102.716899930918
 20
-120.9772840409362
 30
0.0
 10
102.716899930918
 20
-120.8589450110179
 30
0.0
 10
102.716899930918
 20
-120.605041473755
 30
0.0
 10
102.90327959667
 20
-120.3680189043698
 30
0.0
 10
103.2164387762792
 20
-120.3680189043698
 30
0.0
 10
103.5337320704707
 20
-120.3680189043698
 30
0.0
 10
103.7683430730163
 20
-120.5922946204596
 30
0.0
 10
103.7683430730163
 20
-120.8947740040645
 30
0.0
  0
HATCH
  5
EB
330
DC
100
AcDbEntity
  8
_U+30EC_U+30A4_U+30E4_U+30FC 1
 62
   179
420
  2234388
100
AcDbHatch
 10
0.0
 20
0.0
 30
0.0
210
0.0
220
0.0
230
1.0
  2
SOLID
 70
     1
 71
     0
 91
        1
 92
        1
 93
        1
 72
     4
 94
        3
 73
     0
 74
     1
 95
       53
 96
       49
 40
0.0
 40
0.0
 40
0.0
 40
0.0
 40
1.0
 40
1.0
 40
1.0
 40
2.0
 40
2.0
 40
2.0
 40
3.0
 40
3.0
 40
3.0
 40
4.0
 40
4.0
 40
4.0
 40
5.0
 40
5.0
 40
5.0
 40
6.0
 40
6.0
 40
6.0
 40
7.0
 40
7.0
 40
7.0
 40
8.0
 40
8.0
 40
8.0
 40
9.0
 40
9.0
 40
9.0
 40
10.0
 40
10.0
 40
10.0
 40
11.0
 40
11.0
 40
11.0
 40
12.0
 40
12.0
 40
12.0
 40
13.0
 40
13.0
 40
13.0
 40
14.0
 40
14.0
 40
14.0
 40
15.0
 40
15.0
 40
15.0
 40
16.0
 40
16.0
 40
16.0
 40
16.0
 10
103.7683430730163
 20
-120.8947740040645
 10
103.7683430730163
 20
-120.9731499263539
 10
103.7514621051385
 20
-121.0746079883945
 10
103.6880723482099
 20
-121.1762383052094
 10
103.5781738022305
 20
-121.3496988628917
 10
103.4469156642424
 20
-121.370886200126
 10
103.3390841755541
 20
-121.3898342252949
 10
103.3390841755541
 20
-121.3898342252949
 10
103.3390841755541
 20
-121.1677978212706
 10
103.3390841755541
 20
-121.1677978212706
 10
103.537866185053
 20
-121.1126762935066
 10
103.5674940062262
 20
-120.9857245248751
 10
103.5674940062262
 20
-120.8927069467734
 10
103.5674940062262
 20
-120.7530083248465
 10
103.4679307467025
 20
-120.6007351043984
 10
103.2353868014481
 20
-120.6007351043984
 10
102.979416206894
 20
-120.6007351043984
 10
102.909825278092
 20
-120.7805690887285
 10
102.909825278092
 20
-120.9011474307122
 10
102.909825278092
 20
-120.9328423091765
 10
102.909825278092
 20
-121.0746079883945
 10
103.0386718492403
 20
-121.163491451914
 10
103.0386718492403
 20
-121.163491451914
 10
103.0193793145229
 20
-121.3390190668875
 10
103.0193793145229
 20
-121.3390190668875
 10
103.0193793145229
 20
-121.3390190668875
 10
102.1732638633456
 20
-121.2184407249037
 10
102.1732638633456
 20
-121.2184407249037
 10
102.1732638633456
 20
-121.2184407249037
 10
102.1732638633456
 20
-120.4400214000115
 10
102.1732638633456
 20
-120.4400214000115
 10
102.1732638633456
 20
-120.4400214000115
 10
102.3682562678107
 20
-120.4400214000115
 10
102.3682562678107
 20
-120.4400214000115
 10
102.3682562678107
 20
-120.4400214000115
 10
102.3682562678107
 20
-121.0556599632257
 10
102.3682562678107
 20
-121.0556599632257
 10
102.3682562678107
 20
-121.0556599632257
 10
102.7913139933994
 20
-121.1211167774454
 10
102.7913139933994
 20
-121.1211167774454
 10
102.7572075480954
 20
-121.059794077808
 10
102.716899930918
 20
-120.9772840409362
 10
102.716899930918
 20
-120.8589450110179
 10
102.716899930918
 20
-120.605041473755
 10
102.90327959667
 20
-120.3680189043698
 10
103.2164387762792
 20
-120.3680189043698
 10
103.5337320704707
 20
-120.3680189043698
 10
103.7683430730163
 20
-120.5922946204596
 10
103.7683430730163
 20
-120.8947740040645
 97
        0
 97
        0
 75
     2
 76
     1
 98
        0
  0
ENDBLK
  5
DF
330
DC
100
AcDbEntity
  8
0
100
AcDbBlockEnd
  0
BLOCK
  5
F6
330
F4
100
AcDbEntity
  8
0
100
AcDbBlockBegin
  2
block 6
 70
     0
 10
0.0
 20
0.0
 30
0.0
  3
block 6
  1

  0
SPLINE
  5
F8
330
F4
100
AcDbEntity
  8
_U+30EC_U+30A4_U+30E4_U+30FC 1
370
     0
100
AcDbSpline
210
0.0
220
0.0
230
1.0
 70
    11
 71
     3
 72
    26
 73
    22
 74
     0
 42
0.0000000001
 43
0.0000000001
 12
1.0
 22
0.0
 32
0.0
 13
1.0
 23
0.0
 33
0.0
 40
0.0
 40
0.0
 40
0.0
 40
0.0
 40
1.0
 40
1.0
 40
1.0
 40
2.0
 40
2.0
 40
2.0
 40
3.0
 40
3.0
 40
3.0
 40
4.0
 40
4.0
 40
4.0
 40
5.0
 40
5.0
 40
5.0
 40
6.0
 40
6.0
 40
6.0
 40
7.0
 40
7.0
 40
7.0
 40
7.0
 10
103.7177001693831
 20
-133.8130207998801
 30
0.0
 10
103.7177001693831
 20
-133.8130207998801
 30
0.0
 10
102.6135470663605
 20
-133.8130207998801
 30
0.0
 10
102.6135470663605
 20
-133.8130207998801
 30
0.0
 10
102.6135470663605
 20
-133.8130207998801
 30
0.0
 10
102.6135470663605
 20
-134.143060947367
 30
0.0
 10
102.6135470663605
 20
-134.143060947367
 30
0.0
 10
102.6135470663605
 20
-134.143060947367
 30
0.0
 10
102.4654079604948
 20
-134.143060947367
 30
0.0
 10
102.4654079604948
 20
-134.143060947367
 30
0.0
 10
102.4505940499082
 20
-133.8109537425889
 30
0.0
 10
102.2876410334559
 20
-133.7641004439895
 30
0.0
 10
102.1732638633456
 20
-133.7344726228164
 30
0.0
 10
102.1732638633456
 20
-133.7344726228164
 30
0.0
 10
102.1732638633456
 20
-133.5884005742418
 30
0.0
 10
102.1732638633456
 20
-133.5884005742418
 30
0.0
 10
102.1732638633456
 20
-133.5884005742418
 30
0.0
 10
103.7177001693831
 20
-133.5884005742418
 30
0.0
 10
103.7177001693831
 20
-133.5884005742418
 30
0.0
 10
103.7177001693831
 20
-133.5884005742418
 30
0.0
 10
103.7177001693831
 20
-133.8130207998801
 30
0.0
 10
103.7177001693831
 20
-133.8130207998801
 30
0.0
  0
HATCH
  5
F9
330
F4
100
AcDbEntity
  8
_U+30EC_U+30A4_U+30E4_U+30FC 1
 62
   179
420
  2234388
100
AcDbHatch
 10
0.0
 20
0.0
 30
0.0
210
0.0
220
0.0
230
1.0
  2
SOLID
 70
     1
 71
     0
 91
        1
 92
        1
 93
        1
 72
     4
 94
        3
 73
     0
 74
     1
 95
       26
 96
       22
 40
0.0
 40
0.0
 40
0.0
 40
0.0
 40
1.0
 40
1.0
 40
1.0
 40
2.0
 40
2.0
 40
2.0
 40
3.0
 40
3.0
 40
3.0
 40
4.0
 40
4.0
 40
4.0
 40
5.0
 40
5.0
 40
5.0
 40
6.0
 40
6.0
 40
6.0
 40
7.0
 40
7.0
 40
7.0
 40
7.0
 10
103.7177001693831
 20
-133.8130207998801
 10
103.7177001693831
 20
-133.8130207998801
 10
102.6135470663605
 20
-133.8130207998801
 10
102.6135470663605
 20
-133.8130207998801
 10
102.6135470663605
 20
-133.8130207998801
 10
102.6135470663605
 20
-134.143060947367
 10
102.6135470663605
 20
-134.143060947367
 10
102.6135470663605
 20
-134.143060947367
 10
102.4654079604948
 20
-134.143060947367
 10
102.4654079604948
 20
-134.143060947367
 10
102.4505940499082
 20
-133.8109537425889
 10
102.2876410334559
 20
-133.7641004439895
 10
102.1732638633456
 20
-133.7344726228164
 10
102.1732638633456
 20
-133.7344726228164
 10
102.1732638633456
 20
-133.5884005742418
 10
102.1732638633456
 20
-133.5884005742418
 10
102.1732638633456
 20
-133.5884005742418
 10
103.7177001693831
 20
-133.5884005742418
 10
103.7177001693831
 20
-133.5884005742418
 10
103.7177001693831
 20
-133.5884005742418
 10
103.7177001693831
 20
-133.8130207998801
 10
103.7177001693831
 20
-133.8130207998801
 97
        0
 97
        0
 75
     2
 76
     1
 98
        0
  0
SPLINE
  5
FA
330
F4
100
AcDbEntity
  8
_U+30EC_U+30A4_U+30E4_U+30FC 1
370
     0
100
AcDbSpline
210
0.0
220
0.0
230
1.0
 70
    11
 71
     3
 72
    44
 73
    40
 74
     0
 42
0.0000000001
 43
0.0000000001
 12
1.0
 22
0.0
 32
0.0
 13
1.0
 23
0.0
 33
0.0
 40
0.0
 40
0.0
 40
0.0
 40
0.0
 40
1.0
 40
1.0
 40
1.0
 40
2.0
 40
2.0
 40
2.0
 40
3.0
 40
3.0
 40
3.0
 40
4.0
 40
4.0
 40
4.0
 40
5.0
 40
5.0
 40
5.0
 40
6.0
 40
6.0
 40
6.0
 40
7.0
 40
7.0
 40
7.0
 40
8.0
 40
8.0
 40
8.0
 40
9.0
 40
9.0
 40
9.0
 40
10.0
 40
10.0
 40
10.0
 40
11.0
 40
11.0
 40
11.0
 40
12.0
 40
12.0
 40
12.0
 40
13.0
 40
13.0
 40
13.0
 40
13.0
 10
103.1358235419244
 20
-132.4942382481264
 30
0.0
 10
103.2946424437944
 20
-132.7119682827942
 30
0.0
 10
103.3687119967273
 20
-132.8053303704445
 30
0.0
 10
103.5127169880107
 20
-132.8539062167865
 30
0.0
 10
103.5127169880107
 20
-132.8539062167865
 30
0.0
 10
103.5127169880107
 20
-132.0753146371201
 30
0.0
 10
103.5127169880107
 20
-132.0753146371201
 30
0.0
 10
103.5127169880107
 20
-132.0753146371201
 30
0.0
 10
103.7177001693831
 20
-132.0753146371201
 30
0.0
 10
103.7177001693831
 20
-132.0753146371201
 30
0.0
 10
103.7177001693831
 20
-132.0753146371201
 30
0.0
 10
103.7177001693831
 20
-133.1033311299186
 30
0.0
 10
103.7177001693831
 20
-133.1033311299186
 30
0.0
 10
103.3600992580141
 20
-133.0716362514543
 30
0.0
 10
103.281895590499
 20
-133.0061794372346
 30
0.0
 10
102.9835503214763
 20
-132.6210177619836
 30
0.0
 10
102.7847683119774
 20
-132.3653916769781
 30
0.0
 10
102.716899930918
 20
-132.2999348627584
 30
0.0
 10
102.5797851306051
 20
-132.2999348627584
 30
0.0
 10
102.4612738459125
 20
-132.2999348627584
 30
0.0
 10
102.3300157079244
 20
-132.3715928488515
 30
0.0
 10
102.3300157079244
 20
-132.5683078010593
 30
0.0
 10
102.3300157079244
 20
-132.8284125101957
 30
0.0
 10
102.5604925958877
 20
-132.8370252489088
 30
0.0
 10
102.6769368232891
 20
-132.8415038730396
 30
0.0
 10
102.6769368232891
 20
-132.8415038730396
 30
0.0
 10
102.6769368232891
 20
-133.0654350795809
 30
0.0
 10
102.6769368232891
 20
-133.0654350795809
 30
0.0
 10
102.5501573094319
 20
-133.0571668504163
 30
0.0
 10
102.4378471966128
 20
-133.046487054412
 30
0.0
 10
102.3193359119202
 20
-132.9662163296057
 30
0.0
 10
102.1587944623075
 20
-132.8559732740777
 30
0.0
 10
102.1246880170035
 20
-132.6699381178742
 30
0.0
 10
102.1246880170035
 20
-132.5534938904727
 30
0.0
 10
102.1246880170035
 20
-132.2765082134587
 30
0.0
 10
102.3090006254644
 20
-132.0691134652466
 30
0.0
 10
102.5818521878962
 20
-132.0691134652466
 30
0.0
 10
102.8099175090197
 20
-132.0691134652466
 30
0.0
 10
102.909825278092
 20
-132.1855576926481
 30
0.0
 10
103.1358235419244
 20
-132.4942382481264
 30
0.0
  0
HATCH
  5
FB
330
F4
100
AcDbEntity
  8
_U+30EC_U+30A4_U+30E4_U+30FC 1
 62
   179
420
  2234388
100
AcDbHatch
 10
0.0
 20
0.0
 30
0.0
210
0.0
220
0.0
230
1.0
  2
SOLID
 70
     1
 71
     0
 91
        1
 92
        1
 93
        1
 72
     4
 94
        3
 73
     0
 74
     1
 95
       44
 96
       40
 40
0.0
 40
0.0
 40
0.0
 40
0.0
 40
1.0
 40
1.0
 40
1.0
 40
2.0
 40
2.0
 40
2.0
 40
3.0
 40
3.0
 40
3.0
 40
4.0
 40
4.0
 40
4.0
 40
5.0
 40
5.0
 40
5.0
 40
6.0
 40
6.0
 40
6.0
 40
7.0
 40
7.0
 40
7.0
 40
8.0
 40
8.0
 40
8.0
 40
9.0
 40
9.0
 40
9.0
 40
10.0
 40
10.0
 40
10.0
 40
11.0
 40
11.0
 40
11.0
 40
12.0
 40
12.0
 40
12.0
 40
13.0
 40
13.0
 40
13.0
 40
13.0
 10
103.1358235419244
 20
-132.4942382481264
 10
103.2946424437944
 20
-132.7119682827942
 10
103.3687119967273
 20
-132.8053303704445
 10
103.5127169880107
 20
-132.8539062167865
 10
103.5127169880107
 20
-132.8539062167865
 10
103.5127169880107
 20
-132.0753146371201
 10
103.5127169880107
 20
-132.0753146371201
 10
103.5127169880107
 20
-132.0753146371201
 10
103.7177001693831
 20
-132.0753146371201
 10
103.7177001693831
 20
-132.0753146371201
 10
103.7177001693831
 20
-132.0753146371201
 10
103.7177001693831
 20
-133.1033311299186
 10
103.7177001693831
 20
-133.1033311299186
 10
103.3600992580141
 20
-133.0716362514543
 10
103.281895590499
 20
-133.0061794372346
 10
102.9835503214763
 20
-132.6210177619836
 10
102.7847683119774
 20
-132.3653916769781
 10
102.716899930918
 20
-132.2999348627584
 10
102.5797851306051
 20
-132.2999348627584
 10
102.4612738459125
 20
-132.2999348627584
 10
102.3300157079244
 20
-132.3715928488515
 10
102.3300157079244
 20
-132.5683078010593
 10
102.3300157079244
 20
-132.8284125101957
 10
102.5604925958877
 20
-132.8370252489088
 10
102.6769368232891
 20
-132.8415038730396
 10
102.6769368232891
 20
-132.8415038730396
 10
102.6769368232891
 20
-133.0654350795809
 10
102.6769368232891
 20
-133.0654350795809
 10
102.5501573094319
 20
-133.0571668504163
 10
102.4378471966128
 20
-133.046487054412
 10
102.3193359119202
 20
-132.9662163296057
 10
102.1587944623075
 20
-132.8559732740777
 10
102.1246880170035
 20
-132.6699381178742
 10
102.1246880170035
 20
-132.5534938904727
 10
102.1246880170035
 20
-132.2765082134587
 10
102.3090006254644
 20
-132.0691134652466
 10
102.5818521878962
 20
-132.0691134652466
 10
102.8099175090197
 20
-132.0691134652466
 10
102.909825278092
 20
-132.1855576926481
 10
103.1358235419244
 20
-132.4942382481264
 97
        0
 97
        0
 75
     2
 76
     1
 98
        0
  0
POLYLINE
  5
FC
330
F4
100
AcDbEntity
  8
_U+30EC_U+30A4_U+30E4_U+30FC 1
370
     0
100
AcDb2dPolyline
 66
     1
 10
0.0
 20
0.0
 30
0.0
  0
VERTEX
  5
FD
330
FC
100
AcDbEntity
  8
_U+30EC_U+30A4_U+30E4_U+30FC 1
370
     0
100
AcDbVertex
100
AcDb2dVertex
 10
103.7177001693831
 20
-131.8506944114818
 30
0.0
  0
VERTEX
  5
FE
330
FC
100
AcDbEntity
  8
_U+30EC_U+30A4_U+30E4_U+30FC 1
370
     0
100
AcDbVertex
100
AcDb2dVertex
 10
103.4658636894113
 20
-131.8506944114818
 30
0.0
  0
VERTEX
  5
FF
330
FC
100
AcDbEntity
  8
_U+30EC_U+30A4_U+30E4_U+30FC 1
370
     0
100
AcDbVertex
100
AcDb2dVertex
 10
103.4658636894113
 20
-131.59885793151
 30
0.0
  0
VERTEX
  5
100
330
FC
100
AcDbEntity
  8
_U+30EC_U+30A4_U+30E4_U+30FC 1
370
     0
100
AcDbVertex
100
AcDb2dVertex
 10
103.7177001693831
 20
-131.59885793151
 30
0.0
  0
VERTEX
  5
101
330
FC
100
AcDbEntity
  8
_U+30EC_U+30A4_U+30E4_U+30FC 1
370
     0
100
AcDbVertex
100
AcDb2dVertex
 10
103.7177001693831
 20
-131.8506944114818
 30
0.0
  0
SEQEND
  5
102
330
FC
100
AcDbEntity
  8
_U+30EC_U+30A4_U+30E4_U+30FC 1
370
     0
  0
HATCH
  5
103
330
F4
100
AcDbEntity
  8
_U+30EC_U+30A4_U+30E4_U+30FC 1
 62
   179
420
  2234388
100
AcDbHatch
 10
0.0
 20
0.0
 30
0.0
210
0.0
220
0.0
230
1.0
  2
SOLID
 70
     1
 71
     0
 91
        1
 92
        1
 93
        4
 72
     1
 10
103.7177001693831
 20
-131.8506944114818
 11
103.4658636894113
 21
-131.8506944114818
 72
     1
 10
103.4658636894113
 20
-131.8506944114818
 11
103.4658636894113
 21
-131.59885793151
 72
     1
 10
103.4658636894113
 20
-131.59885793151
 11
103.7177001693831
 21
-131.59885793151
 72
     1
 10
103.7177001693831
 20
-131.59885793151
 11
103.7177001693831
 21
-131.8506944114818
 97
        0
 75
     2
 76
     1
 98
        0
  0
SPLINE
  5
104
330
F4
100
AcDbEntity
  8
_U+30EC_U+30A4_U+30E4_U+30FC 1
370
     0
100
AcDbSpline
210
0.0
220
0.0
230
1.0
 70
    11
 71
     3
 72
    53
 73
    49
 74
     0
 42
0.0000000001
 43
0.0000000001
 12
1.0
 22
0.0
 32
0.0
 13
1.0
 23
0.0
 33
0.0
 40
0.0
 40
0.0
 40
0.0
 40
0.0
 40
1.0
 40
1.0
 40
1.0
 40
2.0
 40
2.0
 40
2.0
 40
3.0
 40
3.0
 40
3.0
 40
4.0
 40
4.0
 40
4.0
 40
5.0
 40
5.0
 40
5.0
 40
6.0
 40
6.0
 40
6.0
 40
7.0
 40
7.0
 40
7.0
 40
8.0
 40
8.0
 40
8.0
 40
9.0
 40
9.0
 40
9.0
 40
10.0
 40
10.0
 40
10.0
 40
11.0
 40
11.0
 40
11.0
 40
12.0
 40
12.0
 40
12.0
 40
13.0
 40
13.0
 40
13.0
 40
14.0
 40
14.0
 40
14.0
 40
15.0
 40
15.0
 40
15.0
 40
16.0
 40
16.0
 40
16.0
 40
16.0
 10
103.7683430730163
 20
-130.8812445419325
 30
0.0
 10
103.7683430730163
 20
-130.9597927189962
 30
0.0
 10
103.7514621051385
 20
-131.0610785262625
 30
0.0
 10
103.6880723482099
 20
-131.1627088430774
 30
0.0
 10
103.5781738022305
 20
-131.3359971459855
 30
0.0
 10
103.4469156642424
 20
-131.357356737994
 30
0.0
 10
103.3390841755541
 20
-131.3763047631629
 30
0.0
 10
103.3390841755541
 20
-131.3763047631629
 30
0.0
 10
103.3390841755541
 20
-131.1540961043643
 30
0.0
 10
103.3390841755541
 20
-131.1540961043643
 30
0.0
 10
103.537866185053
 20
-131.0989745766003
 30
0.0
 10
103.5674940062262
 20
-130.9721950627431
 30
0.0
 10
103.5674940062262
 20
-130.8791774846413
 30
0.0
 10
103.5674940062262
 20
-130.7396511174887
 30
0.0
 10
103.4679307467025
 20
-130.5870333874921
 30
0.0
 10
103.2353868014481
 20
-130.5870333874921
 30
0.0
 10
102.979416206894
 20
-130.5870333874921
 30
0.0
 10
102.909825278092
 20
-130.7668673718222
 30
0.0
 10
102.909825278092
 20
-130.8874457138059
 30
0.0
 10
102.909825278092
 20
-130.9191405922702
 30
0.0
 10
102.909825278092
 20
-131.0610785262625
 30
0.0
 10
103.0386718492403
 20
-131.149961989782
 30
0.0
 10
103.0386718492403
 20
-131.149961989782
 30
0.0
 10
103.0193793145229
 20
-131.3256618595297
 30
0.0
 10
103.0193793145229
 20
-131.3256618595297
 30
0.0
 10
103.0193793145229
 20
-131.3256618595297
 30
0.0
 10
102.1732638633456
 20
-131.2050835175459
 30
0.0
 10
102.1732638633456
 20
-131.2050835175459
 30
0.0
 10
102.1732638633456
 20
-131.2050835175459
 30
0.0
 10
102.1732638633456
 20
-130.4264919378795
 30
0.0
 10
102.1732638633456
 20
-130.4264919378795
 30
0.0
 10
102.1732638633456
 20
-130.4264919378795
 30
0.0
 10
102.3682562678107
 20
-130.4264919378795
 30
0.0
 10
102.3682562678107
 20
-130.4264919378795
 30
0.0
 10
102.3682562678107
 20
-130.4264919378795
 30
0.0
 10
102.3682562678107
 20
-131.0421305010937
 30
0.0
 10
102.3682562678107
 20
-131.0421305010937
 30
0.0
 10
102.3682562678107
 20
-131.0421305010937
 30
0.0
 10
102.7913139933994
 20
-131.1075873153134
 30
0.0
 10
102.7913139933994
 20
-131.1075873153134
 30
0.0
 10
102.7572075480954
 20
-131.0462646156759
 30
0.0
 10
102.716899930918
 20
-130.9639268335785
 30
0.0
 10
102.716899930918
 20
-130.8454155488859
 30
0.0
 10
102.716899930918
 20
-130.591512011623
 30
0.0
 10
102.90327959667
 20
-130.3544894422378
 30
0.0
 10
103.2164387762792
 20
-130.3544894422378
 30
0.0
 10
103.5337320704707
 20
-130.3544894422378
 30
0.0
 10
103.7683430730163
 20
-130.5787651583275
 30
0.0
 10
103.7683430730163
 20
-130.8812445419325
 30
0.0
  0
HATCH
  5
105
330
F4
100
AcDbEntity
  8
_U+30EC_U+30A4_U+30E4_U+30FC 1
 62
   179
420
  2234388
100
AcDbHatch
 10
0.0
 20
0.0
 30
0.0
210
0.0
220
0.0
230
1.0
  2
SOLID
 70
     1
 71
     0
 91
        1
 92
        1
 93
        1
 72
     4
 94
        3
 73
     0
 74
     1
 95
       53
 96
       49
 40
0.0
 40
0.0
 40
0.0
 40
0.0
 40
1.0
 40
1.0
 40
1.0
 40
2.0
 40
2.0
 40
2.0
 40
3.0
 40
3.0
 40
3.0
 40
4.0
 40
4.0
 40
4.0
 40
5.0
 40
5.0
 40
5.0
 40
6.0
 40
6.0
 40
6.0
 40
7.0
 40
7.0
 40
7.0
 40
8.0
 40
8.0
 40
8.0
 40
9.0
 40
9.0
 40
9.0
 40
10.0
 40
10.0
 40
10.0
 40
11.0
 40
11.0
 40
11.0
 40
12.0
 40
12.0
 40
12.0
 40
13.0
 40
13.0
 40
13.0
 40
14.0
 40
14.0
 40
14.0
 40
15.0
 40
15.0
 40
15.0
 40
16.0
 40
16.0
 40
16.0
 40
16.0
 10
103.7683430730163
 20
-130.8812445419325
 10
103.7683430730163
 20
-130.9597927189962
 10
103.7514621051385
 20
-131.0610785262625
 10
103.6880723482099
 20
-131.1627088430774
 10
103.5781738022305
 20
-131.3359971459855
 10
103.4469156642424
 20
-131.357356737994
 10
103.3390841755541
 20
-131.3763047631629
 10
103.3390841755541
 20
-131.3763047631629
 10
103.3390841755541
 20
-131.1540961043643
 10
103.3390841755541
 20
-131.1540961043643
 10
103.537866185053
 20
-131.0989745766003
 10
103.5674940062262
 20
-130.9721950627431
 10
103.5674940062262
 20
-130.8791774846413
 10
103.5674940062262
 20
-130.7396511174887
 10
103.4679307467025
 20
-130.5870333874921
 10
103.2353868014481
 20
-130.5870333874921
 10
102.979416206894
 20
-130.5870333874921
 10
102.909825278092
 20
-130.7668673718222
 10
102.909825278092
 20
-130.8874457138059
 10
102.909825278092
 20
-130.9191405922702
 10
102.909825278092
 20
-131.0610785262625
 10
103.0386718492403
 20
-131.149961989782
 10
103.0386718492403
 20
-131.149961989782
 10
103.0193793145229
 20
-131.3256618595297
 10
103.0193793145229
 20
-131.3256618595297
 10
103.0193793145229
 20
-131.3256618595297
 10
102.1732638633456
 20
-131.2050835175459
 10
102.1732638633456
 20
-131.2050835175459
 10
102.1732638633456
 20
-131.2050835175459
 10
102.1732638633456
 20
-130.4264919378795
 10
102.1732638633456
 20
-130.4264919378795
 10
102.1732638633456
 20
-130.4264919378795
 10
102.3682562678107
 20
-130.4264919378795
 10
102.3682562678107
 20
-130.4264919378795
 10
102.3682562678107
 20
-130.4264919378795
 10
102.3682562678107
 20
-131.0421305010937
 10
102.3682562678107
 20
-131.0421305010937
 10
102.3682562678107
 20
-131.0421305010937
 10
102.7913139933994
 20
-131.1075873153134
 10
102.7913139933994
 20
-131.1075873153134
 10
102.7572075480954
 20
-131.0462646156759
 10
102.716899930918
 20
-130.9639268335785
 10
102.716899930918
 20
-130.8454155488859
 10
102.716899930918
 20
-130.591512011623
 10
102.90327959667
 20
-130.3544894422378
 10
103.2164387762792
 20
-130.3544894422378
 10
103.5337320704707
 20
-130.3544894422378
 10
103.7683430730163
 20
-130.5787651583275
 10
103.7683430730163
 20
-130.8812445419325
 97
        0
 97
        0
 75
     2
 76
     1
 98
        0
  0
ENDBLK
  5
F7
330
F4
100
AcDbEntity
  8
0
100
AcDbBlockEnd
  0
BLOCK
  5
10E
330
10C
100
AcDbEntity
  8
0
100
AcDbBlockBegin
  2
block 7
 70
     0
 10
0.0
 20
0.0
 30
0.0
  3
block 7
  1

  0
SPLINE
  5
110
330
10C
100
AcDbEntity
  8
_U+30EC_U+30A4_U+30E4_U+30FC 1
370
     0
100
AcDbSpline
210
0.0
220
0.0
230
1.0
 70
    11
 71
     3
 72
    26
 73
    22
 74
     0
 42
0.0000000001
 43
0.0000000001
 12
1.0
 22
0.0
 32
0.0
 13
1.0
 23
0.0
 33
0.0
 40
0.0
 40
0.0
 40
0.0
 40
0.0
 40
1.0
 40
1.0
 40
1.0
 40
2.0
 40
2.0
 40
2.0
 40
3.0
 40
3.0
 40
3.0
 40
4.0
 40
4.0
 40
4.0
 40
5.0
 40
5.0
 40
5.0
 40
6.0
 40
6.0
 40
6.0
 40
7.0
 40
7.0
 40
7.0
 40
7.0
 10
85.60442163658502
 20
-131.2198974281325
 30
0.0
 10
85.60442163658502
 20
-131.2198974281325
 30
0.0
 10
85.60442163658502
 20
-130.11574432511
 30
0.0
 10
85.60442163658502
 20
-130.11574432511
 30
0.0
 10
85.60442163658502
 20
-130.11574432511
 30
0.0
 10
85.27438148909808
 20
-130.11574432511
 30
0.0
 10
85.27438148909808
 20
-130.11574432511
 30
0.0
 10
85.27438148909808
 20
-130.11574432511
 30
0.0
 10
85.27438148909808
 20
-129.9676052192442
 30
0.0
 10
85.27438148909808
 20
-129.9676052192442
 30
0.0
 10
85.60648869387616
 20
-129.9527913086577
 30
0.0
 10
85.65299748292703
 20
-129.7898382922053
 30
0.0
 10
85.68262530410018
 20
-129.675461122095
 30
0.0
 10
85.68262530410018
 20
-129.675461122095
 30
0.0
 10
85.82869735267478
 20
-129.675461122095
 30
0.0
 10
85.82869735267478
 20
-129.675461122095
 30
0.0
 10
85.82869735267478
 20
-129.675461122095
 30
0.0
 10
85.82869735267478
 20
-131.2198974281325
 30
0.0
 10
85.82869735267478
 20
-131.2198974281325
 30
0.0
 10
85.82869735267478
 20
-131.2198974281325
 30
0.0
 10
85.60442163658502
 20
-131.2198974281325
 30
0.0
 10
85.60442163658502
 20
-131.2198974281325
 30
0.0
  0
HATCH
  5
111
330
10C
100
AcDbEntity
  8
_U+30EC_U+30A4_U+30E4_U+30FC 1
 62
   179
420
  2234388
100
AcDbHatch
 10
0.0
 20
0.0
 30
0.0
210
0.0
220
0.0
230
1.0
  2
SOLID
 70
     1
 71
     0
 91
        1
 92
        1
 93
        1
 72
     4
 94
        3
 73
     0
 74
     1
 95
       26
 96
       22
 40
0.0
 40
0.0
 40
0.0
 40
0.0
 40
1.0
 40
1.0
 40
1.0
 40
2.0
 40
2.0
 40
2.0
 40
3.0
 40
3.0
 40
3.0
 40
4.0
 40
4.0
 40
4.0
 40
5.0
 40
5.0
 40
5.0
 40
6.0
 40
6.0
 40
6.0
 40
7.0
 40
7.0
 40
7.0
 40
7.0
 10
85.60442163658502
 20
-131.2198974281325
 10
85.60442163658502
 20
-131.2198974281325
 10
85.60442163658502
 20
-130.11574432511
 10
85.60442163658502
 20
-130.11574432511
 10
85.60442163658502
 20
-130.11574432511
 10
85.27438148909808
 20
-130.11574432511
 10
85.27438148909808
 20
-130.11574432511
 10
85.27438148909808
 20
-130.11574432511
 10
85.27438148909808
 20
-129.9676052192442
 10
85.27438148909808
 20
-129.9676052192442
 10
85.60648869387616
 20
-129.9527913086577
 10
85.65299748292703
 20
-129.7898382922053
 10
85.68262530410018
 20
-129.675461122095
 10
85.68262530410018
 20
-129.675461122095
 10
85.82869735267478
 20
-129.675461122095
 10
85.82869735267478
 20
-129.675461122095
 10
85.82869735267478
 20
-129.675461122095
 10
85.82869735267478
 20
-131.2198974281325
 10
85.82869735267478
 20
-131.2198974281325
 10
85.82869735267478
 20
-131.2198974281325
 10
85.60442163658502
 20
-131.2198974281325
 10
85.60442163658502
 20
-131.2198974281325
 97
        0
 97
        0
 75
     2
 76
     1
 98
        0
  0
ENDBLK
  5
10F
330
10C
100
AcDbEntity
  8
0
100
AcDbBlockEnd
  0
ENDSEC
  0
SECTION
  2
ENTITIES
  0
SPLINE
  5
41
330
1F
100
AcDbEntity
  8
_U+30EC_U+30A4_U+30E4_U+30FC 1
370
     0
100
AcDbSpline
210
0.0
220
0.0
230
1.0
 70
    11
 71
     3
 72
    68
 73
    64
 74
     0
 42
0.0000000001
 43
0.0000000001
 12
1.0
 22
0.0
 32
0.0
 13
1.0
 23
0.0
 33
0.0
 40
0.0
 40
0.0
 40
0.0
 40
0.0
 40
1.0
 40
1.0
 40
1.0
 40
2.0
 40
2.0
 40
2.0
 40
3.0
 40
3.0
 40
3.0
 40
4.0
 40
4.0
 40
4.0
 40
5.0
 40
5.0
 40
5.0
 40
6.0
 40
6.0
 40
6.0
 40
7.0
 40
7.0
 40
7.0
 40
8.0
 40
8.0
 40
8.0
 40
9.0
 40
9.0
 40
9.0
 40
10.0
 40
10.0
 40
10.0
 40
11.0
 40
11.0
 40
11.0
 40
12.0
 40
12.0
 40
12.0
 40
13.0
 40
13.0
 40
13.0
 40
14.0
 40
14.0
 40
14.0
 40
15.0
 40
15.0
 40
15.0
 40
16.0
 40
16.0
 40
16.0
 40
17.0
 40
17.0
 40
17.0
 40
18.0
 40
18.0
 40
18.0
 40
19.0
 40
19.0
 40
19.0
 40
20.0
 40
20.0
 40
20.0
 40
21.0
 40
21.0
 40
21.0
 40
21.0
 10
99.36377440946337
 20
-124.6380469132848
 30
0.0
 10
99.36377440946337
 20
-124.6380469132848
 30
0.0
 10
92.36371097693875
 20
-124.6380469132848
 30
0.0
 10
92.36371097693875
 20
-124.6380469132848
 30
0.0
 10
92.36371097693875
 20
-124.6380469132848
 30
0.0
 10
92.36371097693875
 20
-137.6370613544795
 30
0.0
 10
92.36371097693875
 20
-137.6370613544795
 30
0.0
 10
92.36371097693875
 20
-137.6370613544795
 30
0.0
 10
88.7677083111414
 20
-137.6370613544795
 30
0.0
 10
88.7677083111414
 20
-137.6370613544795
 30
0.0
 10
88.7677083111414
 20
-137.6370613544795
 30
0.0
 10
88.36359913454567
 20
-138.3371135765265
 30
0.0
 10
88.36359913454567
 20
-138.3371135765265
 30
0.0
 10
88.36359913454567
 20
-138.3371135765265
 30
0.0
 10
87.95949442245451
 20
-137.6370613544795
 30
0.0
 10
87.95949442245451
 20
-137.6370613544795
 30
0.0
 10
87.95949442245451
 20
-137.6370613544795
 30
0.0
 10
84.36384006992135
 20
-137.6370613544795
 30
0.0
 10
84.36384006992135
 20
-137.6370613544795
 30
0.0
 10
84.36384006992135
 20
-137.6370613544795
 30
0.0
 10
84.36384006992135
 20
-124.6380469132848
 30
0.0
 10
84.36384006992135
 20
-124.6380469132848
 30
0.0
 10
84.36384006992135
 20
-124.6380469132848
 30
0.0
 10
77.36409413738863
 20
-124.6380469132848
 30
0.0
 10
77.36409413738863
 20
-124.6380469132848
 30
0.0
 10
76.8115030403753
 20
-124.6380469132848
 30
0.0
 10
76.36365166291205
 20
-125.0858983020619
 30
0.0
 10
76.36365166291205
 20
-125.6381366352573
 30
0.0
 10
76.36365166291205
 20
-125.6381366352573
 30
0.0
 10
76.36365166291205
 20
-126.1380227462432
 30
0.0
 10
76.36365166291205
 20
-126.1380227462432
 30
0.0
 10
76.36365166291205
 20
-126.1380227462432
 30
0.0
 10
77.86362745797781
 20
-126.1380227462432
 30
0.0
 10
77.86362745797781
 20
-126.1380227462432
 30
0.0
 10
77.86362745797781
 20
-126.1380227462432
 30
0.0
 10
77.86362745797781
 20
-125.6381366352573
 30
0.0
 10
77.86362745797781
 20
-125.6381366352573
 30
0.0
 10
77.86362745797781
 20
-125.6381366352573
 30
0.0
 10
83.36406787320544
 20
-125.6381366352573
 30
0.0
 10
83.36406787320544
 20
-125.6381366352573
 30
0.0
 10
83.36406787320544
 20
-125.6381366352573
 30
0.0
 10
83.36406787320544
 20
-138.6368335764521
 30
0.0
 10
83.36406787320544
 20
-138.6368335764521
 30
0.0
 10
83.36406787320544
 20
-138.6368335764521
 30
0.0
 10
93.36380067364657
 20
-138.6368335764521
 30
0.0
 10
93.36380067364657
 20
-138.6368335764521
 30
0.0
 10
93.36380067364657
 20
-138.6368335764521
 30
0.0
 10
93.36380067364657
 20
-125.6381366352573
 30
0.0
 10
93.36380067364657
 20
-125.6381366352573
 30
0.0
 10
93.36380067364657
 20
-125.6381366352573
 30
0.0
 10
98.86357081111352
 20
-125.6381366352573
 30
0.0
 10
98.86357081111352
 20
-125.6381366352573
 30
0.0
 10
98.86357081111352
 20
-125.6381366352573
 30
0.0
 10
98.86357081111352
 20
-126.1380227462432
 30
0.0
 10
98.86357081111352
 20
-126.1380227462432
 30
0.0
 10
98.86357081111352
 20
-126.1380227462432
 30
0.0
 10
100.3635466061793
 20
-126.1380227462432
 30
0.0
 10
100.3635466061793
 20
-126.1380227462432
 30
0.0
 10
100.3635466061793
 20
-126.1380227462432
 30
0.0
 10
100.3635466061793
 20
-125.6381366352573
 30
0.0
 10
100.3635466061793
 20
-125.6381366352573
 30
0.0
 10
100.3635466061793
 20
-125.0858983020619
 30
0.0
 10
99.91569522871603
 20
-124.6380469132848
 30
0.0
 10
99.36377440946337
 20
-124.6380469132848
 30
0.0
  0
HATCH
  5
42
330
1F
100
AcDbEntity
  8
_U+30EC_U+30A4_U+30E4_U+30FC 1
 62
     9
420
 13224394
100
AcDbHatch
 10
0.0
 20
0.0
 30
0.0
210
0.0
220
0.0
230
1.0
  2
SOLID
 70
     1
 71
     0
 91
        1
 92
        1
 93
        2
 72
     4
 94
        3
 73
     0
 74
     0
 95
       68
 96
       64
 40
0.0
 40
0.0
 40
0.0
 40
0.0
 40
0.3527777776895833
 40
0.3527777776895833
 40
0.3527777776895833
 40
0.7055555553791667
 40
0.7055555553791667
 40
0.7055555553791667
 40
1.05833333306875
 40
1.05833333306875
 40
1.05833333306875
 40
1.411111110758333
 40
1.411111110758333
 40
1.411111110758333
 40
1.763888888447917
 40
1.763888888447917
 40
1.763888888447917
 40
2.1166666661375
 40
2.1166666661375
 40
2.1166666661375
 40
2.469444443827083
 40
2.469444443827083
 40
2.469444443827083
 40
2.822222221516667
 40
2.822222221516667
 40
2.822222221516667
 40
3.17499999920625
 40
3.17499999920625
 40
3.17499999920625
 40
3.527777776895833
 40
3.527777776895833
 40
3.527777776895833
 40
3.880555554585417
 40
3.880555554585417
 40
3.880555554585417
 40
4.233333332275
 40
4.233333332275
 40
4.233333332275
 40
4.586111109964584
 40
4.586111109964584
 40
4.586111109964584
 40
4.938888887654167
 40
4.938888887654167
 40
4.938888887654167
 40
5.29166666534375
 40
5.29166666534375
 40
5.29166666534375
 40
5.644444443033334
 40
5.644444443033334
 40
5.644444443033334
 40
5.997222220722917
 40
5.997222220722917
 40
5.997222220722917
 40
6.349999998412501
 40
6.349999998412501
 40
6.349999998412501
 40
6.702777776102083
 40
6.702777776102083
 40
6.702777776102083
 40
7.055555553791667
 40
7.055555553791667
 40
7.055555553791667
 40
7.40833333148125
 40
7.40833333148125
 40
7.40833333148125
 40
7.40833333148125
 10
99.36377440946337
 20
-124.6380469132848
 10
99.36377440946337
 20
-124.6380469132848
 10
92.36371097693875
 20
-124.6380469132848
 10
92.36371097693875
 20
-124.6380469132848
 10
92.36371097693875
 20
-124.6380469132848
 10
92.36371097693875
 20
-137.6370613544795
 10
92.36371097693875
 20
-137.6370613544795
 10
92.36371097693875
 20
-137.6370613544795
 10
88.7677083111414
 20
-137.6370613544795
 10
88.7677083111414
 20
-137.6370613544795
 10
88.7677083111414
 20
-137.6370613544795
 10
88.36359913454567
 20
-138.3371135765265
 10
88.36359913454567
 20
-138.3371135765265
 10
88.36359913454567
 20
-138.3371135765265
 10
87.95949442245451
 20
-137.6370613544795
 10
87.95949442245451
 20
-137.6370613544795
 10
87.95949442245451
 20
-137.6370613544795
 10
84.36384006992135
 20
-137.6370613544795
 10
84.36384006992135
 20
-137.6370613544795
 10
84.36384006992135
 20
-137.6370613544795
 10
84.36384006992135
 20
-124.6380469132848
 10
84.36384006992135
 20
-124.6380469132848
 10
84.36384006992135
 20
-124.6380469132848
 10
77.36409413738863
 20
-124.6380469132848
 10
77.36409413738863
 20
-124.6380469132848
 10
76.8115030403753
 20
-124.6380469132848
 10
76.36365166291205
 20
-125.0858983020619
 10
76.36365166291205
 20
-125.6381366352573
 10
76.36365166291205
 20
-125.6381366352573
 10
76.36365166291205
 20
-126.1380227462432
 10
76.36365166291205
 20
-126.1380227462432
 10
76.36365166291205
 20
-126.1380227462432
 10
77.86362745797781
 20
-126.1380227462432
 10
77.86362745797781
 20
-126.1380227462432
 10
77.86362745797781
 20
-126.1380227462432
 10
77.86362745797781
 20
-125.6381366352573
 10
77.86362745797781
 20
-125.6381366352573
 10
77.86362745797781
 20
-125.6381366352573
 10
83.36406787320544
 20
-125.6381366352573
 10
83.36406787320544
 20
-125.6381366352573
 10
83.36406787320544
 20
-125.6381366352573
 10
83.36406787320544
 20
-138.6368335764521
 10
83.36406787320544
 20
-138.6368335764521
 10
83.36406787320544
 20
-138.6368335764521
 10
93.36380067364657
 20
-138.6368335764521
 10
93.36380067364657
 20
-138.6368335764521
 10
93.36380067364657
 20
-138.6368335764521
 10
93.36380067364657
 20
-125.6381366352573
 10
93.36380067364657
 20
-125.6381366352573
 10
93.36380067364657
 20
-125.6381366352573
 10
98.86357081111352
 20
-125.6381366352573
 10
98.86357081111352
 20
-125.6381366352573
 10
98.86357081111352
 20
-125.6381366352573
 10
98.86357081111352
 20
-126.1380227462432
 10
98.86357081111352
 20
-126.1380227462432
 10
98.86357081111352
 20
-126.1380227462432
 10
100.3635466061793
 20
-126.1380227462432
 10
100.3635466061793
 20
-126.1380227462432
 10
100.3635466061793
 20
-126.1380227462432
 10
100.3635466061793
 20
-125.6381366352573
 10
100.3635466061793
 20
-125.6381366352573
 10
100.3635466061793
 20
-125.0858983020619
 10
99.91569522871603
 20
-124.6380469132848
 10
99.36377440946337
 20
-124.6380469132848
 97
        0
 72
     1
 10
99.36377440946337
 20
-124.6380469132848
 11
99.36377440946337
 21
-124.6380469132848
 97
        0
 75
     2
 76
     1
 98
        0
  0
POLYLINE
  5
43
330
1F
100
AcDbEntity
  8
_U+30EC_U+30A4_U+30E4_U+30FC 1
 62
   179
420
  2234388
370
    25
100
AcDb2dPolyline
 66
     1
 10
0.0
 20
0.0
 30
0.0
  0
VERTEX
  5
44
330
43
100
AcDbEntity
  8
_U+30EC_U+30A4_U+30E4_U+30FC 1
 62
   179
420
  2234388
370
    25
100
AcDbVertex
100
AcDb2dVertex
 10
83.36371509543666
 20
-138.6368335764521
 30
0.0
  0
VERTEX
  5
45
330
43
100
AcDbEntity
  8
_U+30EC_U+30A4_U+30E4_U+30FC 1
 62
   179
420
  2234388
370
    25
100
AcDbVertex
100
AcDb2dVertex
 10
93.36380067364657
 20
-138.6368335764521
 30
0.0
  0
SEQEND
  5
46
330
43
100
AcDbEntity
  8
_U+30EC_U+30A4_U+30E4_U+30FC 1
 62
   179
420
  2234388
370
    25
  0
POLYLINE
  5
47
330
1F
100
AcDbEntity
  8
_U+30EC_U+30A4_U+30E4_U+30FC 1
 62
   179
420
  2234388
370
    25
100
AcDb2dPolyline
 66
     1
 10
0.0
 20
0.0
 30
0.0
  0
VERTEX
  5
48
330
47
100
AcDbEntity
  8
_U+30EC_U+30A4_U+30E4_U+30FC 1
 62
   179
420
  2234388
370
    25
100
AcDbVertex
100
AcDb2dVertex
 10
88.7677083111414
 20
-137.6370613544795
 30
0.0
  0
VERTEX
  5
49
330
47
100
AcDbEntity
  8
_U+30EC_U+30A4_U+30E4_U+30FC 1
 62
   179
420
  2234388
370
    25
100
AcDbVertex
100
AcDb2dVertex
 10
92.36335819916998
 20
-137.6370613544795
 30
0.0
  0
SEQEND
  5
4A
330
47
100
AcDbEntity
  8
_U+30EC_U+30A4_U+30E4_U+30FC 1
 62
   179
420
  2234388
370
    25
  0
POLYLINE
  5
4B
330
1F
100
AcDbEntity
  8
_U+30EC_U+30A4_U+30E4_U+30FC 1
 62
   179
420
  2234388
370
    25
100
AcDb2dPolyline
 66
     1
 10
0.0
 20
0.0
 30
0.0
  0
VERTEX
  5
4C
330
4B
100
AcDbEntity
  8
_U+30EC_U+30A4_U+30E4_U+30FC 1
 62
   179
420
  2234388
370
    25
100
AcDbVertex
100
AcDb2dVertex
 10
92.36371097693875
 20
-124.6380469132848
 30
0.0
  0
VERTEX
  5
4D
330
4B
100
AcDbEntity
  8
_U+30EC_U+30A4_U+30E4_U+30FC 1
 62
   179
420
  2234388
370
    25
100
AcDbVertex
100
AcDb2dVertex
 10
92.36371097693875
 20
-137.6370613544795
 30
0.0
  0
SEQEND
  5
4E
330
4B
100
AcDbEntity
  8
_U+30EC_U+30A4_U+30E4_U+30FC 1
 62
   179
420
  2234388
370
    25
  0
POLYLINE
  5
4F
330
1F
100
AcDbEntity
  8
_U+30EC_U+30A4_U+30E4_U+30FC 1
 62
   179
420
  2234388
370
    25
100
AcDb2dPolyline
 66
     1
 10
0.0
 20
0.0
 30
0.0
  0
VERTEX
  5
50
330
4F
100
AcDbEntity
  8
_U+30EC_U+30A4_U+30E4_U+30FC 1
 62
   179
420
  2234388
370
    25
100
AcDbVertex
100
AcDb2dVertex
 10
93.36380067364657
 20
-125.6381366352573
 30
0.0
  0
VERTEX
  5
51
330
4F
100
AcDbEntity
  8
_U+30EC_U+30A4_U+30E4_U+30FC 1
 62
   179
420
  2234388
370
    25
100
AcDbVertex
100
AcDb2dVertex
 10
93.36380067364657
 20
-138.6368335764521
 30
0.0
  0
SEQEND
  5
52
330
4F
100
AcDbEntity
  8
_U+30EC_U+30A4_U+30E4_U+30FC 1
 62
   179
420
  2234388
370
    25
  0
POLYLINE
  5
53
330
1F
100
AcDbEntity
  8
_U+30EC_U+30A4_U+30E4_U+30FC 1
 62
   179
420
  2234388
370
    25
100
AcDb2dPolyline
 66
     1
 10
0.0
 20
0.0
 30
0.0
  0
VERTEX
  5
54
330
53
100
AcDbEntity
  8
_U+30EC_U+30A4_U+30E4_U+30FC 1
 62
   179
420
  2234388
370
    25
100
AcDbVertex
100
AcDb2dVertex
 10
100.3635466061793
 20
-125.6381366352573
 30
0.0
  0
VERTEX
  5
55
330
53
100
AcDbEntity
  8
_U+30EC_U+30A4_U+30E4_U+30FC 1
 62
   179
420
  2234388
370
    25
100
AcDbVertex
100
AcDb2dVertex
 10
100.3635466061793
 20
-126.1380227462432
 30
0.0
  0
SEQEND
  5
56
330
53
100
AcDbEntity
  8
_U+30EC_U+30A4_U+30E4_U+30FC 1
 62
   179
420
  2234388
370
    25
  0
POLYLINE
  5
57
330
1F
100
AcDbEntity
  8
_U+30EC_U+30A4_U+30E4_U+30FC 1
 62
   179
420
  2234388
370
    25
100
AcDb2dPolyline
 66
     1
 10
0.0
 20
0.0
 30
0.0
  0
VERTEX
  5
58
330
57
100
AcDbEntity
  8
_U+30EC_U+30A4_U+30E4_U+30FC 1
 62
   179
420
  2234388
370
    25
100
AcDbVertex
100
AcDb2dVertex
 10
98.86357081111352
 20
-126.1380227462432
 30
0.0
  0
VERTEX
  5
59
330
57
100
AcDbEntity
  8
_U+30EC_U+30A4_U+30E4_U+30FC 1
 62
   179
420
  2234388
370
    25
100
AcDbVertex
100
AcDb2dVertex
 10
100.3635466061793
 20
-126.1380227462432
 30
0.0
  0
SEQEND
  5
5A
330
57
100
AcDbEntity
  8
_U+30EC_U+30A4_U+30E4_U+30FC 1
 62
   179
420
  2234388
370
    25
  0
POLYLINE
  5
5B
330
1F
100
AcDbEntity
  8
_U+30EC_U+30A4_U+30E4_U+30FC 1
 62
   179
420
  2234388
370
    25
100
AcDb2dPolyline
 66
     1
 10
0.0
 20
0.0
 30
0.0
  0
VERTEX
  5
5C
330
5B
100
AcDbEntity
  8
_U+30EC_U+30A4_U+30E4_U+30FC 1
 62
   179
420
  2234388
370
    25
100
AcDbVertex
100
AcDb2dVertex
 10
92.36371097693875
 20
-124.6380469132848
 30
0.0
  0
VERTEX
  5
5D
330
5B
100
AcDbEntity
  8
_U+30EC_U+30A4_U+30E4_U+30FC 1
 62
   179
420
  2234388
370
    25
100
AcDbVertex
100
AcDb2dVertex
 10
99.36377440946337
 20
-124.6380469132848
 30
0.0
  0
SEQEND
  5
5E
330
5B
100
AcDbEntity
  8
_U+30EC_U+30A4_U+30E4_U+30FC 1
 62
   179
420
  2234388
370
    25
  0
POLYLINE
  5
5F
330
1F
100
AcDbEntity
  8
_U+30EC_U+30A4_U+30E4_U+30FC 1
 62
   179
420
  2234388
370
    25
100
AcDb2dPolyline
 66
     1
 10
0.0
 20
0.0
 30
0.0
  0
VERTEX
  5
60
330
5F
100
AcDbEntity
  8
_U+30EC_U+30A4_U+30E4_U+30FC 1
 62
   179
420
  2234388
370
    25
100
AcDbVertex
100
AcDb2dVertex
 10
93.36380067364657
 20
-125.6381366352573
 30
0.0
  0
VERTEX
  5
61
330
5F
100
AcDbEntity
  8
_U+30EC_U+30A4_U+30E4_U+30FC 1
 62
   179
420
  2234388
370
    25
100
AcDbVertex
100
AcDb2dVertex
 10
98.86357081111352
 20
-125.6381366352573
 30
0.0
  0
SEQEND
  5
62
330
5F
100
AcDbEntity
  8
_U+30EC_U+30A4_U+30E4_U+30FC 1
 62
   179
420
  2234388
370
    25
  0
POLYLINE
  5
63
330
1F
100
AcDbEntity
  8
_U+30EC_U+30A4_U+30E4_U+30FC 1
 62
   179
420
  2234388
370
    25
100
AcDb2dPolyline
 66
     1
 10
0.0
 20
0.0
 30
0.0
  0
VERTEX
  5
64
330
63
100
AcDbEntity
  8
_U+30EC_U+30A4_U+30E4_U+30FC 1
 62
   179
420
  2234388
370
    25
100
AcDbVertex
100
AcDb2dVertex
 10
98.86357081111352
 20
-125.6381366352573
 30
0.0
  0
VERTEX
  5
65
330
63
100
AcDbEntity
  8
_U+30EC_U+30A4_U+30E4_U+30FC 1
 62
   179
420
  2234388
370
    25
100
AcDbVertex
100
AcDb2dVertex
 10
98.86357081111352
 20
-126.1380227462432
 30
0.0
  0
SEQEND
  5
66
330
63
100
AcDbEntity
  8
_U+30EC_U+30A4_U+30E4_U+30FC 1
 62
   179
420
  2234388
370
    25
  0
POLYLINE
  5
67
330
1F
100
AcDbEntity
  8
_U+30EC_U+30A4_U+30E4_U+30FC 1
 62
   179
420
  2234388
370
    25
100
AcDb2dPolyline
 66
     1
 10
0.0
 20
0.0
 30
0.0
  0
VERTEX
  5
68
330
67
100
AcDbEntity
  8
_U+30EC_U+30A4_U+30E4_U+30FC 1
 62
   179
420
  2234388
370
    25
100
AcDbVertex
100
AcDb2dVertex
 10
88.36359913454567
 20
-138.3371135765265
 30
0.0
  0
VERTEX
  5
69
330
67
100
AcDbEntity
  8
_U+30EC_U+30A4_U+30E4_U+30FC 1
 62
   179
420
  2234388
370
    25
100
AcDbVertex
100
AcDb2dVertex
 10
88.76806108891917
 20
-137.6370613544795
 30
0.0
  0
SEQEND
  5
6A
330
67
100
AcDbEntity
  8
_U+30EC_U+30A4_U+30E4_U+30FC 1
 62
   179
420
  2234388
370
    25
  0
POLYLINE
  5
6B
330
1F
100
AcDbEntity
  8
_U+30EC_U+30A4_U+30E4_U+30FC 1
 62
   179
420
  2234388
370
    25
100
AcDb2dPolyline
 66
     1
 10
0.0
 20
0.0
 30
0.0
  0
VERTEX
  5
6C
330
6B
100
AcDbEntity
  8
_U+30EC_U+30A4_U+30E4_U+30FC 1
 62
   179
420
  2234388
370
    25
100
AcDbVertex
100
AcDb2dVertex
 10
88.36359913454567
 20
-138.3371135765265
 30
0.0
  0
VERTEX
  5
6D
330
6B
100
AcDbEntity
  8
_U+30EC_U+30A4_U+30E4_U+30FC 1
 62
   179
420
  2234388
370
    25
100
AcDbVertex
100
AcDb2dVertex
 10
87.95914164467675
 20
-137.6370613544795
 30
0.0
  0
SEQEND
  5
6E
330
6B
100
AcDbEntity
  8
_U+30EC_U+30A4_U+30E4_U+30FC 1
 62
   179
420
  2234388
370
    25
  0
POLYLINE
  5
6F
330
1F
100
AcDbEntity
  8
_U+30EC_U+30A4_U+30E4_U+30FC 1
 62
   179
420
  2234388
370
    25
100
AcDb2dPolyline
 66
     1
 10
0.0
 20
0.0
 30
0.0
  0
VERTEX
  5
70
330
6F
100
AcDbEntity
  8
_U+30EC_U+30A4_U+30E4_U+30FC 1
 62
   179
420
  2234388
370
    25
100
AcDbVertex
100
AcDb2dVertex
 10
87.95949442245451
 20
-137.6370613544795
 30
0.0
  0
VERTEX
  5
71
330
6F
100
AcDbEntity
  8
_U+30EC_U+30A4_U+30E4_U+30FC 1
 62
   179
420
  2234388
370
    25
100
AcDbVertex
100
AcDb2dVertex
 10
84.36384006992135
 20
-137.6370613544795
 30
0.0
  0
SEQEND
  5
72
330
6F
100
AcDbEntity
  8
_U+30EC_U+30A4_U+30E4_U+30FC 1
 62
   179
420
  2234388
370
    25
  0
POLYLINE
  5
73
330
1F
100
AcDbEntity
  8
_U+30EC_U+30A4_U+30E4_U+30FC 1
 62
   179
420
  2234388
370
    25
100
AcDb2dPolyline
 66
     1
 10
0.0
 20
0.0
 30
0.0
  0
VERTEX
  5
74
330
73
100
AcDbEntity
  8
_U+30EC_U+30A4_U+30E4_U+30FC 1
 62
   179
420
  2234388
370
    25
100
AcDbVertex
100
AcDb2dVertex
 10
83.36371509543666
 20
-125.6381366352573
 30
0.0
  0
VERTEX
  5
75
330
73
100
AcDbEntity
  8
_U+30EC_U+30A4_U+30E4_U+30FC 1
 62
   179
420
  2234388
370
    25
100
AcDbVertex
100
AcDb2dVertex
 10
83.36371509543666
 20
-138.6368335764521
 30
0.0
  0
SEQEND
  5
76
330
73
100
AcDbEntity
  8
_U+30EC_U+30A4_U+30E4_U+30FC 1
 62
   179
420
  2234388
370
    25
  0
POLYLINE
  5
77
330
1F
100
AcDbEntity
  8
_U+30EC_U+30A4_U+30E4_U+30FC 1
 62
   179
420
  2234388
370
    25
100
AcDb2dPolyline
 66
     1
 10
0.0
 20
0.0
 30
0.0
  0
VERTEX
  5
78
330
77
100
AcDbEntity
  8
_U+30EC_U+30A4_U+30E4_U+30FC 1
 62
   179
420
  2234388
370
    25
100
AcDbVertex
100
AcDb2dVertex
 10
84.36384006992135
 20
-124.6380469132848
 30
0.0
  0
VERTEX
  5
79
330
77
100
AcDbEntity
  8
_U+30EC_U+30A4_U+30E4_U+30FC 1
 62
   179
420
  2234388
370
    25
100
AcDbVertex
100
AcDb2dVertex
 10
84.36384006992135
 20
-137.6370613544795
 30
0.0
  0
SEQEND
  5
7A
330
77
100
AcDbEntity
  8
_U+30EC_U+30A4_U+30E4_U+30FC 1
 62
   179
420
  2234388
370
    25
  0
POLYLINE
  5
7B
330
1F
100
AcDbEntity
  8
_U+30EC_U+30A4_U+30E4_U+30FC 1
 62
   179
420
  2234388
370
    25
100
AcDb2dPolyline
 66
     1
 10
0.0
 20
0.0
 30
0.0
  0
VERTEX
  5
7C
330
7B
100
AcDbEntity
  8
_U+30EC_U+30A4_U+30E4_U+30FC 1
 62
   179
420
  2234388
370
    25
100
AcDbVertex
100
AcDb2dVertex
 10
77.86362745797781
 20
-125.6381366352573
 30
0.0
  0
VERTEX
  5
7D
330
7B
100
AcDbEntity
  8
_U+30EC_U+30A4_U+30E4_U+30FC 1
 62
   179
420
  2234388
370
    25
100
AcDbVertex
100
AcDb2dVertex
 10
77.86362745797781
 20
-126.1380227462432
 30
0.0
  0
SEQEND
  5
7E
330
7B
100
AcDbEntity
  8
_U+30EC_U+30A4_U+30E4_U+30FC 1
 62
   179
420
  2234388
370
    25
  0
POLYLINE
  5
7F
330
1F
100
AcDbEntity
  8
_U+30EC_U+30A4_U+30E4_U+30FC 1
 62
   179
420
  2234388
370
    25
100
AcDb2dPolyline
 66
     1
 10
0.0
 20
0.0
 30
0.0
  0
VERTEX
  5
80
330
7F
100
AcDbEntity
  8
_U+30EC_U+30A4_U+30E4_U+30FC 1
 62
   179
420
  2234388
370
    25
100
AcDbVertex
100
AcDb2dVertex
 10
83.36371509543666
 20
-125.6381366352573
 30
0.0
  0
VERTEX
  5
81
330
7F
100
AcDbEntity
  8
_U+30EC_U+30A4_U+30E4_U+30FC 1
 62
   179
420
  2234388
370
    25
100
AcDbVertex
100
AcDb2dVertex
 10
77.86362745797781
 20
-125.6381366352573
 30
0.0
  0
SEQEND
  5
82
330
7F
100
AcDbEntity
  8
_U+30EC_U+30A4_U+30E4_U+30FC 1
 62
   179
420
  2234388
370
    25
  0
POLYLINE
  5
83
330
1F
100
AcDbEntity
  8
_U+30EC_U+30A4_U+30E4_U+30FC 1
 62
   179
420
  2234388
370
    25
100
AcDb2dPolyline
 66
     1
 10
0.0
 20
0.0
 30
0.0
  0
VERTEX
  5
84
330
83
100
AcDbEntity
  8
_U+30EC_U+30A4_U+30E4_U+30FC 1
 62
   179
420
  2234388
370
    25
100
AcDbVertex
100
AcDb2dVertex
 10
84.36384006992135
 20
-124.6380469132848
 30
0.0
  0
VERTEX
  5
85
330
83
100
AcDbEntity
  8
_U+30EC_U+30A4_U+30E4_U+30FC 1
 62
   179
420
  2234388
370
    25
100
AcDbVertex
100
AcDb2dVertex
 10
77.36342385962796
 20
-124.6380469132848
 30
0.0
  0
SEQEND
  5
86
330
83
100
AcDbEntity
  8
_U+30EC_U+30A4_U+30E4_U+30FC 1
 62
   179
420
  2234388
370
    25
  0
POLYLINE
  5
87
330
1F
100
AcDbEntity
  8
_U+30EC_U+30A4_U+30E4_U+30FC 1
 62
   179
420
  2234388
370
    25
100
AcDb2dPolyline
 66
     1
 10
0.0
 20
0.0
 30
0.0
  0
VERTEX
  5
88
330
87
100
AcDbEntity
  8
_U+30EC_U+30A4_U+30E4_U+30FC 1
 62
   179
420
  2234388
370
    25
100
AcDbVertex
100
AcDb2dVertex
 10
77.86362745797781
 20
-126.1380227462432
 30
0.0
  0
VERTEX
  5
89
330
87
100
AcDbEntity
  8
_U+30EC_U+30A4_U+30E4_U+30FC 1
 62
   179
420
  2234388
370
    25
100
AcDbVertex
100
AcDb2dVertex
 10
76.36365166291205
 20
-126.1380227462432
 30
0.0
  0
SEQEND
  5
8A
330
87
100
AcDbEntity
  8
_U+30EC_U+30A4_U+30E4_U+30FC 1
 62
   179
420
  2234388
370
    25
  0
POLYLINE
  5
8B
330
1F
100
AcDbEntity
  8
_U+30EC_U+30A4_U+30E4_U+30FC 1
 62
   179
420
  2234388
370
    25
100
AcDb2dPolyline
 66
     1
 10
0.0
 20
0.0
 30
0.0
  0
VERTEX
  5
8C
330
8B
100
AcDbEntity
  8
_U+30EC_U+30A4_U+30E4_U+30FC 1
 62
   179
420
  2234388
370
    25
100
AcDbVertex
100
AcDb2dVertex
 10
76.36365166291205
 20
-125.6381366352573
 30
0.0
  0
VERTEX
  5
8D
330
8B
100
AcDbEntity
  8
_U+30EC_U+30A4_U+30E4_U+30FC 1
 62
   179
420
  2234388
370
    25
100
AcDbVertex
100
AcDb2dVertex
 10
76.36365166291205
 20
-126.1380227462432
 30
0.0
  0
SEQEND
  5
8E
330
8B
100
AcDbEntity
  8
_U+30EC_U+30A4_U+30E4_U+30FC 1
 62
   179
420
  2234388
370
    25
  0
SPLINE
  5
8F
330
1F
100
AcDbEntity
  8
_U+30EC_U+30A4_U+30E4_U+30FC 1
 62
   179
420
  2234388
370
    25
100
AcDbSpline
210
0.0
220
0.0
230
1.0
 70
     8
 71
     3
 72
     8
 73
     4
 74
     0
 42
0.0000000001
 43
0.0000000001
 12
1.0
 22
0.0
 32
0.0
 13
1.0
 23
0.0
 33
0.0
 40
0.0
 40
0.0
 40
0.0
 40
0.0
 40
1.0
 40
1.0
 40
1.0
 40
1.0
 10
100.3635466061793
 20
-125.6381366352573
 30
0.0
 10
100.3635466061793
 20
-125.0858983020619
 30
0.0
 10
99.91569522871603
 20
-124.6380469132848
 30
0.0
 10
99.36377440946337
 20
-124.6380469132848
 30
0.0
  0
SPLINE
  5
90
330
1F
100
AcDbEntity
  8
_U+30EC_U+30A4_U+30E4_U+30FC 1
 62
   179
420
  2234388
370
    25
100
AcDbSpline
210
0.0
220
0.0
230
1.0
 70
     8
 71
     3
 72
     8
 73
     4
 74
     0
 42
0.0000000001
 43
0.0000000001
 12
1.0
 22
0.0
 32
0.0
 13
1.0
 23
0.0
 33
0.0
 40
0.0
 40
0.0
 40
0.0
 40
0.0
 40
1.0
 40
1.0
 40
1.0
 40
1.0
 10
77.36374135961987
 20
-124.6380469132848
 30
0.0
 10
76.8115030403753
 20
-124.6380469132848
 30
0.0
 10
76.36365166291205
 20
-125.0858983020619
 30
0.0
 10
76.36365166291205
 20
-125.6381366352573
 30
0.0
  0
SPLINE
  5
91
330
1F
100
AcDbEntity
  8
_U+30EC_U+30A4_U+30E4_U+30FC 1
 62
   179
420
  2234388
370
     9
100
AcDbSpline
210
0.0
220
0.0
230
1.0
 70
    11
 71
     3
 72
    17
 73
    13
 74
     0
 42
0.0000000001
 43
0.0000000001
 12
1.0
 22
0.0
 32
0.0
 13
1.0
 23
0.0
 33
0.0
 40
0.0
 40
0.0
 40
0.0
 40
0.0
 40
1.0
 40
1.0
 40
1.0
 40
2.0
 40
2.0
 40
2.0
 40
3.0
 40
3.0
 40
3.0
 40
4.0
 40
4.0
 40
4.0
 40
4.0
 10
76.46355832702989
 20
-120.6382877476183
 30
0.0
 10
76.46355832702989
 20
-120.5831485809652
 30
0.0
 10
76.41875555039512
 20
-120.5380283031989
 30
0.0
 10
76.36365166291205
 20
-120.5380283031989
 30
0.0
 10
76.3085124976521
 20
-120.5380283031989
 30
0.0
 10
76.26374499879421
 20
-120.5831485809652
 30
0.0
 10
76.26374499879421
 20
-120.6382877476183
 30
0.0
 10
76.26374499879421
 20
-120.6933916364932
 30
0.0
 10
76.3085124976521
 20
-120.7381944142599
 30
0.0
 10
76.36365166291205
 20
-120.7381944142599
 30
0.0
 10
76.41875555039512
 20
-120.7381944142599
 30
0.0
 10
76.46355832702989
 20
-120.6933916364932
 30
0.0
 10
76.46355832702989
 20
-120.6382877476183
 30
0.0
  0
SPLINE
  5
92
330
1F
100
AcDbEntity
  8
_U+30EC_U+30A4_U+30E4_U+30FC 1
 62
   179
420
  2234388
370
     9
100
AcDbSpline
210
0.0
220
0.0
230
1.0
 70
    11
 71
     3
 72
    17
 73
    13
 74
     0
 42
0.0000000001
 43
0.0000000001
 12
1.0
 22
0.0
 32
0.0
 13
1.0
 23
0.0
 33
0.0
 40
0.0
 40
0.0
 40
0.0
 40
0.0
 40
1.0
 40
1.0
 40
1.0
 40
2.0
 40
2.0
 40
2.0
 40
3.0
 40
3.0
 40
3.0
 40
4.0
 40
4.0
 40
4.0
 40
4.0
 10
84.46374673403919
 20
-120.6382877476183
 30
0.0
 10
84.46374673403919
 20
-120.5831485809652
 30
0.0
 10
84.4189792351813
 20
-120.5380283031989
 30
0.0
 10
84.36384006992135
 20
-120.5380283031989
 30
0.0
 10
84.30873618243828
 20
-120.5380283031989
 30
0.0
 10
84.26393340580351
 20
-120.5831485809652
 30
0.0
 10
84.26393340580351
 20
-120.6382877476183
 30
0.0
 10
84.26393340580351
 20
-120.6933916364932
 30
0.0
 10
84.30873618243828
 20
-120.7381944142599
 30
0.0
 10
84.36384006992135
 20
-120.7381944142599
 30
0.0
 10
84.4189792351813
 20
-120.7381944142599
 30
0.0
 10
84.46374673403919
 20
-120.6933916364932
 30
0.0
 10
84.46374673403919
 20
-120.6382877476183
 30
0.0
  0
SPLINE
  5
93
330
1F
100
AcDbEntity
  8
_U+30EC_U+30A4_U+30E4_U+30FC 1
 62
   179
420
  2234388
370
     9
100
AcDbSpline
210
0.0
220
0.0
230
1.0
 70
    11
 71
     3
 72
    17
 73
    13
 74
     0
 42
0.0000000001
 43
0.0000000001
 12
1.0
 22
0.0
 32
0.0
 13
1.0
 23
0.0
 33
0.0
 40
0.0
 40
0.0
 40
0.0
 40
0.0
 40
1.0
 40
1.0
 40
1.0
 40
2.0
 40
2.0
 40
2.0
 40
3.0
 40
3.0
 40
3.0
 40
4.0
 40
4.0
 40
4.0
 40
4.0
 10
92.46361764105659
 20
-120.6382877476183
 30
0.0
 10
92.46361764105659
 20
-120.5831485809652
 30
0.0
 10
92.41881486442182
 20
-120.5380283031989
 30
0.0
 10
92.36371097693875
 20
-120.5380283031989
 30
0.0
 10
92.30892458944759
 20
-120.5380283031989
 30
0.0
 10
92.26412181281282
 20
-120.5831485809652
 30
0.0
 10
92.26412181281282
 20
-120.6382877476183
 30
0.0
 10
92.26412181281282
 20
-120.6933916364932
 30
0.0
 10
92.30892458944759
 20
-120.7381944142599
 30
0.0
 10
92.36371097693875
 20
-120.7381944142599
 30
0.0
 10
92.41881486442182
 20
-120.7381944142599
 30
0.0
 10
92.46361764105659
 20
-120.6933916364932
 30
0.0
 10
92.46361764105659
 20
-120.6382877476183
 30
0.0
  0
SPLINE
  5
94
330
1F
100
AcDbEntity
  8
_U+30EC_U+30A4_U+30E4_U+30FC 1
 62
   179
420
  2234388
370
     9
100
AcDbSpline
210
0.0
220
0.0
230
1.0
 70
    11
 71
     3
 72
    17
 73
    13
 74
     0
 42
0.0000000001
 43
0.0000000001
 12
1.0
 22
0.0
 32
0.0
 13
1.0
 23
0.0
 33
0.0
 40
0.0
 40
0.0
 40
0.0
 40
0.0
 40
1.0
 40
1.0
 40
1.0
 40
2.0
 40
2.0
 40
2.0
 40
3.0
 40
3.0
 40
3.0
 40
4.0
 40
4.0
 40
4.0
 40
4.0
 10
100.4638060480659
 20
-120.6382877476183
 30
0.0
 10
100.4638060480659
 20
-120.5831485809652
 30
0.0
 10
100.4190032714311
 20
-120.5380283031989
 30
0.0
 10
100.3635466061793
 20
-120.5380283031989
 30
0.0
 10
100.3084427186962
 20
-120.5380283031989
 30
0.0
 10
100.2636399420614
 20
-120.5831485809652
 30
0.0
 10
100.2636399420614
 20
-120.6382877476183
 30
0.0
 10
100.2636399420614
 20
-120.6933916364932
 30
0.0
 10
100.3084427186962
 20
-120.7381944142599
 30
0.0
 10
100.3635466061793
 20
-120.7381944142599
 30
0.0
 10
100.4190032714311
 20
-120.7381944142599
 30
0.0
 10
100.4638060480659
 20
-120.6933916364932
 30
0.0
 10
100.4638060480659
 20
-120.6382877476183
 30
0.0
  0
SPLINE
  5
95
330
1F
100
AcDbEntity
  8
_U+30EC_U+30A4_U+30E4_U+30FC 1
 62
   179
420
  2234388
370
     9
100
AcDbSpline
210
0.0
220
0.0
230
1.0
 70
    11
 71
     3
 72
    17
 73
    13
 74
     0
 42
0.0000000001
 43
0.0000000001
 12
1.0
 22
0.0
 32
0.0
 13
1.0
 23
0.0
 33
0.0
 40
0.0
 40
0.0
 40
0.0
 40
0.0
 40
1.0
 40
1.0
 40
1.0
 40
2.0
 40
2.0
 40
2.0
 40
3.0
 40
3.0
 40
3.0
 40
4.0
 40
4.0
 40
4.0
 40
4.0
 10
104.4635651126902
 20
-124.6380469132848
 30
0.0
 10
104.4635651126902
 20
-124.5829077466321
 30
0.0
 10
104.4187623360554
 20
-124.5381402466432
 30
0.0
 10
104.3636610850205
 20
-124.5381402466432
 30
0.0
 10
104.3088720610812
 20
-124.5381402466432
 30
0.0
 10
104.2641045622233
 20
-124.5829077466321
 30
0.0
 10
104.2641045622233
 20
-124.6380469132848
 30
0.0
 10
104.2641045622233
 20
-124.6931508021601
 30
0.0
 10
104.3088720610812
 20
-124.7379535799268
 30
0.0
 10
104.3636610850205
 20
-124.7379535799268
 30
0.0
 10
104.4187623360554
 20
-124.7379535799268
 30
0.0
 10
104.4635651126902
 20
-124.6931508021601
 30
0.0
 10
104.4635651126902
 20
-124.6380469132848
 30
0.0
  0
SPLINE
  5
96
330
1F
100
AcDbEntity
  8
_U+30EC_U+30A4_U+30E4_U+30FC 1
 62
   179
420
  2234388
370
     9
100
AcDbSpline
210
0.0
220
0.0
230
1.0
 70
    11
 71
     3
 72
    17
 73
    13
 74
     0
 42
0.0000000001
 43
0.0000000001
 12
1.0
 22
0.0
 32
0.0
 13
1.0
 23
0.0
 33
0.0
 40
0.0
 40
0.0
 40
0.0
 40
0.0
 40
1.0
 40
1.0
 40
1.0
 40
2.0
 40
2.0
 40
2.0
 40
3.0
 40
3.0
 40
3.0
 40
4.0
 40
4.0
 40
4.0
 40
4.0
 10
104.4635651126902
 20
-126.1380227462432
 30
0.0
 10
104.4635651126902
 20
-126.0829188573683
 30
0.0
 10
104.4187623360554
 20
-126.0381160796016
 30
0.0
 10
104.3636610850205
 20
-126.0381160796016
 30
0.0
 10
104.3088720610812
 20
-126.0381160796016
 30
0.0
 10
104.2641045622233
 20
-126.0829188573683
 30
0.0
 10
104.2641045622233
 20
-126.1380227462432
 30
0.0
 10
104.2641045622233
 20
-126.1931619128963
 30
0.0
 10
104.3088720610812
 20
-126.2379294128849
 30
0.0
 10
104.3636610850205
 20
-126.2379294128849
 30
0.0
 10
104.4187623360554
 20
-126.2379294128849
 30
0.0
 10
104.4635651126902
 20
-126.1931619128963
 30
0.0
 10
104.4635651126902
 20
-126.1380227462432
 30
0.0
  0
SPLINE
  5
97
330
1F
100
AcDbEntity
  8
_U+30EC_U+30A4_U+30E4_U+30FC 1
 62
   179
420
  2234388
370
     9
100
AcDbSpline
210
0.0
220
0.0
230
1.0
 70
    11
 71
     3
 72
    17
 73
    13
 74
     0
 42
0.0000000001
 43
0.0000000001
 12
1.0
 22
0.0
 32
0.0
 13
1.0
 23
0.0
 33
0.0
 40
0.0
 40
0.0
 40
0.0
 40
0.0
 40
1.0
 40
1.0
 40
1.0
 40
2.0
 40
2.0
 40
2.0
 40
3.0
 40
3.0
 40
3.0
 40
4.0
 40
4.0
 40
4.0
 40
4.0
 10
104.4635651126902
 20
-138.6368335764521
 30
0.0
 10
104.4635651126902
 20
-138.5817296875765
 30
0.0
 10
104.4187623360554
 20
-138.5369269098104
 30
0.0
 10
104.3636610850205
 20
-138.5369269098104
 30
0.0
 10
104.3088720610812
 20
-138.5369269098104
 30
0.0
 10
104.2641045622233
 20
-138.5817296875765
 30
0.0
 10
104.2641045622233
 20
-138.6368335764521
 30
0.0
 10
104.2641045622233
 20
-138.6919727431045
 30
0.0
 10
104.3088720610812
 20
-138.7367402430937
 30
0.0
 10
104.3636610850205
 20
-138.7367402430937
 30
0.0
 10
104.4187623360554
 20
-138.7367402430937
 30
0.0
 10
104.4635651126902
 20
-138.6919727431045
 30
0.0
 10
104.4635651126902
 20
-138.6368335764521
 30
0.0
  0
POLYLINE
  5
98
330
1F
100
AcDbEntity
  8
_U+30EC_U+30A4_U+30E4_U+30FC 1
 62
   179
420
  2234388
370
     9
100
AcDb2dPolyline
 66
     1
 10
0.0
 20
0.0
 30
0.0
  0
VERTEX
  5
99
330
98
100
AcDbEntity
  8
_U+30EC_U+30A4_U+30E4_U+30FC 1
 62
   179
420
  2234388
370
     9
100
AcDbVertex
100
AcDb2dVertex
 10
76.36365166291205
 20
-120.6382877476183
 30
0.0
  0
VERTEX
  5
9A
330
98
100
AcDbEntity
  8
_U+30EC_U+30A4_U+30E4_U+30FC 1
 62
   179
420
  2234388
370
     9
100
AcDbVertex
100
AcDb2dVertex
 10
84.36384006992135
 20
-120.6382877476183
 30
0.0
  0
SEQEND
  5
9B
330
98
100
AcDbEntity
  8
_U+30EC_U+30A4_U+30E4_U+30FC 1
 62
   179
420
  2234388
370
     9
  0
POLYLINE
  5
9C
330
1F
100
AcDbEntity
  8
_U+30EC_U+30A4_U+30E4_U+30FC 1
 62
   179
420
  2234388
370
     9
100
AcDb2dPolyline
 66
     1
 10
0.0
 20
0.0
 30
0.0
  0
VERTEX
  5
9D
330
9C
100
AcDbEntity
  8
_U+30EC_U+30A4_U+30E4_U+30FC 1
 62
   179
420
  2234388
370
     9
100
AcDbVertex
100
AcDb2dVertex
 10
76.36365166291205
 20
-123.0981013581145
 30
0.0
  0
VERTEX
  5
9E
330
9C
100
AcDbEntity
  8
_U+30EC_U+30A4_U+30E4_U+30FC 1
 62
   179
420
  2234388
370
     9
100
AcDbVertex
100
AcDb2dVertex
 10
76.36365166291205
 20
-119.6378452478684
 30
0.0
  0
SEQEND
  5
9F
330
9C
100
AcDbEntity
  8
_U+30EC_U+30A4_U+30E4_U+30FC 1
 62
   179
420
  2234388
370
     9
  0
POLYLINE
  5
A0
330
1F
100
AcDbEntity
  8
_U+30EC_U+30A4_U+30E4_U+30FC 1
 62
   179
420
  2234388
370
     9
100
AcDb2dPolyline
 66
     1
 10
0.0
 20
0.0
 30
0.0
  0
VERTEX
  5
A1
330
A0
100
AcDbEntity
  8
_U+30EC_U+30A4_U+30E4_U+30FC 1
 62
   179
420
  2234388
370
     9
100
AcDbVertex
100
AcDb2dVertex
 10
84.36384006992135
 20
-122.098329136142
 30
0.0
  0
VERTEX
  5
A2
330
A0
100
AcDbEntity
  8
_U+30EC_U+30A4_U+30E4_U+30FC 1
 62
   179
420
  2234388
370
     9
100
AcDbVertex
100
AcDb2dVertex
 10
84.36384006992135
 20
-119.6378452478684
 30
0.0
  0
SEQEND
  5
A3
330
A0
100
AcDbEntity
  8
_U+30EC_U+30A4_U+30E4_U+30FC 1
 62
   179
420
  2234388
370
     9
  0
INSERT
  5
A5
330
1F
100
AcDbEntity
  8
_U+30EC_U+30A4_U+30E4_U+30FC 1
100
AcDbBlockReference
  2
block 2
 10
0.0
 20
0.0
 30
0.0
  0
POLYLINE
  5
AC
330
1F
100
AcDbEntity
  8
_U+30EC_U+30A4_U+30E4_U+30FC 1
 62
   179
420
  2234388
370
     9
100
AcDb2dPolyline
 66
     1
 10
0.0
 20
0.0
 30
0.0
  0
VERTEX
  5
AD
330
AC
100
AcDbEntity
  8
_U+30EC_U+30A4_U+30E4_U+30FC 1
 62
   179
420
  2234388
370
     9
100
AcDbVertex
100
AcDb2dVertex
 10
84.36384006992135
 20
-120.6382877476183
 30
0.0
  0
VERTEX
  5
AE
330
AC
100
AcDbEntity
  8
_U+30EC_U+30A4_U+30E4_U+30FC 1
 62
   179
420
  2234388
370
     9
100
AcDbVertex
100
AcDb2dVertex
 10
92.36371097693875
 20
-120.6382877476183
 30
0.0
  0
SEQEND
  5
AF
330
AC
100
AcDbEntity
  8
_U+30EC_U+30A4_U+30E4_U+30FC 1
 62
   179
420
  2234388
370
     9
  0
POLYLINE
  5
B0
330
1F
100
AcDbEntity
  8
_U+30EC_U+30A4_U+30E4_U+30FC 1
 62
   179
420
  2234388
370
     9
100
AcDb2dPolyline
 66
     1
 10
0.0
 20
0.0
 30
0.0
  0
VERTEX
  5
B1
330
B0
100
AcDbEntity
  8
_U+30EC_U+30A4_U+30E4_U+30FC 1
 62
   179
420
  2234388
370
     9
100
AcDbVertex
100
AcDb2dVertex
 10
92.36371097693875
 20
-122.098329136142
 30
0.0
  0
VERTEX
  5
B2
330
B0
100
AcDbEntity
  8
_U+30EC_U+30A4_U+30E4_U+30FC 1
 62
   179
420
  2234388
370
     9
100
AcDbVertex
100
AcDb2dVertex
 10
92.36371097693875
 20
-119.6378452478684
 30
0.0
  0
SEQEND
  5
B3
330
B0
100
AcDbEntity
  8
_U+30EC_U+30A4_U+30E4_U+30FC 1
 62
   179
420
  2234388
370
     9
  0
INSERT
  5
B5
330
1F
100
AcDbEntity
  8
_U+30EC_U+30A4_U+30E4_U+30FC 1
100
AcDbBlockReference
  2
block 3
 10
0.0
 20
0.0
 30
0.0
  0
POLYLINE
  5
BC
330
1F
100
AcDbEntity
  8
_U+30EC_U+30A4_U+30E4_U+30FC 1
 62
   179
420
  2234388
370
     9
100
AcDb2dPolyline
 66
     1
 10
0.0
 20
0.0
 30
0.0
  0
VERTEX
  5
BD
330
BC
100
AcDbEntity
  8
_U+30EC_U+30A4_U+30E4_U+30FC 1
 62
   179
420
  2234388
370
     9
100
AcDbVertex
100
AcDb2dVertex
 10
92.36371097693875
 20
-120.6382877476183
 30
0.0
  0
VERTEX
  5
BE
330
BC
100
AcDbEntity
  8
_U+30EC_U+30A4_U+30E4_U+30FC 1
 62
   179
420
  2234388
370
     9
100
AcDbVertex
100
AcDb2dVertex
 10
100.3635466061793
 20
-120.6382877476183
 30
0.0
  0
SEQEND
  5
BF
330
BC
100
AcDbEntity
  8
_U+30EC_U+30A4_U+30E4_U+30FC 1
 62
   179
420
  2234388
370
     9
  0
POLYLINE
  5
C0
330
1F
100
AcDbEntity
  8
_U+30EC_U+30A4_U+30E4_U+30FC 1
 62
   179
420
  2234388
370
     9
100
AcDb2dPolyline
 66
     1
 10
0.0
 20
0.0
 30
0.0
  0
VERTEX
  5
C1
330
C0
100
AcDbEntity
  8
_U+30EC_U+30A4_U+30E4_U+30FC 1
 62
   179
420
  2234388
370
     9
100
AcDbVertex
100
AcDb2dVertex
 10
100.3635466061793
 20
-123.0981013581145
 30
0.0
  0
VERTEX
  5
C2
330
C0
100
AcDbEntity
  8
_U+30EC_U+30A4_U+30E4_U+30FC 1
 62
   179
420
  2234388
370
     9
100
AcDbVertex
100
AcDb2dVertex
 10
100.3635466061793
 20
-119.6378452478684
 30
0.0
  0
SEQEND
  5
C3
330
C0
100
AcDbEntity
  8
_U+30EC_U+30A4_U+30E4_U+30FC 1
 62
   179
420
  2234388
370
     9
  0
INSERT
  5
C5
330
1F
100
AcDbEntity
  8
_U+30EC_U+30A4_U+30E4_U+30FC 1
100
AcDbBlockReference
  2
block 4
 10
0.0
 20
0.0
 30
0.0
  0
POLYLINE
  5
CC
330
1F
100
AcDbEntity
  8
_U+30EC_U+30A4_U+30E4_U+30FC 1
 62
   179
420
  2234388
370
     9
100
AcDb2dPolyline
 66
     1
 10
0.0
 20
0.0
 30
0.0
  0
VERTEX
  5
CD
330
CC
100
AcDbEntity
  8
_U+30EC_U+30A4_U+30E4_U+30FC 1
 62
   179
420
  2234388
370
     9
100
AcDbVertex
100
AcDb2dVertex
 10
104.3636610850205
 20
-124.6380469132848
 30
0.0
  0
VERTEX
  5
CE
330
CC
100
AcDbEntity
  8
_U+30EC_U+30A4_U+30E4_U+30FC 1
 62
   179
420
  2234388
370
     9
100
AcDbVertex
100
AcDb2dVertex
 10
104.3636610850205
 20
-119.3801410812662
 30
0.0
  0
SEQEND
  5
CF
330
CC
100
AcDbEntity
  8
_U+30EC_U+30A4_U+30E4_U+30FC 1
 62
   179
420
  2234388
370
     9
  0
POLYLINE
  5
D0
330
1F
100
AcDbEntity
  8
_U+30EC_U+30A4_U+30E4_U+30FC 1
 62
   179
420
  2234388
370
     9
100
AcDb2dPolyline
 66
     1
 10
0.0
 20
0.0
 30
0.0
  0
VERTEX
  5
D1
330
D0
100
AcDbEntity
  8
_U+30EC_U+30A4_U+30E4_U+30FC 1
 62
   179
420
  2234388
370
     9
100
AcDbVertex
100
AcDb2dVertex
 10
104.3636610850205
 20
-124.6380469132848
 30
0.0
  0
VERTEX
  5
D2
330
D0
100
AcDbEntity
  8
_U+30EC_U+30A4_U+30E4_U+30FC 1
 62
   179
420
  2234388
370
     9
100
AcDbVertex
100
AcDb2dVertex
 10
104.3636610850205
 20
-126.1380227462432
 30
0.0
  0
SEQEND
  5
D3
330
D0
100
AcDbEntity
  8
_U+30EC_U+30A4_U+30E4_U+30FC 1
 62
   179
420
  2234388
370
     9
  0
POLYLINE
  5
D4
330
1F
100
AcDbEntity
  8
_U+30EC_U+30A4_U+30E4_U+30FC 1
 62
   179
420
  2234388
370
     9
100
AcDb2dPolyline
 66
     1
 10
0.0
 20
0.0
 30
0.0
  0
VERTEX
  5
D5
330
D4
100
AcDbEntity
  8
_U+30EC_U+30A4_U+30E4_U+30FC 1
 62
   179
420
  2234388
370
     9
100
AcDbVertex
100
AcDb2dVertex
 10
101.9038449002163
 20
-124.6380469132848
 30
0.0
  0
VERTEX
  5
D6
330
D4
100
AcDbEntity
  8
_U+30EC_U+30A4_U+30E4_U+30FC 1
 62
   179
420
  2234388
370
     9
100
AcDbVertex
100
AcDb2dVertex
 10
105.3637481452802
 20
-124.6380469132848
 30
0.0
  0
SEQEND
  5
D7
330
D4
100
AcDbEntity
  8
_U+30EC_U+30A4_U+30E4_U+30FC 1
 62
   179
420
  2234388
370
     9
  0
POLYLINE
  5
D8
330
1F
100
AcDbEntity
  8
_U+30EC_U+30A4_U+30E4_U+30FC 1
 62
   179
420
  2234388
370
     9
100
AcDb2dPolyline
 66
     1
 10
0.0
 20
0.0
 30
0.0
  0
VERTEX
  5
D9
330
D8
100
AcDbEntity
  8
_U+30EC_U+30A4_U+30E4_U+30FC 1
 62
   179
420
  2234388
370
     9
100
AcDbVertex
100
AcDb2dVertex
 10
102.9036170969322
 20
-126.1380227462432
 30
0.0
  0
VERTEX
  5
DA
330
D8
100
AcDbEntity
  8
_U+30EC_U+30A4_U+30E4_U+30FC 1
 62
   179
420
  2234388
370
     9
100
AcDbVertex
100
AcDb2dVertex
 10
105.3637481452802
 20
-126.1380227462432
 30
0.0
  0
SEQEND
  5
DB
330
D8
100
AcDbEntity
  8
_U+30EC_U+30A4_U+30E4_U+30FC 1
 62
   179
420
  2234388
370
     9
  0
INSERT
  5
DD
330
1F
100
AcDbEntity
  8
_U+30EC_U+30A4_U+30E4_U+30FC 1
100
AcDbBlockReference
  2
block 5
 10
0.0
 20
0.0
 30
0.0
  0
POLYLINE
  5
EC
330
1F
100
AcDbEntity
  8
_U+30EC_U+30A4_U+30E4_U+30FC 1
 62
   179
420
  2234388
370
     9
100
AcDb2dPolyline
 66
     1
 10
0.0
 20
0.0
 30
0.0
  0
VERTEX
  5
ED
330
EC
100
AcDbEntity
  8
_U+30EC_U+30A4_U+30E4_U+30FC 1
 62
   179
420
  2234388
370
     9
100
AcDbVertex
100
AcDb2dVertex
 10
104.3636610850205
 20
-138.6368335764521
 30
0.0
  0
VERTEX
  5
EE
330
EC
100
AcDbEntity
  8
_U+30EC_U+30A4_U+30E4_U+30FC 1
 62
   179
420
  2234388
370
     9
100
AcDbVertex
100
AcDb2dVertex
 10
104.3636610850205
 20
-126.1380227462432
 30
0.0
  0
SEQEND
  5
EF
330
EC
100
AcDbEntity
  8
_U+30EC_U+30A4_U+30E4_U+30FC 1
 62
   179
420
  2234388
370
     9
  0
POLYLINE
  5
F0
330
1F
100
AcDbEntity
  8
_U+30EC_U+30A4_U+30E4_U+30FC 1
 62
   179
420
  2234388
370
     9
100
AcDb2dPolyline
 66
     1
 10
0.0
 20
0.0
 30
0.0
  0
VERTEX
  5
F1
330
F0
100
AcDbEntity
  8
_U+30EC_U+30A4_U+30E4_U+30FC 1
 62
   179
420
  2234388
370
     9
100
AcDbVertex
100
AcDb2dVertex
 10
95.90351838663074
 20
-138.6368335764521
 30
0.0
  0
VERTEX
  5
F2
330
F0
100
AcDbEntity
  8
_U+30EC_U+30A4_U+30E4_U+30FC 1
 62
   179
420
  2234388
370
     9
100
AcDbVertex
100
AcDb2dVertex
 10
105.3637481452802
 20
-138.6368335764521
 30
0.0
  0
SEQEND
  5
F3
330
F0
100
AcDbEntity
  8
_U+30EC_U+30A4_U+30E4_U+30FC 1
 62
   179
420
  2234388
370
     9
  0
INSERT
  5
F5
330
1F
100
AcDbEntity
  8
_U+30EC_U+30A4_U+30E4_U+30FC 1
100
AcDbBlockReference
  2
block 6
 10
0.0
 20
0.0
 30
0.0
  0
SPLINE
  5
106
330
1F
100
AcDbEntity
  8
_U+30EC_U+30A4_U+30E4_U+30FC 1
 62
   179
420
  2234388
370
     9
100
AcDbSpline
210
0.0
220
0.0
230
1.0
 70
    11
 71
     3
 72
    17
 73
    13
 74
     0
 42
0.0000000001
 43
0.0000000001
 12
1.0
 22
0.0
 32
0.0
 13
1.0
 23
0.0
 33
0.0
 40
0.0
 40
0.0
 40
0.0
 40
0.0
 40
1.0
 40
1.0
 40
1.0
 40
2.0
 40
2.0
 40
2.0
 40
3.0
 40
3.0
 40
3.0
 40
4.0
 40
4.0
 40
4.0
 40
4.0
 10
83.46468009286083
 20
-127.8840258013624
 30
0.0
 10
83.46468009286083
 20
-127.8292394124871
 30
0.0
 10
83.41987731622606
 20
-127.7841191347207
 30
0.0
 10
83.36477342874299
 20
-127.7841191347207
 30
0.0
 10
83.30963426348305
 20
-127.7841191347207
 30
0.0
 10
83.26486676462517
 20
-127.8292394124871
 30
0.0
 10
83.26486676462517
 20
-127.8840258013624
 30
0.0
 10
83.26486676462517
 20
-127.9391296902373
 30
0.0
 10
83.30963426348305
 20
-127.983932468004
 30
0.0
 10
83.36477342874299
 20
-127.983932468004
 30
0.0
 10
83.41987731622606
 20
-127.983932468004
 30
0.0
 10
83.46468009286083
 20
-127.9391296902373
 30
0.0
 10
83.46468009286083
 20
-127.8840258013624
 30
0.0
  0
SPLINE
  5
107
330
1F
100
AcDbEntity
  8
_U+30EC_U+30A4_U+30E4_U+30FC 1
 62
   179
420
  2234388
370
     9
100
AcDbSpline
210
0.0
220
0.0
230
1.0
 70
    11
 71
     3
 72
    17
 73
    13
 74
     0
 42
0.0000000001
 43
0.0000000001
 12
1.0
 22
0.0
 32
0.0
 13
1.0
 23
0.0
 33
0.0
 40
0.0
 40
0.0
 40
0.0
 40
0.0
 40
1.0
 40
1.0
 40
1.0
 40
2.0
 40
2.0
 40
2.0
 40
3.0
 40
3.0
 40
3.0
 40
4.0
 40
4.0
 40
4.0
 40
4.0
 10
84.46476978956865
 20
-127.8840258013624
 30
0.0
 10
84.46476978956865
 20
-127.8292394124871
 30
0.0
 10
84.42000229071076
 20
-127.7841191347207
 30
0.0
 10
84.36486312545081
 20
-127.7841191347207
 30
0.0
 10
84.31011201573651
 20
-127.7841191347207
 30
0.0
 10
84.26530923910175
 20
-127.8292394124871
 30
0.0
 10
84.26530923910175
 20
-127.8840258013624
 30
0.0
 10
84.26530923910175
 20
-127.9391296902373
 30
0.0
 10
84.31011201573651
 20
-127.983932468004
 30
0.0
 10
84.36486312545081
 20
-127.983932468004
 30
0.0
 10
84.42000229071076
 20
-127.983932468004
 30
0.0
 10
84.46476978956865
 20
-127.9391296902373
 30
0.0
 10
84.46476978956865
 20
-127.8840258013624
 30
0.0
  0
POLYLINE
  5
108
330
1F
100
AcDbEntity
  8
_U+30EC_U+30A4_U+30E4_U+30FC 1
 62
   179
420
  2234388
370
     9
100
AcDb2dPolyline
 66
     1
 10
0.0
 20
0.0
 30
0.0
  0
VERTEX
  5
109
330
108
100
AcDbEntity
  8
_U+30EC_U+30A4_U+30E4_U+30FC 1
 62
   179
420
  2234388
370
     9
100
AcDbVertex
100
AcDb2dVertex
 10
82.5207194238144
 20
-131.6364171893129
 30
0.0
  0
VERTEX
  5
10A
330
108
100
AcDbEntity
  8
_U+30EC_U+30A4_U+30E4_U+30FC 1
 62
   179
420
  2234388
370
     9
100
AcDbVertex
100
AcDb2dVertex
 10
86.45157890554759
 20
-131.6364171893129
 30
0.0
  0
SEQEND
  5
10B
330
108
100
AcDbEntity
  8
_U+30EC_U+30A4_U+30E4_U+30FC 1
 62
   179
420
  2234388
370
     9
  0
INSERT
  5
10D
330
1F
100
AcDbEntity
  8
_U+30EC_U+30A4_U+30E4_U+30FC 1
100
AcDbBlockReference
  2
block 7
 10
0.0
 20
0.0
 30
0.0
  0
ENDSEC
  0
SECTION
  2
OBJECTS
  0
DICTIONARY
  5
C
330
0
100
AcDbDictionary
281
     1
  3
ACAD_GROUP
350
D
  3
ACAD_LAYOUT
350
1A
  3
ACAD_MATERIAL
350
3B
  3
ACAD_MLEADERSTYLE
350
113
  3
ACAD_MLINESTYLE
350
17
  3
ACAD_PLOTSETTINGS
350
19
  3
ACAD_PLOTSTYLENAME
350
E
  3
ACAD_TABLESTYLE
350
112
  3
ACAD_VISUALSTYLE
350
2A
  0
SUN
  5
3F
330
29
100
AcDbSun
 90
        1
290
     0
 63
     7
421
 16777215
 40
1.0
291
     1
 91
  2455826
 92
 54000000
292
     0
 70
     2
 71
   256
280
     1
  0
DICTIONARY
  5
D
102
{ACAD_REACTORS
330
C
102
}
330
C
100
AcDbDictionary
281
     1
  0
DICTIONARY
  5
1A
102
{ACAD_REACTORS
330
C
102
}
330
C
100
AcDbDictionary
281
     1
  3
Layout1
350
1E
  3
Layout2
350
26
  3
Model
350
22
  0
DICTIONARY
  5
3B
102
{ACAD_REACTORS
330
C
102
}
330
C
100
AcDbDictionary
281
     1
  3
ByBlock
350
3D
  3
ByLayer
350
3C
  3
Global
350
3E
  0
DICTIONARY
  5
113
102
{ACAD_REACTORS
330
C
102
}
330
C
100
AcDbDictionary
281
     1
  0
DICTIONARY
  5
17
102
{ACAD_REACTORS
330
C
102
}
330
C
100
AcDbDictionary
281
     1
  3
Standard
350
18
  0
DICTIONARY
  5
19
102
{ACAD_REACTORS
330
C
102
}
330
C
100
AcDbDictionary
281
     1
  0
ACDBDICTIONARYWDFLT
  5
E
102
{ACAD_REACTORS
330
C
102
}
330
C
100
AcDbDictionary
281
     1
  3
Normal
350
F
100
AcDbDictionaryWithDefault
340
F
  0
DICTIONARY
  5
112
102
{ACAD_REACTORS
330
C
102
}
330
C
100
AcDbDictionary
281
     1
  0
DICTIONARY
  5
2A
102
{ACAD_REACTORS
330
C
102
}
330
C
100
AcDbDictionary
281
     1
  3
2dWireframe
350
2F
  3
3D Hidden
350
31
  3
3dWireframe
350
30
  3
Basic
350
32
  3
Brighten
350
36
  3
ColorChange
350
3A
  3
Conceptual
350
34
  3
Dim
350
35
  3
Facepattern
350
39
  3
Flat
350
2B
  3
FlatWithEdges
350
2C
  3
Gouraud
350
2D
  3
GouraudWithEdges
350
2E
  3
Linepattern
350
38
  3
Realistic
350
33
  3
Thicken
350
37
  0
LAYOUT
  5
1E
102
{ACAD_REACTORS
330
1A
102
}
330
1A
100
AcDbPlotSettings
  1

  2
none_device
  4

  6

 40
0.0
 41
0.0
 42
0.0
 43
0.0
 44
0.0
 45
0.0
 46
0.0
 47
0.0
 48
0.0
 49
0.0
140
0.0
141
0.0
142
1.0
143
1.0
 70
   688
 72
     0
 73
     0
 74
     5
  7

 75
    16
 76
     0
 77
     2
 78
   300
147
1.0
148
0.0
149
0.0
100
AcDbLayout
  1
Layout1
 70
     1
 71
     1
 10
0.0
 20
0.0
 11
12.0
 21
9.0
 12
0.0
 22
0.0
 32
0.0
 14
1.000000000000000E+20
 24
1.000000000000000E+20
 34
1.000000000000000E+20
 15
-1.000000000000000E+20
 25
-1.000000000000000E+20
 35
-1.000000000000000E+20
146
0.0
 13
0.0
 23
0.0
 33
0.0
 16
1.0
 26
0.0
 36
0.0
 17
0.0
 27
1.0
 37
0.0
 76
     0
330
1B
  0
LAYOUT
  5
26
102
{ACAD_REACTORS
330
1A
102
}
330
1A
100
AcDbPlotSettings
  1

  2
none_device
  4

  6

 40
0.0
 41
0.0
 42
0.0
 43
0.0
 44
0.0
 45
0.0
 46
0.0
 47
0.0
 48
0.0
 49
0.0
140
0.0
141
0.0
142
1.0
143
1.0
 70
   688
 72
     0
 73
     0
 74
     5
  7

 75
    16
 76
     0
 77
     2
 78
   300
147
1.0
148
0.0
149
0.0
100
AcDbLayout
  1
Layout2
 70
     1
 71
     2
 10
0.0
 20
0.0
 11
0.0
 21
0.0
 12
0.0
 22
0.0
 32
0.0
 14
0.0
 24
0.0
 34
0.0
 15
0.0
 25
0.0
 35
0.0
146
0.0
 13
0.0
 23
0.0
 33
0.0
 16
1.0
 26
0.0
 36
0.0
 17
0.0
 27
1.0
 37
0.0
 76
     0
330
23
  0
LAYOUT
  5
22
102
{ACAD_REACTORS
330
1A
102
}
330
1A
100
AcDbPlotSettings
  1

  2
none_device
  4

  6

 40
0.0
 41
0.0
 42
0.0
 43
0.0
 44
0.0
 45
0.0
 46
0.0
 47
0.0
 48
0.0
 49
0.0
140
0.0
141
0.0
142
1.0
143
1.0
 70
  1712
 72
     0
 73
     0
 74
     0
  7

 75
     0
 76
     0
 77
     2
 78
   300
147
1.0
148
0.0
149
0.0
100
AcDbLayout
  1
Model
 70
     1
 71
     0
 10
0.0
 20
0.0
 11
12.0
 21
9.0
 12
0.0
 22
0.0
 32
0.0
 14
1.000000000000000E+20
 24
1.000000000000000E+20
 34
1.000000000000000E+20
 15
-1.000000000000000E+20
 25
-1.000000000000000E+20
 35
-1.000000000000000E+20
146
0.0
 13
0.0
 23
0.0
 33
0.0
 16
1.0
 26
0.0
 36
0.0
 17
0.0
 27
1.0
 37
0.0
 76
     0
330
1F
331
29
  0
MATERIAL
  5
3D
102
{ACAD_REACTORS
330
3B
102
}
330
3B
100
AcDbMaterial
  1
ByBlock
 72
     1
 94
      127
  0
MATERIAL
  5
3C
102
{ACAD_REACTORS
330
3B
102
}
330
3B
100
AcDbMaterial
  1
ByLayer
 72
     1
 94
      127
  0
MATERIAL
  5
3E
102
{ACAD_REACTORS
330
3B
102
}
330
3B
100
AcDbMaterial
  1
Global
 72
     1
 94
      127
  0
MLINESTYLE
  5
18
102
{ACAD_REACTORS
330
17
102
}
330
17
100
AcDbMlineStyle
  2
Standard
 70
     0
  3

 62
   256
 51
90.0
 52
90.0
 71
     2
 49
0.5
 62
   256
  6
BYLAYER
 49
-0.5
 62
   256
  6
BYLAYER
  0
ACDBPLACEHOLDER
  5
F
102
{ACAD_REACTORS
330
E
102
}
330
E
  0
VISUALSTYLE
  5
2F
102
{ACAD_REACTORS
330
2A
102
}
330
2A
100
AcDbVisualStyle
  2
2dWireframe
 70
     4
177
     2
291
     0
 71
     0
176
     1
 72
     2
176
     1
 73
     0
176
     1
 90
        0
176
     1
 40
-0.6
176
     1
 41
-30.0
176
     1
 62
     5
 63
     7
421
 16777215
176
     1
 74
     1
176
     1
 91
        4
176
     1
 64
     7
176
     1
 65
   257
176
     1
 75
     1
176
     1
175
     1
176
     1
 42
1.0
176
     1
 92
        0
176
     1
 66
   257
176
     1
 43
1.0
176
     1
 76
     1
176
     1
 77
     6
176
     1
 78
     2
176
     1
 67
     7
176
     1
 79
     5
176
     1
170
     0
176
     1
171
     0
176
     1
290
     0
176
     1
 93
        1
176
     1
 44
0.0
176
     1
173
     0
176
     1
  0
VISUALSTYLE
  5
31
102
{ACAD_REACTORS
330
2A
102
}
330
2A
100
AcDbVisualStyle
  2
3D Hidden
 70
     6
177
     2
291
     0
 71
     1
176
     1
 72
     2
176
     1
 73
     2
176
     1
 90
        0
176
     1
 40
-0.6
176
     1
 41
-30.0
176
     1
 62
     5
 63
     7
421
 16777215
176
     1
 74
     2
176
     1
 91
        2
176
     1
 64
     7
176
     1
 65
   257
176
     1
 75
     2
176
     1
175
     1
176
     1
 42
40.0
176
     1
 92
        0
176
     1
 66
   257
176
     1
 43
1.0
176
     1
 76
     1
176
     1
 77
     6
176
     1
 78
     2
176
     1
 67
     7
176
     1
 79
     3
176
     1
170
     0
176
     1
171
     0
176
     1
290
     0
176
     1
 93
        1
176
     1
 44
0.0
176
     1
173
     0
176
     1
  0
VISUALSTYLE
  5
30
102
{ACAD_REACTORS
330
2A
102
}
330
2A
100
AcDbVisualStyle
  2
3dWireframe
 70
     5
177
     2
291
     0
 71
     0
176
     1
 72
     2
176
     1
 73
     0
176
     1
 90
        0
176
     1
 40
-0.6
176
     1
 41
-30.0
176
     1
 62
     5
 63
     7
421
 16777215
176
     1
 74
     1
176
     1
 91
        4
176
     1
 64
     7
176
     1
 65
   257
176
     1
 75
     1
176
     1
175
     1
176
     1
 42
1.0
176
     1
 92
        0
176
     1
 66
   257
176
     1
 43
1.0
176
     1
 76
     1
176
     1
 77
     6
176
     1
 78
     2
176
     1
 67
     7
176
     1
 79
     5
176
     1
170
     0
176
     1
171
     0
176
     1
290
     0
176
     1
 93
        1
176
     1
 44
0.0
176
     1
173
     0
176
     1
  0
VISUALSTYLE
  5
32
102
{ACAD_REACTORS
330
2A
102
}
330
2A
100
AcDbVisualStyle
  2
Basic
 70
     7
177
     2
291
     1
 71
     1
176
     1
 72
     0
176
     1
 73
     1
176
     1
 90
        0
176
     1
 40
-0.6
176
     1
 41
-30.0
176
     1
 62
     5
 63
     7
421
 16777215
176
     1
 74
     0
176
     1
 91
        4
176
     1
 64
     7
176
     1
 65
   257
176
     1
 75
     1
176
     1
175
     1
176
     1
 42
1.0
176
     1
 92
        8
176
     1
 66
     7
176
     1
 43
1.0
176
     1
 76
     1
176
     1
 77
     6
176
     1
 78
     2
176
     1
 67
     7
176
     1
 79
     5
176
     1
170
     0
176
     1
171
     0
176
     1
290
     0
176
     1
 93
        1
176
     1
 44
0.0
176
     1
173
     0
176
     1
  0
VISUALSTYLE
  5
36
102
{ACAD_REACTORS
330
2A
102
}
330
2A
100
AcDbVisualStyle
  2
Brighten
 70
    12
177
     2
291
     1
 71
     2
176
     1
 72
     2
176
     1
 73
     0
176
     1
 90
        0
176
     1
 40
-0.6
176
     1
 41
-30.0
176
     1
 62
     5
 63
     7
421
 16777215
176
     1
 74
     1
176
     1
 91
        4
176
     1
 64
     7
176
     1
 65
   257
176
     1
 75
     1
176
     1
175
     1
176
     1
 42
1.0
176
     1
 92
        8
176
     1
 66
     7
176
     1
 43
1.0
176
     1
 76
     1
176
     1
 77
     6
176
     1
 78
     2
176
     1
 67
     7
176
     1
 79
     5
176
     1
170
     0
176
     1
171
     0
176
     1
290
     0
176
     1
 93
        1
176
     1
 44
50.0
176
     1
173
     0
176
     1
  0
VISUALSTYLE
  5
3A
102
{ACAD_REACTORS
330
2A
102
}
330
2A
100
AcDbVisualStyle
  2
ColorChange
 70
    16
177
     2
291
     1
 71
     2
176
     1
 72
     2
176
     1
 73
     3
176
     1
 90
        0
176
     1
 40
-0.6
176
     1
 41
-30.0
176
     1
 62
     5
 63
     8
421
  8421504
176
     1
 74
     1
176
     1
 91
        4
176
     1
 64
     7
176
     1
 65
   257
176
     1
 75
     1
176
     1
175
     1
176
     1
 42
1.0
176
     1
 92
        8
176
     1
 66
     8
424
  8421504
176
     1
 43
1.0
176
     1
 76
     1
176
     1
 77
     6
176
     1
 78
     2
176
     1
 67
     7
176
     1
 79
     5
176
     1
170
     0
176
     1
171
     0
176
     1
290
     0
176
     1
 93
        1
176
     1
 44
0.0
176
     1
173
     0
176
     1
  0
VISUALSTYLE
  5
34
102
{ACAD_REACTORS
330
2A
102
}
330
2A
100
AcDbVisualStyle
  2
Conceptual
 70
     9
177
     2
291
     0
 71
     3
176
     1
 72
     2
176
     1
 73
     0
176
     1
 90
        0
176
     1
 40
-0.6
176
     1
 41
-30.0
176
     1
 62
     5
 63
     7
421
 16777215
176
     1
 74
     2
176
     1
 91
        2
176
     1
 64
     7
176
     1
 65
   257
176
     1
 75
     1
176
     1
175
     1
176
     1
 42
40.0
176
     1
 92
        8
176
     1
 66
     7
176
     1
 43
1.0
176
     1
 76
     1
176
     1
 77
     6
176
     1
 78
     2
176
     1
 67
     7
176
     1
 79
     3
176
     1
170
     0
176
     1
171
     0
176
     1
290
     0
176
     1
 93
        1
176
     1
 44
0.0
176
     1
173
     0
176
     1
  0
VISUALSTYLE
  5
35
102
{ACAD_REACTORS
330
2A
102
}
330
2A
100
AcDbVisualStyle
  2
Dim
 70
    11
177
     2
291
     1
 71
     2
176
     1
 72
     2
176
     1
 73
     0
176
     1
 90
        0
176
     1
 40
-0.6
176
     1
 41
-30.0
176
     1
 62
     5
 63
     7
421
 16777215
176
     1
 74
     1
176
     1
 91
        4
176
     1
 64
     7
176
     1
 65
   257
176
     1
 75
     1
176
     1
175
     1
176
     1
 42
1.0
176
     1
 92
        8
176
     1
 66
     7
176
     1
 43
1.0
176
     1
 76
     1
176
     1
 77
     6
176
     1
 78
     2
176
     1
 67
     7
176
     1
 79
     5
176
     1
170
     0
176
     1
171
     0
176
     1
290
     0
176
     1
 93
        1
176
     1
 44
-50.0
176
     1
173
     0
176
     1
  0
VISUALSTYLE
  5
39
102
{ACAD_REACTORS
330
2A
102
}
330
2A
100
AcDbVisualStyle
  2
Facepattern
 70
    15
177
     2
291
     1
 71
     2
176
     1
 72
     2
176
     1
 73
     0
176
     1
 90
        0
176
     1
 40
-0.6
176
     1
 41
-30.0
176
     1
 62
     5
 63
     7
421
 16777215
176
     1
 74
     1
176
     1
 91
        4
176
     1
 64
     7
176
     1
 65
   257
176
     1
 75
     1
176
     1
175
     1
176
     1
 42
1.0
176
     1
 92
        8
176
     1
 66
     7
176
     1
 43
1.0
176
     1
 76
     1
176
     1
 77
     6
176
     1
 78
     2
176
     1
 67
     7
176
     1
 79
     5
176
     1
170
     0
176
     1
171
     0
176
     1
290
     0
176
     1
 93
        1
176
     1
 44
0.0
176
     1
173
     0
176
     1
  0
VISUALSTYLE
  5
2B
102
{ACAD_REACTORS
330
2A
102
}
330
2A
100
AcDbVisualStyle
  2
Flat
 70
     0
177
     2
291
     1
 71
     2
176
     1
 72
     1
176
     1
 73
     1
176
     1
 90
        2
176
     1
 40
-0.6
176
     1
 41
30.0
176
     1
 62
     5
 63
     7
421
 16777215
176
     1
 74
     0
176
     1
 91
        4
176
     1
 64
     7
176
     1
 65
   257
176
     1
 75
     1
176
     1
175
     1
176
     1
 42
1.0
176
     1
 92
        8
176
     1
 66
     7
176
     1
 43
1.0
176
     1
 76
     1
176
     1
 77
     6
176
     1
 78
     2
176
     1
 67
     7
176
     1
 79
     5
176
     1
170
     0
176
     1
171
     0
176
     1
290
     0
176
     1
 93
       13
176
     1
 44
0.0
176
     1
173
     0
176
     1
  0
VISUALSTYLE
  5
2C
102
{ACAD_REACTORS
330
2A
102
}
330
2A
100
AcDbVisualStyle
  2
FlatWithEdges
 70
     1
177
     2
291
     1
 71
     2
176
     1
 72
     1
176
     1
 73
     1
176
     1
 90
        2
176
     1
 40
-0.6
176
     1
 41
30.0
176
     1
 62
     5
 63
     7
421
 16777215
176
     1
 74
     1
176
     1
 91
        4
176
     1
 64
     7
176
     1
 65
   257
176
     1
 75
     1
176
     1
175
     1
176
     1
 42
1.0
176
     1
 92
        0
176
     1
 66
   257
176
     1
 43
1.0
176
     1
 76
     1
176
     1
 77
     6
176
     1
 78
     2
176
     1
 67
     7
176
     1
 79
     5
176
     1
170
     0
176
     1
171
     0
176
     1
290
     0
176
     1
 93
       13
176
     1
 44
0.0
176
     1
173
     0
176
     1
  0
VISUALSTYLE
  5
2D
102
{ACAD_REACTORS
330
2A
102
}
330
2A
100
AcDbVisualStyle
  2
Gouraud
 70
     2
177
     2
291
     1
 71
     2
176
     1
 72
     2
176
     1
 73
     1
176
     1
 90
        2
176
     1
 40
-0.6
176
     1
 41
30.0
176
     1
 62
     5
 63
     7
421
 16777215
176
     1
 74
     0
176
     1
 91
        4
176
     1
 64
     7
176
     1
 65
   257
176
     1
 75
     1
176
     1
175
     1
176
     1
 42
1.0
176
     1
 92
        0
176
     1
 66
     7
176
     1
 43
1.0
176
     1
 76
     1
176
     1
 77
     6
176
     1
 78
     2
176
     1
 67
     7
176
     1
 79
     5
176
     1
170
     0
176
     1
171
     0
176
     1
290
     0
176
     1
 93
       13
176
     1
 44
0.0
176
     1
173
     0
176
     1
  0
VISUALSTYLE
  5
2E
102
{ACAD_REACTORS
330
2A
102
}
330
2A
100
AcDbVisualStyle
  2
GouraudWithEdges
 70
     3
177
     2
291
     1
 71
     2
176
     1
 72
     2
176
     1
 73
     1
176
     1
 90
        2
176
     1
 40
-0.6
176
     1
 41
30.0
176
     1
 62
     5
 63
     7
421
 16777215
176
     1
 74
     1
176
     1
 91
        4
176
     1
 64
     7
176
     1
 65
   257
176
     1
 75
     1
176
     1
175
     1
176
     1
 42
1.0
176
     1
 92
        0
176
     1
 66
   257
176
     1
 43
1.0
176
     1
 76
     1
176
     1
 77
     6
176
     1
 78
     2
176
     1
 67
     7
176
     1
 79
     5
176
     1
170
     0
176
     1
171
     0
176
     1
290
     0
176
     1
 93
       13
176
     1
 44
0.0
176
     1
173
     0
176
     1
  0
VISUALSTYLE
  5
38
102
{ACAD_REACTORS
330
2A
102
}
330
2A
100
AcDbVisualStyle
  2
Linepattern
 70
    14
177
     2
291
     1
 71
     2
176
     1
 72
     2
176
     1
 73
     0
176
     1
 90
        0
176
     1
 40
-0.6
176
     1
 41
-30.0
176
     1
 62
     5
 63
     7
421
 16777215
176
     1
 74
     1
176
     1
 91
        4
176
     1
 64
     7
176
     1
 65
   257
176
     1
 75
     7
176
     1
175
     7
176
     1
 42
1.0
176
     1
 92
        8
176
     1
 66
     7
176
     1
 43
1.0
176
     1
 76
     1
176
     1
 77
     6
176
     1
 78
     2
176
     1
 67
     7
176
     1
 79
     5
176
     1
170
     0
176
     1
171
     0
176
     1
290
     0
176
     1
 93
        1
176
     1
 44
0.0
176
     1
173
     0
176
     1
  0
VISUALSTYLE
  5
33
102
{ACAD_REACTORS
330
2A
102
}
330
2A
100
AcDbVisualStyle
  2
Realistic
 70
     8
177
     2
291
     0
 71
     2
176
     1
 72
     2
176
     1
 73
     0
176
     1
 90
        0
176
     1
 40
-0.6
176
     1
 41
-30.0
176
     1
 62
     5
 63
     7
421
 16777215
176
     1
 74
     1
176
     1
 91
        0
176
     1
 64
     7
176
     1
 65
   257
176
     1
 75
     1
176
     1
175
     1
176
     1
 42
1.0
176
     1
 92
        8
176
     1
 66
     8
424
  7895160
176
     1
 43
1.0
176
     1
 76
     1
176
     1
 77
     6
176
     1
 78
     2
176
     1
 67
     7
176
     1
 79
     5
176
     1
170
     0
176
     1
171
     0
176
     1
290
     0
176
     1
 93
       13
176
     1
 44
0.0
176
     1
173
     0
176
     1
  0
VISUALSTYLE
  5
37
102
{ACAD_REACTORS
330
2A
102
}
330
2A
100
AcDbVisualStyle
  2
Thicken
 70
    13
177
     2
291
     1
 71
     2
176
     1
 72
     2
176
     1
 73
     0
176
     1
 90
        0
176
     1
 40
-0.6
176
     1
 41
-30.0
176
     1
 62
     5
 63
     7
421
 16777215
176
     1
 74
     1
176
     1
 91
        4
176
     1
 64
     7
176
     1
 65
   257
176
     1
 75
     1
176
     1
175
     1
176
     1
 42
1.0
176
     1
 92
       12
176
     1
 66
     7
176
     1
 43
1.0
176
     1
 76
     1
176
     1
 77
     6
176
     1
 78
     2
176
     1
 67
     7
176
     1
 79
     5
176
     1
170
     0
176
     1
171
     0
176
     1
290
     0
176
     1
 93
        1
176
     1
 44
0.0
176
     1
173
     0
176
     1
  0
ENDSEC
  0
EOF
