  0
SECTION
  2
HEADER
  9
$ACADVER
  1
AC1024
  9
$ACADMAINTVER
 70
     6
  9
$DWGCODEPAGE
  3
UNDEFINED
  9
$INSBASE
 10
0.0
 20
0.0
 30
0.0
  9
$EXTMIN
 10
1.000000000000000E+20
 20
1.000000000000000E+20
 30
1.000000000000000E+20
  9
$EXTMAX
 10
-1.000000000000000E+20
 20
-1.000000000000000E+20
 30
-1.000000000000000E+20
  9
$LIMMIN
 10
0.0
 20
0.0
  9
$LIMMAX
 10
12.0
 20
9.0
  9
$ORTHOMODE
 70
     0
  9
$REGENMODE
 70
     1
  9
$FILLMODE
 70
     1
  9
$QTEXTMODE
 70
     0
  9
$MIRRTEXT
 70
     1
  9
$LTSCALE
 40
1.0
  9
$ATTMODE
 70
     1
  9
$TEXTSIZE
 40
0.2
  9
$TRACEWID
 40
0.05
  9
$TEXTSTYLE
  7
Standard
  9
$CLAYER
  8
0
  9
$CELTYPE
  6
ByLayer
  9
$CECOLOR
 62
   256
  9
$CELTSCALE
 40
1.0
  9
$DISPSILH
 70
     0
  9
$DIMSCALE
 40
1.0
  9
$DIMASZ
 40
0.18
  9
$DIMEXO
 40
0.0625
  9
$DIMDLI
 40
0.38
  9
$DIMRND
 40
0.0
  9
$DIMDLE
 40
0.0
  9
$DIMEXE
 40
0.18
  9
$DIMTP
 40
0.0
  9
$DIMTM
 40
0.0
  9
$DIMTXT
 40
0.18
  9
$DIMCEN
 40
0.09
  9
$DIMTSZ
 40
0.0
  9
$DIMTOL
 70
     0
  9
$DIMLIM
 70
     0
  9
$DIMTIH
 70
     1
  9
$DIMTOH
 70
     1
  9
$DIMSE1
 70
     0
  9
$DIMSE2
 70
     0
  9
$DIMTAD
 70
     0
  9
$DIMZIN
 70
     0
  9
$DIMBLK
  1

  9
$DIMASO
 70
     1
  9
$DIMSHO
 70
     1
  9
$DIMPOST
  1

  9
$DIMAPOST
  1

  9
$DIMALT
 70
     0
  9
$DIMALTD
 70
     2
  9
$DIMALTF
 40
25.4
  9
$DIMLFAC
 40
1.0
  9
$DIMTOFL
 70
     0
  9
$DIMTVP
 40
0.0
  9
$DIMTIX
 70
     0
  9
$DIMSOXD
 70
     0
  9
$DIMSAH
 70
     0
  9
$DIMBLK1
  1

  9
$DIMBLK2
  1

  9
$DIMSTYLE
  2
Standard
  9
$DIMCLRD
 70
     0
  9
$DIMCLRE
 70
     0
  9
$DIMCLRT
 70
     0
  9
$DIMTFAC
 40
1.0
  9
$DIMGAP
 40
0.09
  9
$DIMJUST
 70
     0
  9
$DIMSD1
 70
     0
  9
$DIMSD2
 70
     0
  9
$DIMTOLJ
 70
     1
  9
$DIMTZIN
 70
     0
  9
$DIMALTZ
 70
     0
  9
$DIMALTTZ
 70
     0
  9
$DIMUPT
 70
     0
  9
$DIMDEC
 70
     4
  9
$DIMTDEC
 70
     4
  9
$DIMALTU
 70
     2
  9
$DIMALTTD
 70
     2
  9
$DIMTXSTY
  7
Standard
  9
$DIMAUNIT
 70
     0
  9
$DIMADEC
 70
     0
  9
$DIMALTRND
 40
0.0
  9
$DIMAZIN
 70
     0
  9
$DIMDSEP
 70
    46
  9
$DIMATFIT
 70
     3
  9
$DIMFRAC
 70
     0
  9
$DIMLDRBLK
  1

  9
$DIMLUNIT
 70
     2
  9
$DIMLWD
 70
    -2
  9
$DIMLWE
 70
    -2
  9
$DIMTMOVE
 70
     0
  9
$DIMFXL
 40
1.0
  9
$DIMFXLON
 70
     0
  9
$DIMJOGANG
 40
0.7853981633974483
  9
$DIMTFILL
 70
     0
  9
$DIMTFILLCLR
 70
     0
  9
$DIMARCSYM
 70
     0
  9
$DIMLTYPE
  6

  9
$DIMLTEX1
  6

  9
$DIMLTEX2
  6

  9
$DIMTXTDIRECTION
 70
     0
  9
$LUNITS
 70
     2
  9
$LUPREC
 70
     4
  9
$SKETCHINC
 40
0.1
  9
$FILLETRAD
 40
0.5
  9
$AUNITS
 70
     0
  9
$AUPREC
 70
     0
  9
$MENU
  1
.
  9
$ELEVATION
 40
0.0
  9
$PELEVATION
 40
0.0
  9
$THICKNESS
 40
0.0
  9
$LIMCHECK
 70
     0
  9
$CHAMFERA
 40
0.5
  9
$CHAMFERB
 40
0.5
  9
$CHAMFERC
 40
1.0
  9
$CHAMFERD
 40
0.0
  9
$SKPOLY
 70
     0
  9
$TDCREATE
 40
2457917.622719896
  9
$TDUCREATE
 40
2457917.247719907
  9
$TDUPDATE
 40
2457917.622719896
  9
$TDUUPDATE
 40
2457917.247719907
  9
$TDINDWG
 40
0.0000000116
  9
$TDUSRTIMER
 40
0.0000000116
  9
$USRTIMER
 70
     1
  9
$ANGBASE
 50
0.0
  9
$ANGDIR
 70
     0
  9
$PDMODE
 70
     0
  9
$PDSIZE
 40
0.0
  9
$PLINEWID
 40
0.0
  9
$SPLFRAME
 70
     0
  9
$SPLINETYPE
 70
     6
  9
$SPLINESEGS
 70
     8
  9
$HANDSEED
  5
113
  9
$SURFTAB1
 70
     6
  9
$SURFTAB2
 70
     6
  9
$SURFTYPE
 70
     6
  9
$SURFU
 70
     6
  9
$SURFV
 70
     6
  9
$UCSBASE
  2

  9
$UCSNAME
  2

  9
$UCSORG
 10
0.0
 20
0.0
 30
0.0
  9
$UCSXDIR
 10
1.0
 20
0.0
 30
0.0
  9
$UCSYDIR
 10
0.0
 20
1.0
 30
0.0
  9
$UCSORTHOREF
  2

  9
$UCSORTHOVIEW
 70
     0
  9
$UCSORGTOP
 10
0.0
 20
0.0
 30
0.0
  9
$UCSORGBOTTOM
 10
0.0
 20
0.0
 30
0.0
  9
$UCSORGLEFT
 10
0.0
 20
0.0
 30
0.0
  9
$UCSORGRIGHT
 10
0.0
 20
0.0
 30
0.0
  9
$UCSORGFRONT
 10
0.0
 20
0.0
 30
0.0
  9
$UCSORGBACK
 10
0.0
 20
0.0
 30
0.0
  9
$PUCSBASE
  2

  9
$PUCSNAME
  2

  9
$PUCSORG
 10
0.0
 20
0.0
 30
0.0
  9
$PUCSXDIR
 10
1.0
 20
0.0
 30
0.0
  9
$PUCSYDIR
 10
0.0
 20
1.0
 30
0.0
  9
$PUCSORTHOREF
  2

  9
$PUCSORTHOVIEW
 70
     0
  9
$PUCSORGTOP
 10
0.0
 20
0.0
 30
0.0
  9
$PUCSORGBOTTOM
 10
0.0
 20
0.0
 30
0.0
  9
$PUCSORGLEFT
 10
0.0
 20
0.0
 30
0.0
  9
$PUCSORGRIGHT
 10
0.0
 20
0.0
 30
0.0
  9
$PUCSORGFRONT
 10
0.0
 20
0.0
 30
0.0
  9
$PUCSORGBACK
 10
0.0
 20
0.0
 30
0.0
  9
$USERI1
 70
     0
  9
$USERI2
 70
     0
  9
$USERI3
 70
     0
  9
$USERI4
 70
     0
  9
$USERI5
 70
     0
  9
$USERR1
 40
0.0
  9
$USERR2
 40
0.0
  9
$USERR3
 40
0.0
  9
$USERR4
 40
0.0
  9
$USERR5
 40
0.0
  9
$WORLDVIEW
 70
     1
  9
$SHADEDGE
 70
     3
  9
$SHADEDIF
 70
    70
  9
$TILEMODE
 70
     1
  9
$MAXACTVP
 70
    64
  9
$PINSBASE
 10
0.0
 20
0.0
 30
0.0
  9
$PLIMCHECK
 70
     0
  9
$PEXTMIN
 10
1.000000000000000E+20
 20
1.000000000000000E+20
 30
1.000000000000000E+20
  9
$PEXTMAX
 10
-1.000000000000000E+20
 20
-1.000000000000000E+20
 30
-1.000000000000000E+20
  9
$PLIMMIN
 10
0.0
 20
0.0
  9
$PLIMMAX
 10
12.0
 20
9.0
  9
$UNITMODE
 70
     0
  9
$VISRETAIN
 70
     1
  9
$PLINEGEN
 70
     0
  9
$PSLTSCALE
 70
     1
  9
$TREEDEPTH
 70
  3020
  9
$CMLSTYLE
  2
Standard
  9
$CMLJUST
 70
     0
  9
$CMLSCALE
 40
1.0
  9
$PROXYGRAPHICS
 70
     1
  9
$MEASUREMENT
 70
     0
  9
$CELWEIGHT
370
    -1
  9
$ENDCAPS
280
     0
  9
$JOINSTYLE
280
     0
  9
$LWDISPLAY
290
     1
  9
$INSUNITS
 70
     1
  9
$HYPERLINKBASE
  1

  9
$STYLESHEET
  1

  9
$XEDIT
290
     1
  9
$CEPSNTYPE
380
     0
  9
$PSTYLEMODE
290
     1
  9
$FINGERPRINTGUID
  2
{8251AB2A-E421-72A9-7B69-431600F2E8AD}
  9
$VERSIONGUID
  2
{FAEB1C32-E019-11D5-929B-00C0DF256EC4}
  9
$EXTNAMES
290
     1
  9
$PSVPSCALE
 40
0.0
  9
$OLESTARTUP
290
     0
  9
$SORTENTS
280
   127
  9
$INDEXCTL
280
     0
  9
$HIDETEXT
280
     1
  9
$XCLIPFRAME
280
     2
  9
$HALOGAP
280
     0
  9
$OBSCOLOR
 70
   257
  9
$OBSLTYPE
280
     0
  9
$INTERSECTIONDISPLAY
280
     0
  9
$INTERSECTIONCOLOR
 70
   257
  9
$DIMASSOC
280
     2
  9
$PROJECTNAME
  1

  9
$CAMERADISPLAY
290
     0
  9
$LENSLENGTH
 40
50.0
  9
$CAMERAHEIGHT
 40
0.0
  9
$STEPSPERSEC
 40
2.0
  9
$STEPSIZE
 40
6.0
  9
$3DDWFPREC
 40
2.0
  9
$PSOLWIDTH
 40
0.25
  9
$PSOLHEIGHT
 40
4.0
  9
$LOFTANG1
 40
1.570796326794897
  9
$LOFTANG2
 40
1.570796326794897
  9
$LOFTMAG1
 40
0.0
  9
$LOFTMAG2
 40
0.0
  9
$LOFTPARAM
 70
     7
  9
$LOFTNORMALS
280
     1
  9
$LATITUDE
 40
37.795
  9
$LONGITUDE
 40
-122.394
  9
$NORTHDIRECTION
 40
0.0
  9
$TIMEZONE
 70
 -8000
  9
$LIGHTGLYPHDISPLAY
280
     1
  9
$TILEMODELIGHTSYNCH
280
     1
  9
$CMATERIAL
347
3C
  9
$SOLIDHIST
280
     1
  9
$SHOWHIST
280
     1
  9
$DWFFRAME
280
     2
  9
$DGNFRAME
280
     2
  9
$REALWORLDSCALE
290
     1
  9
$INTERFERECOLOR
 62
   256
  9
$CSHADOW
280
     0
  9
$SHADOWPLANELOCATION
 40
0.0
  0
ENDSEC
  0
SECTION
  2
CLASSES
  0
CLASS
  1
ACDBDICTIONARYWDFLT
  2
AcDbDictionaryWithDefault
  3
ObjectDBX Classes
 90
        0
 91
        4
280
     0
281
     0
  0
CLASS
  1
VISUALSTYLE
  2
AcDbVisualStyle
  3
ObjectDBX Classes
 90
     4095
 91
        4
280
     0
281
     0
  0
CLASS
  1
MATERIAL
  2
AcDbMaterial
  3
ObjectDBX Classes
 90
     1153
 91
        4
280
     0
281
     0
  0
CLASS
  1
SUN
  2
AcDbSun
  3
SCENEOE
 90
     1024
 91
        4
280
     0
281
     0
  0
ENDSEC
  0
SECTION
  2
TABLES
  0
TABLE
  2
VPORT
  5
8
330
0
100
AcDbSymbolTable
 70
     1
  0
VPORT
  5
29
330
8
100
AcDbSymbolTableRecord
100
AcDbViewportTableRecord
  2
*Active
 70
     0
 10
0.0
 20
0.0
 11
1.0
 21
1.0
 12
0.0
 22
0.0
 13
0.0
 23
0.0
 14
0.5
 24
0.5
 15
0.5
 25
0.5
 16
0.0
 26
0.0
 36
1.0
 17
91.00082462281999
 27
-128.4993055234307
 37
0.0
 40
256.9986110468615
 41
0.7081814508812795
 42
50.0
 43
0.0
 44
0.0
 50
0.0
 51
0.0
 71
     0
 72
   100
 73
     1
 74
     3
 75
     0
 76
     0
 77
     0
 78
     0
281
     0
 65
     1
110
0.0
120
0.0
130
0.0
111
1.0
121
0.0
131
0.0
112
0.0
122
1.0
132
0.0
 79
     0
146
0.0
 60
     3
 61
     5
292
     1
282
     1
141
0.0
142
0.0
 63
   250
361
3F
  0
ENDTAB
  0
TABLE
  2
LTYPE
  5
5
330
0
100
AcDbSymbolTable
 70
     1
  0
LTYPE
  5
14
330
5
100
AcDbSymbolTableRecord
100
AcDbLinetypeTableRecord
  2
ByBlock
 70
     0
  3

 72
    65
 73
     0
 40
0.0
  0
LTYPE
  5
15
330
5
100
AcDbSymbolTableRecord
100
AcDbLinetypeTableRecord
  2
ByLayer
 70
     0
  3

 72
    65
 73
     0
 40
0.0
  0
LTYPE
  5
16
330
5
100
AcDbSymbolTableRecord
100
AcDbLinetypeTableRecord
  2
Continuous
 70
     0
  3
Solid line
 72
    65
 73
     0
 40
0.0
  0
ENDTAB
  0
TABLE
  2
LAYER
  5
2
330
0
100
AcDbSymbolTable
 70
     2
  0
LAYER
  5
10
330
2
100
AcDbSymbolTableRecord
100
AcDbLayerTableRecord
  2
0
 70
     0
 62
     7
  6
Continuous
370
    -3
390
F
347
3E
  0
LAYER
  5
40
330
2
100
AcDbSymbolTableRecord
100
AcDbLayerTableRecord
  2
_U+30EC_U+30A4_U+30E4_U+30FC 1
 70
     0
 62
     7
  6
Continuous
370
    -3
390
F
347
3E
  0
ENDTAB
  0
TABLE
  2
STYLE
  5
3
330
0
100
AcDbSymbolTable
 70
     1
  0
STYLE
  5
11
330
3
100
AcDbSymbolTableRecord
100
AcDbTextStyleTableRecord
  2
Standard
 70
     0
 40
0.0
 41
1.0
 50
0.0
 71
     0
 42
0.2
  3
txt
  4

  0
ENDTAB
  0
TABLE
  2
VIEW
  5
6
330
0
100
AcDbSymbolTable
 70
     0
  0
ENDTAB
  0
TABLE
  2
UCS
  5
7
330
0
100
AcDbSymbolTable
 70
     0
  0
ENDTAB
  0
TABLE
  2
APPID
  5
9
330
0
100
AcDbSymbolTable
 70
     1
  0
APPID
  5
12
330
9
100
AcDbSymbolTableRecord
100
AcDbRegAppTableRecord
  2
ACAD
 70
     0
  0
ENDTAB
  0
TABLE
  2
DIMSTYLE
  5
A
330
0
100
AcDbSymbolTable
 70
     1
100
AcDbDimStyleTable
  0
DIMSTYLE
105
27
330
A
100
AcDbSymbolTableRecord
100
AcDbDimStyleTableRecord
  2
Standard
 70
     0
178
     0
340
11
  0
ENDTAB
  0
TABLE
  2
BLOCK_RECORD
  5
1
330
0
100
AcDbSymbolTable
 70
     7
  0
BLOCK_RECORD
  5
1F
330
1
100
AcDbSymbolTableRecord
100
AcDbBlockTableRecord
  2
*Model_Space
340
22
 70
     0
280
     1
281
     0
  0
BLOCK_RECORD
  5
1B
330
1
100
AcDbSymbolTableRecord
100
AcDbBlockTableRecord
  2
*Paper_Space
340
1E
 70
     0
280
     1
281
     0
  0
BLOCK_RECORD
  5
23
330
1
100
AcDbSymbolTableRecord
100
AcDbBlockTableRecord
  2
*Paper_Space0
340
26
 70
     0
280
     1
281
     0
  0
BLOCK_RECORD
  5
A4
330
1
100
AcDbSymbolTableRecord
100
AcDbBlockTableRecord
  2
block 2
340
0
102
{BLKREFS
331
A5
102
}
 70
     0
280
     1
281
     0
  0
BLOCK_RECORD
  5
B4
330
1
100
AcDbSymbolTableRecord
100
AcDbBlockTableRecord
  2
block 3
340
0
102
{BLKREFS
331
B5
102
}
 70
     0
280
     1
281
     0
  0
BLOCK_RECORD
  5
C4
330
1
100
AcDbSymbolTableRecord
100
AcDbBlockTableRecord
  2
block 4
340
0
102
{BLKREFS
331
C5
102
}
 70
     0
280
     1
281
     0
  0
BLOCK_RECORD
  5
DC
330
1
100
AcDbSymbolTableRecord
100
AcDbBlockTableRecord
  2
block 5
340
0
102
{BLKREFS
331
DD
102
}
 70
     0
280
     1
281
     0
  0
BLOCK_RECORD
  5
F4
330
1
100
AcDbSymbolTableRecord
100
AcDbBlockTableRecord
  2
block 6
340
0
102
{BLKREFS
331
F5
102
}
 70
     0
280
     1
281
     0
  0
BLOCK_RECORD
  5
10B
330
1
100
AcDbSymbolTableRecord
100
AcDbBlockTableRecord
  2
block 7
340
0
102
{BLKREFS
331
10C
102
}
 70
     0
280
     1
281
     0
  0
ENDTAB
  0
ENDSEC
  0
SECTION
  2
BLOCKS
  0
BLOCK
  5
20
330
1F
100
AcDbEntity
  8
0
100
AcDbBlockBegin
  2
*Model_Space
 70
     0
 10
0.0
 20
0.0
 30
0.0
  3
*Model_Space
  1

  0
ENDBLK
  5
21
330
1F
100
AcDbEntity
  8
0
100
AcDbBlockEnd
  0
BLOCK
  5
1C
330
1B
100
AcDbEntity
 67
     1
  8
0
100
AcDbBlockBegin
  2
*Paper_Space
 70
     0
 10
0.0
 20
0.0
 30
0.0
  3
*Paper_Space
  1

  0
ENDBLK
  5
1D
330
1B
100
AcDbEntity
 67
     1
  8
0
100
AcDbBlockEnd
  0
BLOCK
  5
24
330
23
100
AcDbEntity
  8
0
100
AcDbBlockBegin
  2
*Paper_Space0
 70
     0
 10
0.0
 20
0.0
 30
0.0
  3
*Paper_Space0
  1

  0
ENDBLK
  5
25
330
23
100
AcDbEntity
  8
0
100
AcDbBlockEnd
  0
BLOCK
  5
A6
330
A4
100
AcDbEntity
  8
0
100
AcDbBlockBegin
  2
block 2
 70
     0
 10
0.0
 20
0.0
 30
0.0
  3
block 2
  1

  0
SPLINE
  5
A8
330
A4
100
AcDbEntity
  8
_U+30EC_U+30A4_U+30E4_U+30FC 1
370
     0
100
AcDbSpline
210
0.0
220
0.0
230
1.0
 70
    11
 71
     3
 72
    29
 73
    25
 74
     0
 42
0.0000000001
 43
0.0000000001
 12
1.0
 22
0.0
 32
0.0
 13
1.0
 23
0.0
 33
0.0
 40
0.0
 40
0.0
 40
0.0
 40
0.0
 40
1.0
 40
1.0
 40
1.0
 40
2.0
 40
2.0
 40
2.0
 40
3.0
 40
3.0
 40
3.0
 40
4.0
 40
4.0
 40
4.0
 40
5.0
 40
5.0
 40
5.0
 40
6.0
 40
6.0
 40
6.0
 40
7.0
 40
7.0
 40
7.0
 40
8.0
 40
8.0
 40
8.0
 40
8.0
 10
80.38716903372266
 20
-121.6308186544881
 30
0.0
 10
80.12069089793859
 20
-121.6308186544881
 30
0.0
 10
79.86678736067567
 20
-121.4931870898524
 30
0.0
 10
79.86678736067567
 20
-121.1441989171966
 30
0.0
 10
79.86678736067567
 20
-120.8882283226425
 30
0.0
 10
80.0085530398937
 20
-120.7929714324754
 30
0.0
 10
80.11431747129087
 20
-120.7316487328379
 30
0.0
 10
79.98943275995056
 20
-120.6723930904916
 30
0.0
 10
79.91329614972653
 20
-120.5581881751556
 30
0.0
 10
79.91329614972653
 20
-120.3974744707687
 30
0.0
 10
79.91329614972653
 20
-120.1223835962715
 30
0.0
 10
80.11225041399972
 20
-119.9869913437012
 30
0.0
 10
80.38716903372266
 20
-119.9869913437012
 30
0.0
 10
80.67070039215872
 20
-119.9869913437012
 30
0.0
 10
80.86104191771877
 20
-120.1308240802104
 30
0.0
 10
80.86104191771877
 20
-120.3974744707687
 30
0.0
 10
80.86104191771877
 20
-120.5581881751556
 30
0.0
 10
80.7828382502036
 20
-120.6723930904916
 30
0.0
 10
80.6579535388633
 20
-120.7316487328379
 30
0.0
 10
80.74683700238273
 20
-120.7824638912454
 30
0.0
 10
80.9054836494785
 20
-120.8777207814125
 30
0.0
 10
80.9054836494785
 20
-121.13989254784
 30
0.0
 10
80.9054836494785
 20
-121.5143744270867
 30
0.0
 10
80.62625866039899
 20
-121.6308186544881
 30
0.0
 10
80.38716903372266
 20
-121.6308186544881
 30
0.0
  0
SPLINE
  5
A9
330
A4
100
AcDbEntity
  8
_U+30EC_U+30A4_U+30E4_U+30FC 1
370
     0
100
AcDbSpline
210
0.0
220
0.0
230
1.0
 70
    11
 71
     3
 72
    17
 73
    13
 74
     0
 42
0.0000000001
 43
0.0000000001
 12
1.0
 22
0.0
 32
0.0
 13
1.0
 23
0.0
 33
0.0
 40
0.0
 40
0.0
 40
0.0
 40
0.0
 40
1.0
 40
1.0
 40
1.0
 40
2.0
 40
2.0
 40
2.0
 40
3.0
 40
3.0
 40
3.0
 40
4.0
 40
4.0
 40
4.0
 40
4.0
 10
80.38716903372266
 20
-120.8396524763005
 30
0.0
 10
80.24333629721347
 20
-120.8396524763005
 30
0.0
 10
80.09106307676544
 20
-120.9262966277545
 30
0.0
 10
80.09106307676544
 20
-121.12938500661
 30
0.0
 10
80.09106307676544
 20
-121.3345404427566
 30
0.0
 10
80.2180148453969
 20
-121.4361707595715
 30
0.0
 10
80.38716903372266
 20
-121.4361707595715
 30
0.0
 10
80.57337644470041
 20
-121.4361707595715
 30
0.0
 10
80.68344724545415
 20
-121.3135253602966
 30
0.0
 10
80.68344724545415
 20
-121.1357584332577
 30
0.0
 10
80.68344724545415
 20
-120.9135497744591
 30
0.0
 10
80.52049422900183
 20
-120.8396524763005
 30
0.0
 10
80.38716903372266
 20
-120.8396524763005
 30
0.0
  0
SPLINE
  5
AA
330
A4
100
AcDbEntity
  8
_U+30EC_U+30A4_U+30E4_U+30FC 1
370
     0
100
AcDbSpline
210
0.0
220
0.0
230
1.0
 70
    11
 71
     3
 72
    17
 73
    13
 74
     0
 42
0.0000000001
 43
0.0000000001
 12
1.0
 22
0.0
 32
0.0
 13
1.0
 23
0.0
 33
0.0
 40
0.0
 40
0.0
 40
0.0
 40
0.0
 40
1.0
 40
1.0
 40
1.0
 40
2.0
 40
2.0
 40
2.0
 40
3.0
 40
3.0
 40
3.0
 40
4.0
 40
4.0
 40
4.0
 40
4.0
 10
80.38716903372266
 20
-120.1795721813266
 30
0.0
 10
80.2221489599792
 20
-120.1795721813266
 30
0.0
 10
80.1375718658163
 20
-120.2746568167195
 30
0.0
 10
80.1375718658163
 20
-120.4100490692899
 30
0.0
 10
80.1375718658163
 20
-120.532866723339
 30
0.0
 10
80.20957436145802
 20
-120.6513780080316
 30
0.0
 10
80.38716903372266
 20
-120.6513780080316
 30
0.0
 10
80.56493596076155
 20
-120.6513780080316
 30
0.0
 10
80.636766201629
 20
-120.532866723339
 30
0.0
 10
80.636766201629
 20
-120.4100490692899
 30
0.0
 10
80.636766201629
 20
-120.2746568167195
 30
0.0
 10
80.55012205017498
 20
-120.1795721813266
 30
0.0
 10
80.38716903372266
 20
-120.1795721813266
 30
0.0
  0
HATCH
  5
AB
330
A4
100
AcDbEntity
  8
_U+30EC_U+30A4_U+30E4_U+30FC 1
 62
   179
420
  2234388
100
AcDbHatch
 10
0.0
 20
0.0
 30
0.0
210
0.0
220
0.0
230
1.0
  2
SOLID
 70
     1
 71
     0
 91
        3
 92
        1
 93
        1
 72
     4
 94
        3
 73
     0
 74
     1
 95
       29
 96
       25
 40
0.0
 40
0.0
 40
0.0
 40
0.0
 40
1.0
 40
1.0
 40
1.0
 40
2.0
 40
2.0
 40
2.0
 40
3.0
 40
3.0
 40
3.0
 40
4.0
 40
4.0
 40
4.0
 40
5.0
 40
5.0
 40
5.0
 40
6.0
 40
6.0
 40
6.0
 40
7.0
 40
7.0
 40
7.0
 40
8.0
 40
8.0
 40
8.0
 40
8.0
 10
80.38716903372266
 20
-121.6308186544881
 10
80.12069089793859
 20
-121.6308186544881
 10
79.86678736067567
 20
-121.4931870898524
 10
79.86678736067567
 20
-121.1441989171966
 10
79.86678736067567
 20
-120.8882283226425
 10
80.0085530398937
 20
-120.7929714324754
 10
80.11431747129087
 20
-120.7316487328379
 10
79.98943275995056
 20
-120.6723930904916
 10
79.91329614972653
 20
-120.5581881751556
 10
79.91329614972653
 20
-120.3974744707687
 10
79.91329614972653
 20
-120.1223835962715
 10
80.11225041399972
 20
-119.9869913437012
 10
80.38716903372266
 20
-119.9869913437012
 10
80.67070039215872
 20
-119.9869913437012
 10
80.86104191771877
 20
-120.1308240802104
 10
80.86104191771877
 20
-120.3974744707687
 10
80.86104191771877
 20
-120.5581881751556
 10
80.7828382502036
 20
-120.6723930904916
 10
80.6579535388633
 20
-120.7316487328379
 10
80.74683700238273
 20
-120.7824638912454
 10
80.9054836494785
 20
-120.8777207814125
 10
80.9054836494785
 20
-121.13989254784
 10
80.9054836494785
 20
-121.5143744270867
 10
80.62625866039899
 20
-121.6308186544881
 10
80.38716903372266
 20
-121.6308186544881
 97
        0
 97
        0
 92
        1
 93
        1
 72
     4
 94
        3
 73
     0
 74
     1
 95
       17
 96
       13
 40
0.0
 40
0.0
 40
0.0
 40
0.0
 40
1.0
 40
1.0
 40
1.0
 40
2.0
 40
2.0
 40
2.0
 40
3.0
 40
3.0
 40
3.0
 40
4.0
 40
4.0
 40
4.0
 40
4.0
 10
80.38716903372266
 20
-120.8396524763005
 10
80.24333629721347
 20
-120.8396524763005
 10
80.09106307676544
 20
-120.9262966277545
 10
80.09106307676544
 20
-121.12938500661
 10
80.09106307676544
 20
-121.3345404427566
 10
80.2180148453969
 20
-121.4361707595715
 10
80.38716903372266
 20
-121.4361707595715
 10
80.57337644470041
 20
-121.4361707595715
 10
80.68344724545415
 20
-121.3135253602966
 10
80.68344724545415
 20
-121.1357584332577
 10
80.68344724545415
 20
-120.9135497744591
 10
80.52049422900183
 20
-120.8396524763005
 10
80.38716903372266
 20
-120.8396524763005
 97
        0
 97
        0
 92
        1
 93
        1
 72
     4
 94
        3
 73
     0
 74
     1
 95
       17
 96
       13
 40
0.0
 40
0.0
 40
0.0
 40
0.0
 40
1.0
 40
1.0
 40
1.0
 40
2.0
 40
2.0
 40
2.0
 40
3.0
 40
3.0
 40
3.0
 40
4.0
 40
4.0
 40
4.0
 40
4.0
 10
80.38716903372266
 20
-120.1795721813266
 10
80.2221489599792
 20
-120.1795721813266
 10
80.1375718658163
 20
-120.2746568167195
 10
80.1375718658163
 20
-120.4100490692899
 10
80.1375718658163
 20
-120.532866723339
 10
80.20957436145802
 20
-120.6513780080316
 10
80.38716903372266
 20
-120.6513780080316
 10
80.56493596076155
 20
-120.6513780080316
 10
80.636766201629
 20
-120.532866723339
 10
80.636766201629
 20
-120.4100490692899
 10
80.636766201629
 20
-120.2746568167195
 10
80.55012205017498
 20
-120.1795721813266
 10
80.38716903372266
 20
-120.1795721813266
 97
        0
 97
        0
 75
     2
 76
     1
 98
        0
  0
ENDBLK
  5
A7
330
A4
100
AcDbEntity
  8
0
100
AcDbBlockEnd
  0
BLOCK
  5
B6
330
B4
100
AcDbEntity
  8
0
100
AcDbBlockBegin
  2
block 3
 70
     0
 10
0.0
 20
0.0
 30
0.0
  3
block 3
  1

  0
SPLINE
  5
B8
330
B4
100
AcDbEntity
  8
_U+30EC_U+30A4_U+30E4_U+30FC 1
370
     0
100
AcDbSpline
210
0.0
220
0.0
230
1.0
 70
    11
 71
     3
 72
    29
 73
    25
 74
     0
 42
0.0000000001
 43
0.0000000001
 12
1.0
 22
0.0
 32
0.0
 13
1.0
 23
0.0
 33
0.0
 40
0.0
 40
0.0
 40
0.0
 40
0.0
 40
1.0
 40
1.0
 40
1.0
 40
2.0
 40
2.0
 40
2.0
 40
3.0
 40
3.0
 40
3.0
 40
4.0
 40
4.0
 40
4.0
 40
5.0
 40
5.0
 40
5.0
 40
6.0
 40
6.0
 40
6.0
 40
7.0
 40
7.0
 40
7.0
 40
8.0
 40
8.0
 40
8.0
 40
8.0
 10
88.38719751479556
 20
-121.6308186544881
 30
0.0
 10
88.12071937901149
 20
-121.6308186544881
 30
0.0
 10
87.86681584174858
 20
-121.4931870898524
 30
0.0
 10
87.86681584174858
 20
-121.1441989171966
 30
0.0
 10
87.86681584174858
 20
-120.8882283226425
 30
0.0
 10
88.00858152096662
 20
-120.7929714324754
 30
0.0
 10
88.11434595236378
 20
-120.7316487328379
 30
0.0
 10
87.98946124102348
 20
-120.6723930904916
 30
0.0
 10
87.91332463079945
 20
-120.5581881751556
 30
0.0
 10
87.91332463079945
 20
-120.3974744707687
 30
0.0
 10
87.91332463079945
 20
-120.1223835962715
 30
0.0
 10
88.11227889507263
 20
-119.9869913437012
 30
0.0
 10
88.38719751479556
 20
-119.9869913437012
 30
0.0
 10
88.67072887323162
 20
-119.9869913437012
 30
0.0
 10
88.86107039879168
 20
-120.1308240802104
 30
0.0
 10
88.86107039879168
 20
-120.3974744707687
 30
0.0
 10
88.86107039879168
 20
-120.5581881751556
 30
0.0
 10
88.78286673127651
 20
-120.6723930904916
 30
0.0
 10
88.6579820199362
 20
-120.7316487328379
 30
0.0
 10
88.74686548345565
 20
-120.7824638912454
 30
0.0
 10
88.9055121305514
 20
-120.8777207814125
 30
0.0
 10
88.9055121305514
 20
-121.13989254784
 30
0.0
 10
88.9055121305514
 20
-121.5143744270867
 30
0.0
 10
88.6262871414719
 20
-121.6308186544881
 30
0.0
 10
88.38719751479556
 20
-121.6308186544881
 30
0.0
  0
SPLINE
  5
B9
330
B4
100
AcDbEntity
  8
_U+30EC_U+30A4_U+30E4_U+30FC 1
370
     0
100
AcDbSpline
210
0.0
220
0.0
230
1.0
 70
    11
 71
     3
 72
    17
 73
    13
 74
     0
 42
0.0000000001
 43
0.0000000001
 12
1.0
 22
0.0
 32
0.0
 13
1.0
 23
0.0
 33
0.0
 40
0.0
 40
0.0
 40
0.0
 40
0.0
 40
1.0
 40
1.0
 40
1.0
 40
2.0
 40
2.0
 40
2.0
 40
3.0
 40
3.0
 40
3.0
 40
4.0
 40
4.0
 40
4.0
 40
4.0
 10
88.38719751479556
 20
-120.8396524763005
 30
0.0
 10
88.24336477828639
 20
-120.8396524763005
 30
0.0
 10
88.09109155783834
 20
-120.9262966277545
 30
0.0
 10
88.09109155783834
 20
-121.12938500661
 30
0.0
 10
88.09109155783834
 20
-121.3345404427566
 30
0.0
 10
88.2180433264698
 20
-121.4361707595715
 30
0.0
 10
88.38719751479556
 20
-121.4361707595715
 30
0.0
 10
88.57340492577332
 20
-121.4361707595715
 30
0.0
 10
88.68347572652705
 20
-121.3135253602966
 30
0.0
 10
88.68347572652705
 20
-121.1357584332577
 30
0.0
 10
88.68347572652705
 20
-120.9135497744591
 30
0.0
 10
88.52052271007473
 20
-120.8396524763005
 30
0.0
 10
88.38719751479556
 20
-120.8396524763005
 30
0.0
  0
SPLINE
  5
BA
330
B4
100
AcDbEntity
  8
_U+30EC_U+30A4_U+30E4_U+30FC 1
370
     0
100
AcDbSpline
210
0.0
220
0.0
230
1.0
 70
    11
 71
     3
 72
    17
 73
    13
 74
     0
 42
0.0000000001
 43
0.0000000001
 12
1.0
 22
0.0
 32
0.0
 13
1.0
 23
0.0
 33
0.0
 40
0.0
 40
0.0
 40
0.0
 40
0.0
 40
1.0
 40
1.0
 40
1.0
 40
2.0
 40
2.0
 40
2.0
 40
3.0
 40
3.0
 40
3.0
 40
4.0
 40
4.0
 40
4.0
 40
4.0
 10
88.38719751479556
 20
-120.1795721813266
 30
0.0
 10
88.2221774410521
 20
-120.1795721813266
 30
0.0
 10
88.13760034688922
 20
-120.2746568167195
 30
0.0
 10
88.13760034688922
 20
-120.4100490692899
 30
0.0
 10
88.13760034688922
 20
-120.532866723339
 30
0.0
 10
88.20960284253094
 20
-120.6513780080316
 30
0.0
 10
88.38719751479556
 20
-120.6513780080316
 30
0.0
 10
88.56496444183446
 20
-120.6513780080316
 30
0.0
 10
88.63679468270192
 20
-120.532866723339
 30
0.0
 10
88.63679468270192
 20
-120.4100490692899
 30
0.0
 10
88.63679468270192
 20
-120.2746568167195
 30
0.0
 10
88.55015053124788
 20
-120.1795721813266
 30
0.0
 10
88.38719751479556
 20
-120.1795721813266
 30
0.0
  0
HATCH
  5
BB
330
B4
100
AcDbEntity
  8
_U+30EC_U+30A4_U+30E4_U+30FC 1
 62
   179
420
  2234388
100
AcDbHatch
 10
0.0
 20
0.0
 30
0.0
210
0.0
220
0.0
230
1.0
  2
SOLID
 70
     1
 71
     0
 91
        3
 92
        1
 93
        1
 72
     4
 94
        3
 73
     0
 74
     1
 95
       29
 96
       25
 40
0.0
 40
0.0
 40
0.0
 40
0.0
 40
1.0
 40
1.0
 40
1.0
 40
2.0
 40
2.0
 40
2.0
 40
3.0
 40
3.0
 40
3.0
 40
4.0
 40
4.0
 40
4.0
 40
5.0
 40
5.0
 40
5.0
 40
6.0
 40
6.0
 40
6.0
 40
7.0
 40
7.0
 40
7.0
 40
8.0
 40
8.0
 40
8.0
 40
8.0
 10
88.38719751479556
 20
-121.6308186544881
 10
88.12071937901149
 20
-121.6308186544881
 10
87.86681584174858
 20
-121.4931870898524
 10
87.86681584174858
 20
-121.1441989171966
 10
87.86681584174858
 20
-120.8882283226425
 10
88.00858152096662
 20
-120.7929714324754
 10
88.11434595236378
 20
-120.7316487328379
 10
87.98946124102348
 20
-120.6723930904916
 10
87.91332463079945
 20
-120.5581881751556
 10
87.91332463079945
 20
-120.3974744707687
 10
87.91332463079945
 20
-120.1223835962715
 10
88.11227889507263
 20
-119.9869913437012
 10
88.38719751479556
 20
-119.9869913437012
 10
88.67072887323162
 20
-119.9869913437012
 10
88.86107039879168
 20
-120.1308240802104
 10
88.86107039879168
 20
-120.3974744707687
 10
88.86107039879168
 20
-120.5581881751556
 10
88.78286673127651
 20
-120.6723930904916
 10
88.6579820199362
 20
-120.7316487328379
 10
88.74686548345565
 20
-120.7824638912454
 10
88.9055121305514
 20
-120.8777207814125
 10
88.9055121305514
 20
-121.13989254784
 10
88.9055121305514
 20
-121.5143744270867
 10
88.6262871414719
 20
-121.6308186544881
 10
88.38719751479556
 20
-121.6308186544881
 97
        0
 97
        0
 92
        1
 93
        1
 72
     4
 94
        3
 73
     0
 74
     1
 95
       17
 96
       13
 40
0.0
 40
0.0
 40
0.0
 40
0.0
 40
1.0
 40
1.0
 40
1.0
 40
2.0
 40
2.0
 40
2.0
 40
3.0
 40
3.0
 40
3.0
 40
4.0
 40
4.0
 40
4.0
 40
4.0
 10
88.38719751479556
 20
-120.8396524763005
 10
88.24336477828639
 20
-120.8396524763005
 10
88.09109155783834
 20
-120.9262966277545
 10
88.09109155783834
 20
-121.12938500661
 10
88.09109155783834
 20
-121.3345404427566
 10
88.2180433264698
 20
-121.4361707595715
 10
88.38719751479556
 20
-121.4361707595715
 10
88.57340492577332
 20
-121.4361707595715
 10
88.68347572652705
 20
-121.3135253602966
 10
88.68347572652705
 20
-121.1357584332577
 10
88.68347572652705
 20
-120.9135497744591
 10
88.52052271007473
 20
-120.8396524763005
 10
88.38719751479556
 20
-120.8396524763005
 97
        0
 97
        0
 92
        1
 93
        1
 72
     4
 94
        3
 73
     0
 74
     1
 95
       17
 96
       13
 40
0.0
 40
0.0
 40
0.0
 40
0.0
 40
1.0
 40
1.0
 40
1.0
 40
2.0
 40
2.0
 40
2.0
 40
3.0
 40
3.0
 40
3.0
 40
4.0
 40
4.0
 40
4.0
 40
4.0
 10
88.38719751479556
 20
-120.1795721813266
 10
88.2221774410521
 20
-120.1795721813266
 10
88.13760034688922
 20
-120.2746568167195
 10
88.13760034688922
 20
-120.4100490692899
 10
88.13760034688922
 20
-120.532866723339
 10
88.20960284253094
 20
-120.6513780080316
 10
88.38719751479556
 20
-120.6513780080316
 10
88.56496444183446
 20
-120.6513780080316
 10
88.63679468270192
 20
-120.532866723339
 10
88.63679468270192
 20
-120.4100490692899
 10
88.63679468270192
 20
-120.2746568167195
 10
88.55015053124788
 20
-120.1795721813266
 10
88.38719751479556
 20
-120.1795721813266
 97
        0
 97
        0
 75
     2
 76
     1
 98
        0
  0
ENDBLK
  5
B7
330
B4
100
AcDbEntity
  8
0
100
AcDbBlockEnd
  0
BLOCK
  5
C6
330
C4
100
AcDbEntity
  8
0
100
AcDbBlockBegin
  2
block 4
 70
     0
 10
0.0
 20
0.0
 30
0.0
  3
block 4
  1

  0
SPLINE
  5
C8
330
C4
100
AcDbEntity
  8
_U+30EC_U+30A4_U+30E4_U+30FC 1
370
     0
100
AcDbSpline
210
0.0
220
0.0
230
1.0
 70
    11
 71
     3
 72
    29
 73
    25
 74
     0
 42
0.0000000001
 43
0.0000000001
 12
1.0
 22
0.0
 32
0.0
 13
1.0
 23
0.0
 33
0.0
 40
0.0
 40
0.0
 40
0.0
 40
0.0
 40
1.0
 40
1.0
 40
1.0
 40
2.0
 40
2.0
 40
2.0
 40
3.0
 40
3.0
 40
3.0
 40
4.0
 40
4.0
 40
4.0
 40
5.0
 40
5.0
 40
5.0
 40
6.0
 40
6.0
 40
6.0
 40
7.0
 40
7.0
 40
7.0
 40
8.0
 40
8.0
 40
8.0
 40
8.0
 10
96.38688148631995
 20
-121.6308186544881
 30
0.0
 10
96.12057560531014
 20
-121.6308186544881
 30
0.0
 10
95.86667206804722
 20
-121.4931870898524
 30
0.0
 10
95.86667206804722
 20
-121.1441989171966
 30
0.0
 10
95.86667206804722
 20
-120.8882283226425
 30
0.0
 10
96.00861000203952
 20
-120.7929714324754
 30
0.0
 10
96.11402992388817
 20
-120.7316487328379
 30
0.0
 10
95.98931746732212
 20
-120.6723930904916
 30
0.0
 10
95.9131808570981
 20
-120.5581881751556
 30
0.0
 10
95.9131808570981
 20
-120.3974744707687
 30
0.0
 10
95.9131808570981
 20
-120.1223835962715
 30
0.0
 10
96.11196286659701
 20
-119.9869913437012
 30
0.0
 10
96.38688148631995
 20
-119.9869913437012
 30
0.0
 10
96.67075735430454
 20
-119.9869913437012
 30
0.0
 10
96.86092662509033
 20
-120.1308240802104
 30
0.0
 10
96.86092662509033
 20
-120.3974744707687
 30
0.0
 10
96.86092662509033
 20
-120.5581881751556
 30
0.0
 10
96.78272295757516
 20
-120.6723930904916
 30
0.0
 10
96.65766599146059
 20
-120.7316487328379
 30
0.0
 10
96.74654945498003
 20
-120.7824638912454
 30
0.0
 10
96.90536835685005
 20
-120.8777207814125
 30
0.0
 10
96.90536835685005
 20
-121.13989254784
 30
0.0
 10
96.90536835685005
 20
-121.5143744270867
 30
0.0
 10
96.62597111299628
 20
-121.6308186544881
 30
0.0
 10
96.38688148631995
 20
-121.6308186544881
 30
0.0
  0
SPLINE
  5
C9
330
C4
100
AcDbEntity
  8
_U+30EC_U+30A4_U+30E4_U+30FC 1
370
     0
100
AcDbSpline
210
0.0
220
0.0
230
1.0
 70
    11
 71
     3
 72
    17
 73
    13
 74
     0
 42
0.0000000001
 43
0.0000000001
 12
1.0
 22
0.0
 32
0.0
 13
1.0
 23
0.0
 33
0.0
 40
0.0
 40
0.0
 40
0.0
 40
0.0
 40
1.0
 40
1.0
 40
1.0
 40
2.0
 40
2.0
 40
2.0
 40
3.0
 40
3.0
 40
3.0
 40
4.0
 40
4.0
 40
4.0
 40
4.0
 10
96.38688148631995
 20
-120.8396524763005
 30
0.0
 10
96.24322100458504
 20
-120.8396524763005
 30
0.0
 10
96.09094778413699
 20
-120.9262966277545
 30
0.0
 10
96.09094778413699
 20
-121.12938500661
 30
0.0
 10
96.09094778413699
 20
-121.3345404427566
 30
0.0
 10
96.21807180754271
 20
-121.4361707595715
 30
0.0
 10
96.38688148631995
 20
-121.4361707595715
 30
0.0
 10
96.57326115207196
 20
-121.4361707595715
 30
0.0
 10
96.68315969805144
 20
-121.3135253602966
 30
0.0
 10
96.68315969805144
 20
-121.1357584332577
 30
0.0
 10
96.68315969805144
 20
-120.9135497744591
 30
0.0
 10
96.52055119114765
 20
-120.8396524763005
 30
0.0
 10
96.38688148631995
 20
-120.8396524763005
 30
0.0
  0
SPLINE
  5
CA
330
C4
100
AcDbEntity
  8
_U+30EC_U+30A4_U+30E4_U+30FC 1
370
     0
100
AcDbSpline
210
0.0
220
0.0
230
1.0
 70
    11
 71
     3
 72
    17
 73
    13
 74
     0
 42
0.0000000001
 43
0.0000000001
 12
1.0
 22
0.0
 32
0.0
 13
1.0
 23
0.0
 33
0.0
 40
0.0
 40
0.0
 40
0.0
 40
0.0
 40
1.0
 40
1.0
 40
1.0
 40
2.0
 40
2.0
 40
2.0
 40
3.0
 40
3.0
 40
3.0
 40
4.0
 40
4.0
 40
4.0
 40
4.0
 10
96.38688148631995
 20
-120.1795721813266
 30
0.0
 10
96.22220592212501
 20
-120.1795721813266
 30
0.0
 10
96.13745657318786
 20
-120.2746568167195
 30
0.0
 10
96.13745657318786
 20
-120.4100490692899
 30
0.0
 10
96.13745657318786
 20
-120.532866723339
 30
0.0
 10
96.20945906882959
 20
-120.6513780080316
 30
0.0
 10
96.38688148631995
 20
-120.6513780080316
 30
0.0
 10
96.56464841335884
 20
-120.6513780080316
 30
0.0
 10
96.63665090900056
 20
-120.532866723339
 30
0.0
 10
96.63665090900056
 20
-120.4100490692899
 30
0.0
 10
96.63665090900056
 20
-120.2746568167195
 30
0.0
 10
96.5501790123208
 20
-120.1795721813266
 30
0.0
 10
96.38688148631995
 20
-120.1795721813266
 30
0.0
  0
HATCH
  5
CB
330
C4
100
AcDbEntity
  8
_U+30EC_U+30A4_U+30E4_U+30FC 1
 62
   179
420
  2234388
100
AcDbHatch
 10
0.0
 20
0.0
 30
0.0
210
0.0
220
0.0
230
1.0
  2
SOLID
 70
     1
 71
     0
 91
        3
 92
        1
 93
        1
 72
     4
 94
        3
 73
     0
 74
     1
 95
       29
 96
       25
 40
0.0
 40
0.0
 40
0.0
 40
0.0
 40
1.0
 40
1.0
 40
1.0
 40
2.0
 40
2.0
 40
2.0
 40
3.0
 40
3.0
 40
3.0
 40
4.0
 40
4.0
 40
4.0
 40
5.0
 40
5.0
 40
5.0
 40
6.0
 40
6.0
 40
6.0
 40
7.0
 40
7.0
 40
7.0
 40
8.0
 40
8.0
 40
8.0
 40
8.0
 10
96.38688148631995
 20
-121.6308186544881
 10
96.12057560531014
 20
-121.6308186544881
 10
95.86667206804722
 20
-121.4931870898524
 10
95.86667206804722
 20
-121.1441989171966
 10
95.86667206804722
 20
-120.8882283226425
 10
96.00861000203952
 20
-120.7929714324754
 10
96.11402992388817
 20
-120.7316487328379
 10
95.98931746732212
 20
-120.6723930904916
 10
95.9131808570981
 20
-120.5581881751556
 10
95.9131808570981
 20
-120.3974744707687
 10
95.9131808570981
 20
-120.1223835962715
 10
96.11196286659701
 20
-119.9869913437012
 10
96.38688148631995
 20
-119.9869913437012
 10
96.67075735430454
 20
-119.9869913437012
 10
96.86092662509033
 20
-120.1308240802104
 10
96.86092662509033
 20
-120.3974744707687
 10
96.86092662509033
 20
-120.5581881751556
 10
96.78272295757516
 20
-120.6723930904916
 10
96.65766599146059
 20
-120.7316487328379
 10
96.74654945498003
 20
-120.7824638912454
 10
96.90536835685005
 20
-120.8777207814125
 10
96.90536835685005
 20
-121.13989254784
 10
96.90536835685005
 20
-121.5143744270867
 10
96.62597111299628
 20
-121.6308186544881
 10
96.38688148631995
 20
-121.6308186544881
 97
        0
 97
        0
 92
        1
 93
        1
 72
     4
 94
        3
 73
     0
 74
     1
 95
       17
 96
       13
 40
0.0
 40
0.0
 40
0.0
 40
0.0
 40
1.0
 40
1.0
 40
1.0
 40
2.0
 40
2.0
 40
2.0
 40
3.0
 40
3.0
 40
3.0
 40
4.0
 40
4.0
 40
4.0
 40
4.0
 10
96.38688148631995
 20
-120.8396524763005
 10
96.24322100458504
 20
-120.8396524763005
 10
96.09094778413699
 20
-120.9262966277545
 10
96.09094778413699
 20
-121.12938500661
 10
96.09094778413699
 20
-121.3345404427566
 10
96.21807180754271
 20
-121.4361707595715
 10
96.38688148631995
 20
-121.4361707595715
 10
96.57326115207196
 20
-121.4361707595715
 10
96.68315969805144
 20
-121.3135253602966
 10
96.68315969805144
 20
-121.1357584332577
 10
96.68315969805144
 20
-120.9135497744591
 10
96.52055119114765
 20
-120.8396524763005
 10
96.38688148631995
 20
-120.8396524763005
 97
        0
 97
        0
 92
        1
 93
        1
 72
     4
 94
        3
 73
     0
 74
     1
 95
       17
 96
       13
 40
0.0
 40
0.0
 40
0.0
 40
0.0
 40
1.0
 40
1.0
 40
1.0
 40
2.0
 40
2.0
 40
2.0
 40
3.0
 40
3.0
 40
3.0
 40
4.0
 40
4.0
 40
4.0
 40
4.0
 10
96.38688148631995
 20
-120.1795721813266
 10
96.22220592212501
 20
-120.1795721813266
 10
96.13745657318786
 20
-120.2746568167195
 10
96.13745657318786
 20
-120.4100490692899
 10
96.13745657318786
 20
-120.532866723339
 10
96.20945906882959
 20
-120.6513780080316
 10
96.38688148631995
 20
-120.6513780080316
 10
96.56464841335884
 20
-120.6513780080316
 10
96.63665090900056
 20
-120.532866723339
 10
96.63665090900056
 20
-120.4100490692899
 10
96.63665090900056
 20
-120.2746568167195
 10
96.5501790123208
 20
-120.1795721813266
 10
96.38688148631995
 20
-120.1795721813266
 97
        0
 97
        0
 75
     2
 76
     1
 98
        0
  0
ENDBLK
  5
C7
330
C4
100
AcDbEntity
  8
0
100
AcDbBlockEnd
  0
BLOCK
  5
DE
330
DC
100
AcDbEntity
  8
0
100
AcDbBlockBegin
  2
block 5
 70
     0
 10
0.0
 20
0.0
 30
0.0
  3
block 5
  1

  0
SPLINE
  5
E0
330
DC
100
AcDbEntity
  8
_U+30EC_U+30A4_U+30E4_U+30FC 1
370
     0
100
AcDbSpline
210
0.0
220
0.0
230
1.0
 70
    11
 71
     3
 72
    26
 73
    22
 74
     0
 42
0.0000000001
 43
0.0000000001
 12
1.0
 22
0.0
 32
0.0
 13
1.0
 23
0.0
 33
0.0
 40
0.0
 40
0.0
 40
0.0
 40
0.0
 40
1.0
 40
1.0
 40
1.0
 40
2.0
 40
2.0
 40
2.0
 40
3.0
 40
3.0
 40
3.0
 40
4.0
 40
4.0
 40
4.0
 40
5.0
 40
5.0
 40
5.0
 40
6.0
 40
6.0
 40
6.0
 40
7.0
 40
7.0
 40
7.0
 40
7.0
 10
103.7821234549573
 20
-124.2384114272737
 30
0.0
 10
103.7821234549573
 20
-124.2384114272737
 30
0.0
 10
102.6776258423861
 20
-124.2384114272737
 30
0.0
 10
102.6776258423861
 20
-124.2384114272737
 30
0.0
 10
102.6776258423861
 20
-124.2384114272737
 30
0.0
 10
102.6776258423861
 20
-124.5684515747607
 30
0.0
 10
102.6776258423861
 20
-124.5684515747607
 30
0.0
 10
102.6776258423861
 20
-124.5684515747607
 30
0.0
 10
102.5294867365204
 20
-124.5684515747607
 30
0.0
 10
102.5294867365204
 20
-124.5684515747607
 30
0.0
 10
102.5150173354824
 20
-124.2363443699826
 30
0.0
 10
102.3517198094815
 20
-124.1898355809317
 30
0.0
 10
102.2376871489197
 20
-124.1602077597586
 30
0.0
 10
102.2376871489197
 20
-124.1602077597586
 30
0.0
 10
102.2376871489197
 20
-124.014135711184
 30
0.0
 10
102.2376871489197
 20
-124.014135711184
 30
0.0
 10
102.2376871489197
 20
-124.014135711184
 30
0.0
 10
103.7821234549573
 20
-124.014135711184
 30
0.0
 10
103.7821234549573
 20
-124.014135711184
 30
0.0
 10
103.7821234549573
 20
-124.014135711184
 30
0.0
 10
103.7821234549573
 20
-124.2384114272737
 30
0.0
 10
103.7821234549573
 20
-124.2384114272737
 30
0.0
  0
HATCH
  5
E1
330
DC
100
AcDbEntity
  8
_U+30EC_U+30A4_U+30E4_U+30FC 1
 62
   179
420
  2234388
100
AcDbHatch
 10
0.0
 20
0.0
 30
0.0
210
0.0
220
0.0
230
1.0
  2
SOLID
 70
     1
 71
     0
 91
        1
 92
        1
 93
        1
 72
     4
 94
        3
 73
     0
 74
     1
 95
       26
 96
       22
 40
0.0
 40
0.0
 40
0.0
 40
0.0
 40
1.0
 40
1.0
 40
1.0
 40
2.0
 40
2.0
 40
2.0
 40
3.0
 40
3.0
 40
3.0
 40
4.0
 40
4.0
 40
4.0
 40
5.0
 40
5.0
 40
5.0
 40
6.0
 40
6.0
 40
6.0
 40
7.0
 40
7.0
 40
7.0
 40
7.0
 10
103.7821234549573
 20
-124.2384114272737
 10
103.7821234549573
 20
-124.2384114272737
 10
102.6776258423861
 20
-124.2384114272737
 10
102.6776258423861
 20
-124.2384114272737
 10
102.6776258423861
 20
-124.2384114272737
 10
102.6776258423861
 20
-124.5684515747607
 10
102.6776258423861
 20
-124.5684515747607
 10
102.6776258423861
 20
-124.5684515747607
 10
102.5294867365204
 20
-124.5684515747607
 10
102.5294867365204
 20
-124.5684515747607
 10
102.5150173354824
 20
-124.2363443699826
 10
102.3517198094815
 20
-124.1898355809317
 10
102.2376871489197
 20
-124.1602077597586
 10
102.2376871489197
 20
-124.1602077597586
 10
102.2376871489197
 20
-124.014135711184
 10
102.2376871489197
 20
-124.014135711184
 10
102.2376871489197
 20
-124.014135711184
 10
103.7821234549573
 20
-124.014135711184
 10
103.7821234549573
 20
-124.014135711184
 10
103.7821234549573
 20
-124.014135711184
 10
103.7821234549573
 20
-124.2384114272737
 10
103.7821234549573
 20
-124.2384114272737
 97
        0
 97
        0
 75
     2
 76
     1
 98
        0
  0
POLYLINE
  5
E2
330
DC
100
AcDbEntity
  8
_U+30EC_U+30A4_U+30E4_U+30FC 1
370
     0
100
AcDb2dPolyline
 66
     1
 10
0.0
 20
0.0
 30
0.0
  0
VERTEX
  5
E3
330
E2
100
AcDbEntity
  8
_U+30EC_U+30A4_U+30E4_U+30FC 1
370
     0
100
AcDbVertex
100
AcDb2dVertex
 10
103.7821234549573
 20
-123.4529296566368
 30
0.0
  0
VERTEX
  5
E4
330
E2
100
AcDbEntity
  8
_U+30EC_U+30A4_U+30E4_U+30FC 1
370
     0
100
AcDbVertex
100
AcDb2dVertex
 10
103.5302869749855
 20
-123.4529296566368
 30
0.0
  0
VERTEX
  5
E5
330
E2
100
AcDbEntity
  8
_U+30EC_U+30A4_U+30E4_U+30FC 1
370
     0
100
AcDbVertex
100
AcDb2dVertex
 10
103.5302869749855
 20
-123.2012654314393
 30
0.0
  0
VERTEX
  5
E6
330
E2
100
AcDbEntity
  8
_U+30EC_U+30A4_U+30E4_U+30FC 1
370
     0
100
AcDbVertex
100
AcDb2dVertex
 10
103.7821234549573
 20
-123.2012654314393
 30
0.0
  0
VERTEX
  5
E7
330
E2
100
AcDbEntity
  8
_U+30EC_U+30A4_U+30E4_U+30FC 1
370
     0
100
AcDbVertex
100
AcDb2dVertex
 10
103.7821234549573
 20
-123.4529296566368
 30
0.0
  0
SEQEND
  5
E8
330
E2
100
AcDbEntity
  8
_U+30EC_U+30A4_U+30E4_U+30FC 1
370
     0
  0
HATCH
  5
E9
330
DC
100
AcDbEntity
  8
_U+30EC_U+30A4_U+30E4_U+30FC 1
 62
   179
420
  2234388
100
AcDbHatch
 10
0.0
 20
0.0
 30
0.0
210
0.0
220
0.0
230
1.0
  2
SOLID
 70
     1
 71
     0
 91
        1
 92
        1
 93
        4
 72
     1
 10
103.7821234549573
 20
-123.4529296566368
 11
103.5302869749855
 21
-123.4529296566368
 72
     1
 10
103.5302869749855
 20
-123.4529296566368
 11
103.5302869749855
 21
-123.2012654314393
 72
     1
 10
103.5302869749855
 20
-123.2012654314393
 11
103.7821234549573
 21
-123.2012654314393
 72
     1
 10
103.7821234549573
 20
-123.2012654314393
 11
103.7821234549573
 21
-123.4529296566368
 97
        0
 75
     2
 76
     1
 98
        0
  0
SPLINE
  5
EA
330
DC
100
AcDbEntity
  8
_U+30EC_U+30A4_U+30E4_U+30FC 1
370
     0
100
AcDbSpline
210
0.0
220
0.0
230
1.0
 70
    11
 71
     3
 72
    53
 73
    49
 74
     0
 42
0.0000000001
 43
0.0000000001
 12
1.0
 22
0.0
 32
0.0
 13
1.0
 23
0.0
 33
0.0
 40
0.0
 40
0.0
 40
0.0
 40
0.0
 40
1.0
 40
1.0
 40
1.0
 40
2.0
 40
2.0
 40
2.0
 40
3.0
 40
3.0
 40
3.0
 40
4.0
 40
4.0
 40
4.0
 40
5.0
 40
5.0
 40
5.0
 40
6.0
 40
6.0
 40
6.0
 40
7.0
 40
7.0
 40
7.0
 40
8.0
 40
8.0
 40
8.0
 40
9.0
 40
9.0
 40
9.0
 40
10.0
 40
10.0
 40
10.0
 40
11.0
 40
11.0
 40
11.0
 40
12.0
 40
12.0
 40
12.0
 40
13.0
 40
13.0
 40
13.0
 40
14.0
 40
14.0
 40
14.0
 40
15.0
 40
15.0
 40
15.0
 40
16.0
 40
16.0
 40
16.0
 40
16.0
 10
103.8327663585904
 20
-122.4836520418617
 30
0.0
 10
103.8327663585904
 20
-122.5620279641512
 30
0.0
 10
103.8158853907127
 20
-122.6634860261918
 30
0.0
 10
103.7524956337841
 20
-122.7651163430066
 30
0.0
 10
103.6422525782561
 20
-122.938576900689
 30
0.0
 10
103.5113389498166
 20
-122.9597642379233
 30
0.0
 10
103.4031629515798
 20
-122.9787122630921
 30
0.0
 10
103.4031629515798
 20
-122.9787122630921
 30
0.0
 10
103.4031629515798
 20
-122.7566758590678
 30
0.0
 10
103.4031629515798
 20
-122.7566758590678
 30
0.0
 10
103.6022894706272
 20
-122.7015543313038
 30
0.0
 10
103.6319172918004
 20
-122.5746025626723
 30
0.0
 10
103.6319172918004
 20
-122.4815849845706
 30
0.0
 10
103.6319172918004
 20
-122.3418863626437
 30
0.0
 10
103.5323540322766
 20
-122.1896131421957
 30
0.0
 10
103.2998100870223
 20
-122.1896131421957
 30
0.0
 10
103.0434949829197
 20
-122.1896131421957
 30
0.0
 10
102.9739040541176
 20
-122.3694471265257
 30
0.0
 10
102.9739040541176
 20
-122.4900254685094
 30
0.0
 10
102.9739040541176
 20
-122.5217203469737
 30
0.0
 10
102.9739040541176
 20
-122.6634860261918
 30
0.0
 10
103.102750625266
 20
-122.7523694897112
 30
0.0
 10
103.102750625266
 20
-122.7523694897112
 30
0.0
 10
103.0838026000971
 20
-122.9278971046847
 30
0.0
 10
103.0838026000971
 20
-122.9278971046847
 30
0.0
 10
103.0838026000971
 20
-122.9278971046847
 30
0.0
 10
102.2376871489197
 20
-122.807318762701
 30
0.0
 10
102.2376871489197
 20
-122.807318762701
 30
0.0
 10
102.2376871489197
 20
-122.807318762701
 30
0.0
 10
102.2376871489197
 20
-122.0288994378087
 30
0.0
 10
102.2376871489197
 20
-122.0288994378087
 30
0.0
 10
102.2376871489197
 20
-122.0288994378087
 30
0.0
 10
102.4323350438364
 20
-122.0288994378087
 30
0.0
 10
102.4323350438364
 20
-122.0288994378087
 30
0.0
 10
102.4323350438364
 20
-122.0288994378087
 30
0.0
 10
102.4323350438364
 20
-122.6445380010229
 30
0.0
 10
102.4323350438364
 20
-122.6445380010229
 30
0.0
 10
102.4323350438364
 20
-122.6445380010229
 30
0.0
 10
102.8553927694251
 20
-122.7099948152427
 30
0.0
 10
102.8553927694251
 20
-122.7099948152427
 30
0.0
 10
102.8216308336696
 20
-122.6486721156052
 30
0.0
 10
102.7813232164922
 20
-122.5661620787335
 30
0.0
 10
102.7813232164922
 20
-122.4478230488151
 30
0.0
 10
102.7813232164922
 20
-122.1939195115522
 30
0.0
 10
102.9677028822442
 20
-121.956896942167
 30
0.0
 10
103.2805175523049
 20
-121.956896942167
 30
0.0
 10
103.5981553560449
 20
-121.956896942167
 30
0.0
 10
103.8327663585904
 20
-122.1811726582568
 30
0.0
 10
103.8327663585904
 20
-122.4836520418617
 30
0.0
  0
HATCH
  5
EB
330
DC
100
AcDbEntity
  8
_U+30EC_U+30A4_U+30E4_U+30FC 1
 62
   179
420
  2234388
100
AcDbHatch
 10
0.0
 20
0.0
 30
0.0
210
0.0
220
0.0
230
1.0
  2
SOLID
 70
     1
 71
     0
 91
        1
 92
        1
 93
        1
 72
     4
 94
        3
 73
     0
 74
     1
 95
       53
 96
       49
 40
0.0
 40
0.0
 40
0.0
 40
0.0
 40
1.0
 40
1.0
 40
1.0
 40
2.0
 40
2.0
 40
2.0
 40
3.0
 40
3.0
 40
3.0
 40
4.0
 40
4.0
 40
4.0
 40
5.0
 40
5.0
 40
5.0
 40
6.0
 40
6.0
 40
6.0
 40
7.0
 40
7.0
 40
7.0
 40
8.0
 40
8.0
 40
8.0
 40
9.0
 40
9.0
 40
9.0
 40
10.0
 40
10.0
 40
10.0
 40
11.0
 40
11.0
 40
11.0
 40
12.0
 40
12.0
 40
12.0
 40
13.0
 40
13.0
 40
13.0
 40
14.0
 40
14.0
 40
14.0
 40
15.0
 40
15.0
 40
15.0
 40
16.0
 40
16.0
 40
16.0
 40
16.0
 10
103.8327663585904
 20
-122.4836520418617
 10
103.8327663585904
 20
-122.5620279641512
 10
103.8158853907127
 20
-122.6634860261918
 10
103.7524956337841
 20
-122.7651163430066
 10
103.6422525782561
 20
-122.938576900689
 10
103.5113389498166
 20
-122.9597642379233
 10
103.4031629515798
 20
-122.9787122630921
 10
103.4031629515798
 20
-122.9787122630921
 10
103.4031629515798
 20
-122.7566758590678
 10
103.4031629515798
 20
-122.7566758590678
 10
103.6022894706272
 20
-122.7015543313038
 10
103.6319172918004
 20
-122.5746025626723
 10
103.6319172918004
 20
-122.4815849845706
 10
103.6319172918004
 20
-122.3418863626437
 10
103.5323540322766
 20
-122.1896131421957
 10
103.2998100870223
 20
-122.1896131421957
 10
103.0434949829197
 20
-122.1896131421957
 10
102.9739040541176
 20
-122.3694471265257
 10
102.9739040541176
 20
-122.4900254685094
 10
102.9739040541176
 20
-122.5217203469737
 10
102.9739040541176
 20
-122.6634860261918
 10
103.102750625266
 20
-122.7523694897112
 10
103.102750625266
 20
-122.7523694897112
 10
103.0838026000971
 20
-122.9278971046847
 10
103.0838026000971
 20
-122.9278971046847
 10
103.0838026000971
 20
-122.9278971046847
 10
102.2376871489197
 20
-122.807318762701
 10
102.2376871489197
 20
-122.807318762701
 10
102.2376871489197
 20
-122.807318762701
 10
102.2376871489197
 20
-122.0288994378087
 10
102.2376871489197
 20
-122.0288994378087
 10
102.2376871489197
 20
-122.0288994378087
 10
102.4323350438364
 20
-122.0288994378087
 10
102.4323350438364
 20
-122.0288994378087
 10
102.4323350438364
 20
-122.0288994378087
 10
102.4323350438364
 20
-122.6445380010229
 10
102.4323350438364
 20
-122.6445380010229
 10
102.4323350438364
 20
-122.6445380010229
 10
102.8553927694251
 20
-122.7099948152427
 10
102.8553927694251
 20
-122.7099948152427
 10
102.8216308336696
 20
-122.6486721156052
 10
102.7813232164922
 20
-122.5661620787335
 10
102.7813232164922
 20
-122.4478230488151
 10
102.7813232164922
 20
-122.1939195115522
 10
102.9677028822442
 20
-121.956896942167
 10
103.2805175523049
 20
-121.956896942167
 10
103.5981553560449
 20
-121.956896942167
 10
103.8327663585904
 20
-122.1811726582568
 10
103.8327663585904
 20
-122.4836520418617
 97
        0
 97
        0
 75
     2
 76
     1
 98
        0
  0
ENDBLK
  5
DF
330
DC
100
AcDbEntity
  8
0
100
AcDbBlockEnd
  0
BLOCK
  5
F6
330
F4
100
AcDbEntity
  8
0
100
AcDbBlockBegin
  2
block 6
 70
     0
 10
0.0
 20
0.0
 30
0.0
  3
block 6
  1

  0
SPLINE
  5
F8
330
F4
100
AcDbEntity
  8
_U+30EC_U+30A4_U+30E4_U+30FC 1
370
     0
100
AcDbSpline
210
0.0
220
0.0
230
1.0
 70
    11
 71
     3
 72
    32
 73
    28
 74
     0
 42
0.0000000001
 43
0.0000000001
 12
1.0
 22
0.0
 32
0.0
 13
1.0
 23
0.0
 33
0.0
 40
0.0
 40
0.0
 40
0.0
 40
0.0
 40
1.0
 40
1.0
 40
1.0
 40
2.0
 40
2.0
 40
2.0
 40
3.0
 40
3.0
 40
3.0
 40
4.0
 40
4.0
 40
4.0
 40
5.0
 40
5.0
 40
5.0
 40
6.0
 40
6.0
 40
6.0
 40
7.0
 40
7.0
 40
7.0
 40
8.0
 40
8.0
 40
8.0
 40
9.0
 40
9.0
 40
9.0
 40
9.0
 10
103.8327663585904
 20
-133.3655028963461
 30
0.0
 10
103.8327663585904
 20
-133.5391357088027
 30
0.0
 10
103.7628309202398
 20
-133.7844265073525
 30
0.0
 10
103.4307237154618
 20
-133.8226670672388
 30
0.0
 10
103.4307237154618
 20
-133.8226670672388
 30
0.0
 10
103.4307237154618
 20
-133.6090711471533
 30
0.0
 10
103.4307237154618
 20
-133.6090711471533
 30
0.0
 10
103.4899793578081
 20
-133.5980468416005
 30
0.0
 10
103.6381184636738
 20
-133.5663519631362
 30
0.0
 10
103.6381184636738
 20
-133.363435839055
 30
0.0
 10
103.6381184636738
 20
-133.0716362514543
 30
0.0
 10
103.3080783161869
 20
-133.033395691568
 30
0.0
 10
103.102750625266
 20
-133.0206488382726
 30
0.0
 10
103.1833658596208
 20
-133.1115993590832
 30
0.0
 10
103.240554444676
 20
-133.1794677401426
 30
0.0
 10
103.240554444676
 20
-133.3613687817638
 30
0.0
 10
103.240554444676
 20
-133.5412027660939
 30
0.0
 10
103.1344455037303
 20
-133.8436821496988
 30
0.0
 10
102.7286132555679
 20
-133.8436821496988
 30
0.0
 10
102.4089083945367
 20
-133.8436821496988
 30
0.0
 10
102.1891113025777
 20
-133.6449001401999
 30
0.0
 10
102.1891113025777
 20
-133.3272623364599
 30
0.0
 10
102.1891113025777
 20
-132.8132540900606
 30
0.0
 10
102.7430826566059
 20
-132.8029188036048
 30
0.0
 10
102.9566785766914
 20
-132.8029188036048
 30
0.0
 10
103.1874999742031
 20
-132.8029188036048
 30
0.0
 10
103.8327663585904
 20
-132.8218668287737
 30
0.0
 10
103.8327663585904
 20
-133.3655028963461
 30
0.0
  0
SPLINE
  5
F9
330
F4
100
AcDbEntity
  8
_U+30EC_U+30A4_U+30E4_U+30FC 1
370
     0
100
AcDbSpline
210
0.0
220
0.0
230
1.0
 70
    11
 71
     3
 72
    17
 73
    13
 74
     0
 42
0.0000000001
 43
0.0000000001
 12
1.0
 22
0.0
 32
0.0
 13
1.0
 23
0.0
 33
0.0
 40
0.0
 40
0.0
 40
0.0
 40
0.0
 40
1.0
 40
1.0
 40
1.0
 40
2.0
 40
2.0
 40
2.0
 40
3.0
 40
3.0
 40
3.0
 40
4.0
 40
4.0
 40
4.0
 40
4.0
 10
102.3813476306547
 20
-133.3251952791687
 30
0.0
 10
102.3813476306547
 20
-133.4437065638613
 30
0.0
 10
102.4385362157098
 20
-133.619406433609
 30
0.0
 10
102.724134631437
 20
-133.619406433609
 30
0.0
 10
102.9504774048179
 20
-133.619406433609
 30
0.0
 10
103.0455620402108
 20
-133.4798800664564
 30
0.0
 10
103.0455620402108
 20
-133.3444878138861
 30
0.0
 10
103.0455620402108
 20
-133.0819715379101
 30
0.0
 10
102.8361002347076
 20
-133.0440754875723
 30
0.0
 10
102.7200005168547
 20
-133.0440754875723
 30
0.0
 10
102.544300647107
 20
-133.0440754875723
 30
0.0
 10
102.3813476306547
 20
-133.1391601229652
 30
0.0
 10
102.3813476306547
 20
-133.3251952791687
 30
0.0
  0
HATCH
  5
FA
330
F4
100
AcDbEntity
  8
_U+30EC_U+30A4_U+30E4_U+30FC 1
 62
   179
420
  2234388
100
AcDbHatch
 10
0.0
 20
0.0
 30
0.0
210
0.0
220
0.0
230
1.0
  2
SOLID
 70
     1
 71
     0
 91
        2
 92
        1
 93
        1
 72
     4
 94
        3
 73
     0
 74
     1
 95
       32
 96
       28
 40
0.0
 40
0.0
 40
0.0
 40
0.0
 40
1.0
 40
1.0
 40
1.0
 40
2.0
 40
2.0
 40
2.0
 40
3.0
 40
3.0
 40
3.0
 40
4.0
 40
4.0
 40
4.0
 40
5.0
 40
5.0
 40
5.0
 40
6.0
 40
6.0
 40
6.0
 40
7.0
 40
7.0
 40
7.0
 40
8.0
 40
8.0
 40
8.0
 40
9.0
 40
9.0
 40
9.0
 40
9.0
 10
103.8327663585904
 20
-133.3655028963461
 10
103.8327663585904
 20
-133.5391357088027
 10
103.7628309202398
 20
-133.7844265073525
 10
103.4307237154618
 20
-133.8226670672388
 10
103.4307237154618
 20
-133.8226670672388
 10
103.4307237154618
 20
-133.6090711471533
 10
103.4307237154618
 20
-133.6090711471533
 10
103.4899793578081
 20
-133.5980468416005
 10
103.6381184636738
 20
-133.5663519631362
 10
103.6381184636738
 20
-133.363435839055
 10
103.6381184636738
 20
-133.0716362514543
 10
103.3080783161869
 20
-133.033395691568
 10
103.102750625266
 20
-133.0206488382726
 10
103.1833658596208
 20
-133.1115993590832
 10
103.240554444676
 20
-133.1794677401426
 10
103.240554444676
 20
-133.3613687817638
 10
103.240554444676
 20
-133.5412027660939
 10
103.1344455037303
 20
-133.8436821496988
 10
102.7286132555679
 20
-133.8436821496988
 10
102.4089083945367
 20
-133.8436821496988
 10
102.1891113025777
 20
-133.6449001401999
 10
102.1891113025777
 20
-133.3272623364599
 10
102.1891113025777
 20
-132.8132540900606
 10
102.7430826566059
 20
-132.8029188036048
 10
102.9566785766914
 20
-132.8029188036048
 10
103.1874999742031
 20
-132.8029188036048
 10
103.8327663585904
 20
-132.8218668287737
 10
103.8327663585904
 20
-133.3655028963461
 97
        0
 97
        0
 92
        1
 93
        1
 72
     4
 94
        3
 73
     0
 74
     1
 95
       17
 96
       13
 40
0.0
 40
0.0
 40
0.0
 40
0.0
 40
1.0
 40
1.0
 40
1.0
 40
2.0
 40
2.0
 40
2.0
 40
3.0
 40
3.0
 40
3.0
 40
4.0
 40
4.0
 40
4.0
 40
4.0
 10
102.3813476306547
 20
-133.3251952791687
 10
102.3813476306547
 20
-133.4437065638613
 10
102.4385362157098
 20
-133.619406433609
 10
102.724134631437
 20
-133.619406433609
 10
102.9504774048179
 20
-133.619406433609
 10
103.0455620402108
 20
-133.4798800664564
 10
103.0455620402108
 20
-133.3444878138861
 10
103.0455620402108
 20
-133.0819715379101
 10
102.8361002347076
 20
-133.0440754875723
 10
102.7200005168547
 20
-133.0440754875723
 10
102.544300647107
 20
-133.0440754875723
 10
102.3813476306547
 20
-133.1391601229652
 10
102.3813476306547
 20
-133.3251952791687
 97
        0
 97
        0
 75
     2
 76
     1
 98
        0
  0
POLYLINE
  5
FB
330
F4
100
AcDbEntity
  8
_U+30EC_U+30A4_U+30E4_U+30FC 1
370
     0
100
AcDb2dPolyline
 66
     1
 10
0.0
 20
0.0
 30
0.0
  0
VERTEX
  5
FC
330
FB
100
AcDbEntity
  8
_U+30EC_U+30A4_U+30E4_U+30FC 1
370
     0
100
AcDbVertex
100
AcDb2dVertex
 10
103.7821234549573
 20
-132.5865668071311
 30
0.0
  0
VERTEX
  5
FD
330
FB
100
AcDbEntity
  8
_U+30EC_U+30A4_U+30E4_U+30FC 1
370
     0
100
AcDbVertex
100
AcDb2dVertex
 10
103.5302869749855
 20
-132.5865668071311
 30
0.0
  0
VERTEX
  5
FE
330
FB
100
AcDbEntity
  8
_U+30EC_U+30A4_U+30E4_U+30FC 1
370
     0
100
AcDbVertex
100
AcDb2dVertex
 10
103.5302869749855
 20
-132.3347303271594
 30
0.0
  0
VERTEX
  5
FF
330
FB
100
AcDbEntity
  8
_U+30EC_U+30A4_U+30E4_U+30FC 1
370
     0
100
AcDbVertex
100
AcDb2dVertex
 10
103.7821234549573
 20
-132.3347303271594
 30
0.0
  0
VERTEX
  5
100
330
FB
100
AcDbEntity
  8
_U+30EC_U+30A4_U+30E4_U+30FC 1
370
     0
100
AcDbVertex
100
AcDb2dVertex
 10
103.7821234549573
 20
-132.5865668071311
 30
0.0
  0
SEQEND
  5
101
330
FB
100
AcDbEntity
  8
_U+30EC_U+30A4_U+30E4_U+30FC 1
370
     0
  0
HATCH
  5
102
330
F4
100
AcDbEntity
  8
_U+30EC_U+30A4_U+30E4_U+30FC 1
 62
   179
420
  2234388
100
AcDbHatch
 10
0.0
 20
0.0
 30
0.0
210
0.0
220
0.0
230
1.0
  2
SOLID
 70
     1
 71
     0
 91
        1
 92
        1
 93
        4
 72
     1
 10
103.7821234549573
 20
-132.5865668071311
 11
103.5302869749855
 21
-132.5865668071311
 72
     1
 10
103.5302869749855
 20
-132.5865668071311
 11
103.5302869749855
 21
-132.3347303271594
 72
     1
 10
103.5302869749855
 20
-132.3347303271594
 11
103.7821234549573
 21
-132.3347303271594
 72
     1
 10
103.7821234549573
 20
-132.3347303271594
 11
103.7821234549573
 21
-132.5865668071311
 97
        0
 75
     2
 76
     1
 98
        0
  0
SPLINE
  5
103
330
F4
100
AcDbEntity
  8
_U+30EC_U+30A4_U+30E4_U+30FC 1
370
     0
100
AcDbSpline
210
0.0
220
0.0
230
1.0
 70
    11
 71
     3
 72
    53
 73
    49
 74
     0
 42
0.0000000001
 43
0.0000000001
 12
1.0
 22
0.0
 32
0.0
 13
1.0
 23
0.0
 33
0.0
 40
0.0
 40
0.0
 40
0.0
 40
0.0
 40
1.0
 40
1.0
 40
1.0
 40
2.0
 40
2.0
 40
2.0
 40
3.0
 40
3.0
 40
3.0
 40
4.0
 40
4.0
 40
4.0
 40
5.0
 40
5.0
 40
5.0
 40
6.0
 40
6.0
 40
6.0
 40
7.0
 40
7.0
 40
7.0
 40
8.0
 40
8.0
 40
8.0
 40
9.0
 40
9.0
 40
9.0
 40
10.0
 40
10.0
 40
10.0
 40
11.0
 40
11.0
 40
11.0
 40
12.0
 40
12.0
 40
12.0
 40
13.0
 40
13.0
 40
13.0
 40
14.0
 40
14.0
 40
14.0
 40
15.0
 40
15.0
 40
15.0
 40
16.0
 40
16.0
 40
16.0
 40
16.0
 10
103.8327663585904
 20
-131.6171169375818
 30
0.0
 10
103.8327663585904
 20
-131.6956651146455
 30
0.0
 10
103.8158853907127
 20
-131.7969509219119
 30
0.0
 10
103.7524956337841
 20
-131.8985812387268
 30
0.0
 10
103.6422525782561
 20
-132.0718695416348
 30
0.0
 10
103.5113389498166
 20
-132.0932291336434
 30
0.0
 10
103.4031629515798
 20
-132.1121771588122
 30
0.0
 10
103.4031629515798
 20
-132.1121771588122
 30
0.0
 10
103.4031629515798
 20
-131.8899685000136
 30
0.0
 10
103.4031629515798
 20
-131.8899685000136
 30
0.0
 10
103.6022894706272
 20
-131.8348469722496
 30
0.0
 10
103.6319172918004
 20
-131.7080674583924
 30
0.0
 10
103.6319172918004
 20
-131.6150498802907
 30
0.0
 10
103.6319172918004
 20
-131.4755235131381
 30
0.0
 10
103.5323540322766
 20
-131.3229057831415
 30
0.0
 10
103.2998100870223
 20
-131.3229057831415
 30
0.0
 10
103.0434949829197
 20
-131.3229057831415
 30
0.0
 10
102.9739040541176
 20
-131.5027397674716
 30
0.0
 10
102.9739040541176
 20
-131.6233181094553
 30
0.0
 10
102.9739040541176
 20
-131.6550129879196
 30
0.0
 10
102.9739040541176
 20
-131.7969509219119
 30
0.0
 10
103.102750625266
 20
-131.8858343854313
 30
0.0
 10
103.102750625266
 20
-131.8858343854313
 30
0.0
 10
103.0838026000971
 20
-132.0615342551791
 30
0.0
 10
103.0838026000971
 20
-132.0615342551791
 30
0.0
 10
103.0838026000971
 20
-132.0615342551791
 30
0.0
 10
102.2376871489197
 20
-131.9409559131953
 30
0.0
 10
102.2376871489197
 20
-131.9409559131953
 30
0.0
 10
102.2376871489197
 20
-131.9409559131953
 30
0.0
 10
102.2376871489197
 20
-131.1623643335289
 30
0.0
 10
102.2376871489197
 20
-131.1623643335289
 30
0.0
 10
102.2376871489197
 20
-131.1623643335289
 30
0.0
 10
102.4323350438364
 20
-131.1623643335289
 30
0.0
 10
102.4323350438364
 20
-131.1623643335289
 30
0.0
 10
102.4323350438364
 20
-131.1623643335289
 30
0.0
 10
102.4323350438364
 20
-131.778002896743
 30
0.0
 10
102.4323350438364
 20
-131.778002896743
 30
0.0
 10
102.4323350438364
 20
-131.778002896743
 30
0.0
 10
102.8553927694251
 20
-131.8434597109627
 30
0.0
 10
102.8553927694251
 20
-131.8434597109627
 30
0.0
 10
102.8216308336696
 20
-131.7821370113253
 30
0.0
 10
102.7813232164922
 20
-131.6997992292278
 30
0.0
 10
102.7813232164922
 20
-131.5812879445352
 30
0.0
 10
102.7813232164922
 20
-131.3273844072723
 30
0.0
 10
102.9677028822442
 20
-131.0903618378871
 30
0.0
 10
103.2805175523049
 20
-131.0903618378871
 30
0.0
 10
103.5981553560449
 20
-131.0903618378871
 30
0.0
 10
103.8327663585904
 20
-131.3146375539769
 30
0.0
 10
103.8327663585904
 20
-131.6171169375818
 30
0.0
  0
HATCH
  5
104
330
F4
100
AcDbEntity
  8
_U+30EC_U+30A4_U+30E4_U+30FC 1
 62
   179
420
  2234388
100
AcDbHatch
 10
0.0
 20
0.0
 30
0.0
210
0.0
220
0.0
230
1.0
  2
SOLID
 70
     1
 71
     0
 91
        1
 92
        1
 93
        1
 72
     4
 94
        3
 73
     0
 74
     1
 95
       53
 96
       49
 40
0.0
 40
0.0
 40
0.0
 40
0.0
 40
1.0
 40
1.0
 40
1.0
 40
2.0
 40
2.0
 40
2.0
 40
3.0
 40
3.0
 40
3.0
 40
4.0
 40
4.0
 40
4.0
 40
5.0
 40
5.0
 40
5.0
 40
6.0
 40
6.0
 40
6.0
 40
7.0
 40
7.0
 40
7.0
 40
8.0
 40
8.0
 40
8.0
 40
9.0
 40
9.0
 40
9.0
 40
10.0
 40
10.0
 40
10.0
 40
11.0
 40
11.0
 40
11.0
 40
12.0
 40
12.0
 40
12.0
 40
13.0
 40
13.0
 40
13.0
 40
14.0
 40
14.0
 40
14.0
 40
15.0
 40
15.0
 40
15.0
 40
16.0
 40
16.0
 40
16.0
 40
16.0
 10
103.8327663585904
 20
-131.6171169375818
 10
103.8327663585904
 20
-131.6956651146455
 10
103.8158853907127
 20
-131.7969509219119
 10
103.7524956337841
 20
-131.8985812387268
 10
103.6422525782561
 20
-132.0718695416348
 10
103.5113389498166
 20
-132.0932291336434
 10
103.4031629515798
 20
-132.1121771588122
 10
103.4031629515798
 20
-132.1121771588122
 10
103.4031629515798
 20
-131.8899685000136
 10
103.4031629515798
 20
-131.8899685000136
 10
103.6022894706272
 20
-131.8348469722496
 10
103.6319172918004
 20
-131.7080674583924
 10
103.6319172918004
 20
-131.6150498802907
 10
103.6319172918004
 20
-131.4755235131381
 10
103.5323540322766
 20
-131.3229057831415
 10
103.2998100870223
 20
-131.3229057831415
 10
103.0434949829197
 20
-131.3229057831415
 10
102.9739040541176
 20
-131.5027397674716
 10
102.9739040541176
 20
-131.6233181094553
 10
102.9739040541176
 20
-131.6550129879196
 10
102.9739040541176
 20
-131.7969509219119
 10
103.102750625266
 20
-131.8858343854313
 10
103.102750625266
 20
-131.8858343854313
 10
103.0838026000971
 20
-132.0615342551791
 10
103.0838026000971
 20
-132.0615342551791
 10
103.0838026000971
 20
-132.0615342551791
 10
102.2376871489197
 20
-131.9409559131953
 10
102.2376871489197
 20
-131.9409559131953
 10
102.2376871489197
 20
-131.9409559131953
 10
102.2376871489197
 20
-131.1623643335289
 10
102.2376871489197
 20
-131.1623643335289
 10
102.2376871489197
 20
-131.1623643335289
 10
102.4323350438364
 20
-131.1623643335289
 10
102.4323350438364
 20
-131.1623643335289
 10
102.4323350438364
 20
-131.1623643335289
 10
102.4323350438364
 20
-131.778002896743
 10
102.4323350438364
 20
-131.778002896743
 10
102.4323350438364
 20
-131.778002896743
 10
102.8553927694251
 20
-131.8434597109627
 10
102.8553927694251
 20
-131.8434597109627
 10
102.8216308336696
 20
-131.7821370113253
 10
102.7813232164922
 20
-131.6997992292278
 10
102.7813232164922
 20
-131.5812879445352
 10
102.7813232164922
 20
-131.3273844072723
 10
102.9677028822442
 20
-131.0903618378871
 10
103.2805175523049
 20
-131.0903618378871
 10
103.5981553560449
 20
-131.0903618378871
 10
103.8327663585904
 20
-131.3146375539769
 10
103.8327663585904
 20
-131.6171169375818
 97
        0
 97
        0
 75
     2
 76
     1
 98
        0
  0
ENDBLK
  5
F7
330
F4
100
AcDbEntity
  8
0
100
AcDbBlockEnd
  0
BLOCK
  5
10D
330
10B
100
AcDbEntity
  8
0
100
AcDbBlockBegin
  2
block 7
 70
     0
 10
0.0
 20
0.0
 30
0.0
  3
block 7
  1

  0
SPLINE
  5
10F
330
10B
100
AcDbEntity
  8
_U+30EC_U+30A4_U+30E4_U+30FC 1
370
     0
100
AcDbSpline
210
0.0
220
0.0
230
1.0
 70
    11
 71
     3
 72
    26
 73
    22
 74
     0
 42
0.0000000001
 43
0.0000000001
 12
1.0
 22
0.0
 32
0.0
 13
1.0
 23
0.0
 33
0.0
 40
0.0
 40
0.0
 40
0.0
 40
0.0
 40
1.0
 40
1.0
 40
1.0
 40
2.0
 40
2.0
 40
2.0
 40
3.0
 40
3.0
 40
3.0
 40
4.0
 40
4.0
 40
4.0
 40
5.0
 40
5.0
 40
5.0
 40
6.0
 40
6.0
 40
6.0
 40
7.0
 40
7.0
 40
7.0
 40
7.0
 10
85.66867266738493
 20
-131.309469910749
 30
0.0
 10
85.66867266738493
 20
-131.309469910749
 30
0.0
 10
85.66867266738493
 20
-130.2053168077265
 30
0.0
 10
85.66867266738493
 20
-130.2053168077265
 30
0.0
 10
85.66867266738493
 20
-130.2053168077265
 30
0.0
 10
85.33863251989798
 20
-130.2053168077265
 30
0.0
 10
85.33863251989798
 20
-130.2053168077265
 30
0.0
 10
85.33863251989798
 20
-130.2053168077265
 30
0.0
 10
85.33863251989798
 20
-130.0571777018607
 30
0.0
 10
85.33863251989798
 20
-130.0571777018607
 30
0.0
 10
85.67073972467607
 20
-130.0423637912741
 30
0.0
 10
85.71724851372694
 20
-129.8794107748218
 30
0.0
 10
85.7468763349001
 20
-129.7650336047115
 30
0.0
 10
85.7468763349001
 20
-129.7650336047115
 30
0.0
 10
85.89294838347469
 20
-129.7650336047115
 30
0.0
 10
85.89294838347469
 20
-129.7650336047115
 30
0.0
 10
85.89294838347469
 20
-129.7650336047115
 30
0.0
 10
85.89294838347469
 20
-131.309469910749
 30
0.0
 10
85.89294838347469
 20
-131.309469910749
 30
0.0
 10
85.89294838347469
 20
-131.309469910749
 30
0.0
 10
85.66867266738493
 20
-131.309469910749
 30
0.0
 10
85.66867266738493
 20
-131.309469910749
 30
0.0
  0
HATCH
  5
110
330
10B
100
AcDbEntity
  8
_U+30EC_U+30A4_U+30E4_U+30FC 1
 62
   179
420
  2234388
100
AcDbHatch
 10
0.0
 20
0.0
 30
0.0
210
0.0
220
0.0
230
1.0
  2
SOLID
 70
     1
 71
     0
 91
        1
 92
        1
 93
        1
 72
     4
 94
        3
 73
     0
 74
     1
 95
       26
 96
       22
 40
0.0
 40
0.0
 40
0.0
 40
0.0
 40
1.0
 40
1.0
 40
1.0
 40
2.0
 40
2.0
 40
2.0
 40
3.0
 40
3.0
 40
3.0
 40
4.0
 40
4.0
 40
4.0
 40
5.0
 40
5.0
 40
5.0
 40
6.0
 40
6.0
 40
6.0
 40
7.0
 40
7.0
 40
7.0
 40
7.0
 10
85.66867266738493
 20
-131.309469910749
 10
85.66867266738493
 20
-131.309469910749
 10
85.66867266738493
 20
-130.2053168077265
 10
85.66867266738493
 20
-130.2053168077265
 10
85.66867266738493
 20
-130.2053168077265
 10
85.33863251989798
 20
-130.2053168077265
 10
85.33863251989798
 20
-130.2053168077265
 10
85.33863251989798
 20
-130.2053168077265
 10
85.33863251989798
 20
-130.0571777018607
 10
85.33863251989798
 20
-130.0571777018607
 10
85.67073972467607
 20
-130.0423637912741
 10
85.71724851372694
 20
-129.8794107748218
 10
85.7468763349001
 20
-129.7650336047115
 10
85.7468763349001
 20
-129.7650336047115
 10
85.89294838347469
 20
-129.7650336047115
 10
85.89294838347469
 20
-129.7650336047115
 10
85.89294838347469
 20
-129.7650336047115
 10
85.89294838347469
 20
-131.309469910749
 10
85.89294838347469
 20
-131.309469910749
 10
85.89294838347469
 20
-131.309469910749
 10
85.66867266738493
 20
-131.309469910749
 10
85.66867266738493
 20
-131.309469910749
 97
        0
 97
        0
 75
     2
 76
     1
 98
        0
  0
ENDBLK
  5
10E
330
10B
100
AcDbEntity
  8
0
100
AcDbBlockEnd
  0
ENDSEC
  0
SECTION
  2
ENTITIES
  0
SPLINE
  5
41
330
1F
100
AcDbEntity
  8
_U+30EC_U+30A4_U+30E4_U+30FC 1
370
     0
100
AcDbSpline
210
0.0
220
0.0
230
1.0
 70
    11
 71
     3
 72
    68
 73
    64
 74
     0
 42
0.0000000001
 43
0.0000000001
 12
1.0
 22
0.0
 32
0.0
 13
1.0
 23
0.0
 33
0.0
 40
0.0
 40
0.0
 40
0.0
 40
0.0
 40
1.0
 40
1.0
 40
1.0
 40
2.0
 40
2.0
 40
2.0
 40
3.0
 40
3.0
 40
3.0
 40
4.0
 40
4.0
 40
4.0
 40
5.0
 40
5.0
 40
5.0
 40
6.0
 40
6.0
 40
6.0
 40
7.0
 40
7.0
 40
7.0
 40
8.0
 40
8.0
 40
8.0
 40
9.0
 40
9.0
 40
9.0
 40
10.0
 40
10.0
 40
10.0
 40
11.0
 40
11.0
 40
11.0
 40
12.0
 40
12.0
 40
12.0
 40
13.0
 40
13.0
 40
13.0
 40
14.0
 40
14.0
 40
14.0
 40
15.0
 40
15.0
 40
15.0
 40
16.0
 40
16.0
 40
16.0
 40
17.0
 40
17.0
 40
17.0
 40
18.0
 40
18.0
 40
18.0
 40
19.0
 40
19.0
 40
19.0
 40
20.0
 40
20.0
 40
20.0
 40
21.0
 40
21.0
 40
21.0
 40
21.0
 10
99.42822690781905
 20
-126.2262171906656
 30
0.0
 10
99.42822690781905
 20
-126.2262171906656
 30
0.0
 10
92.42777775467084
 20
-126.2262171906656
 30
0.0
 10
92.42777775467084
 20
-126.2262171906656
 30
0.0
 10
92.42777775467084
 20
-126.2262171906656
 30
0.0
 10
92.42777775467084
 20
-136.2259502437212
 30
0.0
 10
92.42777775467084
 20
-136.2259502437212
 30
0.0
 10
92.42777775467084
 20
-136.2259502437212
 30
0.0
 10
88.83194690037489
 20
-136.2259502437212
 30
0.0
 10
88.83194690037489
 20
-136.2259502437212
 30
0.0
 10
88.83194690037489
 20
-136.2259502437212
 30
0.0
 10
88.42766357735569
 20
-136.9260024657682
 30
0.0
 10
88.42766357735569
 20
-136.9260024657682
 30
0.0
 10
88.42766357735569
 20
-136.9260024657682
 30
0.0
 10
88.02373303210526
 20
-136.2259502437212
 30
0.0
 10
88.02373303210526
 20
-136.2259502437212
 30
0.0
 10
88.02373303210526
 20
-136.2259502437212
 30
0.0
 10
84.42790451273137
 20
-136.2259502437212
 30
0.0
 10
84.42790451273137
 20
-136.2259502437212
 30
0.0
 10
84.42790451273137
 20
-136.2259502437212
 30
0.0
 10
84.42790451273137
 20
-126.2262171906656
 30
0.0
 10
84.42790451273137
 20
-126.2262171906656
 30
0.0
 10
84.42790451273137
 20
-126.2262171906656
 30
0.0
 10
77.42815858019866
 20
-126.2262171906656
 30
0.0
 10
77.42815858019866
 20
-126.2262171906656
 30
0.0
 10
76.87574387206972
 20
-126.2262171906656
 30
0.0
 10
76.42806888349085
 20
-126.6741038572205
 30
0.0
 10
76.42806888349085
 20
-127.2263421904156
 30
0.0
 10
76.42806888349085
 20
-127.2263421904156
 30
0.0
 10
76.42806888349085
 20
-127.7262283014019
 30
0.0
 10
76.42806888349085
 20
-127.7262283014019
 30
0.0
 10
76.42806888349085
 20
-127.7262283014019
 30
0.0
 10
77.92804467855662
 20
-127.7262283014019
 30
0.0
 10
77.92804467855662
 20
-127.7262283014019
 30
0.0
 10
77.92804467855662
 20
-127.7262283014019
 30
0.0
 10
77.92804467855662
 20
-127.2263421904156
 30
0.0
 10
77.92804467855662
 20
-127.2263421904156
 30
0.0
 10
77.92804467855662
 20
-127.2263421904156
 30
0.0
 10
83.42816759379235
 20
-127.2263421904156
 30
0.0
 10
83.42816759379235
 20
-127.2263421904156
 30
0.0
 10
83.42816759379235
 20
-127.2263421904156
 30
0.0
 10
83.42816759379235
 20
-137.2257224656937
 30
0.0
 10
83.42816759379235
 20
-137.2257224656937
 30
0.0
 10
83.42816759379235
 20
-137.2257224656937
 30
0.0
 10
93.42821789422537
 20
-137.2257224656937
 30
0.0
 10
93.42821789422537
 20
-137.2257224656937
 30
0.0
 10
93.42821789422537
 20
-137.2257224656937
 30
0.0
 10
93.42821789422537
 20
-127.2263421904156
 30
0.0
 10
93.42821789422537
 20
-127.2263421904156
 30
0.0
 10
93.42821789422537
 20
-127.2263421904156
 30
0.0
 10
98.92798803169232
 20
-127.2263421904156
 30
0.0
 10
98.92798803169232
 20
-127.2263421904156
 30
0.0
 10
98.92798803169232
 20
-127.2263421904156
 30
0.0
 10
98.92798803169232
 20
-127.7262283014019
 30
0.0
 10
98.92798803169232
 20
-127.7262283014019
 30
0.0
 10
98.92798803169232
 20
-127.7262283014019
 30
0.0
 10
100.4279638267581
 20
-127.7262283014019
 30
0.0
 10
100.4279638267581
 20
-127.7262283014019
 30
0.0
 10
100.4279638267581
 20
-127.7262283014019
 30
0.0
 10
100.4279638267581
 20
-127.2263421904156
 30
0.0
 10
100.4279638267581
 20
-127.2263421904156
 30
0.0
 10
100.4279638267581
 20
-126.6741038572205
 30
0.0
 10
99.98011244929484
 20
-126.2262171906656
 30
0.0
 10
99.42822690781905
 20
-126.2262171906656
 30
0.0
  0
HATCH
  5
42
330
1F
100
AcDbEntity
  8
_U+30EC_U+30A4_U+30E4_U+30FC 1
 62
     9
420
 13224394
100
AcDbHatch
 10
0.0
 20
0.0
 30
0.0
210
0.0
220
0.0
230
1.0
  2
SOLID
 70
     1
 71
     0
 91
        1
 92
        1
 93
        2
 72
     4
 94
        3
 73
     0
 74
     0
 95
       68
 96
       64
 40
0.0
 40
0.0
 40
0.0
 40
0.0
 40
0.3527777776895833
 40
0.3527777776895833
 40
0.3527777776895833
 40
0.7055555553791667
 40
0.7055555553791667
 40
0.7055555553791667
 40
1.05833333306875
 40
1.05833333306875
 40
1.05833333306875
 40
1.411111110758333
 40
1.411111110758333
 40
1.411111110758333
 40
1.763888888447917
 40
1.763888888447917
 40
1.763888888447917
 40
2.1166666661375
 40
2.1166666661375
 40
2.1166666661375
 40
2.469444443827083
 40
2.469444443827083
 40
2.469444443827083
 40
2.822222221516667
 40
2.822222221516667
 40
2.822222221516667
 40
3.17499999920625
 40
3.17499999920625
 40
3.17499999920625
 40
3.527777776895833
 40
3.527777776895833
 40
3.527777776895833
 40
3.880555554585417
 40
3.880555554585417
 40
3.880555554585417
 40
4.233333332275
 40
4.233333332275
 40
4.233333332275
 40
4.586111109964584
 40
4.586111109964584
 40
4.586111109964584
 40
4.938888887654167
 40
4.938888887654167
 40
4.938888887654167
 40
5.29166666534375
 40
5.29166666534375
 40
5.29166666534375
 40
5.644444443033334
 40
5.644444443033334
 40
5.644444443033334
 40
5.997222220722917
 40
5.997222220722917
 40
5.997222220722917
 40
6.349999998412501
 40
6.349999998412501
 40
6.349999998412501
 40
6.702777776102083
 40
6.702777776102083
 40
6.702777776102083
 40
7.055555553791667
 40
7.055555553791667
 40
7.055555553791667
 40
7.40833333148125
 40
7.40833333148125
 40
7.40833333148125
 40
7.40833333148125
 10
99.42822690781905
 20
-126.2262171906656
 10
99.42822690781905
 20
-126.2262171906656
 10
92.42777775467084
 20
-126.2262171906656
 10
92.42777775467084
 20
-126.2262171906656
 10
92.42777775467084
 20
-126.2262171906656
 10
92.42777775467084
 20
-136.2259502437212
 10
92.42777775467084
 20
-136.2259502437212
 10
92.42777775467084
 20
-136.2259502437212
 10
88.83194690037489
 20
-136.2259502437212
 10
88.83194690037489
 20
-136.2259502437212
 10
88.83194690037489
 20
-136.2259502437212
 10
88.42766357735569
 20
-136.9260024657682
 10
88.42766357735569
 20
-136.9260024657682
 10
88.42766357735569
 20
-136.9260024657682
 10
88.02373303210526
 20
-136.2259502437212
 10
88.02373303210526
 20
-136.2259502437212
 10
88.02373303210526
 20
-136.2259502437212
 10
84.42790451273137
 20
-136.2259502437212
 10
84.42790451273137
 20
-136.2259502437212
 10
84.42790451273137
 20
-136.2259502437212
 10
84.42790451273137
 20
-126.2262171906656
 10
84.42790451273137
 20
-126.2262171906656
 10
84.42790451273137
 20
-126.2262171906656
 10
77.42815858019866
 20
-126.2262171906656
 10
77.42815858019866
 20
-126.2262171906656
 10
76.87574387206972
 20
-126.2262171906656
 10
76.42806888349085
 20
-126.6741038572205
 10
76.42806888349085
 20
-127.2263421904156
 10
76.42806888349085
 20
-127.2263421904156
 10
76.42806888349085
 20
-127.7262283014019
 10
76.42806888349085
 20
-127.7262283014019
 10
76.42806888349085
 20
-127.7262283014019
 10
77.92804467855662
 20
-127.7262283014019
 10
77.92804467855662
 20
-127.7262283014019
 10
77.92804467855662
 20
-127.7262283014019
 10
77.92804467855662
 20
-127.2263421904156
 10
77.92804467855662
 20
-127.2263421904156
 10
77.92804467855662
 20
-127.2263421904156
 10
83.42816759379235
 20
-127.2263421904156
 10
83.42816759379235
 20
-127.2263421904156
 10
83.42816759379235
 20
-127.2263421904156
 10
83.42816759379235
 20
-137.2257224656937
 10
83.42816759379235
 20
-137.2257224656937
 10
83.42816759379235
 20
-137.2257224656937
 10
93.42821789422537
 20
-137.2257224656937
 10
93.42821789422537
 20
-137.2257224656937
 10
93.42821789422537
 20
-137.2257224656937
 10
93.42821789422537
 20
-127.2263421904156
 10
93.42821789422537
 20
-127.2263421904156
 10
93.42821789422537
 20
-127.2263421904156
 10
98.92798803169232
 20
-127.2263421904156
 10
98.92798803169232
 20
-127.2263421904156
 10
98.92798803169232
 20
-127.2263421904156
 10
98.92798803169232
 20
-127.7262283014019
 10
98.92798803169232
 20
-127.7262283014019
 10
98.92798803169232
 20
-127.7262283014019
 10
100.4279638267581
 20
-127.7262283014019
 10
100.4279638267581
 20
-127.7262283014019
 10
100.4279638267581
 20
-127.7262283014019
 10
100.4279638267581
 20
-127.2263421904156
 10
100.4279638267581
 20
-127.2263421904156
 10
100.4279638267581
 20
-126.6741038572205
 10
99.98011244929484
 20
-126.2262171906656
 10
99.42822690781905
 20
-126.2262171906656
 97
        0
 72
     1
 10
99.42822690781905
 20
-126.2262171906656
 11
99.42822690781905
 21
-126.2262171906656
 97
        0
 75
     2
 76
     1
 98
        0
  0
POLYLINE
  5
43
330
1F
100
AcDbEntity
  8
_U+30EC_U+30A4_U+30E4_U+30FC 1
 62
   179
420
  2234388
370
    25
100
AcDb2dPolyline
 66
     1
 10
0.0
 20
0.0
 30
0.0
  0
VERTEX
  5
44
330
43
100
AcDbEntity
  8
_U+30EC_U+30A4_U+30E4_U+30FC 1
 62
   179
420
  2234388
370
    25
100
AcDbVertex
100
AcDb2dVertex
 10
83.42799120490795
 20
-137.2257224656937
 30
0.0
  0
VERTEX
  5
45
330
43
100
AcDbEntity
  8
_U+30EC_U+30A4_U+30E4_U+30FC 1
 62
   179
420
  2234388
370
    25
100
AcDbVertex
100
AcDb2dVertex
 10
93.42821789422537
 20
-137.2257224656937
 30
0.0
  0
SEQEND
  5
46
330
43
100
AcDbEntity
  8
_U+30EC_U+30A4_U+30E4_U+30FC 1
 62
   179
420
  2234388
370
    25
  0
POLYLINE
  5
47
330
1F
100
AcDbEntity
  8
_U+30EC_U+30A4_U+30E4_U+30FC 1
 62
   179
420
  2234388
370
    25
100
AcDb2dPolyline
 66
     1
 10
0.0
 20
0.0
 30
0.0
  0
VERTEX
  5
48
330
47
100
AcDbEntity
  8
_U+30EC_U+30A4_U+30E4_U+30FC 1
 62
   179
420
  2234388
370
    25
100
AcDbVertex
100
AcDb2dVertex
 10
88.83194690037489
 20
-136.2259502437212
 30
0.0
  0
VERTEX
  5
49
330
47
100
AcDbEntity
  8
_U+30EC_U+30A4_U+30E4_U+30FC 1
 62
   179
420
  2234388
370
    25
100
AcDbVertex
100
AcDb2dVertex
 10
92.42777775467084
 20
-136.2259502437212
 30
0.0
  0
SEQEND
  5
4A
330
47
100
AcDbEntity
  8
_U+30EC_U+30A4_U+30E4_U+30FC 1
 62
   179
420
  2234388
370
    25
  0
POLYLINE
  5
4B
330
1F
100
AcDbEntity
  8
_U+30EC_U+30A4_U+30E4_U+30FC 1
 62
   179
420
  2234388
370
    25
100
AcDb2dPolyline
 66
     1
 10
0.0
 20
0.0
 30
0.0
  0
VERTEX
  5
4C
330
4B
100
AcDbEntity
  8
_U+30EC_U+30A4_U+30E4_U+30FC 1
 62
   179
420
  2234388
370
    25
100
AcDbVertex
100
AcDb2dVertex
 10
92.42777775467084
 20
-126.2262171906656
 30
0.0
  0
VERTEX
  5
4D
330
4B
100
AcDbEntity
  8
_U+30EC_U+30A4_U+30E4_U+30FC 1
 62
   179
420
  2234388
370
    25
100
AcDbVertex
100
AcDb2dVertex
 10
92.42777775467084
 20
-136.2259502437212
 30
0.0
  0
SEQEND
  5
4E
330
4B
100
AcDbEntity
  8
_U+30EC_U+30A4_U+30E4_U+30FC 1
 62
   179
420
  2234388
370
    25
  0
POLYLINE
  5
4F
330
1F
100
AcDbEntity
  8
_U+30EC_U+30A4_U+30E4_U+30FC 1
 62
   179
420
  2234388
370
    25
100
AcDb2dPolyline
 66
     1
 10
0.0
 20
0.0
 30
0.0
  0
VERTEX
  5
50
330
4F
100
AcDbEntity
  8
_U+30EC_U+30A4_U+30E4_U+30FC 1
 62
   179
420
  2234388
370
    25
100
AcDbVertex
100
AcDb2dVertex
 10
93.42821789422537
 20
-127.2263421904156
 30
0.0
  0
VERTEX
  5
51
330
4F
100
AcDbEntity
  8
_U+30EC_U+30A4_U+30E4_U+30FC 1
 62
   179
420
  2234388
370
    25
100
AcDbVertex
100
AcDb2dVertex
 10
93.42821789422537
 20
-137.2257224656937
 30
0.0
  0
SEQEND
  5
52
330
4F
100
AcDbEntity
  8
_U+30EC_U+30A4_U+30E4_U+30FC 1
 62
   179
420
  2234388
370
    25
  0
POLYLINE
  5
53
330
1F
100
AcDbEntity
  8
_U+30EC_U+30A4_U+30E4_U+30FC 1
 62
   179
420
  2234388
370
    25
100
AcDb2dPolyline
 66
     1
 10
0.0
 20
0.0
 30
0.0
  0
VERTEX
  5
54
330
53
100
AcDbEntity
  8
_U+30EC_U+30A4_U+30E4_U+30FC 1
 62
   179
420
  2234388
370
    25
100
AcDbVertex
100
AcDb2dVertex
 10
100.4279638267581
 20
-127.2263421904156
 30
0.0
  0
VERTEX
  5
55
330
53
100
AcDbEntity
  8
_U+30EC_U+30A4_U+30E4_U+30FC 1
 62
   179
420
  2234388
370
    25
100
AcDbVertex
100
AcDb2dVertex
 10
100.4279638267581
 20
-127.7262283014019
 30
0.0
  0
SEQEND
  5
56
330
53
100
AcDbEntity
  8
_U+30EC_U+30A4_U+30E4_U+30FC 1
 62
   179
420
  2234388
370
    25
  0
POLYLINE
  5
57
330
1F
100
AcDbEntity
  8
_U+30EC_U+30A4_U+30E4_U+30FC 1
 62
   179
420
  2234388
370
    25
100
AcDb2dPolyline
 66
     1
 10
0.0
 20
0.0
 30
0.0
  0
VERTEX
  5
58
330
57
100
AcDbEntity
  8
_U+30EC_U+30A4_U+30E4_U+30FC 1
 62
   179
420
  2234388
370
    25
100
AcDbVertex
100
AcDb2dVertex
 10
98.92798803169232
 20
-127.7262283014019
 30
0.0
  0
VERTEX
  5
59
330
57
100
AcDbEntity
  8
_U+30EC_U+30A4_U+30E4_U+30FC 1
 62
   179
420
  2234388
370
    25
100
AcDbVertex
100
AcDb2dVertex
 10
100.4279638267581
 20
-127.7262283014019
 30
0.0
  0
SEQEND
  5
5A
330
57
100
AcDbEntity
  8
_U+30EC_U+30A4_U+30E4_U+30FC 1
 62
   179
420
  2234388
370
    25
  0
POLYLINE
  5
5B
330
1F
100
AcDbEntity
  8
_U+30EC_U+30A4_U+30E4_U+30FC 1
 62
   179
420
  2234388
370
    25
100
AcDb2dPolyline
 66
     1
 10
0.0
 20
0.0
 30
0.0
  0
VERTEX
  5
5C
330
5B
100
AcDbEntity
  8
_U+30EC_U+30A4_U+30E4_U+30FC 1
 62
   179
420
  2234388
370
    25
100
AcDbVertex
100
AcDb2dVertex
 10
92.42777775467084
 20
-126.2262171906656
 30
0.0
  0
VERTEX
  5
5D
330
5B
100
AcDbEntity
  8
_U+30EC_U+30A4_U+30E4_U+30FC 1
 62
   179
420
  2234388
370
    25
100
AcDbVertex
100
AcDb2dVertex
 10
99.42822690781905
 20
-126.2262171906656
 30
0.0
  0
SEQEND
  5
5E
330
5B
100
AcDbEntity
  8
_U+30EC_U+30A4_U+30E4_U+30FC 1
 62
   179
420
  2234388
370
    25
  0
POLYLINE
  5
5F
330
1F
100
AcDbEntity
  8
_U+30EC_U+30A4_U+30E4_U+30FC 1
 62
   179
420
  2234388
370
    25
100
AcDb2dPolyline
 66
     1
 10
0.0
 20
0.0
 30
0.0
  0
VERTEX
  5
60
330
5F
100
AcDbEntity
  8
_U+30EC_U+30A4_U+30E4_U+30FC 1
 62
   179
420
  2234388
370
    25
100
AcDbVertex
100
AcDb2dVertex
 10
93.42821789422537
 20
-127.2263421904156
 30
0.0
  0
VERTEX
  5
61
330
5F
100
AcDbEntity
  8
_U+30EC_U+30A4_U+30E4_U+30FC 1
 62
   179
420
  2234388
370
    25
100
AcDbVertex
100
AcDb2dVertex
 10
98.92798803169232
 20
-127.2263421904156
 30
0.0
  0
SEQEND
  5
62
330
5F
100
AcDbEntity
  8
_U+30EC_U+30A4_U+30E4_U+30FC 1
 62
   179
420
  2234388
370
    25
  0
POLYLINE
  5
63
330
1F
100
AcDbEntity
  8
_U+30EC_U+30A4_U+30E4_U+30FC 1
 62
   179
420
  2234388
370
    25
100
AcDb2dPolyline
 66
     1
 10
0.0
 20
0.0
 30
0.0
  0
VERTEX
  5
64
330
63
100
AcDbEntity
  8
_U+30EC_U+30A4_U+30E4_U+30FC 1
 62
   179
420
  2234388
370
    25
100
AcDbVertex
100
AcDb2dVertex
 10
98.92798803169232
 20
-127.2263421904156
 30
0.0
  0
VERTEX
  5
65
330
63
100
AcDbEntity
  8
_U+30EC_U+30A4_U+30E4_U+30FC 1
 62
   179
420
  2234388
370
    25
100
AcDbVertex
100
AcDb2dVertex
 10
98.92798803169232
 20
-127.7262283014019
 30
0.0
  0
SEQEND
  5
66
330
63
100
AcDbEntity
  8
_U+30EC_U+30A4_U+30E4_U+30FC 1
 62
   179
420
  2234388
370
    25
  0
POLYLINE
  5
67
330
1F
100
AcDbEntity
  8
_U+30EC_U+30A4_U+30E4_U+30FC 1
 62
   179
420
  2234388
370
    25
100
AcDb2dPolyline
 66
     1
 10
0.0
 20
0.0
 30
0.0
  0
VERTEX
  5
68
330
67
100
AcDbEntity
  8
_U+30EC_U+30A4_U+30E4_U+30FC 1
 62
   179
420
  2234388
370
    25
100
AcDbVertex
100
AcDb2dVertex
 10
88.42783996624007
 20
-136.9260024657682
 30
0.0
  0
VERTEX
  5
69
330
67
100
AcDbEntity
  8
_U+30EC_U+30A4_U+30E4_U+30FC 1
 62
   179
420
  2234388
370
    25
100
AcDbVertex
100
AcDb2dVertex
 10
88.83212328925929
 20
-136.2259502437212
 30
0.0
  0
SEQEND
  5
6A
330
67
100
AcDbEntity
  8
_U+30EC_U+30A4_U+30E4_U+30FC 1
 62
   179
420
  2234388
370
    25
  0
POLYLINE
  5
6B
330
1F
100
AcDbEntity
  8
_U+30EC_U+30A4_U+30E4_U+30FC 1
 62
   179
420
  2234388
370
    25
100
AcDb2dPolyline
 66
     1
 10
0.0
 20
0.0
 30
0.0
  0
VERTEX
  5
6C
330
6B
100
AcDbEntity
  8
_U+30EC_U+30A4_U+30E4_U+30FC 1
 62
   179
420
  2234388
370
    25
100
AcDbVertex
100
AcDb2dVertex
 10
88.42783996624007
 20
-136.9260024657682
 30
0.0
  0
VERTEX
  5
6D
330
6B
100
AcDbEntity
  8
_U+30EC_U+30A4_U+30E4_U+30FC 1
 62
   179
420
  2234388
370
    25
100
AcDbVertex
100
AcDb2dVertex
 10
88.02355664322087
 20
-136.2259502437212
 30
0.0
  0
SEQEND
  5
6E
330
6B
100
AcDbEntity
  8
_U+30EC_U+30A4_U+30E4_U+30FC 1
 62
   179
420
  2234388
370
    25
  0
POLYLINE
  5
6F
330
1F
100
AcDbEntity
  8
_U+30EC_U+30A4_U+30E4_U+30FC 1
 62
   179
420
  2234388
370
    25
100
AcDb2dPolyline
 66
     1
 10
0.0
 20
0.0
 30
0.0
  0
VERTEX
  5
70
330
6F
100
AcDbEntity
  8
_U+30EC_U+30A4_U+30E4_U+30FC 1
 62
   179
420
  2234388
370
    25
100
AcDbVertex
100
AcDb2dVertex
 10
88.02373303210526
 20
-136.2259502437212
 30
0.0
  0
VERTEX
  5
71
330
6F
100
AcDbEntity
  8
_U+30EC_U+30A4_U+30E4_U+30FC 1
 62
   179
420
  2234388
370
    25
100
AcDbVertex
100
AcDb2dVertex
 10
84.42825729050016
 20
-136.2259502437212
 30
0.0
  0
SEQEND
  5
72
330
6F
100
AcDbEntity
  8
_U+30EC_U+30A4_U+30E4_U+30FC 1
 62
   179
420
  2234388
370
    25
  0
POLYLINE
  5
73
330
1F
100
AcDbEntity
  8
_U+30EC_U+30A4_U+30E4_U+30FC 1
 62
   179
420
  2234388
370
    25
100
AcDb2dPolyline
 66
     1
 10
0.0
 20
0.0
 30
0.0
  0
VERTEX
  5
74
330
73
100
AcDbEntity
  8
_U+30EC_U+30A4_U+30E4_U+30FC 1
 62
   179
420
  2234388
370
    25
100
AcDbVertex
100
AcDb2dVertex
 10
83.42799120490795
 20
-127.2263421904156
 30
0.0
  0
VERTEX
  5
75
330
73
100
AcDbEntity
  8
_U+30EC_U+30A4_U+30E4_U+30FC 1
 62
   179
420
  2234388
370
    25
100
AcDbVertex
100
AcDb2dVertex
 10
83.42799120490795
 20
-137.2257224656937
 30
0.0
  0
SEQEND
  5
76
330
73
100
AcDbEntity
  8
_U+30EC_U+30A4_U+30E4_U+30FC 1
 62
   179
420
  2234388
370
    25
  0
POLYLINE
  5
77
330
1F
100
AcDbEntity
  8
_U+30EC_U+30A4_U+30E4_U+30FC 1
 62
   179
420
  2234388
370
    25
100
AcDb2dPolyline
 66
     1
 10
0.0
 20
0.0
 30
0.0
  0
VERTEX
  5
78
330
77
100
AcDbEntity
  8
_U+30EC_U+30A4_U+30E4_U+30FC 1
 62
   179
420
  2234388
370
    25
100
AcDbVertex
100
AcDb2dVertex
 10
84.42808090161577
 20
-126.2262171906656
 30
0.0
  0
VERTEX
  5
79
330
77
100
AcDbEntity
  8
_U+30EC_U+30A4_U+30E4_U+30FC 1
 62
   179
420
  2234388
370
    25
100
AcDbVertex
100
AcDb2dVertex
 10
84.42808090161577
 20
-136.2259502437212
 30
0.0
  0
SEQEND
  5
7A
330
77
100
AcDbEntity
  8
_U+30EC_U+30A4_U+30E4_U+30FC 1
 62
   179
420
  2234388
370
    25
  0
POLYLINE
  5
7B
330
1F
100
AcDbEntity
  8
_U+30EC_U+30A4_U+30E4_U+30FC 1
 62
   179
420
  2234388
370
    25
100
AcDb2dPolyline
 66
     1
 10
0.0
 20
0.0
 30
0.0
  0
VERTEX
  5
7C
330
7B
100
AcDbEntity
  8
_U+30EC_U+30A4_U+30E4_U+30FC 1
 62
   179
420
  2234388
370
    25
100
AcDbVertex
100
AcDb2dVertex
 10
77.92786828967223
 20
-127.2263421904156
 30
0.0
  0
VERTEX
  5
7D
330
7B
100
AcDbEntity
  8
_U+30EC_U+30A4_U+30E4_U+30FC 1
 62
   179
420
  2234388
370
    25
100
AcDbVertex
100
AcDb2dVertex
 10
77.92786828967223
 20
-127.7262283014019
 30
0.0
  0
SEQEND
  5
7E
330
7B
100
AcDbEntity
  8
_U+30EC_U+30A4_U+30E4_U+30FC 1
 62
   179
420
  2234388
370
    25
  0
POLYLINE
  5
7F
330
1F
100
AcDbEntity
  8
_U+30EC_U+30A4_U+30E4_U+30FC 1
 62
   179
420
  2234388
370
    25
100
AcDb2dPolyline
 66
     1
 10
0.0
 20
0.0
 30
0.0
  0
VERTEX
  5
80
330
7F
100
AcDbEntity
  8
_U+30EC_U+30A4_U+30E4_U+30FC 1
 62
   179
420
  2234388
370
    25
100
AcDbVertex
100
AcDb2dVertex
 10
83.42799120490795
 20
-127.2263421904156
 30
0.0
  0
VERTEX
  5
81
330
7F
100
AcDbEntity
  8
_U+30EC_U+30A4_U+30E4_U+30FC 1
 62
   179
420
  2234388
370
    25
100
AcDbVertex
100
AcDb2dVertex
 10
77.92786828967223
 20
-127.2263421904156
 30
0.0
  0
SEQEND
  5
82
330
7F
100
AcDbEntity
  8
_U+30EC_U+30A4_U+30E4_U+30FC 1
 62
   179
420
  2234388
370
    25
  0
POLYLINE
  5
83
330
1F
100
AcDbEntity
  8
_U+30EC_U+30A4_U+30E4_U+30FC 1
 62
   179
420
  2234388
370
    25
100
AcDb2dPolyline
 66
     1
 10
0.0
 20
0.0
 30
0.0
  0
VERTEX
  5
84
330
83
100
AcDbEntity
  8
_U+30EC_U+30A4_U+30E4_U+30FC 1
 62
   179
420
  2234388
370
    25
100
AcDbVertex
100
AcDb2dVertex
 10
84.42808090161577
 20
-126.2262171906656
 30
0.0
  0
VERTEX
  5
85
330
83
100
AcDbEntity
  8
_U+30EC_U+30A4_U+30E4_U+30FC 1
 62
   179
420
  2234388
370
    25
100
AcDbVertex
100
AcDb2dVertex
 10
77.42784108020676
 20
-126.2262171906656
 30
0.0
  0
SEQEND
  5
86
330
83
100
AcDbEntity
  8
_U+30EC_U+30A4_U+30E4_U+30FC 1
 62
   179
420
  2234388
370
    25
  0
POLYLINE
  5
87
330
1F
100
AcDbEntity
  8
_U+30EC_U+30A4_U+30E4_U+30FC 1
 62
   179
420
  2234388
370
    25
100
AcDb2dPolyline
 66
     1
 10
0.0
 20
0.0
 30
0.0
  0
VERTEX
  5
88
330
87
100
AcDbEntity
  8
_U+30EC_U+30A4_U+30E4_U+30FC 1
 62
   179
420
  2234388
370
    25
100
AcDbVertex
100
AcDb2dVertex
 10
77.92786828967223
 20
-127.7262283014019
 30
0.0
  0
VERTEX
  5
89
330
87
100
AcDbEntity
  8
_U+30EC_U+30A4_U+30E4_U+30FC 1
 62
   179
420
  2234388
370
    25
100
AcDbVertex
100
AcDb2dVertex
 10
76.42789442533739
 20
-127.7262283014019
 30
0.0
  0
SEQEND
  5
8A
330
87
100
AcDbEntity
  8
_U+30EC_U+30A4_U+30E4_U+30FC 1
 62
   179
420
  2234388
370
    25
  0
POLYLINE
  5
8B
330
1F
100
AcDbEntity
  8
_U+30EC_U+30A4_U+30E4_U+30FC 1
 62
   179
420
  2234388
370
    25
100
AcDb2dPolyline
 66
     1
 10
0.0
 20
0.0
 30
0.0
  0
VERTEX
  5
8C
330
8B
100
AcDbEntity
  8
_U+30EC_U+30A4_U+30E4_U+30FC 1
 62
   179
420
  2234388
370
    25
100
AcDbVertex
100
AcDb2dVertex
 10
76.42789442533739
 20
-127.2263421904156
 30
0.0
  0
VERTEX
  5
8D
330
8B
100
AcDbEntity
  8
_U+30EC_U+30A4_U+30E4_U+30FC 1
 62
   179
420
  2234388
370
    25
100
AcDbVertex
100
AcDb2dVertex
 10
76.42789442533739
 20
-127.7262283014019
 30
0.0
  0
SEQEND
  5
8E
330
8B
100
AcDbEntity
  8
_U+30EC_U+30A4_U+30E4_U+30FC 1
 62
   179
420
  2234388
370
    25
  0
SPLINE
  5
8F
330
1F
100
AcDbEntity
  8
_U+30EC_U+30A4_U+30E4_U+30FC 1
 62
   179
420
  2234388
370
    25
100
AcDbSpline
210
0.0
220
0.0
230
1.0
 70
     8
 71
     3
 72
     8
 73
     4
 74
     0
 42
0.0000000001
 43
0.0000000001
 12
1.0
 22
0.0
 32
0.0
 13
1.0
 23
0.0
 33
0.0
 40
0.0
 40
0.0
 40
0.0
 40
0.0
 40
1.0
 40
1.0
 40
1.0
 40
1.0
 10
100.4279638267581
 20
-127.2263421904156
 30
0.0
 10
100.4279638267581
 20
-126.6741038572205
 30
0.0
 10
99.98011244929484
 20
-126.2262171906656
 30
0.0
 10
99.42822690781905
 20
-126.2262171906656
 30
0.0
  0
SPLINE
  5
90
330
1F
100
AcDbEntity
  8
_U+30EC_U+30A4_U+30E4_U+30FC 1
 62
   179
420
  2234388
370
    25
100
AcDbSpline
210
0.0
220
0.0
230
1.0
 70
     8
 71
     3
 72
     8
 73
     4
 74
     0
 42
0.0000000001
 43
0.0000000001
 12
1.0
 22
0.0
 32
0.0
 13
1.0
 23
0.0
 33
0.0
 40
0.0
 40
0.0
 40
0.0
 40
0.0
 40
1.0
 40
1.0
 40
1.0
 40
1.0
 10
77.42801942508736
 20
-126.2262171906656
 30
0.0
 10
76.8759222030033
 20
-126.2262171906656
 30
0.0
 10
76.42789442533739
 20
-126.6741038572205
 30
0.0
 10
76.42789442533739
 20
-127.2263421904156
 30
0.0
  0
SPLINE
  5
91
330
1F
100
AcDbEntity
  8
_U+30EC_U+30A4_U+30E4_U+30FC 1
 62
   179
420
  2234388
370
     9
100
AcDbSpline
210
0.0
220
0.0
230
1.0
 70
    11
 71
     3
 72
    17
 73
    13
 74
     0
 42
0.0000000001
 43
0.0000000001
 12
1.0
 22
0.0
 32
0.0
 13
1.0
 23
0.0
 33
0.0
 40
0.0
 40
0.0
 40
0.0
 40
0.0
 40
1.0
 40
1.0
 40
1.0
 40
2.0
 40
2.0
 40
2.0
 40
3.0
 40
3.0
 40
3.0
 40
4.0
 40
4.0
 40
4.0
 40
4.0
 10
76.52797554760869
 20
-122.2264933027766
 30
0.0
 10
76.52797554760869
 20
-122.1713541361238
 30
0.0
 10
76.48317277097392
 20
-122.1262338583572
 30
0.0
 10
76.42771610572207
 20
-122.1262338583572
 30
0.0
 10
76.37275332934651
 20
-122.1262338583572
 30
0.0
 10
76.32798583048863
 20
-122.1713541361238
 30
0.0
 10
76.32798583048863
 20
-122.2264933027766
 30
0.0
 10
76.32798583048863
 20
-122.2815971916518
 30
0.0
 10
76.37275332934651
 20
-122.3263999694185
 30
0.0
 10
76.42771610572207
 20
-122.3263999694185
 30
0.0
 10
76.48317277097392
 20
-122.3263999694185
 30
0.0
 10
76.52797554760869
 20
-122.2815971916518
 30
0.0
 10
76.52797554760869
 20
-122.2264933027766
 30
0.0
  0
SPLINE
  5
92
330
1F
100
AcDbEntity
  8
_U+30EC_U+30A4_U+30E4_U+30FC 1
 62
   179
420
  2234388
370
     9
100
AcDbSpline
210
0.0
220
0.0
230
1.0
 70
    11
 71
     3
 72
    17
 73
    13
 74
     0
 42
0.0000000001
 43
0.0000000001
 12
1.0
 22
0.0
 32
0.0
 13
1.0
 23
0.0
 33
0.0
 40
0.0
 40
0.0
 40
0.0
 40
0.0
 40
1.0
 40
1.0
 40
1.0
 40
2.0
 40
2.0
 40
2.0
 40
3.0
 40
3.0
 40
3.0
 40
4.0
 40
4.0
 40
4.0
 40
4.0
 10
84.5279875657336
 20
-122.2264933027766
 30
0.0
 10
84.5279875657336
 20
-122.1713541361238
 30
0.0
 10
84.48322220110127
 20
-122.1262338583572
 30
0.0
 10
84.42808090161577
 20
-122.1262338583572
 30
0.0
 10
84.37315553446216
 20
-122.1262338583572
 30
0.0
 10
84.32835275669575
 20
-122.1713541361238
 30
0.0
 10
84.32835275669575
 20
-122.2264933027766
 30
0.0
 10
84.32835275669575
 20
-122.2815971916518
 30
0.0
 10
84.37315553446216
 20
-122.3263999694185
 30
0.0
 10
84.42808090161577
 20
-122.3263999694185
 30
0.0
 10
84.48322220110127
 20
-122.3263999694185
 30
0.0
 10
84.5279875657336
 20
-122.2815971916518
 30
0.0
 10
84.5279875657336
 20
-122.2264933027766
 30
0.0
  0
SPLINE
  5
93
330
1F
100
AcDbEntity
  8
_U+30EC_U+30A4_U+30E4_U+30FC 1
 62
   179
420
  2234388
370
     9
100
AcDbSpline
210
0.0
220
0.0
230
1.0
 70
    11
 71
     3
 72
    17
 73
    13
 74
     0
 42
0.0000000001
 43
0.0000000001
 12
1.0
 22
0.0
 32
0.0
 13
1.0
 23
0.0
 33
0.0
 40
0.0
 40
0.0
 40
0.0
 40
0.0
 40
1.0
 40
1.0
 40
1.0
 40
2.0
 40
2.0
 40
2.0
 40
3.0
 40
3.0
 40
3.0
 40
4.0
 40
4.0
 40
4.0
 40
4.0
 10
92.52768208386661
 20
-122.2264933027766
 30
0.0
 10
92.52768208386661
 20
-122.1713541361238
 30
0.0
 10
92.48291458500873
 20
-122.1262338583572
 30
0.0
 10
92.42777775467084
 20
-122.1262338583572
 30
0.0
 10
92.37334181002639
 20
-122.1262338583572
 30
0.0
 10
92.3285743111685
 20
-122.1713541361238
 30
0.0
 10
92.3285743111685
 20
-122.2264933027766
 30
0.0
 10
92.3285743111685
 20
-122.2815971916518
 30
0.0
 10
92.37334181002639
 20
-122.3263999694185
 30
0.0
 10
92.42777775467084
 20
-122.3263999694185
 30
0.0
 10
92.48291458500873
 20
-122.3263999694185
 30
0.0
 10
92.52768208386661
 20
-122.2815971916518
 30
0.0
 10
92.52768208386661
 20
-122.2264933027766
 30
0.0
  0
SPLINE
  5
94
330
1F
100
AcDbEntity
  8
_U+30EC_U+30A4_U+30E4_U+30FC 1
 62
   179
420
  2234388
370
     9
100
AcDbSpline
210
0.0
220
0.0
230
1.0
 70
    11
 71
     3
 72
    17
 73
    13
 74
     0
 42
0.0000000001
 43
0.0000000001
 12
1.0
 22
0.0
 32
0.0
 13
1.0
 23
0.0
 33
0.0
 40
0.0
 40
0.0
 40
0.0
 40
0.0
 40
1.0
 40
1.0
 40
1.0
 40
2.0
 40
2.0
 40
2.0
 40
3.0
 40
3.0
 40
3.0
 40
4.0
 40
4.0
 40
4.0
 40
4.0
 10
100.5278704908759
 20
-122.2264933027766
 30
0.0
 10
100.5278704908759
 20
-122.1713541361238
 30
0.0
 10
100.483105530435
 20
-122.1262338583572
 30
0.0
 10
100.4279638267581
 20
-122.1262338583572
 30
0.0
 10
100.372859939275
 20
-122.1262338583572
 30
0.0
 10
100.3280571626402
 20
-122.1713541361238
 30
0.0
 10
100.3280571626402
 20
-122.2264933027766
 30
0.0
 10
100.3280571626402
 20
-122.2815971916518
 30
0.0
 10
100.372859939275
 20
-122.3263999694185
 30
0.0
 10
100.4279638267581
 20
-122.3263999694185
 30
0.0
 10
100.483105530435
 20
-122.3263999694185
 30
0.0
 10
100.5278704908759
 20
-122.2815971916518
 30
0.0
 10
100.5278704908759
 20
-122.2264933027766
 30
0.0
  0
SPLINE
  5
95
330
1F
100
AcDbEntity
  8
_U+30EC_U+30A4_U+30E4_U+30FC 1
 62
   179
420
  2234388
370
     9
100
AcDbSpline
210
0.0
220
0.0
230
1.0
 70
    11
 71
     3
 72
    17
 73
    13
 74
     0
 42
0.0000000001
 43
0.0000000001
 12
1.0
 22
0.0
 32
0.0
 13
1.0
 23
0.0
 33
0.0
 40
0.0
 40
0.0
 40
0.0
 40
0.0
 40
1.0
 40
1.0
 40
1.0
 40
2.0
 40
2.0
 40
2.0
 40
3.0
 40
3.0
 40
3.0
 40
4.0
 40
4.0
 40
4.0
 40
4.0
 10
104.5276295555002
 20
-126.2262171906656
 30
0.0
 10
104.5276295555002
 20
-126.1711133017907
 30
0.0
 10
104.4828620566423
 20
-126.126310524024
 30
0.0
 10
104.4277228913824
 20
-126.126310524024
 30
0.0
 10
104.37328928166
 20
-126.126310524024
 30
0.0
 10
104.3285217828021
 20
-126.1711133017907
 30
0.0
 10
104.3285217828021
 20
-126.2262171906656
 30
0.0
 10
104.3285217828021
 20
-126.2813563573187
 30
0.0
 10
104.37328928166
 20
-126.3261238573073
 30
0.0
 10
104.4277228913824
 20
-126.3261238573073
 30
0.0
 10
104.4828620566423
 20
-126.3261238573073
 30
0.0
 10
104.5276295555002
 20
-126.2813563573187
 30
0.0
 10
104.5276295555002
 20
-126.2262171906656
 30
0.0
  0
SPLINE
  5
96
330
1F
100
AcDbEntity
  8
_U+30EC_U+30A4_U+30E4_U+30FC 1
 62
   179
420
  2234388
370
     9
100
AcDbSpline
210
0.0
220
0.0
230
1.0
 70
    11
 71
     3
 72
    17
 73
    13
 74
     0
 42
0.0000000001
 43
0.0000000001
 12
1.0
 22
0.0
 32
0.0
 13
1.0
 23
0.0
 33
0.0
 40
0.0
 40
0.0
 40
0.0
 40
0.0
 40
1.0
 40
1.0
 40
1.0
 40
2.0
 40
2.0
 40
2.0
 40
3.0
 40
3.0
 40
3.0
 40
4.0
 40
4.0
 40
4.0
 40
4.0
 10
104.5276295555002
 20
-127.7262283014019
 30
0.0
 10
104.5276295555002
 20
-127.6710891347488
 30
0.0
 10
104.4828620566423
 20
-127.6263216347602
 30
0.0
 10
104.4277228913824
 20
-127.6263216347602
 30
0.0
 10
104.37328928166
 20
-127.6263216347602
 30
0.0
 10
104.3285217828021
 20
-127.6710891347488
 30
0.0
 10
104.3285217828021
 20
-127.7262283014019
 30
0.0
 10
104.3285217828021
 20
-127.7813321902768
 30
0.0
 10
104.37328928166
 20
-127.8261349680435
 30
0.0
 10
104.4277228913824
 20
-127.8261349680435
 30
0.0
 10
104.4828620566423
 20
-127.8261349680435
 30
0.0
 10
104.5276295555002
 20
-127.7813321902768
 30
0.0
 10
104.5276295555002
 20
-127.7262283014019
 30
0.0
  0
SPLINE
  5
97
330
1F
100
AcDbEntity
  8
_U+30EC_U+30A4_U+30E4_U+30FC 1
 62
   179
420
  2234388
370
     9
100
AcDbSpline
210
0.0
220
0.0
230
1.0
 70
    11
 71
     3
 72
    17
 73
    13
 74
     0
 42
0.0000000001
 43
0.0000000001
 12
1.0
 22
0.0
 32
0.0
 13
1.0
 23
0.0
 33
0.0
 40
0.0
 40
0.0
 40
0.0
 40
0.0
 40
1.0
 40
1.0
 40
1.0
 40
2.0
 40
2.0
 40
2.0
 40
3.0
 40
3.0
 40
3.0
 40
4.0
 40
4.0
 40
4.0
 40
4.0
 10
104.5276295555002
 20
-137.2257224656937
 30
0.0
 10
104.5276295555002
 20
-137.1706185768182
 30
0.0
 10
104.4828620566423
 20
-137.1258157990521
 30
0.0
 10
104.4277228913824
 20
-137.1258157990521
 30
0.0
 10
104.37328928166
 20
-137.1258157990521
 30
0.0
 10
104.3285217828021
 20
-137.1706185768182
 30
0.0
 10
104.3285217828021
 20
-137.2257224656937
 30
0.0
 10
104.3285217828021
 20
-137.2808616323462
 30
0.0
 10
104.37328928166
 20
-137.3256291323354
 30
0.0
 10
104.4277228913824
 20
-137.3256291323354
 30
0.0
 10
104.4828620566423
 20
-137.3256291323354
 30
0.0
 10
104.5276295555002
 20
-137.2808616323462
 30
0.0
 10
104.5276295555002
 20
-137.2257224656937
 30
0.0
  0
POLYLINE
  5
98
330
1F
100
AcDbEntity
  8
_U+30EC_U+30A4_U+30E4_U+30FC 1
 62
   179
420
  2234388
370
     9
100
AcDb2dPolyline
 66
     1
 10
0.0
 20
0.0
 30
0.0
  0
VERTEX
  5
99
330
98
100
AcDbEntity
  8
_U+30EC_U+30A4_U+30E4_U+30FC 1
 62
   179
420
  2234388
370
     9
100
AcDbVertex
100
AcDb2dVertex
 10
76.42789442533739
 20
-122.2264933027766
 30
0.0
  0
VERTEX
  5
9A
330
98
100
AcDbEntity
  8
_U+30EC_U+30A4_U+30E4_U+30FC 1
 62
   179
420
  2234388
370
     9
100
AcDbVertex
100
AcDb2dVertex
 10
84.42825729050016
 20
-122.2264933027766
 30
0.0
  0
SEQEND
  5
9B
330
98
100
AcDbEntity
  8
_U+30EC_U+30A4_U+30E4_U+30FC 1
 62
   179
420
  2234388
370
     9
  0
POLYLINE
  5
9C
330
1F
100
AcDbEntity
  8
_U+30EC_U+30A4_U+30E4_U+30FC 1
 62
   179
420
  2234388
370
     9
100
AcDb2dPolyline
 66
     1
 10
0.0
 20
0.0
 30
0.0
  0
VERTEX
  5
9D
330
9C
100
AcDbEntity
  8
_U+30EC_U+30A4_U+30E4_U+30FC 1
 62
   179
420
  2234388
370
     9
100
AcDbVertex
100
AcDb2dVertex
 10
76.42789442533739
 20
-124.686271635495
 30
0.0
  0
VERTEX
  5
9E
330
9C
100
AcDbEntity
  8
_U+30EC_U+30A4_U+30E4_U+30FC 1
 62
   179
420
  2234388
370
     9
100
AcDbVertex
100
AcDb2dVertex
 10
76.42789442533739
 20
-121.2260155252492
 30
0.0
  0
SEQEND
  5
9F
330
9C
100
AcDbEntity
  8
_U+30EC_U+30A4_U+30E4_U+30FC 1
 62
   179
420
  2234388
370
     9
  0
POLYLINE
  5
A0
330
1F
100
AcDbEntity
  8
_U+30EC_U+30A4_U+30E4_U+30FC 1
 62
   179
420
  2234388
370
     9
100
AcDb2dPolyline
 66
     1
 10
0.0
 20
0.0
 30
0.0
  0
VERTEX
  5
A1
330
A0
100
AcDbEntity
  8
_U+30EC_U+30A4_U+30E4_U+30FC 1
 62
   179
420
  2234388
370
     9
100
AcDbVertex
100
AcDb2dVertex
 10
84.42808090161577
 20
-123.6864994135228
 30
0.0
  0
VERTEX
  5
A2
330
A0
100
AcDbEntity
  8
_U+30EC_U+30A4_U+30E4_U+30FC 1
 62
   179
420
  2234388
370
     9
100
AcDbVertex
100
AcDb2dVertex
 10
84.42808090161577
 20
-121.2260155252492
 30
0.0
  0
SEQEND
  5
A3
330
A0
100
AcDbEntity
  8
_U+30EC_U+30A4_U+30E4_U+30FC 1
 62
   179
420
  2234388
370
     9
  0
INSERT
  5
A5
330
1F
100
AcDbEntity
  8
_U+30EC_U+30A4_U+30E4_U+30FC 1
100
AcDbBlockReference
  2
block 2
 10
0.0
 20
0.0
 30
0.0
  0
POLYLINE
  5
AC
330
1F
100
AcDbEntity
  8
_U+30EC_U+30A4_U+30E4_U+30FC 1
 62
   179
420
  2234388
370
     9
100
AcDb2dPolyline
 66
     1
 10
0.0
 20
0.0
 30
0.0
  0
VERTEX
  5
AD
330
AC
100
AcDbEntity
  8
_U+30EC_U+30A4_U+30E4_U+30FC 1
 62
   179
420
  2234388
370
     9
100
AcDbVertex
100
AcDb2dVertex
 10
84.42808090161577
 20
-122.2264933027766
 30
0.0
  0
VERTEX
  5
AE
330
AC
100
AcDbEntity
  8
_U+30EC_U+30A4_U+30E4_U+30FC 1
 62
   179
420
  2234388
370
     9
100
AcDbVertex
100
AcDb2dVertex
 10
92.42777775467084
 20
-122.2264933027766
 30
0.0
  0
SEQEND
  5
AF
330
AC
100
AcDbEntity
  8
_U+30EC_U+30A4_U+30E4_U+30FC 1
 62
   179
420
  2234388
370
     9
  0
POLYLINE
  5
B0
330
1F
100
AcDbEntity
  8
_U+30EC_U+30A4_U+30E4_U+30FC 1
 62
   179
420
  2234388
370
     9
100
AcDb2dPolyline
 66
     1
 10
0.0
 20
0.0
 30
0.0
  0
VERTEX
  5
B1
330
B0
100
AcDbEntity
  8
_U+30EC_U+30A4_U+30E4_U+30FC 1
 62
   179
420
  2234388
370
     9
100
AcDbVertex
100
AcDb2dVertex
 10
92.42777775467084
 20
-123.6864994135228
 30
0.0
  0
VERTEX
  5
B2
330
B0
100
AcDbEntity
  8
_U+30EC_U+30A4_U+30E4_U+30FC 1
 62
   179
420
  2234388
370
     9
100
AcDbVertex
100
AcDb2dVertex
 10
92.42777775467084
 20
-121.2260155252492
 30
0.0
  0
SEQEND
  5
B3
330
B0
100
AcDbEntity
  8
_U+30EC_U+30A4_U+30E4_U+30FC 1
 62
   179
420
  2234388
370
     9
  0
INSERT
  5
B5
330
1F
100
AcDbEntity
  8
_U+30EC_U+30A4_U+30E4_U+30FC 1
100
AcDbBlockReference
  2
block 3
 10
0.0
 20
0.0
 30
0.0
  0
POLYLINE
  5
BC
330
1F
100
AcDbEntity
  8
_U+30EC_U+30A4_U+30E4_U+30FC 1
 62
   179
420
  2234388
370
     9
100
AcDb2dPolyline
 66
     1
 10
0.0
 20
0.0
 30
0.0
  0
VERTEX
  5
BD
330
BC
100
AcDbEntity
  8
_U+30EC_U+30A4_U+30E4_U+30FC 1
 62
   179
420
  2234388
370
     9
100
AcDbVertex
100
AcDb2dVertex
 10
92.42777775467084
 20
-122.2264933027766
 30
0.0
  0
VERTEX
  5
BE
330
BC
100
AcDbEntity
  8
_U+30EC_U+30A4_U+30E4_U+30FC 1
 62
   179
420
  2234388
370
     9
100
AcDbVertex
100
AcDb2dVertex
 10
100.4279638267581
 20
-122.2264933027766
 30
0.0
  0
SEQEND
  5
BF
330
BC
100
AcDbEntity
  8
_U+30EC_U+30A4_U+30E4_U+30FC 1
 62
   179
420
  2234388
370
     9
  0
POLYLINE
  5
C0
330
1F
100
AcDbEntity
  8
_U+30EC_U+30A4_U+30E4_U+30FC 1
 62
   179
420
  2234388
370
     9
100
AcDb2dPolyline
 66
     1
 10
0.0
 20
0.0
 30
0.0
  0
VERTEX
  5
C1
330
C0
100
AcDbEntity
  8
_U+30EC_U+30A4_U+30E4_U+30FC 1
 62
   179
420
  2234388
370
     9
100
AcDbVertex
100
AcDb2dVertex
 10
100.4279638267581
 20
-124.686271635495
 30
0.0
  0
VERTEX
  5
C2
330
C0
100
AcDbEntity
  8
_U+30EC_U+30A4_U+30E4_U+30FC 1
 62
   179
420
  2234388
370
     9
100
AcDbVertex
100
AcDb2dVertex
 10
100.4279638267581
 20
-121.2260155252492
 30
0.0
  0
SEQEND
  5
C3
330
C0
100
AcDbEntity
  8
_U+30EC_U+30A4_U+30E4_U+30FC 1
 62
   179
420
  2234388
370
     9
  0
INSERT
  5
C5
330
1F
100
AcDbEntity
  8
_U+30EC_U+30A4_U+30E4_U+30FC 1
100
AcDbBlockReference
  2
block 4
 10
0.0
 20
0.0
 30
0.0
  0
POLYLINE
  5
CC
330
1F
100
AcDbEntity
  8
_U+30EC_U+30A4_U+30E4_U+30FC 1
 62
   179
420
  2234388
370
     9
100
AcDb2dPolyline
 66
     1
 10
0.0
 20
0.0
 30
0.0
  0
VERTEX
  5
CD
330
CC
100
AcDbEntity
  8
_U+30EC_U+30A4_U+30E4_U+30FC 1
 62
   179
420
  2234388
370
     9
100
AcDbVertex
100
AcDb2dVertex
 10
104.4277228913824
 20
-126.2262171906656
 30
0.0
  0
VERTEX
  5
CE
330
CC
100
AcDbEntity
  8
_U+30EC_U+30A4_U+30E4_U+30FC 1
 62
   179
420
  2234388
370
     9
100
AcDbVertex
100
AcDb2dVertex
 10
104.4277228913824
 20
-120.9683113586467
 30
0.0
  0
SEQEND
  5
CF
330
CC
100
AcDbEntity
  8
_U+30EC_U+30A4_U+30E4_U+30FC 1
 62
   179
420
  2234388
370
     9
  0
POLYLINE
  5
D0
330
1F
100
AcDbEntity
  8
_U+30EC_U+30A4_U+30E4_U+30FC 1
 62
   179
420
  2234388
370
     9
100
AcDb2dPolyline
 66
     1
 10
0.0
 20
0.0
 30
0.0
  0
VERTEX
  5
D1
330
D0
100
AcDbEntity
  8
_U+30EC_U+30A4_U+30E4_U+30FC 1
 62
   179
420
  2234388
370
     9
100
AcDbVertex
100
AcDb2dVertex
 10
104.4277228913824
 20
-126.2262171906656
 30
0.0
  0
VERTEX
  5
D2
330
D0
100
AcDbEntity
  8
_U+30EC_U+30A4_U+30E4_U+30FC 1
 62
   179
420
  2234388
370
     9
100
AcDbVertex
100
AcDb2dVertex
 10
104.4277228913824
 20
-127.7262283014019
 30
0.0
  0
SEQEND
  5
D3
330
D0
100
AcDbEntity
  8
_U+30EC_U+30A4_U+30E4_U+30FC 1
 62
   179
420
  2234388
370
     9
  0
POLYLINE
  5
D4
330
1F
100
AcDbEntity
  8
_U+30EC_U+30A4_U+30E4_U+30FC 1
 62
   179
420
  2234388
370
     9
100
AcDb2dPolyline
 66
     1
 10
0.0
 20
0.0
 30
0.0
  0
VERTEX
  5
D5
330
D4
100
AcDbEntity
  8
_U+30EC_U+30A4_U+30E4_U+30FC 1
 62
   179
420
  2234388
370
     9
100
AcDbVertex
100
AcDb2dVertex
 10
101.9679471967301
 20
-126.2262171906656
 30
0.0
  0
VERTEX
  5
D6
330
D4
100
AcDbEntity
  8
_U+30EC_U+30A4_U+30E4_U+30FC 1
 62
   179
420
  2234388
370
     9
100
AcDbVertex
100
AcDb2dVertex
 10
105.4282006436358
 20
-126.2262171906656
 30
0.0
  0
SEQEND
  5
D7
330
D4
100
AcDbEntity
  8
_U+30EC_U+30A4_U+30E4_U+30FC 1
 62
   179
420
  2234388
370
     9
  0
POLYLINE
  5
D8
330
1F
100
AcDbEntity
  8
_U+30EC_U+30A4_U+30E4_U+30FC 1
 62
   179
420
  2234388
370
     9
100
AcDb2dPolyline
 66
     1
 10
0.0
 20
0.0
 30
0.0
  0
VERTEX
  5
D9
330
D8
100
AcDbEntity
  8
_U+30EC_U+30A4_U+30E4_U+30FC 1
 62
   179
420
  2234388
370
     9
100
AcDbVertex
100
AcDb2dVertex
 10
102.9677194187027
 20
-127.7262283014019
 30
0.0
  0
VERTEX
  5
DA
330
D8
100
AcDbEntity
  8
_U+30EC_U+30A4_U+30E4_U+30FC 1
 62
   179
420
  2234388
370
     9
100
AcDbVertex
100
AcDb2dVertex
 10
105.4282006436358
 20
-127.7262283014019
 30
0.0
  0
SEQEND
  5
DB
330
D8
100
AcDbEntity
  8
_U+30EC_U+30A4_U+30E4_U+30FC 1
 62
   179
420
  2234388
370
     9
  0
INSERT
  5
DD
330
1F
100
AcDbEntity
  8
_U+30EC_U+30A4_U+30E4_U+30FC 1
100
AcDbBlockReference
  2
block 5
 10
0.0
 20
0.0
 30
0.0
  0
POLYLINE
  5
EC
330
1F
100
AcDbEntity
  8
_U+30EC_U+30A4_U+30E4_U+30FC 1
 62
   179
420
  2234388
370
     9
100
AcDb2dPolyline
 66
     1
 10
0.0
 20
0.0
 30
0.0
  0
VERTEX
  5
ED
330
EC
100
AcDbEntity
  8
_U+30EC_U+30A4_U+30E4_U+30FC 1
 62
   179
420
  2234388
370
     9
100
AcDbVertex
100
AcDb2dVertex
 10
104.4277228913824
 20
-137.2257224656937
 30
0.0
  0
VERTEX
  5
EE
330
EC
100
AcDbEntity
  8
_U+30EC_U+30A4_U+30E4_U+30FC 1
 62
   179
420
  2234388
370
     9
100
AcDbVertex
100
AcDb2dVertex
 10
104.4277228913824
 20
-127.7262283014019
 30
0.0
  0
SEQEND
  5
EF
330
EC
100
AcDbEntity
  8
_U+30EC_U+30A4_U+30E4_U+30FC 1
 62
   179
420
  2234388
370
     9
  0
POLYLINE
  5
F0
330
1F
100
AcDbEntity
  8
_U+30EC_U+30A4_U+30E4_U+30FC 1
 62
   179
420
  2234388
370
     9
100
AcDb2dPolyline
 66
     1
 10
0.0
 20
0.0
 30
0.0
  0
VERTEX
  5
F1
330
F0
100
AcDbEntity
  8
_U+30EC_U+30A4_U+30E4_U+30FC 1
 62
   179
420
  2234388
370
     9
100
AcDbVertex
100
AcDb2dVertex
 10
95.96797088498643
 20
-137.2257224656937
 30
0.0
  0
VERTEX
  5
F2
330
F0
100
AcDbEntity
  8
_U+30EC_U+30A4_U+30E4_U+30FC 1
 62
   179
420
  2234388
370
     9
100
AcDbVertex
100
AcDb2dVertex
 10
105.4282006436358
 20
-137.2257224656937
 30
0.0
  0
SEQEND
  5
F3
330
F0
100
AcDbEntity
  8
_U+30EC_U+30A4_U+30E4_U+30FC 1
 62
   179
420
  2234388
370
     9
  0
INSERT
  5
F5
330
1F
100
AcDbEntity
  8
_U+30EC_U+30A4_U+30E4_U+30FC 1
100
AcDbBlockReference
  2
block 6
 10
0.0
 20
0.0
 30
0.0
  0
SPLINE
  5
105
330
1F
100
AcDbEntity
  8
_U+30EC_U+30A4_U+30E4_U+30FC 1
 62
   179
420
  2234388
370
     9
100
AcDbSpline
210
0.0
220
0.0
230
1.0
 70
    11
 71
     3
 72
    17
 73
    13
 74
     0
 42
0.0000000001
 43
0.0000000001
 12
1.0
 22
0.0
 32
0.0
 13
1.0
 23
0.0
 33
0.0
 40
0.0
 40
0.0
 40
0.0
 40
0.0
 40
1.0
 40
1.0
 40
1.0
 40
2.0
 40
2.0
 40
2.0
 40
3.0
 40
3.0
 40
3.0
 40
4.0
 40
4.0
 40
4.0
 40
4.0
 10
83.52892092455525
 20
-129.4721960787429
 30
0.0
 10
83.52892092455525
 20
-129.4174096898682
 30
0.0
 10
83.48411814792048
 20
-129.3722894121012
 30
0.0
 10
83.42901426043741
 20
-129.3722894121012
 30
0.0
 10
83.37405148406185
 20
-129.3722894121012
 30
0.0
 10
83.32928609027873
 20
-129.4174096898682
 30
0.0
 10
83.32928609027873
 20
-129.4721960787429
 30
0.0
 10
83.32928609027873
 20
-129.5273352453959
 30
0.0
 10
83.37405148406185
 20
-129.5721027453845
 30
0.0
 10
83.42901426043741
 20
-129.5721027453845
 30
0.0
 10
83.48411814792048
 20
-129.5721027453845
 30
0.0
 10
83.52892092455525
 20
-129.5273352453959
 30
0.0
 10
83.52892092455525
 20
-129.4721960787429
 30
0.0
  0
SPLINE
  5
106
330
1F
100
AcDbEntity
  8
_U+30EC_U+30A4_U+30E4_U+30FC 1
 62
   179
420
  2234388
370
     9
100
AcDbSpline
210
0.0
220
0.0
230
1.0
 70
    11
 71
     3
 72
    17
 73
    13
 74
     0
 42
0.0000000001
 43
0.0000000001
 12
1.0
 22
0.0
 32
0.0
 13
1.0
 23
0.0
 33
0.0
 40
0.0
 40
0.0
 40
0.0
 40
0.0
 40
1.0
 40
1.0
 40
1.0
 40
2.0
 40
2.0
 40
2.0
 40
3.0
 40
3.0
 40
3.0
 40
4.0
 40
4.0
 40
4.0
 40
4.0
 10
84.52904589903993
 20
-129.4721960787429
 30
0.0
 10
84.52904589903993
 20
-129.4174096898682
 30
0.0
 10
84.48424312240518
 20
-129.3722894121012
 30
0.0
 10
84.4291392349221
 20
-129.3722894121012
 30
0.0
 10
84.37417645854654
 20
-129.3722894121012
 30
0.0
 10
84.32937368191178
 20
-129.4174096898682
 30
0.0
 10
84.32937368191178
 20
-129.4721960787429
 30
0.0
 10
84.32937368191178
 20
-129.5273352453959
 30
0.0
 10
84.37417645854654
 20
-129.5721027453845
 30
0.0
 10
84.4291392349221
 20
-129.5721027453845
 30
0.0
 10
84.48424312240518
 20
-129.5721027453845
 30
0.0
 10
84.52904589903993
 20
-129.5273352453959
 30
0.0
 10
84.52904589903993
 20
-129.4721960787429
 30
0.0
  0
POLYLINE
  5
107
330
1F
100
AcDbEntity
  8
_U+30EC_U+30A4_U+30E4_U+30FC 1
 62
   179
420
  2234388
370
     9
100
AcDb2dPolyline
 66
     1
 10
0.0
 20
0.0
 30
0.0
  0
VERTEX
  5
108
330
107
100
AcDbEntity
  8
_U+30EC_U+30A4_U+30E4_U+30FC 1
 62
   179
420
  2234388
370
     9
100
AcDbVertex
100
AcDb2dVertex
 10
82.58478178197558
 20
-131.7259874670688
 30
0.0
  0
VERTEX
  5
109
330
107
100
AcDbEntity
  8
_U+30EC_U+30A4_U+30E4_U+30FC 1
 62
   179
420
  2234388
370
     9
100
AcDbVertex
100
AcDb2dVertex
 10
86.515819737242
 20
-131.7259874670688
 30
0.0
  0
SEQEND
  5
10A
330
107
100
AcDbEntity
  8
_U+30EC_U+30A4_U+30E4_U+30FC 1
 62
   179
420
  2234388
370
     9
  0
INSERT
  5
10C
330
1F
100
AcDbEntity
  8
_U+30EC_U+30A4_U+30E4_U+30FC 1
100
AcDbBlockReference
  2
block 7
 10
0.0
 20
0.0
 30
0.0
  0
ENDSEC
  0
SECTION
  2
OBJECTS
  0
DICTIONARY
  5
C
330
0
100
AcDbDictionary
281
     1
  3
ACAD_GROUP
350
D
  3
ACAD_LAYOUT
350
1A
  3
ACAD_MATERIAL
350
3B
  3
ACAD_MLEADERSTYLE
350
112
  3
ACAD_MLINESTYLE
350
17
  3
ACAD_PLOTSETTINGS
350
19
  3
ACAD_PLOTSTYLENAME
350
E
  3
ACAD_TABLESTYLE
350
111
  3
ACAD_VISUALSTYLE
350
2A
  0
SUN
  5
3F
330
29
100
AcDbSun
 90
        1
290
     0
 63
     7
421
 16777215
 40
1.0
291
     1
 91
  2455826
 92
 54000000
292
     0
 70
     2
 71
   256
280
     1
  0
DICTIONARY
  5
D
102
{ACAD_REACTORS
330
C
102
}
330
C
100
AcDbDictionary
281
     1
  0
DICTIONARY
  5
1A
102
{ACAD_REACTORS
330
C
102
}
330
C
100
AcDbDictionary
281
     1
  3
Layout1
350
1E
  3
Layout2
350
26
  3
Model
350
22
  0
DICTIONARY
  5
3B
102
{ACAD_REACTORS
330
C
102
}
330
C
100
AcDbDictionary
281
     1
  3
ByBlock
350
3D
  3
ByLayer
350
3C
  3
Global
350
3E
  0
DICTIONARY
  5
112
102
{ACAD_REACTORS
330
C
102
}
330
C
100
AcDbDictionary
281
     1
  0
DICTIONARY
  5
17
102
{ACAD_REACTORS
330
C
102
}
330
C
100
AcDbDictionary
281
     1
  3
Standard
350
18
  0
DICTIONARY
  5
19
102
{ACAD_REACTORS
330
C
102
}
330
C
100
AcDbDictionary
281
     1
  0
ACDBDICTIONARYWDFLT
  5
E
102
{ACAD_REACTORS
330
C
102
}
330
C
100
AcDbDictionary
281
     1
  3
Normal
350
F
100
AcDbDictionaryWithDefault
340
F
  0
DICTIONARY
  5
111
102
{ACAD_REACTORS
330
C
102
}
330
C
100
AcDbDictionary
281
     1
  0
DICTIONARY
  5
2A
102
{ACAD_REACTORS
330
C
102
}
330
C
100
AcDbDictionary
281
     1
  3
2dWireframe
350
2F
  3
3D Hidden
350
31
  3
3dWireframe
350
30
  3
Basic
350
32
  3
Brighten
350
36
  3
ColorChange
350
3A
  3
Conceptual
350
34
  3
Dim
350
35
  3
Facepattern
350
39
  3
Flat
350
2B
  3
FlatWithEdges
350
2C
  3
Gouraud
350
2D
  3
GouraudWithEdges
350
2E
  3
Linepattern
350
38
  3
Realistic
350
33
  3
Thicken
350
37
  0
LAYOUT
  5
1E
102
{ACAD_REACTORS
330
1A
102
}
330
1A
100
AcDbPlotSettings
  1

  2
none_device
  4

  6

 40
0.0
 41
0.0
 42
0.0
 43
0.0
 44
0.0
 45
0.0
 46
0.0
 47
0.0
 48
0.0
 49
0.0
140
0.0
141
0.0
142
1.0
143
1.0
 70
   688
 72
     0
 73
     0
 74
     5
  7

 75
    16
 76
     0
 77
     2
 78
   300
147
1.0
148
0.0
149
0.0
100
AcDbLayout
  1
Layout1
 70
     1
 71
     1
 10
0.0
 20
0.0
 11
12.0
 21
9.0
 12
0.0
 22
0.0
 32
0.0
 14
1.000000000000000E+20
 24
1.000000000000000E+20
 34
1.000000000000000E+20
 15
-1.000000000000000E+20
 25
-1.000000000000000E+20
 35
-1.000000000000000E+20
146
0.0
 13
0.0
 23
0.0
 33
0.0
 16
1.0
 26
0.0
 36
0.0
 17
0.0
 27
1.0
 37
0.0
 76
     0
330
1B
  0
LAYOUT
  5
26
102
{ACAD_REACTORS
330
1A
102
}
330
1A
100
AcDbPlotSettings
  1

  2
none_device
  4

  6

 40
0.0
 41
0.0
 42
0.0
 43
0.0
 44
0.0
 45
0.0
 46
0.0
 47
0.0
 48
0.0
 49
0.0
140
0.0
141
0.0
142
1.0
143
1.0
 70
   688
 72
     0
 73
     0
 74
     5
  7

 75
    16
 76
     0
 77
     2
 78
   300
147
1.0
148
0.0
149
0.0
100
AcDbLayout
  1
Layout2
 70
     1
 71
     2
 10
0.0
 20
0.0
 11
0.0
 21
0.0
 12
0.0
 22
0.0
 32
0.0
 14
0.0
 24
0.0
 34
0.0
 15
0.0
 25
0.0
 35
0.0
146
0.0
 13
0.0
 23
0.0
 33
0.0
 16
1.0
 26
0.0
 36
0.0
 17
0.0
 27
1.0
 37
0.0
 76
     0
330
23
  0
LAYOUT
  5
22
102
{ACAD_REACTORS
330
1A
102
}
330
1A
100
AcDbPlotSettings
  1

  2
none_device
  4

  6

 40
0.0
 41
0.0
 42
0.0
 43
0.0
 44
0.0
 45
0.0
 46
0.0
 47
0.0
 48
0.0
 49
0.0
140
0.0
141
0.0
142
1.0
143
1.0
 70
  1712
 72
     0
 73
     0
 74
     0
  7

 75
     0
 76
     0
 77
     2
 78
   300
147
1.0
148
0.0
149
0.0
100
AcDbLayout
  1
Model
 70
     1
 71
     0
 10
0.0
 20
0.0
 11
12.0
 21
9.0
 12
0.0
 22
0.0
 32
0.0
 14
1.000000000000000E+20
 24
1.000000000000000E+20
 34
1.000000000000000E+20
 15
-1.000000000000000E+20
 25
-1.000000000000000E+20
 35
-1.000000000000000E+20
146
0.0
 13
0.0
 23
0.0
 33
0.0
 16
1.0
 26
0.0
 36
0.0
 17
0.0
 27
1.0
 37
0.0
 76
     0
330
1F
331
29
  0
MATERIAL
  5
3D
102
{ACAD_REACTORS
330
3B
102
}
330
3B
100
AcDbMaterial
  1
ByBlock
 72
     1
 94
      127
  0
MATERIAL
  5
3C
102
{ACAD_REACTORS
330
3B
102
}
330
3B
100
AcDbMaterial
  1
ByLayer
 72
     1
 94
      127
  0
MATERIAL
  5
3E
102
{ACAD_REACTORS
330
3B
102
}
330
3B
100
AcDbMaterial
  1
Global
 72
     1
 94
      127
  0
MLINESTYLE
  5
18
102
{ACAD_REACTORS
330
17
102
}
330
17
100
AcDbMlineStyle
  2
Standard
 70
     0
  3

 62
   256
 51
90.0
 52
90.0
 71
     2
 49
0.5
 62
   256
  6
BYLAYER
 49
-0.5
 62
   256
  6
BYLAYER
  0
ACDBPLACEHOLDER
  5
F
102
{ACAD_REACTORS
330
E
102
}
330
E
  0
VISUALSTYLE
  5
2F
102
{ACAD_REACTORS
330
2A
102
}
330
2A
100
AcDbVisualStyle
  2
2dWireframe
 70
     4
177
     2
291
     0
 71
     0
176
     1
 72
     2
176
     1
 73
     0
176
     1
 90
        0
176
     1
 40
-0.6
176
     1
 41
-30.0
176
     1
 62
     5
 63
     7
421
 16777215
176
     1
 74
     1
176
     1
 91
        4
176
     1
 64
     7
176
     1
 65
   257
176
     1
 75
     1
176
     1
175
     1
176
     1
 42
1.0
176
     1
 92
        0
176
     1
 66
   257
176
     1
 43
1.0
176
     1
 76
     1
176
     1
 77
     6
176
     1
 78
     2
176
     1
 67
     7
176
     1
 79
     5
176
     1
170
     0
176
     1
171
     0
176
     1
290
     0
176
     1
 93
        1
176
     1
 44
0.0
176
     1
173
     0
176
     1
  0
VISUALSTYLE
  5
31
102
{ACAD_REACTORS
330
2A
102
}
330
2A
100
AcDbVisualStyle
  2
3D Hidden
 70
     6
177
     2
291
     0
 71
     1
176
     1
 72
     2
176
     1
 73
     2
176
     1
 90
        0
176
     1
 40
-0.6
176
     1
 41
-30.0
176
     1
 62
     5
 63
     7
421
 16777215
176
     1
 74
     2
176
     1
 91
        2
176
     1
 64
     7
176
     1
 65
   257
176
     1
 75
     2
176
     1
175
     1
176
     1
 42
40.0
176
     1
 92
        0
176
     1
 66
   257
176
     1
 43
1.0
176
     1
 76
     1
176
     1
 77
     6
176
     1
 78
     2
176
     1
 67
     7
176
     1
 79
     3
176
     1
170
     0
176
     1
171
     0
176
     1
290
     0
176
     1
 93
        1
176
     1
 44
0.0
176
     1
173
     0
176
     1
  0
VISUALSTYLE
  5
30
102
{ACAD_REACTORS
330
2A
102
}
330
2A
100
AcDbVisualStyle
  2
3dWireframe
 70
     5
177
     2
291
     0
 71
     0
176
     1
 72
     2
176
     1
 73
     0
176
     1
 90
        0
176
     1
 40
-0.6
176
     1
 41
-30.0
176
     1
 62
     5
 63
     7
421
 16777215
176
     1
 74
     1
176
     1
 91
        4
176
     1
 64
     7
176
     1
 65
   257
176
     1
 75
     1
176
     1
175
     1
176
     1
 42
1.0
176
     1
 92
        0
176
     1
 66
   257
176
     1
 43
1.0
176
     1
 76
     1
176
     1
 77
     6
176
     1
 78
     2
176
     1
 67
     7
176
     1
 79
     5
176
     1
170
     0
176
     1
171
     0
176
     1
290
     0
176
     1
 93
        1
176
     1
 44
0.0
176
     1
173
     0
176
     1
  0
VISUALSTYLE
  5
32
102
{ACAD_REACTORS
330
2A
102
}
330
2A
100
AcDbVisualStyle
  2
Basic
 70
     7
177
     2
291
     1
 71
     1
176
     1
 72
     0
176
     1
 73
     1
176
     1
 90
        0
176
     1
 40
-0.6
176
     1
 41
-30.0
176
     1
 62
     5
 63
     7
421
 16777215
176
     1
 74
     0
176
     1
 91
        4
176
     1
 64
     7
176
     1
 65
   257
176
     1
 75
     1
176
     1
175
     1
176
     1
 42
1.0
176
     1
 92
        8
176
     1
 66
     7
176
     1
 43
1.0
176
     1
 76
     1
176
     1
 77
     6
176
     1
 78
     2
176
     1
 67
     7
176
     1
 79
     5
176
     1
170
     0
176
     1
171
     0
176
     1
290
     0
176
     1
 93
        1
176
     1
 44
0.0
176
     1
173
     0
176
     1
  0
VISUALSTYLE
  5
36
102
{ACAD_REACTORS
330
2A
102
}
330
2A
100
AcDbVisualStyle
  2
Brighten
 70
    12
177
     2
291
     1
 71
     2
176
     1
 72
     2
176
     1
 73
     0
176
     1
 90
        0
176
     1
 40
-0.6
176
     1
 41
-30.0
176
     1
 62
     5
 63
     7
421
 16777215
176
     1
 74
     1
176
     1
 91
        4
176
     1
 64
     7
176
     1
 65
   257
176
     1
 75
     1
176
     1
175
     1
176
     1
 42
1.0
176
     1
 92
        8
176
     1
 66
     7
176
     1
 43
1.0
176
     1
 76
     1
176
     1
 77
     6
176
     1
 78
     2
176
     1
 67
     7
176
     1
 79
     5
176
     1
170
     0
176
     1
171
     0
176
     1
290
     0
176
     1
 93
        1
176
     1
 44
50.0
176
     1
173
     0
176
     1
  0
VISUALSTYLE
  5
3A
102
{ACAD_REACTORS
330
2A
102
}
330
2A
100
AcDbVisualStyle
  2
ColorChange
 70
    16
177
     2
291
     1
 71
     2
176
     1
 72
     2
176
     1
 73
     3
176
     1
 90
        0
176
     1
 40
-0.6
176
     1
 41
-30.0
176
     1
 62
     5
 63
     8
421
  8421504
176
     1
 74
     1
176
     1
 91
        4
176
     1
 64
     7
176
     1
 65
   257
176
     1
 75
     1
176
     1
175
     1
176
     1
 42
1.0
176
     1
 92
        8
176
     1
 66
     8
424
  8421504
176
     1
 43
1.0
176
     1
 76
     1
176
     1
 77
     6
176
     1
 78
     2
176
     1
 67
     7
176
     1
 79
     5
176
     1
170
     0
176
     1
171
     0
176
     1
290
     0
176
     1
 93
        1
176
     1
 44
0.0
176
     1
173
     0
176
     1
  0
VISUALSTYLE
  5
34
102
{ACAD_REACTORS
330
2A
102
}
330
2A
100
AcDbVisualStyle
  2
Conceptual
 70
     9
177
     2
291
     0
 71
     3
176
     1
 72
     2
176
     1
 73
     0
176
     1
 90
        0
176
     1
 40
-0.6
176
     1
 41
-30.0
176
     1
 62
     5
 63
     7
421
 16777215
176
     1
 74
     2
176
     1
 91
        2
176
     1
 64
     7
176
     1
 65
   257
176
     1
 75
     1
176
     1
175
     1
176
     1
 42
40.0
176
     1
 92
        8
176
     1
 66
     7
176
     1
 43
1.0
176
     1
 76
     1
176
     1
 77
     6
176
     1
 78
     2
176
     1
 67
     7
176
     1
 79
     3
176
     1
170
     0
176
     1
171
     0
176
     1
290
     0
176
     1
 93
        1
176
     1
 44
0.0
176
     1
173
     0
176
     1
  0
VISUALSTYLE
  5
35
102
{ACAD_REACTORS
330
2A
102
}
330
2A
100
AcDbVisualStyle
  2
Dim
 70
    11
177
     2
291
     1
 71
     2
176
     1
 72
     2
176
     1
 73
     0
176
     1
 90
        0
176
     1
 40
-0.6
176
     1
 41
-30.0
176
     1
 62
     5
 63
     7
421
 16777215
176
     1
 74
     1
176
     1
 91
        4
176
     1
 64
     7
176
     1
 65
   257
176
     1
 75
     1
176
     1
175
     1
176
     1
 42
1.0
176
     1
 92
        8
176
     1
 66
     7
176
     1
 43
1.0
176
     1
 76
     1
176
     1
 77
     6
176
     1
 78
     2
176
     1
 67
     7
176
     1
 79
     5
176
     1
170
     0
176
     1
171
     0
176
     1
290
     0
176
     1
 93
        1
176
     1
 44
-50.0
176
     1
173
     0
176
     1
  0
VISUALSTYLE
  5
39
102
{ACAD_REACTORS
330
2A
102
}
330
2A
100
AcDbVisualStyle
  2
Facepattern
 70
    15
177
     2
291
     1
 71
     2
176
     1
 72
     2
176
     1
 73
     0
176
     1
 90
        0
176
     1
 40
-0.6
176
     1
 41
-30.0
176
     1
 62
     5
 63
     7
421
 16777215
176
     1
 74
     1
176
     1
 91
        4
176
     1
 64
     7
176
     1
 65
   257
176
     1
 75
     1
176
     1
175
     1
176
     1
 42
1.0
176
     1
 92
        8
176
     1
 66
     7
176
     1
 43
1.0
176
     1
 76
     1
176
     1
 77
     6
176
     1
 78
     2
176
     1
 67
     7
176
     1
 79
     5
176
     1
170
     0
176
     1
171
     0
176
     1
290
     0
176
     1
 93
        1
176
     1
 44
0.0
176
     1
173
     0
176
     1
  0
VISUALSTYLE
  5
2B
102
{ACAD_REACTORS
330
2A
102
}
330
2A
100
AcDbVisualStyle
  2
Flat
 70
     0
177
     2
291
     1
 71
     2
176
     1
 72
     1
176
     1
 73
     1
176
     1
 90
        2
176
     1
 40
-0.6
176
     1
 41
30.0
176
     1
 62
     5
 63
     7
421
 16777215
176
     1
 74
     0
176
     1
 91
        4
176
     1
 64
     7
176
     1
 65
   257
176
     1
 75
     1
176
     1
175
     1
176
     1
 42
1.0
176
     1
 92
        8
176
     1
 66
     7
176
     1
 43
1.0
176
     1
 76
     1
176
     1
 77
     6
176
     1
 78
     2
176
     1
 67
     7
176
     1
 79
     5
176
     1
170
     0
176
     1
171
     0
176
     1
290
     0
176
     1
 93
       13
176
     1
 44
0.0
176
     1
173
     0
176
     1
  0
VISUALSTYLE
  5
2C
102
{ACAD_REACTORS
330
2A
102
}
330
2A
100
AcDbVisualStyle
  2
FlatWithEdges
 70
     1
177
     2
291
     1
 71
     2
176
     1
 72
     1
176
     1
 73
     1
176
     1
 90
        2
176
     1
 40
-0.6
176
     1
 41
30.0
176
     1
 62
     5
 63
     7
421
 16777215
176
     1
 74
     1
176
     1
 91
        4
176
     1
 64
     7
176
     1
 65
   257
176
     1
 75
     1
176
     1
175
     1
176
     1
 42
1.0
176
     1
 92
        0
176
     1
 66
   257
176
     1
 43
1.0
176
     1
 76
     1
176
     1
 77
     6
176
     1
 78
     2
176
     1
 67
     7
176
     1
 79
     5
176
     1
170
     0
176
     1
171
     0
176
     1
290
     0
176
     1
 93
       13
176
     1
 44
0.0
176
     1
173
     0
176
     1
  0
VISUALSTYLE
  5
2D
102
{ACAD_REACTORS
330
2A
102
}
330
2A
100
AcDbVisualStyle
  2
Gouraud
 70
     2
177
     2
291
     1
 71
     2
176
     1
 72
     2
176
     1
 73
     1
176
     1
 90
        2
176
     1
 40
-0.6
176
     1
 41
30.0
176
     1
 62
     5
 63
     7
421
 16777215
176
     1
 74
     0
176
     1
 91
        4
176
     1
 64
     7
176
     1
 65
   257
176
     1
 75
     1
176
     1
175
     1
176
     1
 42
1.0
176
     1
 92
        0
176
     1
 66
     7
176
     1
 43
1.0
176
     1
 76
     1
176
     1
 77
     6
176
     1
 78
     2
176
     1
 67
     7
176
     1
 79
     5
176
     1
170
     0
176
     1
171
     0
176
     1
290
     0
176
     1
 93
       13
176
     1
 44
0.0
176
     1
173
     0
176
     1
  0
VISUALSTYLE
  5
2E
102
{ACAD_REACTORS
330
2A
102
}
330
2A
100
AcDbVisualStyle
  2
GouraudWithEdges
 70
     3
177
     2
291
     1
 71
     2
176
     1
 72
     2
176
     1
 73
     1
176
     1
 90
        2
176
     1
 40
-0.6
176
     1
 41
30.0
176
     1
 62
     5
 63
     7
421
 16777215
176
     1
 74
     1
176
     1
 91
        4
176
     1
 64
     7
176
     1
 65
   257
176
     1
 75
     1
176
     1
175
     1
176
     1
 42
1.0
176
     1
 92
        0
176
     1
 66
   257
176
     1
 43
1.0
176
     1
 76
     1
176
     1
 77
     6
176
     1
 78
     2
176
     1
 67
     7
176
     1
 79
     5
176
     1
170
     0
176
     1
171
     0
176
     1
290
     0
176
     1
 93
       13
176
     1
 44
0.0
176
     1
173
     0
176
     1
  0
VISUALSTYLE
  5
38
102
{ACAD_REACTORS
330
2A
102
}
330
2A
100
AcDbVisualStyle
  2
Linepattern
 70
    14
177
     2
291
     1
 71
     2
176
     1
 72
     2
176
     1
 73
     0
176
     1
 90
        0
176
     1
 40
-0.6
176
     1
 41
-30.0
176
     1
 62
     5
 63
     7
421
 16777215
176
     1
 74
     1
176
     1
 91
        4
176
     1
 64
     7
176
     1
 65
   257
176
     1
 75
     7
176
     1
175
     7
176
     1
 42
1.0
176
     1
 92
        8
176
     1
 66
     7
176
     1
 43
1.0
176
     1
 76
     1
176
     1
 77
     6
176
     1
 78
     2
176
     1
 67
     7
176
     1
 79
     5
176
     1
170
     0
176
     1
171
     0
176
     1
290
     0
176
     1
 93
        1
176
     1
 44
0.0
176
     1
173
     0
176
     1
  0
VISUALSTYLE
  5
33
102
{ACAD_REACTORS
330
2A
102
}
330
2A
100
AcDbVisualStyle
  2
Realistic
 70
     8
177
     2
291
     0
 71
     2
176
     1
 72
     2
176
     1
 73
     0
176
     1
 90
        0
176
     1
 40
-0.6
176
     1
 41
-30.0
176
     1
 62
     5
 63
     7
421
 16777215
176
     1
 74
     1
176
     1
 91
        0
176
     1
 64
     7
176
     1
 65
   257
176
     1
 75
     1
176
     1
175
     1
176
     1
 42
1.0
176
     1
 92
        8
176
     1
 66
     8
424
  7895160
176
     1
 43
1.0
176
     1
 76
     1
176
     1
 77
     6
176
     1
 78
     2
176
     1
 67
     7
176
     1
 79
     5
176
     1
170
     0
176
     1
171
     0
176
     1
290
     0
176
     1
 93
       13
176
     1
 44
0.0
176
     1
173
     0
176
     1
  0
VISUALSTYLE
  5
37
102
{ACAD_REACTORS
330
2A
102
}
330
2A
100
AcDbVisualStyle
  2
Thicken
 70
    13
177
     2
291
     1
 71
     2
176
     1
 72
     2
176
     1
 73
     0
176
     1
 90
        0
176
     1
 40
-0.6
176
     1
 41
-30.0
176
     1
 62
     5
 63
     7
421
 16777215
176
     1
 74
     1
176
     1
 91
        4
176
     1
 64
     7
176
     1
 65
   257
176
     1
 75
     1
176
     1
175
     1
176
     1
 42
1.0
176
     1
 92
       12
176
     1
 66
     7
176
     1
 43
1.0
176
     1
 76
     1
176
     1
 77
     6
176
     1
 78
     2
176
     1
 67
     7
176
     1
 79
     5
176
     1
170
     0
176
     1
171
     0
176
     1
290
     0
176
     1
 93
        1
176
     1
 44
0.0
176
     1
173
     0
176
     1
  0
ENDSEC
  0
EOF
