  0
SECTION
  2
HEADER
  9
$ACADVER
  1
AC1024
  9
$ACADMAINTVER
 70
     6
  9
$DWGCODEPAGE
  3
UNDEFINED
  9
$INSBASE
 10
0.0
 20
0.0
 30
0.0
  9
$EXTMIN
 10
1.000000000000000E+20
 20
1.000000000000000E+20
 30
1.000000000000000E+20
  9
$EXTMAX
 10
-1.000000000000000E+20
 20
-1.000000000000000E+20
 30
-1.000000000000000E+20
  9
$LIMMIN
 10
0.0
 20
0.0
  9
$LIMMAX
 10
12.0
 20
9.0
  9
$ORTHOMODE
 70
     0
  9
$REGENMODE
 70
     1
  9
$FILLMODE
 70
     1
  9
$QTEXTMODE
 70
     0
  9
$MIRRTEXT
 70
     1
  9
$LTSCALE
 40
1.0
  9
$ATTMODE
 70
     1
  9
$TEXTSIZE
 40
0.2
  9
$TRACEWID
 40
0.05
  9
$TEXTSTYLE
  7
Standard
  9
$CLAYER
  8
0
  9
$CELTYPE
  6
ByLayer
  9
$CECOLOR
 62
   256
  9
$CELTSCALE
 40
1.0
  9
$DISPSILH
 70
     0
  9
$DIMSCALE
 40
1.0
  9
$DIMASZ
 40
0.18
  9
$DIMEXO
 40
0.0625
  9
$DIMDLI
 40
0.38
  9
$DIMRND
 40
0.0
  9
$DIMDLE
 40
0.0
  9
$DIMEXE
 40
0.18
  9
$DIMTP
 40
0.0
  9
$DIMTM
 40
0.0
  9
$DIMTXT
 40
0.18
  9
$DIMCEN
 40
0.09
  9
$DIMTSZ
 40
0.0
  9
$DIMTOL
 70
     0
  9
$DIMLIM
 70
     0
  9
$DIMTIH
 70
     1
  9
$DIMTOH
 70
     1
  9
$DIMSE1
 70
     0
  9
$DIMSE2
 70
     0
  9
$DIMTAD
 70
     0
  9
$DIMZIN
 70
     0
  9
$DIMBLK
  1

  9
$DIMASO
 70
     1
  9
$DIMSHO
 70
     1
  9
$DIMPOST
  1

  9
$DIMAPOST
  1

  9
$DIMALT
 70
     0
  9
$DIMALTD
 70
     2
  9
$DIMALTF
 40
25.4
  9
$DIMLFAC
 40
1.0
  9
$DIMTOFL
 70
     0
  9
$DIMTVP
 40
0.0
  9
$DIMTIX
 70
     0
  9
$DIMSOXD
 70
     0
  9
$DIMSAH
 70
     0
  9
$DIMBLK1
  1

  9
$DIMBLK2
  1

  9
$DIMSTYLE
  2
Standard
  9
$DIMCLRD
 70
     0
  9
$DIMCLRE
 70
     0
  9
$DIMCLRT
 70
     0
  9
$DIMTFAC
 40
1.0
  9
$DIMGAP
 40
0.09
  9
$DIMJUST
 70
     0
  9
$DIMSD1
 70
     0
  9
$DIMSD2
 70
     0
  9
$DIMTOLJ
 70
     1
  9
$DIMTZIN
 70
     0
  9
$DIMALTZ
 70
     0
  9
$DIMALTTZ
 70
     0
  9
$DIMUPT
 70
     0
  9
$DIMDEC
 70
     4
  9
$DIMTDEC
 70
     4
  9
$DIMALTU
 70
     2
  9
$DIMALTTD
 70
     2
  9
$DIMTXSTY
  7
Standard
  9
$DIMAUNIT
 70
     0
  9
$DIMADEC
 70
     0
  9
$DIMALTRND
 40
0.0
  9
$DIMAZIN
 70
     0
  9
$DIMDSEP
 70
    46
  9
$DIMATFIT
 70
     3
  9
$DIMFRAC
 70
     0
  9
$DIMLDRBLK
  1

  9
$DIMLUNIT
 70
     2
  9
$DIMLWD
 70
    -2
  9
$DIMLWE
 70
    -2
  9
$DIMTMOVE
 70
     0
  9
$DIMFXL
 40
1.0
  9
$DIMFXLON
 70
     0
  9
$DIMJOGANG
 40
0.7853981633974483
  9
$DIMTFILL
 70
     0
  9
$DIMTFILLCLR
 70
     0
  9
$DIMARCSYM
 70
     0
  9
$DIMLTYPE
  6

  9
$DIMLTEX1
  6

  9
$DIMLTEX2
  6

  9
$DIMTXTDIRECTION
 70
     0
  9
$LUNITS
 70
     2
  9
$LUPREC
 70
     4
  9
$SKETCHINC
 40
0.1
  9
$FILLETRAD
 40
0.5
  9
$AUNITS
 70
     0
  9
$AUPREC
 70
     0
  9
$MENU
  1
.
  9
$ELEVATION
 40
0.0
  9
$PELEVATION
 40
0.0
  9
$THICKNESS
 40
0.0
  9
$LIMCHECK
 70
     0
  9
$CHAMFERA
 40
0.5
  9
$CHAMFERB
 40
0.5
  9
$CHAMFERC
 40
1.0
  9
$CHAMFERD
 40
0.0
  9
$SKPOLY
 70
     0
  9
$TDCREATE
 40
2457917.622696748
  9
$TDUCREATE
 40
2457917.247696759
  9
$TDUPDATE
 40
2457917.622708322
  9
$TDUUPDATE
 40
2457917.247708333
  9
$TDINDWG
 40
0.0000000116
  9
$TDUSRTIMER
 40
0.0000000116
  9
$USRTIMER
 70
     1
  9
$ANGBASE
 50
0.0
  9
$ANGDIR
 70
     0
  9
$PDMODE
 70
     0
  9
$PDSIZE
 40
0.0
  9
$PLINEWID
 40
0.0
  9
$SPLFRAME
 70
     0
  9
$SPLINETYPE
 70
     6
  9
$SPLINESEGS
 70
     8
  9
$HANDSEED
  5
11B
  9
$SURFTAB1
 70
     6
  9
$SURFTAB2
 70
     6
  9
$SURFTYPE
 70
     6
  9
$SURFU
 70
     6
  9
$SURFV
 70
     6
  9
$UCSBASE
  2

  9
$UCSNAME
  2

  9
$UCSORG
 10
0.0
 20
0.0
 30
0.0
  9
$UCSXDIR
 10
1.0
 20
0.0
 30
0.0
  9
$UCSYDIR
 10
0.0
 20
1.0
 30
0.0
  9
$UCSORTHOREF
  2

  9
$UCSORTHOVIEW
 70
     0
  9
$UCSORGTOP
 10
0.0
 20
0.0
 30
0.0
  9
$UCSORGBOTTOM
 10
0.0
 20
0.0
 30
0.0
  9
$UCSORGLEFT
 10
0.0
 20
0.0
 30
0.0
  9
$UCSORGRIGHT
 10
0.0
 20
0.0
 30
0.0
  9
$UCSORGFRONT
 10
0.0
 20
0.0
 30
0.0
  9
$UCSORGBACK
 10
0.0
 20
0.0
 30
0.0
  9
$PUCSBASE
  2

  9
$PUCSNAME
  2

  9
$PUCSORG
 10
0.0
 20
0.0
 30
0.0
  9
$PUCSXDIR
 10
1.0
 20
0.0
 30
0.0
  9
$PUCSYDIR
 10
0.0
 20
1.0
 30
0.0
  9
$PUCSORTHOREF
  2

  9
$PUCSORTHOVIEW
 70
     0
  9
$PUCSORGTOP
 10
0.0
 20
0.0
 30
0.0
  9
$PUCSORGBOTTOM
 10
0.0
 20
0.0
 30
0.0
  9
$PUCSORGLEFT
 10
0.0
 20
0.0
 30
0.0
  9
$PUCSORGRIGHT
 10
0.0
 20
0.0
 30
0.0
  9
$PUCSORGFRONT
 10
0.0
 20
0.0
 30
0.0
  9
$PUCSORGBACK
 10
0.0
 20
0.0
 30
0.0
  9
$USERI1
 70
     0
  9
$USERI2
 70
     0
  9
$USERI3
 70
     0
  9
$USERI4
 70
     0
  9
$USERI5
 70
     0
  9
$USERR1
 40
0.0
  9
$USERR2
 40
0.0
  9
$USERR3
 40
0.0
  9
$USERR4
 40
0.0
  9
$USERR5
 40
0.0
  9
$WORLDVIEW
 70
     1
  9
$SHADEDGE
 70
     3
  9
$SHADEDIF
 70
    70
  9
$TILEMODE
 70
     1
  9
$MAXACTVP
 70
    64
  9
$PINSBASE
 10
0.0
 20
0.0
 30
0.0
  9
$PLIMCHECK
 70
     0
  9
$PEXTMIN
 10
1.000000000000000E+20
 20
1.000000000000000E+20
 30
1.000000000000000E+20
  9
$PEXTMAX
 10
-1.000000000000000E+20
 20
-1.000000000000000E+20
 30
-1.000000000000000E+20
  9
$PLIMMIN
 10
0.0
 20
0.0
  9
$PLIMMAX
 10
12.0
 20
9.0
  9
$UNITMODE
 70
     0
  9
$VISRETAIN
 70
     1
  9
$PLINEGEN
 70
     0
  9
$PSLTSCALE
 70
     1
  9
$TREEDEPTH
 70
  3020
  9
$CMLSTYLE
  2
Standard
  9
$CMLJUST
 70
     0
  9
$CMLSCALE
 40
1.0
  9
$PROXYGRAPHICS
 70
     1
  9
$MEASUREMENT
 70
     0
  9
$CELWEIGHT
370
    -1
  9
$ENDCAPS
280
     0
  9
$JOINSTYLE
280
     0
  9
$LWDISPLAY
290
     1
  9
$INSUNITS
 70
     1
  9
$HYPERLINKBASE
  1

  9
$STYLESHEET
  1

  9
$XEDIT
290
     1
  9
$CEPSNTYPE
380
     0
  9
$PSTYLEMODE
290
     1
  9
$FINGERPRINTGUID
  2
{6248E782-B1E3-D7FA-406D-38128AE6629A}
  9
$VERSIONGUID
  2
{FAEB1C32-E019-11D5-929B-00C0DF256EC4}
  9
$EXTNAMES
290
     1
  9
$PSVPSCALE
 40
0.0
  9
$OLESTARTUP
290
     0
  9
$SORTENTS
280
   127
  9
$INDEXCTL
280
     0
  9
$HIDETEXT
280
     1
  9
$XCLIPFRAME
280
     2
  9
$HALOGAP
280
     0
  9
$OBSCOLOR
 70
   257
  9
$OBSLTYPE
280
     0
  9
$INTERSECTIONDISPLAY
280
     0
  9
$INTERSECTIONCOLOR
 70
   257
  9
$DIMASSOC
280
     2
  9
$PROJECTNAME
  1

  9
$CAMERADISPLAY
290
     0
  9
$LENSLENGTH
 40
50.0
  9
$CAMERAHEIGHT
 40
0.0
  9
$STEPSPERSEC
 40
2.0
  9
$STEPSIZE
 40
6.0
  9
$3DDWFPREC
 40
2.0
  9
$PSOLWIDTH
 40
0.25
  9
$PSOLHEIGHT
 40
4.0
  9
$LOFTANG1
 40
1.570796326794897
  9
$LOFTANG2
 40
1.570796326794897
  9
$LOFTMAG1
 40
0.0
  9
$LOFTMAG2
 40
0.0
  9
$LOFTPARAM
 70
     7
  9
$LOFTNORMALS
280
     1
  9
$LATITUDE
 40
37.795
  9
$LONGITUDE
 40
-122.394
  9
$NORTHDIRECTION
 40
0.0
  9
$TIMEZONE
 70
 -8000
  9
$LIGHTGLYPHDISPLAY
280
     1
  9
$TILEMODELIGHTSYNCH
280
     1
  9
$CMATERIAL
347
3C
  9
$SOLIDHIST
280
     1
  9
$SHOWHIST
280
     1
  9
$DWFFRAME
280
     2
  9
$DGNFRAME
280
     2
  9
$REALWORLDSCALE
290
     1
  9
$INTERFERECOLOR
 62
   256
  9
$CSHADOW
280
     0
  9
$SHADOWPLANELOCATION
 40
0.0
  0
ENDSEC
  0
SECTION
  2
CLASSES
  0
CLASS
  1
ACDBDICTIONARYWDFLT
  2
AcDbDictionaryWithDefault
  3
ObjectDBX Classes
 90
        0
 91
        4
280
     0
281
     0
  0
CLASS
  1
VISUALSTYLE
  2
AcDbVisualStyle
  3
ObjectDBX Classes
 90
     4095
 91
        4
280
     0
281
     0
  0
CLASS
  1
MATERIAL
  2
AcDbMaterial
  3
ObjectDBX Classes
 90
     1153
 91
        4
280
     0
281
     0
  0
CLASS
  1
SUN
  2
AcDbSun
  3
SCENEOE
 90
     1024
 91
        4
280
     0
281
     0
  0
ENDSEC
  0
SECTION
  2
TABLES
  0
TABLE
  2
VPORT
  5
8
330
0
100
AcDbSymbolTable
 70
     1
  0
VPORT
  5
29
330
8
100
AcDbSymbolTableRecord
100
AcDbViewportTableRecord
  2
*Active
 70
     0
 10
0.0
 20
0.0
 11
1.0
 21
1.0
 12
0.0
 22
0.0
 13
0.0
 23
0.0
 14
0.5
 24
0.5
 15
0.5
 25
0.5
 16
0.0
 26
0.0
 36
1.0
 17
91.00082462281999
 27
-128.4993055234307
 37
0.0
 40
256.9986110468615
 41
0.7081814508812795
 42
50.0
 43
0.0
 44
0.0
 50
0.0
 51
0.0
 71
     0
 72
   100
 73
     1
 74
     3
 75
     0
 76
     0
 77
     0
 78
     0
281
     0
 65
     1
110
0.0
120
0.0
130
0.0
111
1.0
121
0.0
131
0.0
112
0.0
122
1.0
132
0.0
 79
     0
146
0.0
 60
     3
 61
     5
292
     1
282
     1
141
0.0
142
0.0
 63
   250
361
3F
  0
ENDTAB
  0
TABLE
  2
LTYPE
  5
5
330
0
100
AcDbSymbolTable
 70
     1
  0
LTYPE
  5
14
330
5
100
AcDbSymbolTableRecord
100
AcDbLinetypeTableRecord
  2
ByBlock
 70
     0
  3

 72
    65
 73
     0
 40
0.0
  0
LTYPE
  5
15
330
5
100
AcDbSymbolTableRecord
100
AcDbLinetypeTableRecord
  2
ByLayer
 70
     0
  3

 72
    65
 73
     0
 40
0.0
  0
LTYPE
  5
16
330
5
100
AcDbSymbolTableRecord
100
AcDbLinetypeTableRecord
  2
Continuous
 70
     0
  3
Solid line
 72
    65
 73
     0
 40
0.0
  0
ENDTAB
  0
TABLE
  2
LAYER
  5
2
330
0
100
AcDbSymbolTable
 70
     2
  0
LAYER
  5
10
330
2
100
AcDbSymbolTableRecord
100
AcDbLayerTableRecord
  2
0
 70
     0
 62
     7
  6
Continuous
370
    -3
390
F
347
3E
  0
LAYER
  5
40
330
2
100
AcDbSymbolTableRecord
100
AcDbLayerTableRecord
  2
_U+30EC_U+30A4_U+30E4_U+30FC 1
 70
     0
 62
     7
  6
Continuous
370
    -3
390
F
347
3E
  0
ENDTAB
  0
TABLE
  2
STYLE
  5
3
330
0
100
AcDbSymbolTable
 70
     1
  0
STYLE
  5
11
330
3
100
AcDbSymbolTableRecord
100
AcDbTextStyleTableRecord
  2
Standard
 70
     0
 40
0.0
 41
1.0
 50
0.0
 71
     0
 42
0.2
  3
txt
  4

  0
ENDTAB
  0
TABLE
  2
VIEW
  5
6
330
0
100
AcDbSymbolTable
 70
     0
  0
ENDTAB
  0
TABLE
  2
UCS
  5
7
330
0
100
AcDbSymbolTable
 70
     0
  0
ENDTAB
  0
TABLE
  2
APPID
  5
9
330
0
100
AcDbSymbolTable
 70
     1
  0
APPID
  5
12
330
9
100
AcDbSymbolTableRecord
100
AcDbRegAppTableRecord
  2
ACAD
 70
     0
  0
ENDTAB
  0
TABLE
  2
DIMSTYLE
  5
A
330
0
100
AcDbSymbolTable
 70
     1
100
AcDbDimStyleTable
  0
DIMSTYLE
105
27
330
A
100
AcDbSymbolTableRecord
100
AcDbDimStyleTableRecord
  2
Standard
 70
     0
178
     0
340
11
  0
ENDTAB
  0
TABLE
  2
BLOCK_RECORD
  5
1
330
0
100
AcDbSymbolTable
 70
     7
  0
BLOCK_RECORD
  5
1F
330
1
100
AcDbSymbolTableRecord
100
AcDbBlockTableRecord
  2
*Model_Space
340
22
 70
     0
280
     1
281
     0
  0
BLOCK_RECORD
  5
1B
330
1
100
AcDbSymbolTableRecord
100
AcDbBlockTableRecord
  2
*Paper_Space
340
1E
 70
     0
280
     1
281
     0
  0
BLOCK_RECORD
  5
23
330
1
100
AcDbSymbolTableRecord
100
AcDbBlockTableRecord
  2
*Paper_Space0
340
26
 70
     0
280
     1
281
     0
  0
BLOCK_RECORD
  5
A4
330
1
100
AcDbSymbolTableRecord
100
AcDbBlockTableRecord
  2
block 2
340
0
102
{BLKREFS
331
A5
102
}
 70
     0
280
     1
281
     0
  0
BLOCK_RECORD
  5
B4
330
1
100
AcDbSymbolTableRecord
100
AcDbBlockTableRecord
  2
block 3
340
0
102
{BLKREFS
331
B5
102
}
 70
     0
280
     1
281
     0
  0
BLOCK_RECORD
  5
C4
330
1
100
AcDbSymbolTableRecord
100
AcDbBlockTableRecord
  2
block 4
340
0
102
{BLKREFS
331
C5
102
}
 70
     0
280
     1
281
     0
  0
BLOCK_RECORD
  5
DC
330
1
100
AcDbSymbolTableRecord
100
AcDbBlockTableRecord
  2
block 5
340
0
102
{BLKREFS
331
DD
102
}
 70
     0
280
     1
281
     0
  0
BLOCK_RECORD
  5
F4
330
1
100
AcDbSymbolTableRecord
100
AcDbBlockTableRecord
  2
block 6
340
0
102
{BLKREFS
331
F5
102
}
 70
     0
280
     1
281
     0
  0
BLOCK_RECORD
  5
113
330
1
100
AcDbSymbolTableRecord
100
AcDbBlockTableRecord
  2
block 7
340
0
102
{BLKREFS
331
114
102
}
 70
     0
280
     1
281
     0
  0
ENDTAB
  0
ENDSEC
  0
SECTION
  2
BLOCKS
  0
BLOCK
  5
20
330
1F
100
AcDbEntity
  8
0
100
AcDbBlockBegin
  2
*Model_Space
 70
     0
 10
0.0
 20
0.0
 30
0.0
  3
*Model_Space
  1

  0
ENDBLK
  5
21
330
1F
100
AcDbEntity
  8
0
100
AcDbBlockEnd
  0
BLOCK
  5
1C
330
1B
100
AcDbEntity
 67
     1
  8
0
100
AcDbBlockBegin
  2
*Paper_Space
 70
     0
 10
0.0
 20
0.0
 30
0.0
  3
*Paper_Space
  1

  0
ENDBLK
  5
1D
330
1B
100
AcDbEntity
 67
     1
  8
0
100
AcDbBlockEnd
  0
BLOCK
  5
24
330
23
100
AcDbEntity
  8
0
100
AcDbBlockBegin
  2
*Paper_Space0
 70
     0
 10
0.0
 20
0.0
 30
0.0
  3
*Paper_Space0
  1

  0
ENDBLK
  5
25
330
23
100
AcDbEntity
  8
0
100
AcDbBlockEnd
  0
BLOCK
  5
A6
330
A4
100
AcDbEntity
  8
0
100
AcDbBlockBegin
  2
block 2
 70
     0
 10
0.0
 20
0.0
 30
0.0
  3
block 2
  1

  0
SPLINE
  5
A8
330
A4
100
AcDbEntity
  8
_U+30EC_U+30A4_U+30E4_U+30FC 1
370
     0
100
AcDbSpline
210
0.0
220
0.0
230
1.0
 70
    11
 71
     3
 72
    29
 73
    25
 74
     0
 42
0.0000000001
 43
0.0000000001
 12
1.0
 22
0.0
 32
0.0
 13
1.0
 23
0.0
 33
0.0
 40
0.0
 40
0.0
 40
0.0
 40
0.0
 40
1.0
 40
1.0
 40
1.0
 40
2.0
 40
2.0
 40
2.0
 40
3.0
 40
3.0
 40
3.0
 40
4.0
 40
4.0
 40
4.0
 40
5.0
 40
5.0
 40
5.0
 40
6.0
 40
6.0
 40
6.0
 40
7.0
 40
7.0
 40
7.0
 40
8.0
 40
8.0
 40
8.0
 40
8.0
 10
80.38734128849691
 20
-124.5687960843092
 30
0.0
 10
80.12086315271284
 20
-124.5687960843092
 30
0.0
 10
79.86695961544993
 20
-124.4311645196735
 30
0.0
 10
79.86695961544993
 20
-124.0821763470177
 30
0.0
 10
79.86695961544993
 20
-123.8262057524636
 30
0.0
 10
80.00872529466795
 20
-123.7309488622964
 30
0.0
 10
80.11448972606513
 20
-123.669626162659
 30
0.0
 10
79.98960501472483
 20
-123.6103705203127
 30
0.0
 10
79.9134684045008
 20
-123.4961656049767
 30
0.0
 10
79.9134684045008
 20
-123.3354519005898
 30
0.0
 10
79.9134684045008
 20
-123.0603610260926
 30
0.0
 10
80.11242266877399
 20
-122.9249687735222
 30
0.0
 10
80.38734128849691
 20
-122.9249687735222
 30
0.0
 10
80.67087264693298
 20
-122.9249687735222
 30
0.0
 10
80.86121417249304
 20
-123.0688015100314
 30
0.0
 10
80.86121417249304
 20
-123.3354519005898
 30
0.0
 10
80.86121417249304
 20
-123.4961656049767
 30
0.0
 10
80.78301050497787
 20
-123.6103705203127
 30
0.0
 10
80.65812579363755
 20
-123.669626162659
 30
0.0
 10
80.747009257157
 20
-123.7204413210664
 30
0.0
 10
80.90565590425275
 20
-123.8156982112336
 30
0.0
 10
80.90565590425275
 20
-124.0778699776611
 30
0.0
 10
80.90565590425275
 20
-124.4523518569078
 30
0.0
 10
80.62643091517326
 20
-124.5687960843092
 30
0.0
 10
80.38734128849691
 20
-124.5687960843092
 30
0.0
  0
SPLINE
  5
A9
330
A4
100
AcDbEntity
  8
_U+30EC_U+30A4_U+30E4_U+30FC 1
370
     0
100
AcDbSpline
210
0.0
220
0.0
230
1.0
 70
    11
 71
     3
 72
    17
 73
    13
 74
     0
 42
0.0000000001
 43
0.0000000001
 12
1.0
 22
0.0
 32
0.0
 13
1.0
 23
0.0
 33
0.0
 40
0.0
 40
0.0
 40
0.0
 40
0.0
 40
1.0
 40
1.0
 40
1.0
 40
2.0
 40
2.0
 40
2.0
 40
3.0
 40
3.0
 40
3.0
 40
4.0
 40
4.0
 40
4.0
 40
4.0
 10
80.38734128849691
 20
-123.7776299061216
 30
0.0
 10
80.24350855198774
 20
-123.7776299061216
 30
0.0
 10
80.09123533153969
 20
-123.8642740575756
 30
0.0
 10
80.09123533153969
 20
-124.0673624364311
 30
0.0
 10
80.09123533153969
 20
-124.2725178725777
 30
0.0
 10
80.21818710017115
 20
-124.3741481893926
 30
0.0
 10
80.38734128849691
 20
-124.3741481893926
 30
0.0
 10
80.57354869947467
 20
-124.3741481893926
 30
0.0
 10
80.6836195002284
 20
-124.2515027901177
 30
0.0
 10
80.6836195002284
 20
-124.0737358630788
 30
0.0
 10
80.6836195002284
 20
-123.8515272042802
 30
0.0
 10
80.52066648377608
 20
-123.7776299061216
 30
0.0
 10
80.38734128849691
 20
-123.7776299061216
 30
0.0
  0
SPLINE
  5
AA
330
A4
100
AcDbEntity
  8
_U+30EC_U+30A4_U+30E4_U+30FC 1
370
     0
100
AcDbSpline
210
0.0
220
0.0
230
1.0
 70
    11
 71
     3
 72
    17
 73
    13
 74
     0
 42
0.0000000001
 43
0.0000000001
 12
1.0
 22
0.0
 32
0.0
 13
1.0
 23
0.0
 33
0.0
 40
0.0
 40
0.0
 40
0.0
 40
0.0
 40
1.0
 40
1.0
 40
1.0
 40
2.0
 40
2.0
 40
2.0
 40
3.0
 40
3.0
 40
3.0
 40
4.0
 40
4.0
 40
4.0
 40
4.0
 10
80.38734128849691
 20
-123.1175496111477
 30
0.0
 10
80.22232121475345
 20
-123.1175496111477
 30
0.0
 10
80.13774412059057
 20
-123.2126342465406
 30
0.0
 10
80.13774412059057
 20
-123.3480264991109
 30
0.0
 10
80.13774412059057
 20
-123.4708441531601
 30
0.0
 10
80.2097466162323
 20
-123.5893554378527
 30
0.0
 10
80.38734128849691
 20
-123.5893554378527
 30
0.0
 10
80.56510821553582
 20
-123.5893554378527
 30
0.0
 10
80.63693845640327
 20
-123.4708441531601
 30
0.0
 10
80.63693845640327
 20
-123.3480264991109
 30
0.0
 10
80.63693845640327
 20
-123.2126342465406
 30
0.0
 10
80.55029430494923
 20
-123.1175496111477
 30
0.0
 10
80.38734128849691
 20
-123.1175496111477
 30
0.0
  0
HATCH
  5
AB
330
A4
100
AcDbEntity
  8
_U+30EC_U+30A4_U+30E4_U+30FC 1
 62
   179
420
  2234388
100
AcDbHatch
 10
0.0
 20
0.0
 30
0.0
210
0.0
220
0.0
230
1.0
  2
SOLID
 70
     1
 71
     0
 91
        3
 92
        1
 93
        1
 72
     4
 94
        3
 73
     0
 74
     1
 95
       29
 96
       25
 40
0.0
 40
0.0
 40
0.0
 40
0.0
 40
1.0
 40
1.0
 40
1.0
 40
2.0
 40
2.0
 40
2.0
 40
3.0
 40
3.0
 40
3.0
 40
4.0
 40
4.0
 40
4.0
 40
5.0
 40
5.0
 40
5.0
 40
6.0
 40
6.0
 40
6.0
 40
7.0
 40
7.0
 40
7.0
 40
8.0
 40
8.0
 40
8.0
 40
8.0
 10
80.38734128849691
 20
-124.5687960843092
 10
80.12086315271284
 20
-124.5687960843092
 10
79.86695961544993
 20
-124.4311645196735
 10
79.86695961544993
 20
-124.0821763470177
 10
79.86695961544993
 20
-123.8262057524636
 10
80.00872529466795
 20
-123.7309488622964
 10
80.11448972606513
 20
-123.669626162659
 10
79.98960501472483
 20
-123.6103705203127
 10
79.9134684045008
 20
-123.4961656049767
 10
79.9134684045008
 20
-123.3354519005898
 10
79.9134684045008
 20
-123.0603610260926
 10
80.11242266877399
 20
-122.9249687735222
 10
80.38734128849691
 20
-122.9249687735222
 10
80.67087264693298
 20
-122.9249687735222
 10
80.86121417249304
 20
-123.0688015100314
 10
80.86121417249304
 20
-123.3354519005898
 10
80.86121417249304
 20
-123.4961656049767
 10
80.78301050497787
 20
-123.6103705203127
 10
80.65812579363755
 20
-123.669626162659
 10
80.747009257157
 20
-123.7204413210664
 10
80.90565590425275
 20
-123.8156982112336
 10
80.90565590425275
 20
-124.0778699776611
 10
80.90565590425275
 20
-124.4523518569078
 10
80.62643091517326
 20
-124.5687960843092
 10
80.38734128849691
 20
-124.5687960843092
 97
        0
 97
        0
 92
        1
 93
        1
 72
     4
 94
        3
 73
     0
 74
     1
 95
       17
 96
       13
 40
0.0
 40
0.0
 40
0.0
 40
0.0
 40
1.0
 40
1.0
 40
1.0
 40
2.0
 40
2.0
 40
2.0
 40
3.0
 40
3.0
 40
3.0
 40
4.0
 40
4.0
 40
4.0
 40
4.0
 10
80.38734128849691
 20
-123.7776299061216
 10
80.24350855198774
 20
-123.7776299061216
 10
80.09123533153969
 20
-123.8642740575756
 10
80.09123533153969
 20
-124.0673624364311
 10
80.09123533153969
 20
-124.2725178725777
 10
80.21818710017115
 20
-124.3741481893926
 10
80.38734128849691
 20
-124.3741481893926
 10
80.57354869947467
 20
-124.3741481893926
 10
80.6836195002284
 20
-124.2515027901177
 10
80.6836195002284
 20
-124.0737358630788
 10
80.6836195002284
 20
-123.8515272042802
 10
80.52066648377608
 20
-123.7776299061216
 10
80.38734128849691
 20
-123.7776299061216
 97
        0
 97
        0
 92
        1
 93
        1
 72
     4
 94
        3
 73
     0
 74
     1
 95
       17
 96
       13
 40
0.0
 40
0.0
 40
0.0
 40
0.0
 40
1.0
 40
1.0
 40
1.0
 40
2.0
 40
2.0
 40
2.0
 40
3.0
 40
3.0
 40
3.0
 40
4.0
 40
4.0
 40
4.0
 40
4.0
 10
80.38734128849691
 20
-123.1175496111477
 10
80.22232121475345
 20
-123.1175496111477
 10
80.13774412059057
 20
-123.2126342465406
 10
80.13774412059057
 20
-123.3480264991109
 10
80.13774412059057
 20
-123.4708441531601
 10
80.2097466162323
 20
-123.5893554378527
 10
80.38734128849691
 20
-123.5893554378527
 10
80.56510821553582
 20
-123.5893554378527
 10
80.63693845640327
 20
-123.4708441531601
 10
80.63693845640327
 20
-123.3480264991109
 10
80.63693845640327
 20
-123.2126342465406
 10
80.55029430494923
 20
-123.1175496111477
 10
80.38734128849691
 20
-123.1175496111477
 97
        0
 97
        0
 75
     2
 76
     1
 98
        0
  0
ENDBLK
  5
A7
330
A4
100
AcDbEntity
  8
0
100
AcDbBlockEnd
  0
BLOCK
  5
B6
330
B4
100
AcDbEntity
  8
0
100
AcDbBlockBegin
  2
block 3
 70
     0
 10
0.0
 20
0.0
 30
0.0
  3
block 3
  1

  0
SPLINE
  5
B8
330
B4
100
AcDbEntity
  8
_U+30EC_U+30A4_U+30E4_U+30FC 1
370
     0
100
AcDbSpline
210
0.0
220
0.0
230
1.0
 70
    11
 71
     3
 72
    29
 73
    25
 74
     0
 42
0.0000000001
 43
0.0000000001
 12
1.0
 22
0.0
 32
0.0
 13
1.0
 23
0.0
 33
0.0
 40
0.0
 40
0.0
 40
0.0
 40
0.0
 40
1.0
 40
1.0
 40
1.0
 40
2.0
 40
2.0
 40
2.0
 40
3.0
 40
3.0
 40
3.0
 40
4.0
 40
4.0
 40
4.0
 40
5.0
 40
5.0
 40
5.0
 40
6.0
 40
6.0
 40
6.0
 40
7.0
 40
7.0
 40
7.0
 40
8.0
 40
8.0
 40
8.0
 40
8.0
 10
88.38736976956983
 20
-124.5687960843092
 30
0.0
 10
88.12089163378576
 20
-124.5687960843092
 30
0.0
 10
87.86698809652285
 20
-124.4311645196735
 30
0.0
 10
87.86698809652285
 20
-124.0821763470177
 30
0.0
 10
87.86698809652285
 20
-123.8262057524636
 30
0.0
 10
88.00875377574087
 20
-123.7309488622964
 30
0.0
 10
88.11451820713805
 20
-123.669626162659
 30
0.0
 10
87.98963349579773
 20
-123.6103705203127
 30
0.0
 10
87.91349688557371
 20
-123.4961656049767
 30
0.0
 10
87.91349688557371
 20
-123.3354519005898
 30
0.0
 10
87.91349688557371
 20
-123.0603610260926
 30
0.0
 10
88.11245114984689
 20
-122.9249687735222
 30
0.0
 10
88.38736976956983
 20
-122.9249687735222
 30
0.0
 10
88.6709011280059
 20
-122.9249687735222
 30
0.0
 10
88.86124265356594
 20
-123.0688015100314
 30
0.0
 10
88.86124265356594
 20
-123.3354519005898
 30
0.0
 10
88.86124265356594
 20
-123.4961656049767
 30
0.0
 10
88.78303898605077
 20
-123.6103705203127
 30
0.0
 10
88.65815427471047
 20
-123.669626162659
 30
0.0
 10
88.7470377382299
 20
-123.7204413210664
 30
0.0
 10
88.90568438532567
 20
-123.8156982112336
 30
0.0
 10
88.90568438532567
 20
-124.0778699776611
 30
0.0
 10
88.90568438532567
 20
-124.4523518569078
 30
0.0
 10
88.62645939624616
 20
-124.5687960843092
 30
0.0
 10
88.38736976956983
 20
-124.5687960843092
 30
0.0
  0
SPLINE
  5
B9
330
B4
100
AcDbEntity
  8
_U+30EC_U+30A4_U+30E4_U+30FC 1
370
     0
100
AcDbSpline
210
0.0
220
0.0
230
1.0
 70
    11
 71
     3
 72
    17
 73
    13
 74
     0
 42
0.0000000001
 43
0.0000000001
 12
1.0
 22
0.0
 32
0.0
 13
1.0
 23
0.0
 33
0.0
 40
0.0
 40
0.0
 40
0.0
 40
0.0
 40
1.0
 40
1.0
 40
1.0
 40
2.0
 40
2.0
 40
2.0
 40
3.0
 40
3.0
 40
3.0
 40
4.0
 40
4.0
 40
4.0
 40
4.0
 10
88.38736976956983
 20
-123.7776299061216
 30
0.0
 10
88.24353703306065
 20
-123.7776299061216
 30
0.0
 10
88.09126381261261
 20
-123.8642740575756
 30
0.0
 10
88.09126381261261
 20
-124.0673624364311
 30
0.0
 10
88.09126381261261
 20
-124.2725178725777
 30
0.0
 10
88.21821558124407
 20
-124.3741481893926
 30
0.0
 10
88.38736976956983
 20
-124.3741481893926
 30
0.0
 10
88.57357718054759
 20
-124.3741481893926
 30
0.0
 10
88.68364798130132
 20
-124.2515027901177
 30
0.0
 10
88.68364798130132
 20
-124.0737358630788
 30
0.0
 10
88.68364798130132
 20
-123.8515272042802
 30
0.0
 10
88.520694964849
 20
-123.7776299061216
 30
0.0
 10
88.38736976956983
 20
-123.7776299061216
 30
0.0
  0
SPLINE
  5
BA
330
B4
100
AcDbEntity
  8
_U+30EC_U+30A4_U+30E4_U+30FC 1
370
     0
100
AcDbSpline
210
0.0
220
0.0
230
1.0
 70
    11
 71
     3
 72
    17
 73
    13
 74
     0
 42
0.0000000001
 43
0.0000000001
 12
1.0
 22
0.0
 32
0.0
 13
1.0
 23
0.0
 33
0.0
 40
0.0
 40
0.0
 40
0.0
 40
0.0
 40
1.0
 40
1.0
 40
1.0
 40
2.0
 40
2.0
 40
2.0
 40
3.0
 40
3.0
 40
3.0
 40
4.0
 40
4.0
 40
4.0
 40
4.0
 10
88.38736976956983
 20
-123.1175496111477
 30
0.0
 10
88.22234969582637
 20
-123.1175496111477
 30
0.0
 10
88.13777260166347
 20
-123.2126342465406
 30
0.0
 10
88.13777260166347
 20
-123.3480264991109
 30
0.0
 10
88.13777260166347
 20
-123.4708441531601
 30
0.0
 10
88.2097750973052
 20
-123.5893554378527
 30
0.0
 10
88.38736976956983
 20
-123.5893554378527
 30
0.0
 10
88.56513669660872
 20
-123.5893554378527
 30
0.0
 10
88.63696693747617
 20
-123.4708441531601
 30
0.0
 10
88.63696693747617
 20
-123.3480264991109
 30
0.0
 10
88.63696693747617
 20
-123.2126342465406
 30
0.0
 10
88.55032278602215
 20
-123.1175496111477
 30
0.0
 10
88.38736976956983
 20
-123.1175496111477
 30
0.0
  0
HATCH
  5
BB
330
B4
100
AcDbEntity
  8
_U+30EC_U+30A4_U+30E4_U+30FC 1
 62
   179
420
  2234388
100
AcDbHatch
 10
0.0
 20
0.0
 30
0.0
210
0.0
220
0.0
230
1.0
  2
SOLID
 70
     1
 71
     0
 91
        3
 92
        1
 93
        1
 72
     4
 94
        3
 73
     0
 74
     1
 95
       29
 96
       25
 40
0.0
 40
0.0
 40
0.0
 40
0.0
 40
1.0
 40
1.0
 40
1.0
 40
2.0
 40
2.0
 40
2.0
 40
3.0
 40
3.0
 40
3.0
 40
4.0
 40
4.0
 40
4.0
 40
5.0
 40
5.0
 40
5.0
 40
6.0
 40
6.0
 40
6.0
 40
7.0
 40
7.0
 40
7.0
 40
8.0
 40
8.0
 40
8.0
 40
8.0
 10
88.38736976956983
 20
-124.5687960843092
 10
88.12089163378576
 20
-124.5687960843092
 10
87.86698809652285
 20
-124.4311645196735
 10
87.86698809652285
 20
-124.0821763470177
 10
87.86698809652285
 20
-123.8262057524636
 10
88.00875377574087
 20
-123.7309488622964
 10
88.11451820713805
 20
-123.669626162659
 10
87.98963349579773
 20
-123.6103705203127
 10
87.91349688557371
 20
-123.4961656049767
 10
87.91349688557371
 20
-123.3354519005898
 10
87.91349688557371
 20
-123.0603610260926
 10
88.11245114984689
 20
-122.9249687735222
 10
88.38736976956983
 20
-122.9249687735222
 10
88.6709011280059
 20
-122.9249687735222
 10
88.86124265356594
 20
-123.0688015100314
 10
88.86124265356594
 20
-123.3354519005898
 10
88.86124265356594
 20
-123.4961656049767
 10
88.78303898605077
 20
-123.6103705203127
 10
88.65815427471047
 20
-123.669626162659
 10
88.7470377382299
 20
-123.7204413210664
 10
88.90568438532567
 20
-123.8156982112336
 10
88.90568438532567
 20
-124.0778699776611
 10
88.90568438532567
 20
-124.4523518569078
 10
88.62645939624616
 20
-124.5687960843092
 10
88.38736976956983
 20
-124.5687960843092
 97
        0
 97
        0
 92
        1
 93
        1
 72
     4
 94
        3
 73
     0
 74
     1
 95
       17
 96
       13
 40
0.0
 40
0.0
 40
0.0
 40
0.0
 40
1.0
 40
1.0
 40
1.0
 40
2.0
 40
2.0
 40
2.0
 40
3.0
 40
3.0
 40
3.0
 40
4.0
 40
4.0
 40
4.0
 40
4.0
 10
88.38736976956983
 20
-123.7776299061216
 10
88.24353703306065
 20
-123.7776299061216
 10
88.09126381261261
 20
-123.8642740575756
 10
88.09126381261261
 20
-124.0673624364311
 10
88.09126381261261
 20
-124.2725178725777
 10
88.21821558124407
 20
-124.3741481893926
 10
88.38736976956983
 20
-124.3741481893926
 10
88.57357718054759
 20
-124.3741481893926
 10
88.68364798130132
 20
-124.2515027901177
 10
88.68364798130132
 20
-124.0737358630788
 10
88.68364798130132
 20
-123.8515272042802
 10
88.520694964849
 20
-123.7776299061216
 10
88.38736976956983
 20
-123.7776299061216
 97
        0
 97
        0
 92
        1
 93
        1
 72
     4
 94
        3
 73
     0
 74
     1
 95
       17
 96
       13
 40
0.0
 40
0.0
 40
0.0
 40
0.0
 40
1.0
 40
1.0
 40
1.0
 40
2.0
 40
2.0
 40
2.0
 40
3.0
 40
3.0
 40
3.0
 40
4.0
 40
4.0
 40
4.0
 40
4.0
 10
88.38736976956983
 20
-123.1175496111477
 10
88.22234969582637
 20
-123.1175496111477
 10
88.13777260166347
 20
-123.2126342465406
 10
88.13777260166347
 20
-123.3480264991109
 10
88.13777260166347
 20
-123.4708441531601
 10
88.2097750973052
 20
-123.5893554378527
 10
88.38736976956983
 20
-123.5893554378527
 10
88.56513669660872
 20
-123.5893554378527
 10
88.63696693747617
 20
-123.4708441531601
 10
88.63696693747617
 20
-123.3480264991109
 10
88.63696693747617
 20
-123.2126342465406
 10
88.55032278602215
 20
-123.1175496111477
 10
88.38736976956983
 20
-123.1175496111477
 97
        0
 97
        0
 75
     2
 76
     1
 98
        0
  0
ENDBLK
  5
B7
330
B4
100
AcDbEntity
  8
0
100
AcDbBlockEnd
  0
BLOCK
  5
C6
330
C4
100
AcDbEntity
  8
0
100
AcDbBlockBegin
  2
block 4
 70
     0
 10
0.0
 20
0.0
 30
0.0
  3
block 4
  1

  0
SPLINE
  5
C8
330
C4
100
AcDbEntity
  8
_U+30EC_U+30A4_U+30E4_U+30FC 1
370
     0
100
AcDbSpline
210
0.0
220
0.0
230
1.0
 70
    11
 71
     3
 72
    29
 73
    25
 74
     0
 42
0.0000000001
 43
0.0000000001
 12
1.0
 22
0.0
 32
0.0
 13
1.0
 23
0.0
 33
0.0
 40
0.0
 40
0.0
 40
0.0
 40
0.0
 40
1.0
 40
1.0
 40
1.0
 40
2.0
 40
2.0
 40
2.0
 40
3.0
 40
3.0
 40
3.0
 40
4.0
 40
4.0
 40
4.0
 40
5.0
 40
5.0
 40
5.0
 40
6.0
 40
6.0
 40
6.0
 40
7.0
 40
7.0
 40
7.0
 40
8.0
 40
8.0
 40
8.0
 40
8.0
 10
96.38722599586848
 20
-124.5687960843092
 30
0.0
 10
96.12092011485866
 20
-124.5687960843092
 30
0.0
 10
95.86667206804722
 20
-124.4311645196735
 30
0.0
 10
95.86667206804722
 20
-124.0821763470177
 30
0.0
 10
95.86667206804722
 20
-123.8262057524636
 30
0.0
 10
96.00861000203952
 20
-123.7309488622964
 30
0.0
 10
96.1143744334367
 20
-123.669626162659
 30
0.0
 10
95.98931746732212
 20
-123.6103705203127
 30
0.0
 10
95.91352536664662
 20
-123.4961656049767
 30
0.0
 10
95.91352536664662
 20
-123.3354519005898
 30
0.0
 10
95.91352536664662
 20
-123.0603610260926
 30
0.0
 10
96.11230737614554
 20
-122.9249687735222
 30
0.0
 10
96.38722599586848
 20
-122.9249687735222
 30
0.0
 10
96.67075735430454
 20
-122.9249687735222
 30
0.0
 10
96.86092662509033
 20
-123.0688015100314
 30
0.0
 10
96.86092662509033
 20
-123.3354519005898
 30
0.0
 10
96.86092662509033
 20
-123.4961656049767
 30
0.0
 10
96.78306746712369
 20
-123.6103705203127
 30
0.0
 10
96.65801050100912
 20
-123.669626162659
 30
0.0
 10
96.74689396452855
 20
-123.7204413210664
 30
0.0
 10
96.90571286639857
 20
-123.8156982112336
 30
0.0
 10
96.90571286639857
 20
-124.0778699776611
 30
0.0
 10
96.90571286639857
 20
-124.4523518569078
 30
0.0
 10
96.62631562254481
 20
-124.5687960843092
 30
0.0
 10
96.38722599586848
 20
-124.5687960843092
 30
0.0
  0
SPLINE
  5
C9
330
C4
100
AcDbEntity
  8
_U+30EC_U+30A4_U+30E4_U+30FC 1
370
     0
100
AcDbSpline
210
0.0
220
0.0
230
1.0
 70
    11
 71
     3
 72
    17
 73
    13
 74
     0
 42
0.0000000001
 43
0.0000000001
 12
1.0
 22
0.0
 32
0.0
 13
1.0
 23
0.0
 33
0.0
 40
0.0
 40
0.0
 40
0.0
 40
0.0
 40
1.0
 40
1.0
 40
1.0
 40
2.0
 40
2.0
 40
2.0
 40
3.0
 40
3.0
 40
3.0
 40
4.0
 40
4.0
 40
4.0
 40
4.0
 10
96.38722599586848
 20
-123.7776299061216
 30
0.0
 10
96.24356551413356
 20
-123.7776299061216
 30
0.0
 10
96.09129229368551
 20
-123.8642740575756
 30
0.0
 10
96.09129229368551
 20
-124.0673624364311
 30
0.0
 10
96.09129229368551
 20
-124.2725178725777
 30
0.0
 10
96.21807180754271
 20
-124.3741481893926
 30
0.0
 10
96.38722599586848
 20
-124.3741481893926
 30
0.0
 10
96.57360566162049
 20
-124.3741481893926
 30
0.0
 10
96.68350420759997
 20
-124.2515027901177
 30
0.0
 10
96.68350420759997
 20
-124.0737358630788
 30
0.0
 10
96.68350420759997
 20
-123.8515272042802
 30
0.0
 10
96.52055119114765
 20
-123.7776299061216
 30
0.0
 10
96.38722599586848
 20
-123.7776299061216
 30
0.0
  0
SPLINE
  5
CA
330
C4
100
AcDbEntity
  8
_U+30EC_U+30A4_U+30E4_U+30FC 1
370
     0
100
AcDbSpline
210
0.0
220
0.0
230
1.0
 70
    11
 71
     3
 72
    17
 73
    13
 74
     0
 42
0.0000000001
 43
0.0000000001
 12
1.0
 22
0.0
 32
0.0
 13
1.0
 23
0.0
 33
0.0
 40
0.0
 40
0.0
 40
0.0
 40
0.0
 40
1.0
 40
1.0
 40
1.0
 40
2.0
 40
2.0
 40
2.0
 40
3.0
 40
3.0
 40
3.0
 40
4.0
 40
4.0
 40
4.0
 40
4.0
 10
96.38722599586848
 20
-123.1175496111477
 30
0.0
 10
96.22220592212501
 20
-123.1175496111477
 30
0.0
 10
96.13745657318786
 20
-123.2126342465406
 30
0.0
 10
96.13745657318786
 20
-123.3480264991109
 30
0.0
 10
96.13745657318786
 20
-123.4708441531601
 30
0.0
 10
96.20980357837811
 20
-123.5893554378527
 30
0.0
 10
96.38722599586848
 20
-123.5893554378527
 30
0.0
 10
96.56499292290736
 20
-123.5893554378527
 30
0.0
 10
96.63699541854909
 20
-123.4708441531601
 30
0.0
 10
96.63699541854909
 20
-123.3480264991109
 30
0.0
 10
96.63699541854909
 20
-123.2126342465406
 30
0.0
 10
96.5501790123208
 20
-123.1175496111477
 30
0.0
 10
96.38722599586848
 20
-123.1175496111477
 30
0.0
  0
HATCH
  5
CB
330
C4
100
AcDbEntity
  8
_U+30EC_U+30A4_U+30E4_U+30FC 1
 62
   179
420
  2234388
100
AcDbHatch
 10
0.0
 20
0.0
 30
0.0
210
0.0
220
0.0
230
1.0
  2
SOLID
 70
     1
 71
     0
 91
        3
 92
        1
 93
        1
 72
     4
 94
        3
 73
     0
 74
     1
 95
       29
 96
       25
 40
0.0
 40
0.0
 40
0.0
 40
0.0
 40
1.0
 40
1.0
 40
1.0
 40
2.0
 40
2.0
 40
2.0
 40
3.0
 40
3.0
 40
3.0
 40
4.0
 40
4.0
 40
4.0
 40
5.0
 40
5.0
 40
5.0
 40
6.0
 40
6.0
 40
6.0
 40
7.0
 40
7.0
 40
7.0
 40
8.0
 40
8.0
 40
8.0
 40
8.0
 10
96.38722599586848
 20
-124.5687960843092
 10
96.12092011485866
 20
-124.5687960843092
 10
95.86667206804722
 20
-124.4311645196735
 10
95.86667206804722
 20
-124.0821763470177
 10
95.86667206804722
 20
-123.8262057524636
 10
96.00861000203952
 20
-123.7309488622964
 10
96.1143744334367
 20
-123.669626162659
 10
95.98931746732212
 20
-123.6103705203127
 10
95.91352536664662
 20
-123.4961656049767
 10
95.91352536664662
 20
-123.3354519005898
 10
95.91352536664662
 20
-123.0603610260926
 10
96.11230737614554
 20
-122.9249687735222
 10
96.38722599586848
 20
-122.9249687735222
 10
96.67075735430454
 20
-122.9249687735222
 10
96.86092662509033
 20
-123.0688015100314
 10
96.86092662509033
 20
-123.3354519005898
 10
96.86092662509033
 20
-123.4961656049767
 10
96.78306746712369
 20
-123.6103705203127
 10
96.65801050100912
 20
-123.669626162659
 10
96.74689396452855
 20
-123.7204413210664
 10
96.90571286639857
 20
-123.8156982112336
 10
96.90571286639857
 20
-124.0778699776611
 10
96.90571286639857
 20
-124.4523518569078
 10
96.62631562254481
 20
-124.5687960843092
 10
96.38722599586848
 20
-124.5687960843092
 97
        0
 97
        0
 92
        1
 93
        1
 72
     4
 94
        3
 73
     0
 74
     1
 95
       17
 96
       13
 40
0.0
 40
0.0
 40
0.0
 40
0.0
 40
1.0
 40
1.0
 40
1.0
 40
2.0
 40
2.0
 40
2.0
 40
3.0
 40
3.0
 40
3.0
 40
4.0
 40
4.0
 40
4.0
 40
4.0
 10
96.38722599586848
 20
-123.7776299061216
 10
96.24356551413356
 20
-123.7776299061216
 10
96.09129229368551
 20
-123.8642740575756
 10
96.09129229368551
 20
-124.0673624364311
 10
96.09129229368551
 20
-124.2725178725777
 10
96.21807180754271
 20
-124.3741481893926
 10
96.38722599586848
 20
-124.3741481893926
 10
96.57360566162049
 20
-124.3741481893926
 10
96.68350420759997
 20
-124.2515027901177
 10
96.68350420759997
 20
-124.0737358630788
 10
96.68350420759997
 20
-123.8515272042802
 10
96.52055119114765
 20
-123.7776299061216
 10
96.38722599586848
 20
-123.7776299061216
 97
        0
 97
        0
 92
        1
 93
        1
 72
     4
 94
        3
 73
     0
 74
     1
 95
       17
 96
       13
 40
0.0
 40
0.0
 40
0.0
 40
0.0
 40
1.0
 40
1.0
 40
1.0
 40
2.0
 40
2.0
 40
2.0
 40
3.0
 40
3.0
 40
3.0
 40
4.0
 40
4.0
 40
4.0
 40
4.0
 10
96.38722599586848
 20
-123.1175496111477
 10
96.22220592212501
 20
-123.1175496111477
 10
96.13745657318786
 20
-123.2126342465406
 10
96.13745657318786
 20
-123.3480264991109
 10
96.13745657318786
 20
-123.4708441531601
 10
96.20980357837811
 20
-123.5893554378527
 10
96.38722599586848
 20
-123.5893554378527
 10
96.56499292290736
 20
-123.5893554378527
 10
96.63699541854909
 20
-123.4708441531601
 10
96.63699541854909
 20
-123.3480264991109
 10
96.63699541854909
 20
-123.2126342465406
 10
96.5501790123208
 20
-123.1175496111477
 10
96.38722599586848
 20
-123.1175496111477
 97
        0
 97
        0
 75
     2
 76
     1
 98
        0
  0
ENDBLK
  5
C7
330
C4
100
AcDbEntity
  8
0
100
AcDbBlockEnd
  0
BLOCK
  5
DE
330
DC
100
AcDbEntity
  8
0
100
AcDbBlockBegin
  2
block 5
 70
     0
 10
0.0
 20
0.0
 30
0.0
  3
block 5
  1

  0
SPLINE
  5
E0
330
DC
100
AcDbEntity
  8
_U+30EC_U+30A4_U+30E4_U+30FC 1
370
     0
100
AcDbSpline
210
0.0
220
0.0
230
1.0
 70
    11
 71
     3
 72
    26
 73
    22
 74
     0
 42
0.0000000001
 43
0.0000000001
 12
1.0
 22
0.0
 32
0.0
 13
1.0
 23
0.0
 33
0.0
 40
0.0
 40
0.0
 40
0.0
 40
0.0
 40
1.0
 40
1.0
 40
1.0
 40
2.0
 40
2.0
 40
2.0
 40
3.0
 40
3.0
 40
3.0
 40
4.0
 40
4.0
 40
4.0
 40
5.0
 40
5.0
 40
5.0
 40
6.0
 40
6.0
 40
6.0
 40
7.0
 40
7.0
 40
7.0
 40
7.0
 10
103.7821234549573
 20
-127.1756998379978
 30
0.0
 10
103.7821234549573
 20
-127.1756998379978
 30
0.0
 10
102.6776258423861
 20
-127.1756998379978
 30
0.0
 10
102.6776258423861
 20
-127.1756998379978
 30
0.0
 10
102.6776258423861
 20
-127.1756998379978
 30
0.0
 10
102.6776258423861
 20
-127.5057399854847
 30
0.0
 10
102.6776258423861
 20
-127.5057399854847
 30
0.0
 10
102.6776258423861
 20
-127.5057399854847
 30
0.0
 10
102.5298312460689
 20
-127.5057399854847
 30
0.0
 10
102.5298312460689
 20
-127.5057399854847
 30
0.0
 10
102.5150173354824
 20
-127.1736327807066
 30
0.0
 10
102.35206431903
 20
-127.1271239916557
 30
0.0
 10
102.2380316584683
 20
-127.0974961704826
 30
0.0
 10
102.2380316584683
 20
-127.0974961704826
 30
0.0
 10
102.2380316584683
 20
-126.951424121908
 30
0.0
 10
102.2380316584683
 20
-126.951424121908
 30
0.0
 10
102.2380316584683
 20
-126.951424121908
 30
0.0
 10
103.7821234549573
 20
-126.951424121908
 30
0.0
 10
103.7821234549573
 20
-126.951424121908
 30
0.0
 10
103.7821234549573
 20
-126.951424121908
 30
0.0
 10
103.7821234549573
 20
-127.1756998379978
 30
0.0
 10
103.7821234549573
 20
-127.1756998379978
 30
0.0
  0
HATCH
  5
E1
330
DC
100
AcDbEntity
  8
_U+30EC_U+30A4_U+30E4_U+30FC 1
 62
   179
420
  2234388
100
AcDbHatch
 10
0.0
 20
0.0
 30
0.0
210
0.0
220
0.0
230
1.0
  2
SOLID
 70
     1
 71
     0
 91
        1
 92
        1
 93
        1
 72
     4
 94
        3
 73
     0
 74
     1
 95
       26
 96
       22
 40
0.0
 40
0.0
 40
0.0
 40
0.0
 40
1.0
 40
1.0
 40
1.0
 40
2.0
 40
2.0
 40
2.0
 40
3.0
 40
3.0
 40
3.0
 40
4.0
 40
4.0
 40
4.0
 40
5.0
 40
5.0
 40
5.0
 40
6.0
 40
6.0
 40
6.0
 40
7.0
 40
7.0
 40
7.0
 40
7.0
 10
103.7821234549573
 20
-127.1756998379978
 10
103.7821234549573
 20
-127.1756998379978
 10
102.6776258423861
 20
-127.1756998379978
 10
102.6776258423861
 20
-127.1756998379978
 10
102.6776258423861
 20
-127.1756998379978
 10
102.6776258423861
 20
-127.5057399854847
 10
102.6776258423861
 20
-127.5057399854847
 10
102.6776258423861
 20
-127.5057399854847
 10
102.5298312460689
 20
-127.5057399854847
 10
102.5298312460689
 20
-127.5057399854847
 10
102.5150173354824
 20
-127.1736327807066
 10
102.35206431903
 20
-127.1271239916557
 10
102.2380316584683
 20
-127.0974961704826
 10
102.2380316584683
 20
-127.0974961704826
 10
102.2380316584683
 20
-126.951424121908
 10
102.2380316584683
 20
-126.951424121908
 10
102.2380316584683
 20
-126.951424121908
 10
103.7821234549573
 20
-126.951424121908
 10
103.7821234549573
 20
-126.951424121908
 10
103.7821234549573
 20
-126.951424121908
 10
103.7821234549573
 20
-127.1756998379978
 10
103.7821234549573
 20
-127.1756998379978
 97
        0
 97
        0
 75
     2
 76
     1
 98
        0
  0
POLYLINE
  5
E2
330
DC
100
AcDbEntity
  8
_U+30EC_U+30A4_U+30E4_U+30FC 1
370
     0
100
AcDb2dPolyline
 66
     1
 10
0.0
 20
0.0
 30
0.0
  0
VERTEX
  5
E3
330
E2
100
AcDbEntity
  8
_U+30EC_U+30A4_U+30E4_U+30FC 1
370
     0
100
AcDbVertex
100
AcDb2dVertex
 10
103.7821234549573
 20
-126.3902180673608
 30
0.0
  0
VERTEX
  5
E4
330
E2
100
AcDbEntity
  8
_U+30EC_U+30A4_U+30E4_U+30FC 1
370
     0
100
AcDbVertex
100
AcDb2dVertex
 10
103.530631484534
 20
-126.3902180673608
 30
0.0
  0
VERTEX
  5
E5
330
E2
100
AcDbEntity
  8
_U+30EC_U+30A4_U+30E4_U+30FC 1
370
     0
100
AcDbVertex
100
AcDb2dVertex
 10
103.530631484534
 20
-126.1385538421633
 30
0.0
  0
VERTEX
  5
E6
330
E2
100
AcDbEntity
  8
_U+30EC_U+30A4_U+30E4_U+30FC 1
370
     0
100
AcDbVertex
100
AcDb2dVertex
 10
103.7821234549573
 20
-126.1385538421633
 30
0.0
  0
VERTEX
  5
E7
330
E2
100
AcDbEntity
  8
_U+30EC_U+30A4_U+30E4_U+30FC 1
370
     0
100
AcDbVertex
100
AcDb2dVertex
 10
103.7821234549573
 20
-126.3902180673608
 30
0.0
  0
SEQEND
  5
E8
330
E2
100
AcDbEntity
  8
_U+30EC_U+30A4_U+30E4_U+30FC 1
370
     0
  0
HATCH
  5
E9
330
DC
100
AcDbEntity
  8
_U+30EC_U+30A4_U+30E4_U+30FC 1
 62
   179
420
  2234388
100
AcDbHatch
 10
0.0
 20
0.0
 30
0.0
210
0.0
220
0.0
230
1.0
  2
SOLID
 70
     1
 71
     0
 91
        1
 92
        1
 93
        4
 72
     1
 10
103.7821234549573
 20
-126.3902180673608
 11
103.530631484534
 21
-126.3902180673608
 72
     1
 10
103.530631484534
 20
-126.3902180673608
 11
103.530631484534
 21
-126.1385538421633
 72
     1
 10
103.530631484534
 20
-126.1385538421633
 11
103.7821234549573
 21
-126.1385538421633
 72
     1
 10
103.7821234549573
 20
-126.1385538421633
 11
103.7821234549573
 21
-126.3902180673608
 97
        0
 75
     2
 76
     1
 98
        0
  0
SPLINE
  5
EA
330
DC
100
AcDbEntity
  8
_U+30EC_U+30A4_U+30E4_U+30FC 1
370
     0
100
AcDbSpline
210
0.0
220
0.0
230
1.0
 70
    11
 71
     3
 72
    53
 73
    49
 74
     0
 42
0.0000000001
 43
0.0000000001
 12
1.0
 22
0.0
 32
0.0
 13
1.0
 23
0.0
 33
0.0
 40
0.0
 40
0.0
 40
0.0
 40
0.0
 40
1.0
 40
1.0
 40
1.0
 40
2.0
 40
2.0
 40
2.0
 40
3.0
 40
3.0
 40
3.0
 40
4.0
 40
4.0
 40
4.0
 40
5.0
 40
5.0
 40
5.0
 40
6.0
 40
6.0
 40
6.0
 40
7.0
 40
7.0
 40
7.0
 40
8.0
 40
8.0
 40
8.0
 40
9.0
 40
9.0
 40
9.0
 40
10.0
 40
10.0
 40
10.0
 40
11.0
 40
11.0
 40
11.0
 40
12.0
 40
12.0
 40
12.0
 40
13.0
 40
13.0
 40
13.0
 40
14.0
 40
14.0
 40
14.0
 40
15.0
 40
15.0
 40
15.0
 40
16.0
 40
16.0
 40
16.0
 40
16.0
 10
103.8331108681389
 20
-125.4209404525857
 30
0.0
 10
103.8331108681389
 20
-125.4993163748752
 30
0.0
 10
103.8158853907127
 20
-125.6007744369158
 30
0.0
 10
103.7524956337841
 20
-125.7024047537307
 30
0.0
 10
103.6422525782561
 20
-125.875865311413
 30
0.0
 10
103.5113389498166
 20
-125.8970526486473
 30
0.0
 10
103.4035074611283
 20
-125.9160006738161
 30
0.0
 10
103.4035074611283
 20
-125.9160006738161
 30
0.0
 10
103.4035074611283
 20
-125.6939642697918
 30
0.0
 10
103.4035074611283
 20
-125.6939642697918
 30
0.0
 10
103.6022894706272
 20
-125.6388427420278
 30
0.0
 10
103.6319172918004
 20
-125.5118909733963
 30
0.0
 10
103.6319172918004
 20
-125.4188733952946
 30
0.0
 10
103.6319172918004
 20
-125.2791747733677
 30
0.0
 10
103.5326985418252
 20
-125.1269015529197
 30
0.0
 10
103.2998100870223
 20
-125.1269015529197
 30
0.0
 10
103.0438394924682
 20
-125.1269015529197
 30
0.0
 10
102.9739040541176
 20
-125.3067355372497
 30
0.0
 10
102.9739040541176
 20
-125.4273138792335
 30
0.0
 10
102.9739040541176
 20
-125.4590087576978
 30
0.0
 10
102.9739040541176
 20
-125.6007744369158
 30
0.0
 10
103.1030951348145
 20
-125.6896579004352
 30
0.0
 10
103.1030951348145
 20
-125.6896579004352
 30
0.0
 10
103.0841471096456
 20
-125.8651855154087
 30
0.0
 10
103.0841471096456
 20
-125.8651855154087
 30
0.0
 10
103.0841471096456
 20
-125.8651855154087
 30
0.0
 10
102.2380316584683
 20
-125.744607173425
 30
0.0
 10
102.2380316584683
 20
-125.744607173425
 30
0.0
 10
102.2380316584683
 20
-125.744607173425
 30
0.0
 10
102.2380316584683
 20
-124.9661878485328
 30
0.0
 10
102.2380316584683
 20
-124.9661878485328
 30
0.0
 10
102.2380316584683
 20
-124.9661878485328
 30
0.0
 10
102.4323350438364
 20
-124.9661878485328
 30
0.0
 10
102.4323350438364
 20
-124.9661878485328
 30
0.0
 10
102.4323350438364
 20
-124.9661878485328
 30
0.0
 10
102.4323350438364
 20
-125.5818264117469
 30
0.0
 10
102.4323350438364
 20
-125.5818264117469
 30
0.0
 10
102.4323350438364
 20
-125.5818264117469
 30
0.0
 10
102.8553927694251
 20
-125.6472832259667
 30
0.0
 10
102.8553927694251
 20
-125.6472832259667
 30
0.0
 10
102.8216308336696
 20
-125.5859605263292
 30
0.0
 10
102.7816677260407
 20
-125.5034504894575
 30
0.0
 10
102.7816677260407
 20
-125.3851114595391
 30
0.0
 10
102.7816677260407
 20
-125.1312079222762
 30
0.0
 10
102.9677028822442
 20
-124.894185352891
 30
0.0
 10
103.2805175523049
 20
-124.894185352891
 30
0.0
 10
103.5981553560449
 20
-124.894185352891
 30
0.0
 10
103.8331108681389
 20
-125.1184610689808
 30
0.0
 10
103.8331108681389
 20
-125.4209404525857
 30
0.0
  0
HATCH
  5
EB
330
DC
100
AcDbEntity
  8
_U+30EC_U+30A4_U+30E4_U+30FC 1
 62
   179
420
  2234388
100
AcDbHatch
 10
0.0
 20
0.0
 30
0.0
210
0.0
220
0.0
230
1.0
  2
SOLID
 70
     1
 71
     0
 91
        1
 92
        1
 93
        1
 72
     4
 94
        3
 73
     0
 74
     1
 95
       53
 96
       49
 40
0.0
 40
0.0
 40
0.0
 40
0.0
 40
1.0
 40
1.0
 40
1.0
 40
2.0
 40
2.0
 40
2.0
 40
3.0
 40
3.0
 40
3.0
 40
4.0
 40
4.0
 40
4.0
 40
5.0
 40
5.0
 40
5.0
 40
6.0
 40
6.0
 40
6.0
 40
7.0
 40
7.0
 40
7.0
 40
8.0
 40
8.0
 40
8.0
 40
9.0
 40
9.0
 40
9.0
 40
10.0
 40
10.0
 40
10.0
 40
11.0
 40
11.0
 40
11.0
 40
12.0
 40
12.0
 40
12.0
 40
13.0
 40
13.0
 40
13.0
 40
14.0
 40
14.0
 40
14.0
 40
15.0
 40
15.0
 40
15.0
 40
16.0
 40
16.0
 40
16.0
 40
16.0
 10
103.8331108681389
 20
-125.4209404525857
 10
103.8331108681389
 20
-125.4993163748752
 10
103.8158853907127
 20
-125.6007744369158
 10
103.7524956337841
 20
-125.7024047537307
 10
103.6422525782561
 20
-125.875865311413
 10
103.5113389498166
 20
-125.8970526486473
 10
103.4035074611283
 20
-125.9160006738161
 10
103.4035074611283
 20
-125.9160006738161
 10
103.4035074611283
 20
-125.6939642697918
 10
103.4035074611283
 20
-125.6939642697918
 10
103.6022894706272
 20
-125.6388427420278
 10
103.6319172918004
 20
-125.5118909733963
 10
103.6319172918004
 20
-125.4188733952946
 10
103.6319172918004
 20
-125.2791747733677
 10
103.5326985418252
 20
-125.1269015529197
 10
103.2998100870223
 20
-125.1269015529197
 10
103.0438394924682
 20
-125.1269015529197
 10
102.9739040541176
 20
-125.3067355372497
 10
102.9739040541176
 20
-125.4273138792335
 10
102.9739040541176
 20
-125.4590087576978
 10
102.9739040541176
 20
-125.6007744369158
 10
103.1030951348145
 20
-125.6896579004352
 10
103.1030951348145
 20
-125.6896579004352
 10
103.0841471096456
 20
-125.8651855154087
 10
103.0841471096456
 20
-125.8651855154087
 10
103.0841471096456
 20
-125.8651855154087
 10
102.2380316584683
 20
-125.744607173425
 10
102.2380316584683
 20
-125.744607173425
 10
102.2380316584683
 20
-125.744607173425
 10
102.2380316584683
 20
-124.9661878485328
 10
102.2380316584683
 20
-124.9661878485328
 10
102.2380316584683
 20
-124.9661878485328
 10
102.4323350438364
 20
-124.9661878485328
 10
102.4323350438364
 20
-124.9661878485328
 10
102.4323350438364
 20
-124.9661878485328
 10
102.4323350438364
 20
-125.5818264117469
 10
102.4323350438364
 20
-125.5818264117469
 10
102.4323350438364
 20
-125.5818264117469
 10
102.8553927694251
 20
-125.6472832259667
 10
102.8553927694251
 20
-125.6472832259667
 10
102.8216308336696
 20
-125.5859605263292
 10
102.7816677260407
 20
-125.5034504894575
 10
102.7816677260407
 20
-125.3851114595391
 10
102.7816677260407
 20
-125.1312079222762
 10
102.9677028822442
 20
-124.894185352891
 10
103.2805175523049
 20
-124.894185352891
 10
103.5981553560449
 20
-124.894185352891
 10
103.8331108681389
 20
-125.1184610689808
 10
103.8331108681389
 20
-125.4209404525857
 97
        0
 97
        0
 75
     2
 76
     1
 98
        0
  0
ENDBLK
  5
DF
330
DC
100
AcDbEntity
  8
0
100
AcDbBlockEnd
  0
BLOCK
  5
F6
330
F4
100
AcDbEntity
  8
0
100
AcDbBlockBegin
  2
block 6
 70
     0
 10
0.0
 20
0.0
 30
0.0
  3
block 6
  1

  0
POLYLINE
  5
F8
330
F4
100
AcDbEntity
  8
_U+30EC_U+30A4_U+30E4_U+30FC 1
370
     0
100
AcDb2dPolyline
 66
     1
 10
0.0
 20
0.0
 30
0.0
  0
VERTEX
  5
F9
330
F8
100
AcDbEntity
  8
_U+30EC_U+30A4_U+30E4_U+30FC 1
370
     0
100
AcDbVertex
100
AcDb2dVertex
 10
103.4352023395926
 20
-132.2882215381085
 30
0.0
  0
VERTEX
  5
FA
330
F8
100
AcDbEntity
  8
_U+30EC_U+30A4_U+30E4_U+30FC 1
370
     0
100
AcDbVertex
100
AcDb2dVertex
 10
103.7821234549573
 20
-132.2882215381085
 30
0.0
  0
VERTEX
  5
FB
330
F8
100
AcDbEntity
  8
_U+30EC_U+30A4_U+30E4_U+30FC 1
370
     0
100
AcDbVertex
100
AcDb2dVertex
 10
103.7821234549573
 20
-132.5059515727763
 30
0.0
  0
VERTEX
  5
FC
330
F8
100
AcDbEntity
  8
_U+30EC_U+30A4_U+30E4_U+30FC 1
370
     0
100
AcDbVertex
100
AcDb2dVertex
 10
103.4352023395926
 20
-132.5059515727763
 30
0.0
  0
VERTEX
  5
FD
330
F8
100
AcDbEntity
  8
_U+30EC_U+30A4_U+30E4_U+30FC 1
370
     0
100
AcDbVertex
100
AcDb2dVertex
 10
103.4352023395926
 20
-133.1618977531679
 30
0.0
  0
VERTEX
  5
FE
330
F8
100
AcDbEntity
  8
_U+30EC_U+30A4_U+30E4_U+30FC 1
370
     0
100
AcDbVertex
100
AcDb2dVertex
 10
103.2109266235028
 20
-133.1618977531679
 30
0.0
  0
VERTEX
  5
FF
330
F8
100
AcDbEntity
  8
_U+30EC_U+30A4_U+30E4_U+30FC 1
370
     0
100
AcDbVertex
100
AcDb2dVertex
 10
102.2380316584683
 20
-132.4828694330251
 30
0.0
  0
VERTEX
  5
100
330
F8
100
AcDbEntity
  8
_U+30EC_U+30A4_U+30E4_U+30FC 1
370
     0
100
AcDbVertex
100
AcDb2dVertex
 10
102.2380316584683
 20
-132.2882215381085
 30
0.0
  0
VERTEX
  5
101
330
F8
100
AcDbEntity
  8
_U+30EC_U+30A4_U+30E4_U+30FC 1
370
     0
100
AcDbVertex
100
AcDb2dVertex
 10
103.2364203300937
 20
-132.2882215381085
 30
0.0
  0
VERTEX
  5
102
330
F8
100
AcDbEntity
  8
_U+30EC_U+30A4_U+30E4_U+30FC 1
370
     0
100
AcDbVertex
100
AcDb2dVertex
 10
103.2364203300937
 20
-132.0808267898965
 30
0.0
  0
VERTEX
  5
103
330
F8
100
AcDbEntity
  8
_U+30EC_U+30A4_U+30E4_U+30FC 1
370
     0
100
AcDbVertex
100
AcDb2dVertex
 10
103.4352023395926
 20
-132.0808267898965
 30
0.0
  0
VERTEX
  5
104
330
F8
100
AcDbEntity
  8
_U+30EC_U+30A4_U+30E4_U+30FC 1
370
     0
100
AcDbVertex
100
AcDb2dVertex
 10
103.4352023395926
 20
-132.2882215381085
 30
0.0
  0
SEQEND
  5
105
330
F8
100
AcDbEntity
  8
_U+30EC_U+30A4_U+30E4_U+30FC 1
370
     0
  0
POLYLINE
  5
106
330
F4
100
AcDbEntity
  8
_U+30EC_U+30A4_U+30E4_U+30FC 1
370
     0
100
AcDb2dPolyline
 66
     1
 10
0.0
 20
0.0
 30
0.0
  0
VERTEX
  5
107
330
106
100
AcDbEntity
  8
_U+30EC_U+30A4_U+30E4_U+30FC 1
370
     0
100
AcDbVertex
100
AcDb2dVertex
 10
102.5804741497021
 20
-132.5059515727763
 30
0.0
  0
VERTEX
  5
108
330
106
100
AcDbEntity
  8
_U+30EC_U+30A4_U+30E4_U+30FC 1
370
     0
100
AcDbVertex
100
AcDb2dVertex
 10
103.2364203300937
 20
-132.9627712341204
 30
0.0
  0
VERTEX
  5
109
330
106
100
AcDbEntity
  8
_U+30EC_U+30A4_U+30E4_U+30FC 1
370
     0
100
AcDbVertex
100
AcDb2dVertex
 10
103.2364203300937
 20
-132.5059515727763
 30
0.0
  0
VERTEX
  5
10A
330
106
100
AcDbEntity
  8
_U+30EC_U+30A4_U+30E4_U+30FC 1
370
     0
100
AcDbVertex
100
AcDb2dVertex
 10
102.5804741497021
 20
-132.5059515727763
 30
0.0
  0
SEQEND
  5
10B
330
106
100
AcDbEntity
  8
_U+30EC_U+30A4_U+30E4_U+30FC 1
370
     0
  0
HATCH
  5
10C
330
F4
100
AcDbEntity
  8
_U+30EC_U+30A4_U+30E4_U+30FC 1
 62
   179
420
  2234388
100
AcDbHatch
 10
0.0
 20
0.0
 30
0.0
210
0.0
220
0.0
230
1.0
  2
SOLID
 70
     1
 71
     0
 91
        2
 92
        1
 93
       11
 72
     1
 10
103.4352023395926
 20
-132.2882215381085
 11
103.7821234549573
 21
-132.2882215381085
 72
     1
 10
103.7821234549573
 20
-132.2882215381085
 11
103.7821234549573
 21
-132.5059515727763
 72
     1
 10
103.7821234549573
 20
-132.5059515727763
 11
103.4352023395926
 21
-132.5059515727763
 72
     1
 10
103.4352023395926
 20
-132.5059515727763
 11
103.4352023395926
 21
-133.1618977531679
 72
     1
 10
103.4352023395926
 20
-133.1618977531679
 11
103.2109266235028
 21
-133.1618977531679
 72
     1
 10
103.2109266235028
 20
-133.1618977531679
 11
102.2380316584683
 21
-132.4828694330251
 72
     1
 10
102.2380316584683
 20
-132.4828694330251
 11
102.2380316584683
 21
-132.2882215381085
 72
     1
 10
102.2380316584683
 20
-132.2882215381085
 11
103.2364203300937
 21
-132.2882215381085
 72
     1
 10
103.2364203300937
 20
-132.2882215381085
 11
103.2364203300937
 21
-132.0808267898965
 72
     1
 10
103.2364203300937
 20
-132.0808267898965
 11
103.4352023395926
 21
-132.0808267898965
 72
     1
 10
103.4352023395926
 20
-132.0808267898965
 11
103.4352023395926
 21
-132.2882215381085
 97
        0
 92
        1
 93
        3
 72
     1
 10
102.5804741497021
 20
-132.5059515727763
 11
103.2364203300937
 21
-132.9627712341204
 72
     1
 10
103.2364203300937
 20
-132.9627712341204
 11
103.2364203300937
 21
-132.5059515727763
 72
     1
 10
103.2364203300937
 20
-132.5059515727763
 11
102.5804741497021
 21
-132.5059515727763
 97
        0
 75
     2
 76
     1
 98
        0
  0
ENDBLK
  5
F7
330
F4
100
AcDbEntity
  8
0
100
AcDbBlockEnd
  0
BLOCK
  5
115
330
113
100
AcDbEntity
  8
0
100
AcDbBlockBegin
  2
block 7
 70
     0
 10
0.0
 20
0.0
 30
0.0
  3
block 7
  1

  0
SPLINE
  5
117
330
113
100
AcDbEntity
  8
_U+30EC_U+30A4_U+30E4_U+30FC 1
370
     0
100
AcDbSpline
210
0.0
220
0.0
230
1.0
 70
    11
 71
     3
 72
    26
 73
    22
 74
     0
 42
0.0000000001
 43
0.0000000001
 12
1.0
 22
0.0
 32
0.0
 13
1.0
 23
0.0
 33
0.0
 40
0.0
 40
0.0
 40
0.0
 40
0.0
 40
1.0
 40
1.0
 40
1.0
 40
2.0
 40
2.0
 40
2.0
 40
3.0
 40
3.0
 40
3.0
 40
4.0
 40
4.0
 40
4.0
 40
5.0
 40
5.0
 40
5.0
 40
6.0
 40
6.0
 40
6.0
 40
7.0
 40
7.0
 40
7.0
 40
7.0
 10
85.66884492215918
 20
-131.4934380096614
 30
0.0
 10
85.66884492215918
 20
-131.4934380096614
 30
0.0
 10
85.66884492215918
 20
-130.3892849066388
 30
0.0
 10
85.66884492215918
 20
-130.3892849066388
 30
0.0
 10
85.66884492215918
 20
-130.3892849066388
 30
0.0
 10
85.33880477467224
 20
-130.3892849066388
 30
0.0
 10
85.33880477467224
 20
-130.3892849066388
 30
0.0
 10
85.33880477467224
 20
-130.3892849066388
 30
0.0
 10
85.33880477467224
 20
-130.241145800773
 30
0.0
 10
85.33880477467224
 20
-130.241145800773
 30
0.0
 10
85.67091197945034
 20
-130.2263318901865
 30
0.0
 10
85.7174207685012
 20
-130.0633788737342
 30
0.0
 10
85.74704858967435
 20
-129.9490017036239
 30
0.0
 10
85.74704858967435
 20
-129.9490017036239
 30
0.0
 10
85.89312063824894
 20
-129.9490017036239
 30
0.0
 10
85.89312063824894
 20
-129.9490017036239
 30
0.0
 10
85.89312063824894
 20
-129.9490017036239
 30
0.0
 10
85.89312063824894
 20
-131.4934380096614
 30
0.0
 10
85.89312063824894
 20
-131.4934380096614
 30
0.0
 10
85.89312063824894
 20
-131.4934380096614
 30
0.0
 10
85.66884492215918
 20
-131.4934380096614
 30
0.0
 10
85.66884492215918
 20
-131.4934380096614
 30
0.0
  0
HATCH
  5
118
330
113
100
AcDbEntity
  8
_U+30EC_U+30A4_U+30E4_U+30FC 1
 62
   179
420
  2234388
100
AcDbHatch
 10
0.0
 20
0.0
 30
0.0
210
0.0
220
0.0
230
1.0
  2
SOLID
 70
     1
 71
     0
 91
        1
 92
        1
 93
        1
 72
     4
 94
        3
 73
     0
 74
     1
 95
       26
 96
       22
 40
0.0
 40
0.0
 40
0.0
 40
0.0
 40
1.0
 40
1.0
 40
1.0
 40
2.0
 40
2.0
 40
2.0
 40
3.0
 40
3.0
 40
3.0
 40
4.0
 40
4.0
 40
4.0
 40
5.0
 40
5.0
 40
5.0
 40
6.0
 40
6.0
 40
6.0
 40
7.0
 40
7.0
 40
7.0
 40
7.0
 10
85.66884492215918
 20
-131.4934380096614
 10
85.66884492215918
 20
-131.4934380096614
 10
85.66884492215918
 20
-130.3892849066388
 10
85.66884492215918
 20
-130.3892849066388
 10
85.66884492215918
 20
-130.3892849066388
 10
85.33880477467224
 20
-130.3892849066388
 10
85.33880477467224
 20
-130.3892849066388
 10
85.33880477467224
 20
-130.3892849066388
 10
85.33880477467224
 20
-130.241145800773
 10
85.33880477467224
 20
-130.241145800773
 10
85.67091197945034
 20
-130.2263318901865
 10
85.7174207685012
 20
-130.0633788737342
 10
85.74704858967435
 20
-129.9490017036239
 10
85.74704858967435
 20
-129.9490017036239
 10
85.89312063824894
 20
-129.9490017036239
 10
85.89312063824894
 20
-129.9490017036239
 10
85.89312063824894
 20
-129.9490017036239
 10
85.89312063824894
 20
-131.4934380096614
 10
85.89312063824894
 20
-131.4934380096614
 10
85.89312063824894
 20
-131.4934380096614
 10
85.66884492215918
 20
-131.4934380096614
 10
85.66884492215918
 20
-131.4934380096614
 97
        0
 97
        0
 75
     2
 76
     1
 98
        0
  0
ENDBLK
  5
116
330
113
100
AcDbEntity
  8
0
100
AcDbBlockEnd
  0
ENDSEC
  0
SECTION
  2
ENTITIES
  0
SPLINE
  5
41
330
1F
100
AcDbEntity
  8
_U+30EC_U+30A4_U+30E4_U+30FC 1
370
     0
100
AcDbSpline
210
0.0
220
0.0
230
1.0
 70
    11
 71
     3
 72
    68
 73
    64
 74
     0
 42
0.0000000001
 43
0.0000000001
 12
1.0
 22
0.0
 32
0.0
 13
1.0
 23
0.0
 33
0.0
 40
0.0
 40
0.0
 40
0.0
 40
0.0
 40
1.0
 40
1.0
 40
1.0
 40
2.0
 40
2.0
 40
2.0
 40
3.0
 40
3.0
 40
3.0
 40
4.0
 40
4.0
 40
4.0
 40
5.0
 40
5.0
 40
5.0
 40
6.0
 40
6.0
 40
6.0
 40
7.0
 40
7.0
 40
7.0
 40
8.0
 40
8.0
 40
8.0
 40
9.0
 40
9.0
 40
9.0
 40
10.0
 40
10.0
 40
10.0
 40
11.0
 40
11.0
 40
11.0
 40
12.0
 40
12.0
 40
12.0
 40
13.0
 40
13.0
 40
13.0
 40
14.0
 40
14.0
 40
14.0
 40
15.0
 40
15.0
 40
15.0
 40
16.0
 40
16.0
 40
16.0
 40
17.0
 40
17.0
 40
17.0
 40
18.0
 40
18.0
 40
18.0
 40
19.0
 40
19.0
 40
19.0
 40
20.0
 40
20.0
 40
20.0
 40
21.0
 40
21.0
 40
21.0
 40
21.0
 10
99.42822690781905
 20
-129.1635155232645
 30
0.0
 10
99.42822690781905
 20
-129.1635155232645
 30
0.0
 10
92.4281305324486
 20
-129.1635155232645
 30
0.0
 10
92.4281305324486
 20
-129.1635155232645
 30
0.0
 10
92.4281305324486
 20
-129.1635155232645
 30
0.0
 10
92.4281305324486
 20
-133.6635135776951
 30
0.0
 10
92.4281305324486
 20
-133.6635135776951
 30
0.0
 10
92.4281305324486
 20
-133.6635135776951
 30
0.0
 10
88.83212328925929
 20
-133.6635135776951
 30
0.0
 10
88.83212328925929
 20
-133.6635135776951
 30
0.0
 10
88.83212328925929
 20
-133.6635135776951
 30
0.0
 10
88.42801635512447
 20
-134.3635305219645
 30
0.0
 10
88.42801635512447
 20
-134.3635305219645
 30
0.0
 10
88.42801635512447
 20
-134.3635305219645
 30
0.0
 10
88.02390942098965
 20
-133.6635135776951
 30
0.0
 10
88.02390942098965
 20
-133.6635135776951
 30
0.0
 10
88.02390942098965
 20
-133.6635135776951
 30
0.0
 10
84.42825729050016
 20
-133.6635135776951
 30
0.0
 10
84.42825729050016
 20
-133.6635135776951
 30
0.0
 10
84.42825729050016
 20
-133.6635135776951
 30
0.0
 10
84.42825729050016
 20
-129.1635155232645
 30
0.0
 10
84.42825729050016
 20
-129.1635155232645
 30
0.0
 10
84.42825729050016
 20
-129.1635155232645
 30
0.0
 10
77.42851135796744
 20
-129.1635155232645
 30
0.0
 10
77.42851135796744
 20
-129.1635155232645
 30
0.0
 10
76.8759222030033
 20
-129.1635155232645
 30
0.0
 10
76.42806888349085
 20
-129.6117196898193
 30
0.0
 10
76.42806888349085
 20
-130.1639933007925
 30
0.0
 10
76.42806888349085
 20
-130.1639933007925
 30
0.0
 10
76.42806888349085
 20
-130.6635266340007
 30
0.0
 10
76.42806888349085
 20
-130.6635266340007
 30
0.0
 10
76.42806888349085
 20
-130.6635266340007
 30
0.0
 10
77.92804467855662
 20
-130.6635266340007
 30
0.0
 10
77.92804467855662
 20
-130.6635266340007
 30
0.0
 10
77.92804467855662
 20
-130.6635266340007
 30
0.0
 10
77.92804467855662
 20
-130.1639933007925
 30
0.0
 10
77.92804467855662
 20
-130.1639933007925
 30
0.0
 10
77.92804467855662
 20
-130.1639933007925
 30
0.0
 10
83.42848509378425
 20
-130.1639933007925
 30
0.0
 10
83.42848509378425
 20
-130.1639933007925
 30
0.0
 10
83.42848509378425
 20
-130.1639933007925
 30
0.0
 10
83.42848509378425
 20
-134.6632857996676
 30
0.0
 10
83.42848509378425
 20
-134.6632857996676
 30
0.0
 10
83.42848509378425
 20
-134.6632857996676
 30
0.0
 10
93.42821789422537
 20
-134.6632857996676
 30
0.0
 10
93.42821789422537
 20
-134.6632857996676
 30
0.0
 10
93.42821789422537
 20
-134.6632857996676
 30
0.0
 10
93.42821789422537
 20
-130.1639933007925
 30
0.0
 10
93.42821789422537
 20
-130.1639933007925
 30
0.0
 10
93.42821789422537
 20
-130.1639933007925
 30
0.0
 10
98.92798803169232
 20
-130.1639933007925
 30
0.0
 10
98.92798803169232
 20
-130.1639933007925
 30
0.0
 10
98.92798803169232
 20
-130.1639933007925
 30
0.0
 10
98.92798803169232
 20
-130.6635266340007
 30
0.0
 10
98.92798803169232
 20
-130.6635266340007
 30
0.0
 10
98.92798803169232
 20
-130.6635266340007
 30
0.0
 10
100.4279638267581
 20
-130.6635266340007
 30
0.0
 10
100.4279638267581
 20
-130.6635266340007
 30
0.0
 10
100.4279638267581
 20
-130.6635266340007
 30
0.0
 10
100.4279638267581
 20
-130.1639933007925
 30
0.0
 10
100.4279638267581
 20
-130.1639933007925
 30
0.0
 10
100.4279638267581
 20
-129.6117196898193
 30
0.0
 10
99.98011244929484
 20
-129.1635155232645
 30
0.0
 10
99.42822690781905
 20
-129.1635155232645
 30
0.0
  0
HATCH
  5
42
330
1F
100
AcDbEntity
  8
_U+30EC_U+30A4_U+30E4_U+30FC 1
 62
     9
420
 13224394
100
AcDbHatch
 10
0.0
 20
0.0
 30
0.0
210
0.0
220
0.0
230
1.0
  2
SOLID
 70
     1
 71
     0
 91
        1
 92
        1
 93
        2
 72
     4
 94
        3
 73
     0
 74
     0
 95
       68
 96
       64
 40
0.0
 40
0.0
 40
0.0
 40
0.0
 40
0.3527777776895833
 40
0.3527777776895833
 40
0.3527777776895833
 40
0.7055555553791667
 40
0.7055555553791667
 40
0.7055555553791667
 40
1.05833333306875
 40
1.05833333306875
 40
1.05833333306875
 40
1.411111110758333
 40
1.411111110758333
 40
1.411111110758333
 40
1.763888888447917
 40
1.763888888447917
 40
1.763888888447917
 40
2.1166666661375
 40
2.1166666661375
 40
2.1166666661375
 40
2.469444443827083
 40
2.469444443827083
 40
2.469444443827083
 40
2.822222221516667
 40
2.822222221516667
 40
2.822222221516667
 40
3.17499999920625
 40
3.17499999920625
 40
3.17499999920625
 40
3.527777776895833
 40
3.527777776895833
 40
3.527777776895833
 40
3.880555554585417
 40
3.880555554585417
 40
3.880555554585417
 40
4.233333332275
 40
4.233333332275
 40
4.233333332275
 40
4.586111109964584
 40
4.586111109964584
 40
4.586111109964584
 40
4.938888887654167
 40
4.938888887654167
 40
4.938888887654167
 40
5.29166666534375
 40
5.29166666534375
 40
5.29166666534375
 40
5.644444443033334
 40
5.644444443033334
 40
5.644444443033334
 40
5.997222220722917
 40
5.997222220722917
 40
5.997222220722917
 40
6.349999998412501
 40
6.349999998412501
 40
6.349999998412501
 40
6.702777776102083
 40
6.702777776102083
 40
6.702777776102083
 40
7.055555553791667
 40
7.055555553791667
 40
7.055555553791667
 40
7.40833333148125
 40
7.40833333148125
 40
7.40833333148125
 40
7.40833333148125
 10
99.42822690781905
 20
-129.1635155232645
 10
99.42822690781905
 20
-129.1635155232645
 10
92.4281305324486
 20
-129.1635155232645
 10
92.4281305324486
 20
-129.1635155232645
 10
92.4281305324486
 20
-129.1635155232645
 10
92.4281305324486
 20
-133.6635135776951
 10
92.4281305324486
 20
-133.6635135776951
 10
92.4281305324486
 20
-133.6635135776951
 10
88.83212328925929
 20
-133.6635135776951
 10
88.83212328925929
 20
-133.6635135776951
 10
88.83212328925929
 20
-133.6635135776951
 10
88.42801635512447
 20
-134.3635305219645
 10
88.42801635512447
 20
-134.3635305219645
 10
88.42801635512447
 20
-134.3635305219645
 10
88.02390942098965
 20
-133.6635135776951
 10
88.02390942098965
 20
-133.6635135776951
 10
88.02390942098965
 20
-133.6635135776951
 10
84.42825729050016
 20
-133.6635135776951
 10
84.42825729050016
 20
-133.6635135776951
 10
84.42825729050016
 20
-133.6635135776951
 10
84.42825729050016
 20
-129.1635155232645
 10
84.42825729050016
 20
-129.1635155232645
 10
84.42825729050016
 20
-129.1635155232645
 10
77.42851135796744
 20
-129.1635155232645
 10
77.42851135796744
 20
-129.1635155232645
 10
76.8759222030033
 20
-129.1635155232645
 10
76.42806888349085
 20
-129.6117196898193
 10
76.42806888349085
 20
-130.1639933007925
 10
76.42806888349085
 20
-130.1639933007925
 10
76.42806888349085
 20
-130.6635266340007
 10
76.42806888349085
 20
-130.6635266340007
 10
76.42806888349085
 20
-130.6635266340007
 10
77.92804467855662
 20
-130.6635266340007
 10
77.92804467855662
 20
-130.6635266340007
 10
77.92804467855662
 20
-130.6635266340007
 10
77.92804467855662
 20
-130.1639933007925
 10
77.92804467855662
 20
-130.1639933007925
 10
77.92804467855662
 20
-130.1639933007925
 10
83.42848509378425
 20
-130.1639933007925
 10
83.42848509378425
 20
-130.1639933007925
 10
83.42848509378425
 20
-130.1639933007925
 10
83.42848509378425
 20
-134.6632857996676
 10
83.42848509378425
 20
-134.6632857996676
 10
83.42848509378425
 20
-134.6632857996676
 10
93.42821789422537
 20
-134.6632857996676
 10
93.42821789422537
 20
-134.6632857996676
 10
93.42821789422537
 20
-134.6632857996676
 10
93.42821789422537
 20
-130.1639933007925
 10
93.42821789422537
 20
-130.1639933007925
 10
93.42821789422537
 20
-130.1639933007925
 10
98.92798803169232
 20
-130.1639933007925
 10
98.92798803169232
 20
-130.1639933007925
 10
98.92798803169232
 20
-130.1639933007925
 10
98.92798803169232
 20
-130.6635266340007
 10
98.92798803169232
 20
-130.6635266340007
 10
98.92798803169232
 20
-130.6635266340007
 10
100.4279638267581
 20
-130.6635266340007
 10
100.4279638267581
 20
-130.6635266340007
 10
100.4279638267581
 20
-130.6635266340007
 10
100.4279638267581
 20
-130.1639933007925
 10
100.4279638267581
 20
-130.1639933007925
 10
100.4279638267581
 20
-129.6117196898193
 10
99.98011244929484
 20
-129.1635155232645
 10
99.42822690781905
 20
-129.1635155232645
 97
        0
 72
     1
 10
99.42822690781905
 20
-129.1635155232645
 11
99.42822690781905
 21
-129.1635155232645
 97
        0
 75
     2
 76
     1
 98
        0
  0
POLYLINE
  5
43
330
1F
100
AcDbEntity
  8
_U+30EC_U+30A4_U+30E4_U+30FC 1
 62
   179
420
  2234388
370
    25
100
AcDb2dPolyline
 66
     1
 10
0.0
 20
0.0
 30
0.0
  0
VERTEX
  5
44
330
43
100
AcDbEntity
  8
_U+30EC_U+30A4_U+30E4_U+30FC 1
 62
   179
420
  2234388
370
    25
100
AcDbVertex
100
AcDb2dVertex
 10
83.42816759379235
 20
-134.6632857996676
 30
0.0
  0
VERTEX
  5
45
330
43
100
AcDbEntity
  8
_U+30EC_U+30A4_U+30E4_U+30FC 1
 62
   179
420
  2234388
370
    25
100
AcDbVertex
100
AcDb2dVertex
 10
93.42821789422537
 20
-134.6632857996676
 30
0.0
  0
SEQEND
  5
46
330
43
100
AcDbEntity
  8
_U+30EC_U+30A4_U+30E4_U+30FC 1
 62
   179
420
  2234388
370
    25
  0
POLYLINE
  5
47
330
1F
100
AcDbEntity
  8
_U+30EC_U+30A4_U+30E4_U+30FC 1
 62
   179
420
  2234388
370
    25
100
AcDb2dPolyline
 66
     1
 10
0.0
 20
0.0
 30
0.0
  0
VERTEX
  5
48
330
47
100
AcDbEntity
  8
_U+30EC_U+30A4_U+30E4_U+30FC 1
 62
   179
420
  2234388
370
    25
100
AcDbVertex
100
AcDb2dVertex
 10
88.83212328925929
 20
-133.6635135776951
 30
0.0
  0
VERTEX
  5
49
330
47
100
AcDbEntity
  8
_U+30EC_U+30A4_U+30E4_U+30FC 1
 62
   179
420
  2234388
370
    25
100
AcDbVertex
100
AcDb2dVertex
 10
92.42777775467084
 20
-133.6635135776951
 30
0.0
  0
SEQEND
  5
4A
330
47
100
AcDbEntity
  8
_U+30EC_U+30A4_U+30E4_U+30FC 1
 62
   179
420
  2234388
370
    25
  0
POLYLINE
  5
4B
330
1F
100
AcDbEntity
  8
_U+30EC_U+30A4_U+30E4_U+30FC 1
 62
   179
420
  2234388
370
    25
100
AcDb2dPolyline
 66
     1
 10
0.0
 20
0.0
 30
0.0
  0
VERTEX
  5
4C
330
4B
100
AcDbEntity
  8
_U+30EC_U+30A4_U+30E4_U+30FC 1
 62
   179
420
  2234388
370
    25
100
AcDbVertex
100
AcDb2dVertex
 10
92.4281305324486
 20
-129.1635155232645
 30
0.0
  0
VERTEX
  5
4D
330
4B
100
AcDbEntity
  8
_U+30EC_U+30A4_U+30E4_U+30FC 1
 62
   179
420
  2234388
370
    25
100
AcDbVertex
100
AcDb2dVertex
 10
92.4281305324486
 20
-133.6635135776951
 30
0.0
  0
SEQEND
  5
4E
330
4B
100
AcDbEntity
  8
_U+30EC_U+30A4_U+30E4_U+30FC 1
 62
   179
420
  2234388
370
    25
  0
POLYLINE
  5
4F
330
1F
100
AcDbEntity
  8
_U+30EC_U+30A4_U+30E4_U+30FC 1
 62
   179
420
  2234388
370
    25
100
AcDb2dPolyline
 66
     1
 10
0.0
 20
0.0
 30
0.0
  0
VERTEX
  5
50
330
4F
100
AcDbEntity
  8
_U+30EC_U+30A4_U+30E4_U+30FC 1
 62
   179
420
  2234388
370
    25
100
AcDbVertex
100
AcDb2dVertex
 10
93.42821789422537
 20
-130.1639933007925
 30
0.0
  0
VERTEX
  5
51
330
4F
100
AcDbEntity
  8
_U+30EC_U+30A4_U+30E4_U+30FC 1
 62
   179
420
  2234388
370
    25
100
AcDbVertex
100
AcDb2dVertex
 10
93.42821789422537
 20
-134.6636032996672
 30
0.0
  0
SEQEND
  5
52
330
4F
100
AcDbEntity
  8
_U+30EC_U+30A4_U+30E4_U+30FC 1
 62
   179
420
  2234388
370
    25
  0
POLYLINE
  5
53
330
1F
100
AcDbEntity
  8
_U+30EC_U+30A4_U+30E4_U+30FC 1
 62
   179
420
  2234388
370
    25
100
AcDb2dPolyline
 66
     1
 10
0.0
 20
0.0
 30
0.0
  0
VERTEX
  5
54
330
53
100
AcDbEntity
  8
_U+30EC_U+30A4_U+30E4_U+30FC 1
 62
   179
420
  2234388
370
    25
100
AcDbVertex
100
AcDb2dVertex
 10
100.4279638267581
 20
-130.1639933007925
 30
0.0
  0
VERTEX
  5
55
330
53
100
AcDbEntity
  8
_U+30EC_U+30A4_U+30E4_U+30FC 1
 62
   179
420
  2234388
370
    25
100
AcDbVertex
100
AcDb2dVertex
 10
100.4279638267581
 20
-130.6635266340007
 30
0.0
  0
SEQEND
  5
56
330
53
100
AcDbEntity
  8
_U+30EC_U+30A4_U+30E4_U+30FC 1
 62
   179
420
  2234388
370
    25
  0
POLYLINE
  5
57
330
1F
100
AcDbEntity
  8
_U+30EC_U+30A4_U+30E4_U+30FC 1
 62
   179
420
  2234388
370
    25
100
AcDb2dPolyline
 66
     1
 10
0.0
 20
0.0
 30
0.0
  0
VERTEX
  5
58
330
57
100
AcDbEntity
  8
_U+30EC_U+30A4_U+30E4_U+30FC 1
 62
   179
420
  2234388
370
    25
100
AcDbVertex
100
AcDb2dVertex
 10
98.92798803169232
 20
-130.6635266340007
 30
0.0
  0
VERTEX
  5
59
330
57
100
AcDbEntity
  8
_U+30EC_U+30A4_U+30E4_U+30FC 1
 62
   179
420
  2234388
370
    25
100
AcDbVertex
100
AcDb2dVertex
 10
100.4279638267581
 20
-130.6635266340007
 30
0.0
  0
SEQEND
  5
5A
330
57
100
AcDbEntity
  8
_U+30EC_U+30A4_U+30E4_U+30FC 1
 62
   179
420
  2234388
370
    25
  0
POLYLINE
  5
5B
330
1F
100
AcDbEntity
  8
_U+30EC_U+30A4_U+30E4_U+30FC 1
 62
   179
420
  2234388
370
    25
100
AcDb2dPolyline
 66
     1
 10
0.0
 20
0.0
 30
0.0
  0
VERTEX
  5
5C
330
5B
100
AcDbEntity
  8
_U+30EC_U+30A4_U+30E4_U+30FC 1
 62
   179
420
  2234388
370
    25
100
AcDbVertex
100
AcDb2dVertex
 10
92.4281305324486
 20
-129.1635155232645
 30
0.0
  0
VERTEX
  5
5D
330
5B
100
AcDbEntity
  8
_U+30EC_U+30A4_U+30E4_U+30FC 1
 62
   179
420
  2234388
370
    25
100
AcDbVertex
100
AcDb2dVertex
 10
99.42822690781905
 20
-129.1635155232645
 30
0.0
  0
SEQEND
  5
5E
330
5B
100
AcDbEntity
  8
_U+30EC_U+30A4_U+30E4_U+30FC 1
 62
   179
420
  2234388
370
    25
  0
POLYLINE
  5
5F
330
1F
100
AcDbEntity
  8
_U+30EC_U+30A4_U+30E4_U+30FC 1
 62
   179
420
  2234388
370
    25
100
AcDb2dPolyline
 66
     1
 10
0.0
 20
0.0
 30
0.0
  0
VERTEX
  5
60
330
5F
100
AcDbEntity
  8
_U+30EC_U+30A4_U+30E4_U+30FC 1
 62
   179
420
  2234388
370
    25
100
AcDbVertex
100
AcDb2dVertex
 10
93.42821789422537
 20
-130.1639933007925
 30
0.0
  0
VERTEX
  5
61
330
5F
100
AcDbEntity
  8
_U+30EC_U+30A4_U+30E4_U+30FC 1
 62
   179
420
  2234388
370
    25
100
AcDbVertex
100
AcDb2dVertex
 10
98.92798803169232
 20
-130.1639933007925
 30
0.0
  0
SEQEND
  5
62
330
5F
100
AcDbEntity
  8
_U+30EC_U+30A4_U+30E4_U+30FC 1
 62
   179
420
  2234388
370
    25
  0
POLYLINE
  5
63
330
1F
100
AcDbEntity
  8
_U+30EC_U+30A4_U+30E4_U+30FC 1
 62
   179
420
  2234388
370
    25
100
AcDb2dPolyline
 66
     1
 10
0.0
 20
0.0
 30
0.0
  0
VERTEX
  5
64
330
63
100
AcDbEntity
  8
_U+30EC_U+30A4_U+30E4_U+30FC 1
 62
   179
420
  2234388
370
    25
100
AcDbVertex
100
AcDb2dVertex
 10
98.92798803169232
 20
-130.1639933007925
 30
0.0
  0
VERTEX
  5
65
330
63
100
AcDbEntity
  8
_U+30EC_U+30A4_U+30E4_U+30FC 1
 62
   179
420
  2234388
370
    25
100
AcDbVertex
100
AcDb2dVertex
 10
98.92798803169232
 20
-130.6635266340007
 30
0.0
  0
SEQEND
  5
66
330
63
100
AcDbEntity
  8
_U+30EC_U+30A4_U+30E4_U+30FC 1
 62
   179
420
  2234388
370
    25
  0
POLYLINE
  5
67
330
1F
100
AcDbEntity
  8
_U+30EC_U+30A4_U+30E4_U+30FC 1
 62
   179
420
  2234388
370
    25
100
AcDb2dPolyline
 66
     1
 10
0.0
 20
0.0
 30
0.0
  0
VERTEX
  5
68
330
67
100
AcDbEntity
  8
_U+30EC_U+30A4_U+30E4_U+30FC 1
 62
   179
420
  2234388
370
    25
100
AcDbVertex
100
AcDb2dVertex
 10
88.42801635512447
 20
-134.3635305219645
 30
0.0
  0
VERTEX
  5
69
330
67
100
AcDbEntity
  8
_U+30EC_U+30A4_U+30E4_U+30FC 1
 62
   179
420
  2234388
370
    25
100
AcDbVertex
100
AcDb2dVertex
 10
88.83247606702807
 20
-133.6638310776953
 30
0.0
  0
SEQEND
  5
6A
330
67
100
AcDbEntity
  8
_U+30EC_U+30A4_U+30E4_U+30FC 1
 62
   179
420
  2234388
370
    25
  0
POLYLINE
  5
6B
330
1F
100
AcDbEntity
  8
_U+30EC_U+30A4_U+30E4_U+30FC 1
 62
   179
420
  2234388
370
    25
100
AcDb2dPolyline
 66
     1
 10
0.0
 20
0.0
 30
0.0
  0
VERTEX
  5
6C
330
6B
100
AcDbEntity
  8
_U+30EC_U+30A4_U+30E4_U+30FC 1
 62
   179
420
  2234388
370
    25
100
AcDbVertex
100
AcDb2dVertex
 10
88.42801635512447
 20
-134.3635305219645
 30
0.0
  0
VERTEX
  5
6D
330
6B
100
AcDbEntity
  8
_U+30EC_U+30A4_U+30E4_U+30FC 1
 62
   179
420
  2234388
370
    25
100
AcDbVertex
100
AcDb2dVertex
 10
88.02355664322087
 20
-133.6638310776953
 30
0.0
  0
SEQEND
  5
6E
330
6B
100
AcDbEntity
  8
_U+30EC_U+30A4_U+30E4_U+30FC 1
 62
   179
420
  2234388
370
    25
  0
POLYLINE
  5
6F
330
1F
100
AcDbEntity
  8
_U+30EC_U+30A4_U+30E4_U+30FC 1
 62
   179
420
  2234388
370
    25
100
AcDb2dPolyline
 66
     1
 10
0.0
 20
0.0
 30
0.0
  0
VERTEX
  5
70
330
6F
100
AcDbEntity
  8
_U+30EC_U+30A4_U+30E4_U+30FC 1
 62
   179
420
  2234388
370
    25
100
AcDbVertex
100
AcDb2dVertex
 10
88.02390942098965
 20
-133.6635135776951
 30
0.0
  0
VERTEX
  5
71
330
6F
100
AcDbEntity
  8
_U+30EC_U+30A4_U+30E4_U+30FC 1
 62
   179
420
  2234388
370
    25
100
AcDbVertex
100
AcDb2dVertex
 10
84.42825729050016
 20
-133.6635135776951
 30
0.0
  0
SEQEND
  5
72
330
6F
100
AcDbEntity
  8
_U+30EC_U+30A4_U+30E4_U+30FC 1
 62
   179
420
  2234388
370
    25
  0
POLYLINE
  5
73
330
1F
100
AcDbEntity
  8
_U+30EC_U+30A4_U+30E4_U+30FC 1
 62
   179
420
  2234388
370
    25
100
AcDb2dPolyline
 66
     1
 10
0.0
 20
0.0
 30
0.0
  0
VERTEX
  5
74
330
73
100
AcDbEntity
  8
_U+30EC_U+30A4_U+30E4_U+30FC 1
 62
   179
420
  2234388
370
    25
100
AcDbVertex
100
AcDb2dVertex
 10
83.42816759379235
 20
-130.1639933007925
 30
0.0
  0
VERTEX
  5
75
330
73
100
AcDbEntity
  8
_U+30EC_U+30A4_U+30E4_U+30FC 1
 62
   179
420
  2234388
370
    25
100
AcDbVertex
100
AcDb2dVertex
 10
83.42816759379235
 20
-134.6636032996672
 30
0.0
  0
SEQEND
  5
76
330
73
100
AcDbEntity
  8
_U+30EC_U+30A4_U+30E4_U+30FC 1
 62
   179
420
  2234388
370
    25
  0
POLYLINE
  5
77
330
1F
100
AcDbEntity
  8
_U+30EC_U+30A4_U+30E4_U+30FC 1
 62
   179
420
  2234388
370
    25
100
AcDb2dPolyline
 66
     1
 10
0.0
 20
0.0
 30
0.0
  0
VERTEX
  5
78
330
77
100
AcDbEntity
  8
_U+30EC_U+30A4_U+30E4_U+30FC 1
 62
   179
420
  2234388
370
    25
100
AcDbVertex
100
AcDb2dVertex
 10
84.42825729050016
 20
-129.1635155232645
 30
0.0
  0
VERTEX
  5
79
330
77
100
AcDbEntity
  8
_U+30EC_U+30A4_U+30E4_U+30FC 1
 62
   179
420
  2234388
370
    25
100
AcDbVertex
100
AcDb2dVertex
 10
84.42825729050016
 20
-133.6635135776951
 30
0.0
  0
SEQEND
  5
7A
330
77
100
AcDbEntity
  8
_U+30EC_U+30A4_U+30E4_U+30FC 1
 62
   179
420
  2234388
370
    25
  0
POLYLINE
  5
7B
330
1F
100
AcDbEntity
  8
_U+30EC_U+30A4_U+30E4_U+30FC 1
 62
   179
420
  2234388
370
    25
100
AcDb2dPolyline
 66
     1
 10
0.0
 20
0.0
 30
0.0
  0
VERTEX
  5
7C
330
7B
100
AcDbEntity
  8
_U+30EC_U+30A4_U+30E4_U+30FC 1
 62
   179
420
  2234388
370
    25
100
AcDbVertex
100
AcDb2dVertex
 10
77.92804467855662
 20
-130.1639933007925
 30
0.0
  0
VERTEX
  5
7D
330
7B
100
AcDbEntity
  8
_U+30EC_U+30A4_U+30E4_U+30FC 1
 62
   179
420
  2234388
370
    25
100
AcDbVertex
100
AcDb2dVertex
 10
77.92804467855662
 20
-130.6635266340007
 30
0.0
  0
SEQEND
  5
7E
330
7B
100
AcDbEntity
  8
_U+30EC_U+30A4_U+30E4_U+30FC 1
 62
   179
420
  2234388
370
    25
  0
POLYLINE
  5
7F
330
1F
100
AcDbEntity
  8
_U+30EC_U+30A4_U+30E4_U+30FC 1
 62
   179
420
  2234388
370
    25
100
AcDb2dPolyline
 66
     1
 10
0.0
 20
0.0
 30
0.0
  0
VERTEX
  5
80
330
7F
100
AcDbEntity
  8
_U+30EC_U+30A4_U+30E4_U+30FC 1
 62
   179
420
  2234388
370
    25
100
AcDbVertex
100
AcDb2dVertex
 10
83.42816759379235
 20
-130.1639933007925
 30
0.0
  0
VERTEX
  5
81
330
7F
100
AcDbEntity
  8
_U+30EC_U+30A4_U+30E4_U+30FC 1
 62
   179
420
  2234388
370
    25
100
AcDbVertex
100
AcDb2dVertex
 10
77.92804467855662
 20
-130.1639933007925
 30
0.0
  0
SEQEND
  5
82
330
7F
100
AcDbEntity
  8
_U+30EC_U+30A4_U+30E4_U+30FC 1
 62
   179
420
  2234388
370
    25
  0
POLYLINE
  5
83
330
1F
100
AcDbEntity
  8
_U+30EC_U+30A4_U+30E4_U+30FC 1
 62
   179
420
  2234388
370
    25
100
AcDb2dPolyline
 66
     1
 10
0.0
 20
0.0
 30
0.0
  0
VERTEX
  5
84
330
83
100
AcDbEntity
  8
_U+30EC_U+30A4_U+30E4_U+30FC 1
 62
   179
420
  2234388
370
    25
100
AcDbVertex
100
AcDb2dVertex
 10
84.42825729050016
 20
-129.1635155232645
 30
0.0
  0
VERTEX
  5
85
330
83
100
AcDbEntity
  8
_U+30EC_U+30A4_U+30E4_U+30FC 1
 62
   179
420
  2234388
370
    25
100
AcDbVertex
100
AcDb2dVertex
 10
77.42784108020676
 20
-129.1635155232645
 30
0.0
  0
SEQEND
  5
86
330
83
100
AcDbEntity
  8
_U+30EC_U+30A4_U+30E4_U+30FC 1
 62
   179
420
  2234388
370
    25
  0
POLYLINE
  5
87
330
1F
100
AcDbEntity
  8
_U+30EC_U+30A4_U+30E4_U+30FC 1
 62
   179
420
  2234388
370
    25
100
AcDb2dPolyline
 66
     1
 10
0.0
 20
0.0
 30
0.0
  0
VERTEX
  5
88
330
87
100
AcDbEntity
  8
_U+30EC_U+30A4_U+30E4_U+30FC 1
 62
   179
420
  2234388
370
    25
100
AcDbVertex
100
AcDb2dVertex
 10
77.92804467855662
 20
-130.6635266340007
 30
0.0
  0
VERTEX
  5
89
330
87
100
AcDbEntity
  8
_U+30EC_U+30A4_U+30E4_U+30FC 1
 62
   179
420
  2234388
370
    25
100
AcDbVertex
100
AcDb2dVertex
 10
76.42806888349085
 20
-130.6635266340007
 30
0.0
  0
SEQEND
  5
8A
330
87
100
AcDbEntity
  8
_U+30EC_U+30A4_U+30E4_U+30FC 1
 62
   179
420
  2234388
370
    25
  0
POLYLINE
  5
8B
330
1F
100
AcDbEntity
  8
_U+30EC_U+30A4_U+30E4_U+30FC 1
 62
   179
420
  2234388
370
    25
100
AcDb2dPolyline
 66
     1
 10
0.0
 20
0.0
 30
0.0
  0
VERTEX
  5
8C
330
8B
100
AcDbEntity
  8
_U+30EC_U+30A4_U+30E4_U+30FC 1
 62
   179
420
  2234388
370
    25
100
AcDbVertex
100
AcDb2dVertex
 10
76.42806888349085
 20
-130.1639933007925
 30
0.0
  0
VERTEX
  5
8D
330
8B
100
AcDbEntity
  8
_U+30EC_U+30A4_U+30E4_U+30FC 1
 62
   179
420
  2234388
370
    25
100
AcDbVertex
100
AcDb2dVertex
 10
76.42806888349085
 20
-130.6635266340007
 30
0.0
  0
SEQEND
  5
8E
330
8B
100
AcDbEntity
  8
_U+30EC_U+30A4_U+30E4_U+30FC 1
 62
   179
420
  2234388
370
    25
  0
SPLINE
  5
8F
330
1F
100
AcDbEntity
  8
_U+30EC_U+30A4_U+30E4_U+30FC 1
 62
   179
420
  2234388
370
    25
100
AcDbSpline
210
0.0
220
0.0
230
1.0
 70
     8
 71
     3
 72
     8
 73
     4
 74
     0
 42
0.0000000001
 43
0.0000000001
 12
1.0
 22
0.0
 32
0.0
 13
1.0
 23
0.0
 33
0.0
 40
0.0
 40
0.0
 40
0.0
 40
0.0
 40
1.0
 40
1.0
 40
1.0
 40
1.0
 10
100.4279638267581
 20
-130.1639933007925
 30
0.0
 10
100.4279638267581
 20
-129.6117196898193
 30
0.0
 10
99.98011244929484
 20
-129.1635155232645
 30
0.0
 10
99.42822690781905
 20
-129.1635155232645
 30
0.0
  0
SPLINE
  5
90
330
1F
100
AcDbEntity
  8
_U+30EC_U+30A4_U+30E4_U+30FC 1
 62
   179
420
  2234388
370
    25
100
AcDbSpline
210
0.0
220
0.0
230
1.0
 70
     8
 71
     3
 72
     8
 73
     4
 74
     0
 42
0.0000000001
 43
0.0000000001
 12
1.0
 22
0.0
 32
0.0
 13
1.0
 23
0.0
 33
0.0
 40
0.0
 40
0.0
 40
0.0
 40
0.0
 40
1.0
 40
1.0
 40
1.0
 40
1.0
 10
77.42815858019866
 20
-129.1635155232645
 30
0.0
 10
76.8759222030033
 20
-129.1635155232645
 30
0.0
 10
76.42806888349085
 20
-129.6117196898193
 30
0.0
 10
76.42806888349085
 20
-130.1639933007925
 30
0.0
  0
SPLINE
  5
91
330
1F
100
AcDbEntity
  8
_U+30EC_U+30A4_U+30E4_U+30FC 1
 62
   179
420
  2234388
370
     9
100
AcDbSpline
210
0.0
220
0.0
230
1.0
 70
    11
 71
     3
 72
    17
 73
    13
 74
     0
 42
0.0000000001
 43
0.0000000001
 12
1.0
 22
0.0
 32
0.0
 13
1.0
 23
0.0
 33
0.0
 40
0.0
 40
0.0
 40
0.0
 40
0.0
 40
1.0
 40
1.0
 40
1.0
 40
2.0
 40
2.0
 40
2.0
 40
3.0
 40
3.0
 40
3.0
 40
4.0
 40
4.0
 40
4.0
 40
4.0
 10
76.52797554760869
 20
-125.1637563575979
 30
0.0
 10
76.52797554760869
 20
-125.108652468723
 30
0.0
 10
76.48317277097392
 20
-125.0638496909563
 30
0.0
 10
76.42806888349085
 20
-125.0638496909563
 30
0.0
 10
76.3729297182309
 20
-125.0638496909563
 30
0.0
 10
76.32816221937301
 20
-125.108652468723
 30
0.0
 10
76.32816221937301
 20
-125.1637563575979
 30
0.0
 10
76.32816221937301
 20
-125.218895524251
 30
0.0
 10
76.3729297182309
 20
-125.2636630242395
 30
0.0
 10
76.42806888349085
 20
-125.2636630242395
 30
0.0
 10
76.48317277097392
 20
-125.2636630242395
 30
0.0
 10
76.52797554760869
 20
-125.218895524251
 30
0.0
 10
76.52797554760869
 20
-125.1637563575979
 30
0.0
  0
SPLINE
  5
92
330
1F
100
AcDbEntity
  8
_U+30EC_U+30A4_U+30E4_U+30FC 1
 62
   179
420
  2234388
370
     9
100
AcDbSpline
210
0.0
220
0.0
230
1.0
 70
    11
 71
     3
 72
    17
 73
    13
 74
     0
 42
0.0000000001
 43
0.0000000001
 12
1.0
 22
0.0
 32
0.0
 13
1.0
 23
0.0
 33
0.0
 40
0.0
 40
0.0
 40
0.0
 40
0.0
 40
1.0
 40
1.0
 40
1.0
 40
2.0
 40
2.0
 40
2.0
 40
3.0
 40
3.0
 40
3.0
 40
4.0
 40
4.0
 40
4.0
 40
4.0
 10
84.528163954618
 20
-125.1637563575979
 30
0.0
 10
84.528163954618
 20
-125.108652468723
 30
0.0
 10
84.4833964557601
 20
-125.0638496909563
 30
0.0
 10
84.42825729050016
 20
-125.0638496909563
 30
0.0
 10
84.37315553446216
 20
-125.0638496909563
 30
0.0
 10
84.32835275669575
 20
-125.108652468723
 30
0.0
 10
84.32835275669575
 20
-125.1637563575979
 30
0.0
 10
84.32835275669575
 20
-125.218895524251
 30
0.0
 10
84.37315553446216
 20
-125.2636630242395
 30
0.0
 10
84.42825729050016
 20
-125.2636630242395
 30
0.0
 10
84.4833964557601
 20
-125.2636630242395
 30
0.0
 10
84.528163954618
 20
-125.218895524251
 30
0.0
 10
84.528163954618
 20
-125.1637563575979
 30
0.0
  0
SPLINE
  5
93
330
1F
100
AcDbEntity
  8
_U+30EC_U+30A4_U+30E4_U+30FC 1
 62
   179
420
  2234388
370
     9
100
AcDbSpline
210
0.0
220
0.0
230
1.0
 70
    11
 71
     3
 72
    17
 73
    13
 74
     0
 42
0.0000000001
 43
0.0000000001
 12
1.0
 22
0.0
 32
0.0
 13
1.0
 23
0.0
 33
0.0
 40
0.0
 40
0.0
 40
0.0
 40
0.0
 40
1.0
 40
1.0
 40
1.0
 40
2.0
 40
2.0
 40
2.0
 40
3.0
 40
3.0
 40
3.0
 40
4.0
 40
4.0
 40
4.0
 40
4.0
 10
92.52803486163539
 20
-125.1637563575979
 30
0.0
 10
92.52803486163539
 20
-125.108652468723
 30
0.0
 10
92.48323208500062
 20
-125.0638496909563
 30
0.0
 10
92.4281305324486
 20
-125.0638496909563
 30
0.0
 10
92.37334181002639
 20
-125.0638496909563
 30
0.0
 10
92.3285743111685
 20
-125.108652468723
 30
0.0
 10
92.3285743111685
 20
-125.1637563575979
 30
0.0
 10
92.3285743111685
 20
-125.218895524251
 30
0.0
 10
92.37334181002639
 20
-125.2636630242395
 30
0.0
 10
92.4281305324486
 20
-125.2636630242395
 30
0.0
 10
92.48323208500062
 20
-125.2636630242395
 30
0.0
 10
92.52803486163539
 20
-125.218895524251
 30
0.0
 10
92.52803486163539
 20
-125.1637563575979
 30
0.0
  0
SPLINE
  5
94
330
1F
100
AcDbEntity
  8
_U+30EC_U+30A4_U+30E4_U+30FC 1
 62
   179
420
  2234388
370
     9
100
AcDbSpline
210
0.0
220
0.0
230
1.0
 70
    11
 71
     3
 72
    17
 73
    13
 74
     0
 42
0.0000000001
 43
0.0000000001
 12
1.0
 22
0.0
 32
0.0
 13
1.0
 23
0.0
 33
0.0
 40
0.0
 40
0.0
 40
0.0
 40
0.0
 40
1.0
 40
1.0
 40
1.0
 40
2.0
 40
2.0
 40
2.0
 40
3.0
 40
3.0
 40
3.0
 40
4.0
 40
4.0
 40
4.0
 40
4.0
 10
100.5282232686447
 20
-125.1637563575979
 30
0.0
 10
100.5282232686447
 20
-125.108652468723
 30
0.0
 10
100.4834583082122
 20
-125.0638496909563
 30
0.0
 10
100.4279638267581
 20
-125.0638496909563
 30
0.0
 10
100.372859939275
 20
-125.0638496909563
 30
0.0
 10
100.3280571626402
 20
-125.108652468723
 30
0.0
 10
100.3280571626402
 20
-125.1637563575979
 30
0.0
 10
100.3280571626402
 20
-125.218895524251
 30
0.0
 10
100.372859939275
 20
-125.2636630242395
 30
0.0
 10
100.4279638267581
 20
-125.2636630242395
 30
0.0
 10
100.4834583082122
 20
-125.2636630242395
 30
0.0
 10
100.5282232686447
 20
-125.218895524251
 30
0.0
 10
100.5282232686447
 20
-125.1637563575979
 30
0.0
  0
SPLINE
  5
95
330
1F
100
AcDbEntity
  8
_U+30EC_U+30A4_U+30E4_U+30FC 1
 62
   179
420
  2234388
370
     9
100
AcDbSpline
210
0.0
220
0.0
230
1.0
 70
    11
 71
     3
 72
    17
 73
    13
 74
     0
 42
0.0000000001
 43
0.0000000001
 12
1.0
 22
0.0
 32
0.0
 13
1.0
 23
0.0
 33
0.0
 40
0.0
 40
0.0
 40
0.0
 40
0.0
 40
1.0
 40
1.0
 40
1.0
 40
2.0
 40
2.0
 40
2.0
 40
3.0
 40
3.0
 40
3.0
 40
4.0
 40
4.0
 40
4.0
 40
4.0
 10
104.527982333269
 20
-129.1635155232645
 30
0.0
 10
104.527982333269
 20
-129.1087291343898
 30
0.0
 10
104.4832148344111
 20
-129.0636088566228
 30
0.0
 10
104.4280756691512
 20
-129.0636088566228
 30
0.0
 10
104.37328928166
 20
-129.0636088566228
 30
0.0
 10
104.3285217828021
 20
-129.1087291343898
 30
0.0
 10
104.3285217828021
 20
-129.1635155232645
 30
0.0
 10
104.3285217828021
 20
-129.2186546899175
 30
0.0
 10
104.37328928166
 20
-129.2634221899061
 30
0.0
 10
104.4280756691512
 20
-129.2634221899061
 30
0.0
 10
104.4832148344111
 20
-129.2634221899061
 30
0.0
 10
104.527982333269
 20
-129.2186546899175
 30
0.0
 10
104.527982333269
 20
-129.1635155232645
 30
0.0
  0
SPLINE
  5
96
330
1F
100
AcDbEntity
  8
_U+30EC_U+30A4_U+30E4_U+30FC 1
 62
   179
420
  2234388
370
     9
100
AcDbSpline
210
0.0
220
0.0
230
1.0
 70
    11
 71
     3
 72
    17
 73
    13
 74
     0
 42
0.0000000001
 43
0.0000000001
 12
1.0
 22
0.0
 32
0.0
 13
1.0
 23
0.0
 33
0.0
 40
0.0
 40
0.0
 40
0.0
 40
0.0
 40
1.0
 40
1.0
 40
1.0
 40
2.0
 40
2.0
 40
2.0
 40
3.0
 40
3.0
 40
3.0
 40
4.0
 40
4.0
 40
4.0
 40
4.0
 10
104.527982333269
 20
-130.6635266340007
 30
0.0
 10
104.527982333269
 20
-130.6083874673477
 30
0.0
 10
104.4832148344111
 20
-130.5636199673591
 30
0.0
 10
104.4280756691512
 20
-130.5636199673591
 30
0.0
 10
104.37328928166
 20
-130.5636199673591
 30
0.0
 10
104.3285217828021
 20
-130.6083874673477
 30
0.0
 10
104.3285217828021
 20
-130.6635266340007
 30
0.0
 10
104.3285217828021
 20
-130.7186305228756
 30
0.0
 10
104.37328928166
 20
-130.7634333006424
 30
0.0
 10
104.4280756691512
 20
-130.7634333006424
 30
0.0
 10
104.4832148344111
 20
-130.7634333006424
 30
0.0
 10
104.527982333269
 20
-130.7186305228756
 30
0.0
 10
104.527982333269
 20
-130.6635266340007
 30
0.0
  0
SPLINE
  5
97
330
1F
100
AcDbEntity
  8
_U+30EC_U+30A4_U+30E4_U+30FC 1
 62
   179
420
  2234388
370
     9
100
AcDbSpline
210
0.0
220
0.0
230
1.0
 70
    11
 71
     3
 72
    17
 73
    13
 74
     0
 42
0.0000000001
 43
0.0000000001
 12
1.0
 22
0.0
 32
0.0
 13
1.0
 23
0.0
 33
0.0
 40
0.0
 40
0.0
 40
0.0
 40
0.0
 40
1.0
 40
1.0
 40
1.0
 40
2.0
 40
2.0
 40
2.0
 40
3.0
 40
3.0
 40
3.0
 40
4.0
 40
4.0
 40
4.0
 40
4.0
 10
104.527982333269
 20
-134.6632857996676
 30
0.0
 10
104.527982333269
 20
-134.6084994107923
 30
0.0
 10
104.4832148344111
 20
-134.563379133026
 30
0.0
 10
104.4280756691512
 20
-134.563379133026
 30
0.0
 10
104.37328928166
 20
-134.563379133026
 30
0.0
 10
104.3285217828021
 20
-134.6084994107923
 30
0.0
 10
104.3285217828021
 20
-134.6632857996676
 30
0.0
 10
104.3285217828021
 20
-134.7187424663203
 30
0.0
 10
104.37328928166
 20
-134.7638627440866
 30
0.0
 10
104.4280756691512
 20
-134.7638627440866
 30
0.0
 10
104.4832148344111
 20
-134.7638627440866
 30
0.0
 10
104.527982333269
 20
-134.7187424663203
 30
0.0
 10
104.527982333269
 20
-134.6632857996676
 30
0.0
  0
POLYLINE
  5
98
330
1F
100
AcDbEntity
  8
_U+30EC_U+30A4_U+30E4_U+30FC 1
 62
   179
420
  2234388
370
     9
100
AcDb2dPolyline
 66
     1
 10
0.0
 20
0.0
 30
0.0
  0
VERTEX
  5
99
330
98
100
AcDbEntity
  8
_U+30EC_U+30A4_U+30E4_U+30FC 1
 62
   179
420
  2234388
370
     9
100
AcDbVertex
100
AcDb2dVertex
 10
76.42806888349085
 20
-125.1637563575979
 30
0.0
  0
VERTEX
  5
9A
330
98
100
AcDbEntity
  8
_U+30EC_U+30A4_U+30E4_U+30FC 1
 62
   179
420
  2234388
370
     9
100
AcDbVertex
100
AcDb2dVertex
 10
84.42825729050016
 20
-125.1637563575979
 30
0.0
  0
SEQEND
  5
9B
330
98
100
AcDbEntity
  8
_U+30EC_U+30A4_U+30E4_U+30FC 1
 62
   179
420
  2234388
370
     9
  0
POLYLINE
  5
9C
330
1F
100
AcDbEntity
  8
_U+30EC_U+30A4_U+30E4_U+30FC 1
 62
   179
420
  2234388
370
     9
100
AcDb2dPolyline
 66
     1
 10
0.0
 20
0.0
 30
0.0
  0
VERTEX
  5
9D
330
9C
100
AcDbEntity
  8
_U+30EC_U+30A4_U+30E4_U+30FC 1
 62
   179
420
  2234388
370
     9
100
AcDbVertex
100
AcDb2dVertex
 10
76.42806888349085
 20
-127.6235699680942
 30
0.0
  0
VERTEX
  5
9E
330
9C
100
AcDbEntity
  8
_U+30EC_U+30A4_U+30E4_U+30FC 1
 62
   179
420
  2234388
370
     9
100
AcDbVertex
100
AcDb2dVertex
 10
76.42806888349085
 20
-124.163313857848
 30
0.0
  0
SEQEND
  5
9F
330
9C
100
AcDbEntity
  8
_U+30EC_U+30A4_U+30E4_U+30FC 1
 62
   179
420
  2234388
370
     9
  0
POLYLINE
  5
A0
330
1F
100
AcDbEntity
  8
_U+30EC_U+30A4_U+30E4_U+30FC 1
 62
   179
420
  2234388
370
     9
100
AcDb2dPolyline
 66
     1
 10
0.0
 20
0.0
 30
0.0
  0
VERTEX
  5
A1
330
A0
100
AcDbEntity
  8
_U+30EC_U+30A4_U+30E4_U+30FC 1
 62
   179
420
  2234388
370
     9
100
AcDbVertex
100
AcDb2dVertex
 10
84.42825729050016
 20
-126.6237977461219
 30
0.0
  0
VERTEX
  5
A2
330
A0
100
AcDbEntity
  8
_U+30EC_U+30A4_U+30E4_U+30FC 1
 62
   179
420
  2234388
370
     9
100
AcDbVertex
100
AcDb2dVertex
 10
84.42825729050016
 20
-124.163313857848
 30
0.0
  0
SEQEND
  5
A3
330
A0
100
AcDbEntity
  8
_U+30EC_U+30A4_U+30E4_U+30FC 1
 62
   179
420
  2234388
370
     9
  0
INSERT
  5
A5
330
1F
100
AcDbEntity
  8
_U+30EC_U+30A4_U+30E4_U+30FC 1
100
AcDbBlockReference
  2
block 2
 10
0.0
 20
0.0
 30
0.0
  0
POLYLINE
  5
AC
330
1F
100
AcDbEntity
  8
_U+30EC_U+30A4_U+30E4_U+30FC 1
 62
   179
420
  2234388
370
     9
100
AcDb2dPolyline
 66
     1
 10
0.0
 20
0.0
 30
0.0
  0
VERTEX
  5
AD
330
AC
100
AcDbEntity
  8
_U+30EC_U+30A4_U+30E4_U+30FC 1
 62
   179
420
  2234388
370
     9
100
AcDbVertex
100
AcDb2dVertex
 10
84.42825729050016
 20
-125.1637563575979
 30
0.0
  0
VERTEX
  5
AE
330
AC
100
AcDbEntity
  8
_U+30EC_U+30A4_U+30E4_U+30FC 1
 62
   179
420
  2234388
370
     9
100
AcDbVertex
100
AcDb2dVertex
 10
92.4281305324486
 20
-125.1637563575979
 30
0.0
  0
SEQEND
  5
AF
330
AC
100
AcDbEntity
  8
_U+30EC_U+30A4_U+30E4_U+30FC 1
 62
   179
420
  2234388
370
     9
  0
POLYLINE
  5
B0
330
1F
100
AcDbEntity
  8
_U+30EC_U+30A4_U+30E4_U+30FC 1
 62
   179
420
  2234388
370
     9
100
AcDb2dPolyline
 66
     1
 10
0.0
 20
0.0
 30
0.0
  0
VERTEX
  5
B1
330
B0
100
AcDbEntity
  8
_U+30EC_U+30A4_U+30E4_U+30FC 1
 62
   179
420
  2234388
370
     9
100
AcDbVertex
100
AcDb2dVertex
 10
92.4281305324486
 20
-126.6237977461219
 30
0.0
  0
VERTEX
  5
B2
330
B0
100
AcDbEntity
  8
_U+30EC_U+30A4_U+30E4_U+30FC 1
 62
   179
420
  2234388
370
     9
100
AcDbVertex
100
AcDb2dVertex
 10
92.4281305324486
 20
-124.163313857848
 30
0.0
  0
SEQEND
  5
B3
330
B0
100
AcDbEntity
  8
_U+30EC_U+30A4_U+30E4_U+30FC 1
 62
   179
420
  2234388
370
     9
  0
INSERT
  5
B5
330
1F
100
AcDbEntity
  8
_U+30EC_U+30A4_U+30E4_U+30FC 1
100
AcDbBlockReference
  2
block 3
 10
0.0
 20
0.0
 30
0.0
  0
POLYLINE
  5
BC
330
1F
100
AcDbEntity
  8
_U+30EC_U+30A4_U+30E4_U+30FC 1
 62
   179
420
  2234388
370
     9
100
AcDb2dPolyline
 66
     1
 10
0.0
 20
0.0
 30
0.0
  0
VERTEX
  5
BD
330
BC
100
AcDbEntity
  8
_U+30EC_U+30A4_U+30E4_U+30FC 1
 62
   179
420
  2234388
370
     9
100
AcDbVertex
100
AcDb2dVertex
 10
92.4281305324486
 20
-125.1637563575979
 30
0.0
  0
VERTEX
  5
BE
330
BC
100
AcDbEntity
  8
_U+30EC_U+30A4_U+30E4_U+30FC 1
 62
   179
420
  2234388
370
     9
100
AcDbVertex
100
AcDb2dVertex
 10
100.4279638267581
 20
-125.1637563575979
 30
0.0
  0
SEQEND
  5
BF
330
BC
100
AcDbEntity
  8
_U+30EC_U+30A4_U+30E4_U+30FC 1
 62
   179
420
  2234388
370
     9
  0
POLYLINE
  5
C0
330
1F
100
AcDbEntity
  8
_U+30EC_U+30A4_U+30E4_U+30FC 1
 62
   179
420
  2234388
370
     9
100
AcDb2dPolyline
 66
     1
 10
0.0
 20
0.0
 30
0.0
  0
VERTEX
  5
C1
330
C0
100
AcDbEntity
  8
_U+30EC_U+30A4_U+30E4_U+30FC 1
 62
   179
420
  2234388
370
     9
100
AcDbVertex
100
AcDb2dVertex
 10
100.4279638267581
 20
-127.6235699680942
 30
0.0
  0
VERTEX
  5
C2
330
C0
100
AcDbEntity
  8
_U+30EC_U+30A4_U+30E4_U+30FC 1
 62
   179
420
  2234388
370
     9
100
AcDbVertex
100
AcDb2dVertex
 10
100.4279638267581
 20
-124.163313857848
 30
0.0
  0
SEQEND
  5
C3
330
C0
100
AcDbEntity
  8
_U+30EC_U+30A4_U+30E4_U+30FC 1
 62
   179
420
  2234388
370
     9
  0
INSERT
  5
C5
330
1F
100
AcDbEntity
  8
_U+30EC_U+30A4_U+30E4_U+30FC 1
100
AcDbBlockReference
  2
block 4
 10
0.0
 20
0.0
 30
0.0
  0
POLYLINE
  5
CC
330
1F
100
AcDbEntity
  8
_U+30EC_U+30A4_U+30E4_U+30FC 1
 62
   179
420
  2234388
370
     9
100
AcDb2dPolyline
 66
     1
 10
0.0
 20
0.0
 30
0.0
  0
VERTEX
  5
CD
330
CC
100
AcDbEntity
  8
_U+30EC_U+30A4_U+30E4_U+30FC 1
 62
   179
420
  2234388
370
     9
100
AcDbVertex
100
AcDb2dVertex
 10
104.4280756691512
 20
-129.1635155232645
 30
0.0
  0
VERTEX
  5
CE
330
CC
100
AcDbEntity
  8
_U+30EC_U+30A4_U+30E4_U+30FC 1
 62
   179
420
  2234388
370
     9
100
AcDbVertex
100
AcDb2dVertex
 10
104.4280756691512
 20
-123.9059624690236
 30
0.0
  0
SEQEND
  5
CF
330
CC
100
AcDbEntity
  8
_U+30EC_U+30A4_U+30E4_U+30FC 1
 62
   179
420
  2234388
370
     9
  0
POLYLINE
  5
D0
330
1F
100
AcDbEntity
  8
_U+30EC_U+30A4_U+30E4_U+30FC 1
 62
   179
420
  2234388
370
     9
100
AcDb2dPolyline
 66
     1
 10
0.0
 20
0.0
 30
0.0
  0
VERTEX
  5
D1
330
D0
100
AcDbEntity
  8
_U+30EC_U+30A4_U+30E4_U+30FC 1
 62
   179
420
  2234388
370
     9
100
AcDbVertex
100
AcDb2dVertex
 10
104.4280756691512
 20
-129.1635155232645
 30
0.0
  0
VERTEX
  5
D2
330
D0
100
AcDbEntity
  8
_U+30EC_U+30A4_U+30E4_U+30FC 1
 62
   179
420
  2234388
370
     9
100
AcDbVertex
100
AcDb2dVertex
 10
104.4280756691512
 20
-130.6635266340007
 30
0.0
  0
SEQEND
  5
D3
330
D0
100
AcDbEntity
  8
_U+30EC_U+30A4_U+30E4_U+30FC 1
 62
   179
420
  2234388
370
     9
  0
POLYLINE
  5
D4
330
1F
100
AcDbEntity
  8
_U+30EC_U+30A4_U+30E4_U+30FC 1
 62
   179
420
  2234388
370
     9
100
AcDb2dPolyline
 66
     1
 10
0.0
 20
0.0
 30
0.0
  0
VERTEX
  5
D5
330
D4
100
AcDbEntity
  8
_U+30EC_U+30A4_U+30E4_U+30FC 1
 62
   179
420
  2234388
370
     9
100
AcDbVertex
100
AcDb2dVertex
 10
101.9682621207951
 20
-129.1635155232645
 30
0.0
  0
VERTEX
  5
D6
330
D4
100
AcDbEntity
  8
_U+30EC_U+30A4_U+30E4_U+30FC 1
 62
   179
420
  2234388
370
     9
100
AcDbVertex
100
AcDb2dVertex
 10
105.4282006436358
 20
-129.1635155232645
 30
0.0
  0
SEQEND
  5
D7
330
D4
100
AcDbEntity
  8
_U+30EC_U+30A4_U+30E4_U+30FC 1
 62
   179
420
  2234388
370
     9
  0
POLYLINE
  5
D8
330
1F
100
AcDbEntity
  8
_U+30EC_U+30A4_U+30E4_U+30FC 1
 62
   179
420
  2234388
370
     9
100
AcDb2dPolyline
 66
     1
 10
0.0
 20
0.0
 30
0.0
  0
VERTEX
  5
D9
330
D8
100
AcDbEntity
  8
_U+30EC_U+30A4_U+30E4_U+30FC 1
 62
   179
420
  2234388
370
     9
100
AcDbVertex
100
AcDb2dVertex
 10
102.968034317511
 20
-130.6635266340007
 30
0.0
  0
VERTEX
  5
DA
330
D8
100
AcDbEntity
  8
_U+30EC_U+30A4_U+30E4_U+30FC 1
 62
   179
420
  2234388
370
     9
100
AcDbVertex
100
AcDb2dVertex
 10
105.4282006436358
 20
-130.6635266340007
 30
0.0
  0
SEQEND
  5
DB
330
D8
100
AcDbEntity
  8
_U+30EC_U+30A4_U+30E4_U+30FC 1
 62
   179
420
  2234388
370
     9
  0
INSERT
  5
DD
330
1F
100
AcDbEntity
  8
_U+30EC_U+30A4_U+30E4_U+30FC 1
100
AcDbBlockReference
  2
block 5
 10
0.0
 20
0.0
 30
0.0
  0
POLYLINE
  5
EC
330
1F
100
AcDbEntity
  8
_U+30EC_U+30A4_U+30E4_U+30FC 1
 62
   179
420
  2234388
370
     9
100
AcDb2dPolyline
 66
     1
 10
0.0
 20
0.0
 30
0.0
  0
VERTEX
  5
ED
330
EC
100
AcDbEntity
  8
_U+30EC_U+30A4_U+30E4_U+30FC 1
 62
   179
420
  2234388
370
     9
100
AcDbVertex
100
AcDb2dVertex
 10
104.4280756691512
 20
-134.6632857996676
 30
0.0
  0
VERTEX
  5
EE
330
EC
100
AcDbEntity
  8
_U+30EC_U+30A4_U+30E4_U+30FC 1
 62
   179
420
  2234388
370
     9
100
AcDbVertex
100
AcDb2dVertex
 10
104.4280756691512
 20
-130.6635266340007
 30
0.0
  0
SEQEND
  5
EF
330
EC
100
AcDbEntity
  8
_U+30EC_U+30A4_U+30E4_U+30FC 1
 62
   179
420
  2234388
370
     9
  0
POLYLINE
  5
F0
330
1F
100
AcDbEntity
  8
_U+30EC_U+30A4_U+30E4_U+30FC 1
 62
   179
420
  2234388
370
     9
100
AcDb2dPolyline
 66
     1
 10
0.0
 20
0.0
 30
0.0
  0
VERTEX
  5
F1
330
F0
100
AcDbEntity
  8
_U+30EC_U+30A4_U+30E4_U+30FC 1
 62
   179
420
  2234388
370
     9
100
AcDbVertex
100
AcDb2dVertex
 10
95.96797088498643
 20
-134.6632857996676
 30
0.0
  0
VERTEX
  5
F2
330
F0
100
AcDbEntity
  8
_U+30EC_U+30A4_U+30E4_U+30FC 1
 62
   179
420
  2234388
370
     9
100
AcDbVertex
100
AcDb2dVertex
 10
105.4282006436358
 20
-134.6632857996676
 30
0.0
  0
SEQEND
  5
F3
330
F0
100
AcDbEntity
  8
_U+30EC_U+30A4_U+30E4_U+30FC 1
 62
   179
420
  2234388
370
     9
  0
INSERT
  5
F5
330
1F
100
AcDbEntity
  8
_U+30EC_U+30A4_U+30E4_U+30FC 1
100
AcDbBlockReference
  2
block 6
 10
0.0
 20
0.0
 30
0.0
  0
SPLINE
  5
10D
330
1F
100
AcDbEntity
  8
_U+30EC_U+30A4_U+30E4_U+30FC 1
 62
   179
420
  2234388
370
     9
100
AcDbSpline
210
0.0
220
0.0
230
1.0
 70
    11
 71
     3
 72
    17
 73
    13
 74
     0
 42
0.0000000001
 43
0.0000000001
 12
1.0
 22
0.0
 32
0.0
 13
1.0
 23
0.0
 33
0.0
 40
0.0
 40
0.0
 40
0.0
 40
0.0
 40
1.0
 40
1.0
 40
1.0
 40
2.0
 40
2.0
 40
2.0
 40
3.0
 40
3.0
 40
3.0
 40
4.0
 40
4.0
 40
4.0
 40
4.0
 10
83.52909731343964
 20
-132.4098471891195
 30
0.0
 10
83.52909731343964
 20
-132.3550608002448
 30
0.0
 10
83.48429453680487
 20
-132.3099405224778
 30
0.0
 10
83.4291906493218
 20
-132.3099405224778
 30
0.0
 10
83.37405148406185
 20
-132.3099405224778
 30
0.0
 10
83.32928609027873
 20
-132.3550608002448
 30
0.0
 10
83.32928609027873
 20
-132.4098471891195
 30
0.0
 10
83.32928609027873
 20
-132.464951077995
 30
0.0
 10
83.37405148406185
 20
-132.5097538557617
 30
0.0
 10
83.4291906493218
 20
-132.5097538557617
 30
0.0
 10
83.48429453680487
 20
-132.5097538557617
 30
0.0
 10
83.52909731343964
 20
-132.464951077995
 30
0.0
 10
83.52909731343964
 20
-132.4098471891195
 30
0.0
  0
SPLINE
  5
10E
330
1F
100
AcDbEntity
  8
_U+30EC_U+30A4_U+30E4_U+30FC 1
 62
   179
420
  2234388
370
     9
100
AcDbSpline
210
0.0
220
0.0
230
1.0
 70
    11
 71
     3
 72
    17
 73
    13
 74
     0
 42
0.0000000001
 43
0.0000000001
 12
1.0
 22
0.0
 32
0.0
 13
1.0
 23
0.0
 33
0.0
 40
0.0
 40
0.0
 40
0.0
 40
0.0
 40
1.0
 40
1.0
 40
1.0
 40
2.0
 40
2.0
 40
2.0
 40
3.0
 40
3.0
 40
3.0
 40
4.0
 40
4.0
 40
4.0
 40
4.0
 10
84.52922228792433
 20
-132.4098471891195
 30
0.0
 10
84.52922228792433
 20
-132.3550608002448
 30
0.0
 10
84.48441951128956
 20
-132.3099405224778
 30
0.0
 10
84.42928034602961
 20
-132.3099405224778
 30
0.0
 10
84.37452923631531
 20
-132.3099405224778
 30
0.0
 10
84.32972645968056
 20
-132.3550608002448
 30
0.0
 10
84.32972645968056
 20
-132.4098471891195
 30
0.0
 10
84.32972645968056
 20
-132.464951077995
 30
0.0
 10
84.37452923631531
 20
-132.5097538557617
 30
0.0
 10
84.42928034602961
 20
-132.5097538557617
 30
0.0
 10
84.48441951128956
 20
-132.5097538557617
 30
0.0
 10
84.52922228792433
 20
-132.464951077995
 30
0.0
 10
84.52922228792433
 20
-132.4098471891195
 30
0.0
  0
POLYLINE
  5
10F
330
1F
100
AcDbEntity
  8
_U+30EC_U+30A4_U+30E4_U+30FC 1
 62
   179
420
  2234388
370
     9
100
AcDb2dPolyline
 66
     1
 10
0.0
 20
0.0
 30
0.0
  0
VERTEX
  5
110
330
10F
100
AcDbEntity
  8
_U+30EC_U+30A4_U+30E4_U+30FC 1
 62
   179
420
  2234388
370
     9
100
AcDbVertex
100
AcDb2dVertex
 10
82.58513455974436
 20
-131.9099610781335
 30
0.0
  0
VERTEX
  5
111
330
10F
100
AcDbEntity
  8
_U+30EC_U+30A4_U+30E4_U+30FC 1
 62
   179
420
  2234388
370
     9
100
AcDbVertex
100
AcDb2dVertex
 10
86.51599612612638
 20
-131.9099610781335
 30
0.0
  0
SEQEND
  5
112
330
10F
100
AcDbEntity
  8
_U+30EC_U+30A4_U+30E4_U+30FC 1
 62
   179
420
  2234388
370
     9
  0
INSERT
  5
114
330
1F
100
AcDbEntity
  8
_U+30EC_U+30A4_U+30E4_U+30FC 1
100
AcDbBlockReference
  2
block 7
 10
0.0
 20
0.0
 30
0.0
  0
ENDSEC
  0
SECTION
  2
OBJECTS
  0
DICTIONARY
  5
C
330
0
100
AcDbDictionary
281
     1
  3
ACAD_GROUP
350
D
  3
ACAD_LAYOUT
350
1A
  3
ACAD_MATERIAL
350
3B
  3
ACAD_MLEADERSTYLE
350
11A
  3
ACAD_MLINESTYLE
350
17
  3
ACAD_PLOTSETTINGS
350
19
  3
ACAD_PLOTSTYLENAME
350
E
  3
ACAD_TABLESTYLE
350
119
  3
ACAD_VISUALSTYLE
350
2A
  0
SUN
  5
3F
330
29
100
AcDbSun
 90
        1
290
     0
 63
     7
421
 16777215
 40
1.0
291
     1
 91
  2455826
 92
 54000000
292
     0
 70
     2
 71
   256
280
     1
  0
DICTIONARY
  5
D
102
{ACAD_REACTORS
330
C
102
}
330
C
100
AcDbDictionary
281
     1
  0
DICTIONARY
  5
1A
102
{ACAD_REACTORS
330
C
102
}
330
C
100
AcDbDictionary
281
     1
  3
Layout1
350
1E
  3
Layout2
350
26
  3
Model
350
22
  0
DICTIONARY
  5
3B
102
{ACAD_REACTORS
330
C
102
}
330
C
100
AcDbDictionary
281
     1
  3
ByBlock
350
3D
  3
ByLayer
350
3C
  3
Global
350
3E
  0
DICTIONARY
  5
11A
102
{ACAD_REACTORS
330
C
102
}
330
C
100
AcDbDictionary
281
     1
  0
DICTIONARY
  5
17
102
{ACAD_REACTORS
330
C
102
}
330
C
100
AcDbDictionary
281
     1
  3
Standard
350
18
  0
DICTIONARY
  5
19
102
{ACAD_REACTORS
330
C
102
}
330
C
100
AcDbDictionary
281
     1
  0
ACDBDICTIONARYWDFLT
  5
E
102
{ACAD_REACTORS
330
C
102
}
330
C
100
AcDbDictionary
281
     1
  3
Normal
350
F
100
AcDbDictionaryWithDefault
340
F
  0
DICTIONARY
  5
119
102
{ACAD_REACTORS
330
C
102
}
330
C
100
AcDbDictionary
281
     1
  0
DICTIONARY
  5
2A
102
{ACAD_REACTORS
330
C
102
}
330
C
100
AcDbDictionary
281
     1
  3
2dWireframe
350
2F
  3
3D Hidden
350
31
  3
3dWireframe
350
30
  3
Basic
350
32
  3
Brighten
350
36
  3
ColorChange
350
3A
  3
Conceptual
350
34
  3
Dim
350
35
  3
Facepattern
350
39
  3
Flat
350
2B
  3
FlatWithEdges
350
2C
  3
Gouraud
350
2D
  3
GouraudWithEdges
350
2E
  3
Linepattern
350
38
  3
Realistic
350
33
  3
Thicken
350
37
  0
LAYOUT
  5
1E
102
{ACAD_REACTORS
330
1A
102
}
330
1A
100
AcDbPlotSettings
  1

  2
none_device
  4

  6

 40
0.0
 41
0.0
 42
0.0
 43
0.0
 44
0.0
 45
0.0
 46
0.0
 47
0.0
 48
0.0
 49
0.0
140
0.0
141
0.0
142
1.0
143
1.0
 70
   688
 72
     0
 73
     0
 74
     5
  7

 75
    16
 76
     0
 77
     2
 78
   300
147
1.0
148
0.0
149
0.0
100
AcDbLayout
  1
Layout1
 70
     1
 71
     1
 10
0.0
 20
0.0
 11
12.0
 21
9.0
 12
0.0
 22
0.0
 32
0.0
 14
1.000000000000000E+20
 24
1.000000000000000E+20
 34
1.000000000000000E+20
 15
-1.000000000000000E+20
 25
-1.000000000000000E+20
 35
-1.000000000000000E+20
146
0.0
 13
0.0
 23
0.0
 33
0.0
 16
1.0
 26
0.0
 36
0.0
 17
0.0
 27
1.0
 37
0.0
 76
     0
330
1B
  0
LAYOUT
  5
26
102
{ACAD_REACTORS
330
1A
102
}
330
1A
100
AcDbPlotSettings
  1

  2
none_device
  4

  6

 40
0.0
 41
0.0
 42
0.0
 43
0.0
 44
0.0
 45
0.0
 46
0.0
 47
0.0
 48
0.0
 49
0.0
140
0.0
141
0.0
142
1.0
143
1.0
 70
   688
 72
     0
 73
     0
 74
     5
  7

 75
    16
 76
     0
 77
     2
 78
   300
147
1.0
148
0.0
149
0.0
100
AcDbLayout
  1
Layout2
 70
     1
 71
     2
 10
0.0
 20
0.0
 11
0.0
 21
0.0
 12
0.0
 22
0.0
 32
0.0
 14
0.0
 24
0.0
 34
0.0
 15
0.0
 25
0.0
 35
0.0
146
0.0
 13
0.0
 23
0.0
 33
0.0
 16
1.0
 26
0.0
 36
0.0
 17
0.0
 27
1.0
 37
0.0
 76
     0
330
23
  0
LAYOUT
  5
22
102
{ACAD_REACTORS
330
1A
102
}
330
1A
100
AcDbPlotSettings
  1

  2
none_device
  4

  6

 40
0.0
 41
0.0
 42
0.0
 43
0.0
 44
0.0
 45
0.0
 46
0.0
 47
0.0
 48
0.0
 49
0.0
140
0.0
141
0.0
142
1.0
143
1.0
 70
  1712
 72
     0
 73
     0
 74
     0
  7

 75
     0
 76
     0
 77
     2
 78
   300
147
1.0
148
0.0
149
0.0
100
AcDbLayout
  1
Model
 70
     1
 71
     0
 10
0.0
 20
0.0
 11
12.0
 21
9.0
 12
0.0
 22
0.0
 32
0.0
 14
1.000000000000000E+20
 24
1.000000000000000E+20
 34
1.000000000000000E+20
 15
-1.000000000000000E+20
 25
-1.000000000000000E+20
 35
-1.000000000000000E+20
146
0.0
 13
0.0
 23
0.0
 33
0.0
 16
1.0
 26
0.0
 36
0.0
 17
0.0
 27
1.0
 37
0.0
 76
     0
330
1F
331
29
  0
MATERIAL
  5
3D
102
{ACAD_REACTORS
330
3B
102
}
330
3B
100
AcDbMaterial
  1
ByBlock
 72
     1
 94
      127
  0
MATERIAL
  5
3C
102
{ACAD_REACTORS
330
3B
102
}
330
3B
100
AcDbMaterial
  1
ByLayer
 72
     1
 94
      127
  0
MATERIAL
  5
3E
102
{ACAD_REACTORS
330
3B
102
}
330
3B
100
AcDbMaterial
  1
Global
 72
     1
 94
      127
  0
MLINESTYLE
  5
18
102
{ACAD_REACTORS
330
17
102
}
330
17
100
AcDbMlineStyle
  2
Standard
 70
     0
  3

 62
   256
 51
90.0
 52
90.0
 71
     2
 49
0.5
 62
   256
  6
BYLAYER
 49
-0.5
 62
   256
  6
BYLAYER
  0
ACDBPLACEHOLDER
  5
F
102
{ACAD_REACTORS
330
E
102
}
330
E
  0
VISUALSTYLE
  5
2F
102
{ACAD_REACTORS
330
2A
102
}
330
2A
100
AcDbVisualStyle
  2
2dWireframe
 70
     4
177
     2
291
     0
 71
     0
176
     1
 72
     2
176
     1
 73
     0
176
     1
 90
        0
176
     1
 40
-0.6
176
     1
 41
-30.0
176
     1
 62
     5
 63
     7
421
 16777215
176
     1
 74
     1
176
     1
 91
        4
176
     1
 64
     7
176
     1
 65
   257
176
     1
 75
     1
176
     1
175
     1
176
     1
 42
1.0
176
     1
 92
        0
176
     1
 66
   257
176
     1
 43
1.0
176
     1
 76
     1
176
     1
 77
     6
176
     1
 78
     2
176
     1
 67
     7
176
     1
 79
     5
176
     1
170
     0
176
     1
171
     0
176
     1
290
     0
176
     1
 93
        1
176
     1
 44
0.0
176
     1
173
     0
176
     1
  0
VISUALSTYLE
  5
31
102
{ACAD_REACTORS
330
2A
102
}
330
2A
100
AcDbVisualStyle
  2
3D Hidden
 70
     6
177
     2
291
     0
 71
     1
176
     1
 72
     2
176
     1
 73
     2
176
     1
 90
        0
176
     1
 40
-0.6
176
     1
 41
-30.0
176
     1
 62
     5
 63
     7
421
 16777215
176
     1
 74
     2
176
     1
 91
        2
176
     1
 64
     7
176
     1
 65
   257
176
     1
 75
     2
176
     1
175
     1
176
     1
 42
40.0
176
     1
 92
        0
176
     1
 66
   257
176
     1
 43
1.0
176
     1
 76
     1
176
     1
 77
     6
176
     1
 78
     2
176
     1
 67
     7
176
     1
 79
     3
176
     1
170
     0
176
     1
171
     0
176
     1
290
     0
176
     1
 93
        1
176
     1
 44
0.0
176
     1
173
     0
176
     1
  0
VISUALSTYLE
  5
30
102
{ACAD_REACTORS
330
2A
102
}
330
2A
100
AcDbVisualStyle
  2
3dWireframe
 70
     5
177
     2
291
     0
 71
     0
176
     1
 72
     2
176
     1
 73
     0
176
     1
 90
        0
176
     1
 40
-0.6
176
     1
 41
-30.0
176
     1
 62
     5
 63
     7
421
 16777215
176
     1
 74
     1
176
     1
 91
        4
176
     1
 64
     7
176
     1
 65
   257
176
     1
 75
     1
176
     1
175
     1
176
     1
 42
1.0
176
     1
 92
        0
176
     1
 66
   257
176
     1
 43
1.0
176
     1
 76
     1
176
     1
 77
     6
176
     1
 78
     2
176
     1
 67
     7
176
     1
 79
     5
176
     1
170
     0
176
     1
171
     0
176
     1
290
     0
176
     1
 93
        1
176
     1
 44
0.0
176
     1
173
     0
176
     1
  0
VISUALSTYLE
  5
32
102
{ACAD_REACTORS
330
2A
102
}
330
2A
100
AcDbVisualStyle
  2
Basic
 70
     7
177
     2
291
     1
 71
     1
176
     1
 72
     0
176
     1
 73
     1
176
     1
 90
        0
176
     1
 40
-0.6
176
     1
 41
-30.0
176
     1
 62
     5
 63
     7
421
 16777215
176
     1
 74
     0
176
     1
 91
        4
176
     1
 64
     7
176
     1
 65
   257
176
     1
 75
     1
176
     1
175
     1
176
     1
 42
1.0
176
     1
 92
        8
176
     1
 66
     7
176
     1
 43
1.0
176
     1
 76
     1
176
     1
 77
     6
176
     1
 78
     2
176
     1
 67
     7
176
     1
 79
     5
176
     1
170
     0
176
     1
171
     0
176
     1
290
     0
176
     1
 93
        1
176
     1
 44
0.0
176
     1
173
     0
176
     1
  0
VISUALSTYLE
  5
36
102
{ACAD_REACTORS
330
2A
102
}
330
2A
100
AcDbVisualStyle
  2
Brighten
 70
    12
177
     2
291
     1
 71
     2
176
     1
 72
     2
176
     1
 73
     0
176
     1
 90
        0
176
     1
 40
-0.6
176
     1
 41
-30.0
176
     1
 62
     5
 63
     7
421
 16777215
176
     1
 74
     1
176
     1
 91
        4
176
     1
 64
     7
176
     1
 65
   257
176
     1
 75
     1
176
     1
175
     1
176
     1
 42
1.0
176
     1
 92
        8
176
     1
 66
     7
176
     1
 43
1.0
176
     1
 76
     1
176
     1
 77
     6
176
     1
 78
     2
176
     1
 67
     7
176
     1
 79
     5
176
     1
170
     0
176
     1
171
     0
176
     1
290
     0
176
     1
 93
        1
176
     1
 44
50.0
176
     1
173
     0
176
     1
  0
VISUALSTYLE
  5
3A
102
{ACAD_REACTORS
330
2A
102
}
330
2A
100
AcDbVisualStyle
  2
ColorChange
 70
    16
177
     2
291
     1
 71
     2
176
     1
 72
     2
176
     1
 73
     3
176
     1
 90
        0
176
     1
 40
-0.6
176
     1
 41
-30.0
176
     1
 62
     5
 63
     8
421
  8421504
176
     1
 74
     1
176
     1
 91
        4
176
     1
 64
     7
176
     1
 65
   257
176
     1
 75
     1
176
     1
175
     1
176
     1
 42
1.0
176
     1
 92
        8
176
     1
 66
     8
424
  8421504
176
     1
 43
1.0
176
     1
 76
     1
176
     1
 77
     6
176
     1
 78
     2
176
     1
 67
     7
176
     1
 79
     5
176
     1
170
     0
176
     1
171
     0
176
     1
290
     0
176
     1
 93
        1
176
     1
 44
0.0
176
     1
173
     0
176
     1
  0
VISUALSTYLE
  5
34
102
{ACAD_REACTORS
330
2A
102
}
330
2A
100
AcDbVisualStyle
  2
Conceptual
 70
     9
177
     2
291
     0
 71
     3
176
     1
 72
     2
176
     1
 73
     0
176
     1
 90
        0
176
     1
 40
-0.6
176
     1
 41
-30.0
176
     1
 62
     5
 63
     7
421
 16777215
176
     1
 74
     2
176
     1
 91
        2
176
     1
 64
     7
176
     1
 65
   257
176
     1
 75
     1
176
     1
175
     1
176
     1
 42
40.0
176
     1
 92
        8
176
     1
 66
     7
176
     1
 43
1.0
176
     1
 76
     1
176
     1
 77
     6
176
     1
 78
     2
176
     1
 67
     7
176
     1
 79
     3
176
     1
170
     0
176
     1
171
     0
176
     1
290
     0
176
     1
 93
        1
176
     1
 44
0.0
176
     1
173
     0
176
     1
  0
VISUALSTYLE
  5
35
102
{ACAD_REACTORS
330
2A
102
}
330
2A
100
AcDbVisualStyle
  2
Dim
 70
    11
177
     2
291
     1
 71
     2
176
     1
 72
     2
176
     1
 73
     0
176
     1
 90
        0
176
     1
 40
-0.6
176
     1
 41
-30.0
176
     1
 62
     5
 63
     7
421
 16777215
176
     1
 74
     1
176
     1
 91
        4
176
     1
 64
     7
176
     1
 65
   257
176
     1
 75
     1
176
     1
175
     1
176
     1
 42
1.0
176
     1
 92
        8
176
     1
 66
     7
176
     1
 43
1.0
176
     1
 76
     1
176
     1
 77
     6
176
     1
 78
     2
176
     1
 67
     7
176
     1
 79
     5
176
     1
170
     0
176
     1
171
     0
176
     1
290
     0
176
     1
 93
        1
176
     1
 44
-50.0
176
     1
173
     0
176
     1
  0
VISUALSTYLE
  5
39
102
{ACAD_REACTORS
330
2A
102
}
330
2A
100
AcDbVisualStyle
  2
Facepattern
 70
    15
177
     2
291
     1
 71
     2
176
     1
 72
     2
176
     1
 73
     0
176
     1
 90
        0
176
     1
 40
-0.6
176
     1
 41
-30.0
176
     1
 62
     5
 63
     7
421
 16777215
176
     1
 74
     1
176
     1
 91
        4
176
     1
 64
     7
176
     1
 65
   257
176
     1
 75
     1
176
     1
175
     1
176
     1
 42
1.0
176
     1
 92
        8
176
     1
 66
     7
176
     1
 43
1.0
176
     1
 76
     1
176
     1
 77
     6
176
     1
 78
     2
176
     1
 67
     7
176
     1
 79
     5
176
     1
170
     0
176
     1
171
     0
176
     1
290
     0
176
     1
 93
        1
176
     1
 44
0.0
176
     1
173
     0
176
     1
  0
VISUALSTYLE
  5
2B
102
{ACAD_REACTORS
330
2A
102
}
330
2A
100
AcDbVisualStyle
  2
Flat
 70
     0
177
     2
291
     1
 71
     2
176
     1
 72
     1
176
     1
 73
     1
176
     1
 90
        2
176
     1
 40
-0.6
176
     1
 41
30.0
176
     1
 62
     5
 63
     7
421
 16777215
176
     1
 74
     0
176
     1
 91
        4
176
     1
 64
     7
176
     1
 65
   257
176
     1
 75
     1
176
     1
175
     1
176
     1
 42
1.0
176
     1
 92
        8
176
     1
 66
     7
176
     1
 43
1.0
176
     1
 76
     1
176
     1
 77
     6
176
     1
 78
     2
176
     1
 67
     7
176
     1
 79
     5
176
     1
170
     0
176
     1
171
     0
176
     1
290
     0
176
     1
 93
       13
176
     1
 44
0.0
176
     1
173
     0
176
     1
  0
VISUALSTYLE
  5
2C
102
{ACAD_REACTORS
330
2A
102
}
330
2A
100
AcDbVisualStyle
  2
FlatWithEdges
 70
     1
177
     2
291
     1
 71
     2
176
     1
 72
     1
176
     1
 73
     1
176
     1
 90
        2
176
     1
 40
-0.6
176
     1
 41
30.0
176
     1
 62
     5
 63
     7
421
 16777215
176
     1
 74
     1
176
     1
 91
        4
176
     1
 64
     7
176
     1
 65
   257
176
     1
 75
     1
176
     1
175
     1
176
     1
 42
1.0
176
     1
 92
        0
176
     1
 66
   257
176
     1
 43
1.0
176
     1
 76
     1
176
     1
 77
     6
176
     1
 78
     2
176
     1
 67
     7
176
     1
 79
     5
176
     1
170
     0
176
     1
171
     0
176
     1
290
     0
176
     1
 93
       13
176
     1
 44
0.0
176
     1
173
     0
176
     1
  0
VISUALSTYLE
  5
2D
102
{ACAD_REACTORS
330
2A
102
}
330
2A
100
AcDbVisualStyle
  2
Gouraud
 70
     2
177
     2
291
     1
 71
     2
176
     1
 72
     2
176
     1
 73
     1
176
     1
 90
        2
176
     1
 40
-0.6
176
     1
 41
30.0
176
     1
 62
     5
 63
     7
421
 16777215
176
     1
 74
     0
176
     1
 91
        4
176
     1
 64
     7
176
     1
 65
   257
176
     1
 75
     1
176
     1
175
     1
176
     1
 42
1.0
176
     1
 92
        0
176
     1
 66
     7
176
     1
 43
1.0
176
     1
 76
     1
176
     1
 77
     6
176
     1
 78
     2
176
     1
 67
     7
176
     1
 79
     5
176
     1
170
     0
176
     1
171
     0
176
     1
290
     0
176
     1
 93
       13
176
     1
 44
0.0
176
     1
173
     0
176
     1
  0
VISUALSTYLE
  5
2E
102
{ACAD_REACTORS
330
2A
102
}
330
2A
100
AcDbVisualStyle
  2
GouraudWithEdges
 70
     3
177
     2
291
     1
 71
     2
176
     1
 72
     2
176
     1
 73
     1
176
     1
 90
        2
176
     1
 40
-0.6
176
     1
 41
30.0
176
     1
 62
     5
 63
     7
421
 16777215
176
     1
 74
     1
176
     1
 91
        4
176
     1
 64
     7
176
     1
 65
   257
176
     1
 75
     1
176
     1
175
     1
176
     1
 42
1.0
176
     1
 92
        0
176
     1
 66
   257
176
     1
 43
1.0
176
     1
 76
     1
176
     1
 77
     6
176
     1
 78
     2
176
     1
 67
     7
176
     1
 79
     5
176
     1
170
     0
176
     1
171
     0
176
     1
290
     0
176
     1
 93
       13
176
     1
 44
0.0
176
     1
173
     0
176
     1
  0
VISUALSTYLE
  5
38
102
{ACAD_REACTORS
330
2A
102
}
330
2A
100
AcDbVisualStyle
  2
Linepattern
 70
    14
177
     2
291
     1
 71
     2
176
     1
 72
     2
176
     1
 73
     0
176
     1
 90
        0
176
     1
 40
-0.6
176
     1
 41
-30.0
176
     1
 62
     5
 63
     7
421
 16777215
176
     1
 74
     1
176
     1
 91
        4
176
     1
 64
     7
176
     1
 65
   257
176
     1
 75
     7
176
     1
175
     7
176
     1
 42
1.0
176
     1
 92
        8
176
     1
 66
     7
176
     1
 43
1.0
176
     1
 76
     1
176
     1
 77
     6
176
     1
 78
     2
176
     1
 67
     7
176
     1
 79
     5
176
     1
170
     0
176
     1
171
     0
176
     1
290
     0
176
     1
 93
        1
176
     1
 44
0.0
176
     1
173
     0
176
     1
  0
VISUALSTYLE
  5
33
102
{ACAD_REACTORS
330
2A
102
}
330
2A
100
AcDbVisualStyle
  2
Realistic
 70
     8
177
     2
291
     0
 71
     2
176
     1
 72
     2
176
     1
 73
     0
176
     1
 90
        0
176
     1
 40
-0.6
176
     1
 41
-30.0
176
     1
 62
     5
 63
     7
421
 16777215
176
     1
 74
     1
176
     1
 91
        0
176
     1
 64
     7
176
     1
 65
   257
176
     1
 75
     1
176
     1
175
     1
176
     1
 42
1.0
176
     1
 92
        8
176
     1
 66
     8
424
  7895160
176
     1
 43
1.0
176
     1
 76
     1
176
     1
 77
     6
176
     1
 78
     2
176
     1
 67
     7
176
     1
 79
     5
176
     1
170
     0
176
     1
171
     0
176
     1
290
     0
176
     1
 93
       13
176
     1
 44
0.0
176
     1
173
     0
176
     1
  0
VISUALSTYLE
  5
37
102
{ACAD_REACTORS
330
2A
102
}
330
2A
100
AcDbVisualStyle
  2
Thicken
 70
    13
177
     2
291
     1
 71
     2
176
     1
 72
     2
176
     1
 73
     0
176
     1
 90
        0
176
     1
 40
-0.6
176
     1
 41
-30.0
176
     1
 62
     5
 63
     7
421
 16777215
176
     1
 74
     1
176
     1
 91
        4
176
     1
 64
     7
176
     1
 65
   257
176
     1
 75
     1
176
     1
175
     1
176
     1
 42
1.0
176
     1
 92
       12
176
     1
 66
     7
176
     1
 43
1.0
176
     1
 76
     1
176
     1
 77
     6
176
     1
 78
     2
176
     1
 67
     7
176
     1
 79
     5
176
     1
170
     0
176
     1
171
     0
176
     1
290
     0
176
     1
 93
        1
176
     1
 44
0.0
176
     1
173
     0
176
     1
  0
ENDSEC
  0
EOF
