  0
SECTION
  2
HEADER
  9
$ACADVER
  1
AC1024
  9
$ACADMAINTVER
 70
     6
  9
$DWGCODEPAGE
  3
UNDEFINED
  9
$INSBASE
 10
0.0
 20
0.0
 30
0.0
  9
$EXTMIN
 10
1.000000000000000E+20
 20
1.000000000000000E+20
 30
1.000000000000000E+20
  9
$EXTMAX
 10
-1.000000000000000E+20
 20
-1.000000000000000E+20
 30
-1.000000000000000E+20
  9
$LIMMIN
 10
0.0
 20
0.0
  9
$LIMMAX
 10
12.0
 20
9.0
  9
$ORTHOMODE
 70
     0
  9
$REGENMODE
 70
     1
  9
$FILLMODE
 70
     1
  9
$QTEXTMODE
 70
     0
  9
$MIRRTEXT
 70
     1
  9
$LTSCALE
 40
1.0
  9
$ATTMODE
 70
     1
  9
$TEXTSIZE
 40
0.2
  9
$TRACEWID
 40
0.05
  9
$TEXTSTYLE
  7
Standard
  9
$CLAYER
  8
0
  9
$CELTYPE
  6
ByLayer
  9
$CECOLOR
 62
   256
  9
$CELTSCALE
 40
1.0
  9
$DISPSILH
 70
     0
  9
$DIMSCALE
 40
1.0
  9
$DIMASZ
 40
0.18
  9
$DIMEXO
 40
0.0625
  9
$DIMDLI
 40
0.38
  9
$DIMRND
 40
0.0
  9
$DIMDLE
 40
0.0
  9
$DIMEXE
 40
0.18
  9
$DIMTP
 40
0.0
  9
$DIMTM
 40
0.0
  9
$DIMTXT
 40
0.18
  9
$DIMCEN
 40
0.09
  9
$DIMTSZ
 40
0.0
  9
$DIMTOL
 70
     0
  9
$DIMLIM
 70
     0
  9
$DIMTIH
 70
     1
  9
$DIMTOH
 70
     1
  9
$DIMSE1
 70
     0
  9
$DIMSE2
 70
     0
  9
$DIMTAD
 70
     0
  9
$DIMZIN
 70
     0
  9
$DIMBLK
  1

  9
$DIMASO
 70
     1
  9
$DIMSHO
 70
     1
  9
$DIMPOST
  1

  9
$DIMAPOST
  1

  9
$DIMALT
 70
     0
  9
$DIMALTD
 70
     2
  9
$DIMALTF
 40
25.4
  9
$DIMLFAC
 40
1.0
  9
$DIMTOFL
 70
     0
  9
$DIMTVP
 40
0.0
  9
$DIMTIX
 70
     0
  9
$DIMSOXD
 70
     0
  9
$DIMSAH
 70
     0
  9
$DIMBLK1
  1

  9
$DIMBLK2
  1

  9
$DIMSTYLE
  2
Standard
  9
$DIMCLRD
 70
     0
  9
$DIMCLRE
 70
     0
  9
$DIMCLRT
 70
     0
  9
$DIMTFAC
 40
1.0
  9
$DIMGAP
 40
0.09
  9
$DIMJUST
 70
     0
  9
$DIMSD1
 70
     0
  9
$DIMSD2
 70
     0
  9
$DIMTOLJ
 70
     1
  9
$DIMTZIN
 70
     0
  9
$DIMALTZ
 70
     0
  9
$DIMALTTZ
 70
     0
  9
$DIMUPT
 70
     0
  9
$DIMDEC
 70
     4
  9
$DIMTDEC
 70
     4
  9
$DIMALTU
 70
     2
  9
$DIMALTTD
 70
     2
  9
$DIMTXSTY
  7
Standard
  9
$DIMAUNIT
 70
     0
  9
$DIMADEC
 70
     0
  9
$DIMALTRND
 40
0.0
  9
$DIMAZIN
 70
     0
  9
$DIMDSEP
 70
    46
  9
$DIMATFIT
 70
     3
  9
$DIMFRAC
 70
     0
  9
$DIMLDRBLK
  1

  9
$DIMLUNIT
 70
     2
  9
$DIMLWD
 70
    -2
  9
$DIMLWE
 70
    -2
  9
$DIMTMOVE
 70
     0
  9
$DIMFXL
 40
1.0
  9
$DIMFXLON
 70
     0
  9
$DIMJOGANG
 40
0.7853981633974483
  9
$DIMTFILL
 70
     0
  9
$DIMTFILLCLR
 70
     0
  9
$DIMARCSYM
 70
     0
  9
$DIMLTYPE
  6

  9
$DIMLTEX1
  6

  9
$DIMLTEX2
  6

  9
$DIMTXTDIRECTION
 70
     0
  9
$LUNITS
 70
     2
  9
$LUPREC
 70
     4
  9
$SKETCHINC
 40
0.1
  9
$FILLETRAD
 40
0.5
  9
$AUNITS
 70
     0
  9
$AUPREC
 70
     0
  9
$MENU
  1
.
  9
$ELEVATION
 40
0.0
  9
$PELEVATION
 40
0.0
  9
$THICKNESS
 40
0.0
  9
$LIMCHECK
 70
     0
  9
$CHAMFERA
 40
0.5
  9
$CHAMFERB
 40
0.5
  9
$CHAMFERC
 40
1.0
  9
$CHAMFERD
 40
0.0
  9
$SKPOLY
 70
     0
  9
$TDCREATE
 40
2457917.622569445
  9
$TDUCREATE
 40
2457917.247569445
  9
$TDUPDATE
 40
2457917.622569445
  9
$TDUUPDATE
 40
2457917.247569445
  9
$TDINDWG
 40
0.0000000116
  9
$TDUSRTIMER
 40
0.0000000116
  9
$USRTIMER
 70
     1
  9
$ANGBASE
 50
0.0
  9
$ANGDIR
 70
     0
  9
$PDMODE
 70
     0
  9
$PDSIZE
 40
0.0
  9
$PLINEWID
 40
0.0
  9
$SPLFRAME
 70
     0
  9
$SPLINETYPE
 70
     6
  9
$SPLINESEGS
 70
     8
  9
$HANDSEED
  5
D4
  9
$SURFTAB1
 70
     6
  9
$SURFTAB2
 70
     6
  9
$SURFTYPE
 70
     6
  9
$SURFU
 70
     6
  9
$SURFV
 70
     6
  9
$UCSBASE
  2

  9
$UCSNAME
  2

  9
$UCSORG
 10
0.0
 20
0.0
 30
0.0
  9
$UCSXDIR
 10
1.0
 20
0.0
 30
0.0
  9
$UCSYDIR
 10
0.0
 20
1.0
 30
0.0
  9
$UCSORTHOREF
  2

  9
$UCSORTHOVIEW
 70
     0
  9
$UCSORGTOP
 10
0.0
 20
0.0
 30
0.0
  9
$UCSORGBOTTOM
 10
0.0
 20
0.0
 30
0.0
  9
$UCSORGLEFT
 10
0.0
 20
0.0
 30
0.0
  9
$UCSORGRIGHT
 10
0.0
 20
0.0
 30
0.0
  9
$UCSORGFRONT
 10
0.0
 20
0.0
 30
0.0
  9
$UCSORGBACK
 10
0.0
 20
0.0
 30
0.0
  9
$PUCSBASE
  2

  9
$PUCSNAME
  2

  9
$PUCSORG
 10
0.0
 20
0.0
 30
0.0
  9
$PUCSXDIR
 10
1.0
 20
0.0
 30
0.0
  9
$PUCSYDIR
 10
0.0
 20
1.0
 30
0.0
  9
$PUCSORTHOREF
  2

  9
$PUCSORTHOVIEW
 70
     0
  9
$PUCSORGTOP
 10
0.0
 20
0.0
 30
0.0
  9
$PUCSORGBOTTOM
 10
0.0
 20
0.0
 30
0.0
  9
$PUCSORGLEFT
 10
0.0
 20
0.0
 30
0.0
  9
$PUCSORGRIGHT
 10
0.0
 20
0.0
 30
0.0
  9
$PUCSORGFRONT
 10
0.0
 20
0.0
 30
0.0
  9
$PUCSORGBACK
 10
0.0
 20
0.0
 30
0.0
  9
$USERI1
 70
     0
  9
$USERI2
 70
     0
  9
$USERI3
 70
     0
  9
$USERI4
 70
     0
  9
$USERI5
 70
     0
  9
$USERR1
 40
0.0
  9
$USERR2
 40
0.0
  9
$USERR3
 40
0.0
  9
$USERR4
 40
0.0
  9
$USERR5
 40
0.0
  9
$WORLDVIEW
 70
     1
  9
$SHADEDGE
 70
     3
  9
$SHADEDIF
 70
    70
  9
$TILEMODE
 70
     1
  9
$MAXACTVP
 70
    64
  9
$PINSBASE
 10
0.0
 20
0.0
 30
0.0
  9
$PLIMCHECK
 70
     0
  9
$PEXTMIN
 10
1.000000000000000E+20
 20
1.000000000000000E+20
 30
1.000000000000000E+20
  9
$PEXTMAX
 10
-1.000000000000000E+20
 20
-1.000000000000000E+20
 30
-1.000000000000000E+20
  9
$PLIMMIN
 10
0.0
 20
0.0
  9
$PLIMMAX
 10
12.0
 20
9.0
  9
$UNITMODE
 70
     0
  9
$VISRETAIN
 70
     1
  9
$PLINEGEN
 70
     0
  9
$PSLTSCALE
 70
     1
  9
$TREEDEPTH
 70
  3020
  9
$CMLSTYLE
  2
Standard
  9
$CMLJUST
 70
     0
  9
$CMLSCALE
 40
1.0
  9
$PROXYGRAPHICS
 70
     1
  9
$MEASUREMENT
 70
     0
  9
$CELWEIGHT
370
    -1
  9
$ENDCAPS
280
     0
  9
$JOINSTYLE
280
     0
  9
$LWDISPLAY
290
     1
  9
$INSUNITS
 70
     1
  9
$HYPERLINKBASE
  1

  9
$STYLESHEET
  1

  9
$XEDIT
290
     1
  9
$CEPSNTYPE
380
     0
  9
$PSTYLEMODE
290
     1
  9
$FINGERPRINTGUID
  2
{10C87757-722E-E7B9-C281-D060BCD2DA85}
  9
$VERSIONGUID
  2
{FAEB1C32-E019-11D5-929B-00C0DF256EC4}
  9
$EXTNAMES
290
     1
  9
$PSVPSCALE
 40
0.0
  9
$OLESTARTUP
290
     0
  9
$SORTENTS
280
   127
  9
$INDEXCTL
280
     0
  9
$HIDETEXT
280
     1
  9
$XCLIPFRAME
280
     2
  9
$HALOGAP
280
     0
  9
$OBSCOLOR
 70
   257
  9
$OBSLTYPE
280
     0
  9
$INTERSECTIONDISPLAY
280
     0
  9
$INTERSECTIONCOLOR
 70
   257
  9
$DIMASSOC
280
     2
  9
$PROJECTNAME
  1

  9
$CAMERADISPLAY
290
     0
  9
$LENSLENGTH
 40
50.0
  9
$CAMERAHEIGHT
 40
0.0
  9
$STEPSPERSEC
 40
2.0
  9
$STEPSIZE
 40
6.0
  9
$3DDWFPREC
 40
2.0
  9
$PSOLWIDTH
 40
0.25
  9
$PSOLHEIGHT
 40
4.0
  9
$LOFTANG1
 40
1.570796326794897
  9
$LOFTANG2
 40
1.570796326794897
  9
$LOFTMAG1
 40
0.0
  9
$LOFTMAG2
 40
0.0
  9
$LOFTPARAM
 70
     7
  9
$LOFTNORMALS
280
     1
  9
$LATITUDE
 40
37.795
  9
$LONGITUDE
 40
-122.394
  9
$NORTHDIRECTION
 40
0.0
  9
$TIMEZONE
 70
 -8000
  9
$LIGHTGLYPHDISPLAY
280
     1
  9
$TILEMODELIGHTSYNCH
280
     1
  9
$CMATERIAL
347
3C
  9
$SOLIDHIST
280
     1
  9
$SHOWHIST
280
     1
  9
$DWFFRAME
280
     2
  9
$DGNFRAME
280
     2
  9
$REALWORLDSCALE
290
     1
  9
$INTERFERECOLOR
 62
   256
  9
$CSHADOW
280
     0
  9
$SHADOWPLANELOCATION
 40
0.0
  0
ENDSEC
  0
SECTION
  2
CLASSES
  0
CLASS
  1
ACDBDICTIONARYWDFLT
  2
AcDbDictionaryWithDefault
  3
ObjectDBX Classes
 90
        0
 91
        4
280
     0
281
     0
  0
CLASS
  1
VISUALSTYLE
  2
AcDbVisualStyle
  3
ObjectDBX Classes
 90
     4095
 91
        4
280
     0
281
     0
  0
CLASS
  1
MATERIAL
  2
AcDbMaterial
  3
ObjectDBX Classes
 90
     1153
 91
        4
280
     0
281
     0
  0
CLASS
  1
SUN
  2
AcDbSun
  3
SCENEOE
 90
     1024
 91
        4
280
     0
281
     0
  0
ENDSEC
  0
SECTION
  2
TABLES
  0
TABLE
  2
VPORT
  5
8
330
0
100
AcDbSymbolTable
 70
     1
  0
VPORT
  5
29
330
8
100
AcDbSymbolTableRecord
100
AcDbViewportTableRecord
  2
*Active
 70
     0
 10
0.0
 20
0.0
 11
1.0
 21
1.0
 12
0.0
 22
0.0
 13
0.0
 23
0.0
 14
0.5
 24
0.5
 15
0.5
 25
0.5
 16
0.0
 26
0.0
 36
1.0
 17
91.00082462281999
 27
-128.4993055234307
 37
0.0
 40
256.9986110468615
 41
0.7081814508812795
 42
50.0
 43
0.0
 44
0.0
 50
0.0
 51
0.0
 71
     0
 72
   100
 73
     1
 74
     3
 75
     0
 76
     0
 77
     0
 78
     0
281
     0
 65
     1
110
0.0
120
0.0
130
0.0
111
1.0
121
0.0
131
0.0
112
0.0
122
1.0
132
0.0
 79
     0
146
0.0
 60
     3
 61
     5
292
     1
282
     1
141
0.0
142
0.0
 63
   250
361
3F
  0
ENDTAB
  0
TABLE
  2
LTYPE
  5
5
330
0
100
AcDbSymbolTable
 70
     2
  0
LTYPE
  5
14
330
5
100
AcDbSymbolTableRecord
100
AcDbLinetypeTableRecord
  2
ByBlock
 70
     0
  3

 72
    65
 73
     0
 40
0.0
  0
LTYPE
  5
15
330
5
100
AcDbSymbolTableRecord
100
AcDbLinetypeTableRecord
  2
ByLayer
 70
     0
  3

 72
    65
 73
     0
 40
0.0
  0
LTYPE
  5
16
330
5
100
AcDbSymbolTableRecord
100
AcDbLinetypeTableRecord
  2
Continuous
 70
     0
  3
Solid line
 72
    65
 73
     0
 40
0.0
  0
LTYPE
  5
D0
330
5
100
AcDbSymbolTableRecord
100
AcDbLinetypeTableRecord
  2
AI-Linetype-1
 70
     0
  3
Adobe Illustrator Linetype No. 1
 72
    65
 73
     2
 40
1.411111110758333
 49
0.7055555553791667
 74
     0
 49
-0.7055555553791667
 74
     0
  0
ENDTAB
  0
TABLE
  2
LAYER
  5
2
330
0
100
AcDbSymbolTable
 70
     2
  0
LAYER
  5
10
330
2
100
AcDbSymbolTableRecord
100
AcDbLayerTableRecord
  2
0
 70
     0
 62
     7
  6
Continuous
370
    -3
390
F
347
3E
  0
LAYER
  5
40
330
2
100
AcDbSymbolTableRecord
100
AcDbLayerTableRecord
  2
_U+30EC_U+30A4_U+30E4_U+30FC 1
 70
     0
 62
     7
  6
Continuous
370
    -3
390
F
347
3E
  0
ENDTAB
  0
TABLE
  2
STYLE
  5
3
330
0
100
AcDbSymbolTable
 70
     1
  0
STYLE
  5
11
330
3
100
AcDbSymbolTableRecord
100
AcDbTextStyleTableRecord
  2
Standard
 70
     0
 40
0.0
 41
1.0
 50
0.0
 71
     0
 42
0.2
  3
txt
  4

  0
ENDTAB
  0
TABLE
  2
VIEW
  5
6
330
0
100
AcDbSymbolTable
 70
     0
  0
ENDTAB
  0
TABLE
  2
UCS
  5
7
330
0
100
AcDbSymbolTable
 70
     0
  0
ENDTAB
  0
TABLE
  2
APPID
  5
9
330
0
100
AcDbSymbolTable
 70
     1
  0
APPID
  5
12
330
9
100
AcDbSymbolTableRecord
100
AcDbRegAppTableRecord
  2
ACAD
 70
     0
  0
ENDTAB
  0
TABLE
  2
DIMSTYLE
  5
A
330
0
100
AcDbSymbolTable
 70
     1
100
AcDbDimStyleTable
  0
DIMSTYLE
105
27
330
A
100
AcDbSymbolTableRecord
100
AcDbDimStyleTableRecord
  2
Standard
 70
     0
178
     0
340
11
  0
ENDTAB
  0
TABLE
  2
BLOCK_RECORD
  5
1
330
0
100
AcDbSymbolTable
 70
     6
  0
BLOCK_RECORD
  5
1F
330
1
100
AcDbSymbolTableRecord
100
AcDbBlockTableRecord
  2
*Model_Space
340
22
 70
     0
280
     1
281
     0
  0
BLOCK_RECORD
  5
1B
330
1
100
AcDbSymbolTableRecord
100
AcDbBlockTableRecord
  2
*Paper_Space
340
1E
 70
     0
280
     1
281
     0
  0
BLOCK_RECORD
  5
23
330
1
100
AcDbSymbolTableRecord
100
AcDbBlockTableRecord
  2
*Paper_Space0
340
26
 70
     0
280
     1
281
     0
  0
BLOCK_RECORD
  5
63
330
1
100
AcDbSymbolTableRecord
100
AcDbBlockTableRecord
  2
block 2
340
0
102
{BLKREFS
331
64
102
}
 70
     0
280
     1
281
     0
  0
BLOCK_RECORD
  5
83
330
1
100
AcDbSymbolTableRecord
100
AcDbBlockTableRecord
  2
block 3
340
0
102
{BLKREFS
331
84
102
}
 70
     0
280
     1
281
     0
  0
BLOCK_RECORD
  5
A7
330
1
100
AcDbSymbolTableRecord
100
AcDbBlockTableRecord
  2
block 4
340
0
102
{BLKREFS
331
A8
102
}
 70
     0
280
     1
281
     0
  0
BLOCK_RECORD
  5
B0
330
1
100
AcDbSymbolTableRecord
100
AcDbBlockTableRecord
  2
block 5
340
0
102
{BLKREFS
331
B1
102
}
 70
     0
280
     1
281
     0
  0
BLOCK_RECORD
  5
C3
330
1
100
AcDbSymbolTableRecord
100
AcDbBlockTableRecord
  2
block 6
340
0
102
{BLKREFS
331
C4
102
}
 70
     0
280
     1
281
     0
  0
ENDTAB
  0
ENDSEC
  0
SECTION
  2
BLOCKS
  0
BLOCK
  5
20
330
1F
100
AcDbEntity
  8
0
100
AcDbBlockBegin
  2
*Model_Space
 70
     0
 10
0.0
 20
0.0
 30
0.0
  3
*Model_Space
  1

  0
ENDBLK
  5
21
330
1F
100
AcDbEntity
  8
0
100
AcDbBlockEnd
  0
BLOCK
  5
1C
330
1B
100
AcDbEntity
 67
     1
  8
0
100
AcDbBlockBegin
  2
*Paper_Space
 70
     0
 10
0.0
 20
0.0
 30
0.0
  3
*Paper_Space
  1

  0
ENDBLK
  5
1D
330
1B
100
AcDbEntity
 67
     1
  8
0
100
AcDbBlockEnd
  0
BLOCK
  5
24
330
23
100
AcDbEntity
  8
0
100
AcDbBlockBegin
  2
*Paper_Space0
 70
     0
 10
0.0
 20
0.0
 30
0.0
  3
*Paper_Space0
  1

  0
ENDBLK
  5
25
330
23
100
AcDbEntity
  8
0
100
AcDbBlockEnd
  0
BLOCK
  5
65
330
63
100
AcDbEntity
  8
0
100
AcDbBlockBegin
  2
block 2
 70
     0
 10
0.0
 20
0.0
 30
0.0
  3
block 2
  1

  0
SPLINE
  5
67
330
63
100
AcDbEntity
  8
_U+30EC_U+30A4_U+30E4_U+30FC 1
370
     0
100
AcDbSpline
210
0.0
220
0.0
230
1.0
 70
    11
 71
     3
 72
    26
 73
    22
 74
     0
 42
0.0000000001
 43
0.0000000001
 12
1.0
 22
0.0
 32
0.0
 13
1.0
 23
0.0
 33
0.0
 40
0.0
 40
0.0
 40
0.0
 40
0.0
 40
1.0
 40
1.0
 40
1.0
 40
2.0
 40
2.0
 40
2.0
 40
3.0
 40
3.0
 40
3.0
 40
4.0
 40
4.0
 40
4.0
 40
5.0
 40
5.0
 40
5.0
 40
6.0
 40
6.0
 40
6.0
 40
7.0
 40
7.0
 40
7.0
 40
7.0
 10
90.42014836064149
 20
-139.5573730119857
 30
0.0
 10
90.42014836064149
 20
-139.5573730119857
 30
0.0
 10
90.42014836064149
 20
-138.4528753994146
 30
0.0
 10
90.42014836064149
 20
-138.4528753994146
 30
0.0
 10
90.42014836064149
 20
-138.4528753994146
 30
0.0
 10
90.06737058295191
 20
-138.4528753994146
 30
0.0
 10
90.06737058295191
 20
-138.4528753994146
 30
0.0
 10
90.06737058295191
 20
-138.4528753994146
 30
0.0
 10
90.06737058295191
 20
-138.3047362935488
 30
0.0
 10
90.06737058295191
 20
-138.3047362935488
 30
0.0
 10
90.4223876727069
 20
-138.2899223829623
 30
0.0
 10
90.4719970476945
 20
-138.1273138760585
 30
0.0
 10
90.50369192615881
 20
-138.0129367059482
 30
0.0
 10
90.50369192615881
 20
-138.0129367059482
 30
0.0
 10
90.65975475164062
 20
-138.0129367059482
 30
0.0
 10
90.65975475164062
 20
-138.0129367059482
 30
0.0
 10
90.65975475164062
 20
-138.0129367059482
 30
0.0
 10
90.65975475164062
 20
-139.5573730119857
 30
0.0
 10
90.65975475164062
 20
-139.5573730119857
 30
0.0
 10
90.65975475164062
 20
-139.5573730119857
 30
0.0
 10
90.42014836064149
 20
-139.5573730119857
 30
0.0
 10
90.42014836064149
 20
-139.5573730119857
 30
0.0
  0
HATCH
  5
68
330
63
100
AcDbEntity
  8
_U+30EC_U+30A4_U+30E4_U+30FC 1
 62
     7
420
 16777215
100
AcDbHatch
 10
0.0
 20
0.0
 30
0.0
210
0.0
220
0.0
230
1.0
  2
SOLID
 70
     1
 71
     0
 91
        1
 92
        1
 93
        1
 72
     4
 94
        3
 73
     0
 74
     1
 95
       26
 96
       22
 40
0.0
 40
0.0
 40
0.0
 40
0.0
 40
1.0
 40
1.0
 40
1.0
 40
2.0
 40
2.0
 40
2.0
 40
3.0
 40
3.0
 40
3.0
 40
4.0
 40
4.0
 40
4.0
 40
5.0
 40
5.0
 40
5.0
 40
6.0
 40
6.0
 40
6.0
 40
7.0
 40
7.0
 40
7.0
 40
7.0
 10
90.42014836064149
 20
-139.5573730119857
 10
90.42014836064149
 20
-139.5573730119857
 10
90.42014836064149
 20
-138.4528753994146
 10
90.42014836064149
 20
-138.4528753994146
 10
90.42014836064149
 20
-138.4528753994146
 10
90.06737058295191
 20
-138.4528753994146
 10
90.06737058295191
 20
-138.4528753994146
 10
90.06737058295191
 20
-138.4528753994146
 10
90.06737058295191
 20
-138.3047362935488
 10
90.06737058295191
 20
-138.3047362935488
 10
90.4223876727069
 20
-138.2899223829623
 10
90.4719970476945
 20
-138.1273138760585
 10
90.50369192615881
 20
-138.0129367059482
 10
90.50369192615881
 20
-138.0129367059482
 10
90.65975475164062
 20
-138.0129367059482
 10
90.65975475164062
 20
-138.0129367059482
 10
90.65975475164062
 20
-138.0129367059482
 10
90.65975475164062
 20
-139.5573730119857
 10
90.65975475164062
 20
-139.5573730119857
 10
90.65975475164062
 20
-139.5573730119857
 10
90.42014836064149
 20
-139.5573730119857
 10
90.42014836064149
 20
-139.5573730119857
 97
        0
 97
        0
 75
     2
 76
     1
 98
        0
  0
SPLINE
  5
69
330
63
100
AcDbEntity
  8
_U+30EC_U+30A4_U+30E4_U+30FC 1
370
     0
100
AcDbSpline
210
0.0
220
0.0
230
1.0
 70
    11
 71
     3
 72
    32
 73
    28
 74
     0
 42
0.0000000001
 43
0.0000000001
 12
1.0
 22
0.0
 32
0.0
 13
1.0
 23
0.0
 33
0.0
 40
0.0
 40
0.0
 40
0.0
 40
0.0
 40
1.0
 40
1.0
 40
1.0
 40
2.0
 40
2.0
 40
2.0
 40
3.0
 40
3.0
 40
3.0
 40
4.0
 40
4.0
 40
4.0
 40
5.0
 40
5.0
 40
5.0
 40
6.0
 40
6.0
 40
6.0
 40
7.0
 40
7.0
 40
7.0
 40
8.0
 40
8.0
 40
8.0
 40
9.0
 40
9.0
 40
9.0
 40
9.0
 10
91.73428003349005
 20
-139.6080159156188
 30
0.0
 10
91.18272024630154
 20
-139.6080159156188
 30
0.0
 10
91.17359074326563
 20
-139.0537000520421
 30
0.0
 10
91.17359074326563
 20
-138.8401041319567
 30
0.0
 10
91.17359074326563
 20
-138.6096272439934
 30
0.0
 10
91.19408906140288
 20
-137.962293802315
 30
0.0
 10
91.774932160216
 20
-137.962293802315
 30
0.0
 10
91.96027829732243
 20
-137.962293802315
 30
0.0
 10
92.22279457329847
 20
-138.031884731117
 30
0.0
 10
92.26344670002442
 20
-138.3639919358951
 30
0.0
 10
92.26344670002442
 20
-138.3639919358951
 30
0.0
 10
92.03503686935235
 20
-138.3639919358951
 30
0.0
 10
92.03503686935235
 20
-138.3639919358951
 30
0.0
 10
92.02366805425103
 20
-138.30680335084
 30
0.0
 10
91.98990611849558
 20
-138.1590087545227
 30
0.0
 10
91.77286510292484
 20
-138.1590087545227
 30
0.0
 10
91.4607394519612
 20
-138.1590087545227
 30
0.0
 10
91.41767575839559
 20
-138.48663733517
 30
0.0
 10
91.40423988600311
 20
-138.6919650260909
 30
0.0
 10
91.50380314552683
 20
-138.6137613585757
 30
0.0
 10
91.57615015071708
 20
-138.5545057162294
 30
0.0
 10
91.77045353608517
 20
-138.5545057162294
 30
0.0
 10
91.96268986416212
 20
-138.5545057162294
 30
0.0
 10
92.28583982067855
 20
-138.6623372049177
 30
0.0
 10
92.28583982067855
 20
-139.0685139626287
 30
0.0
 10
92.28583982067855
 20
-139.3878743141114
 30
0.0
 10
92.07362193878716
 20
-139.6080159156188
 30
0.0
 10
91.73428003349005
 20
-139.6080159156188
 30
0.0
  0
SPLINE
  5
6A
330
63
100
AcDbEntity
  8
_U+30EC_U+30A4_U+30E4_U+30FC 1
370
     0
100
AcDbSpline
210
0.0
220
0.0
230
1.0
 70
    11
 71
     3
 72
    17
 73
    13
 74
     0
 42
0.0000000001
 43
0.0000000001
 12
1.0
 22
0.0
 32
0.0
 13
1.0
 23
0.0
 33
0.0
 40
0.0
 40
0.0
 40
0.0
 40
0.0
 40
1.0
 40
1.0
 40
1.0
 40
2.0
 40
2.0
 40
2.0
 40
3.0
 40
3.0
 40
3.0
 40
4.0
 40
4.0
 40
4.0
 40
4.0
 10
91.75253903956187
 20
-138.7491536111461
 30
0.0
 10
91.47210826706254
 20
-138.7491536111461
 30
0.0
 10
91.43145614033658
 20
-138.9606824739404
 30
0.0
 10
91.43145614033658
 20
-139.0771267013418
 30
0.0
 10
91.43145614033658
 20
-139.2524820615411
 30
0.0
 10
91.53308645715146
 20
-139.4154350779934
 30
0.0
 10
91.72980140935923
 20
-139.4154350779934
 30
0.0
 10
91.85864798050757
 20
-139.4154350779934
 30
0.0
 10
92.04640568445367
 20
-139.3561794356471
 30
0.0
 10
92.04640568445367
 20
-139.0705810199199
 30
0.0
 10
92.04640568445367
 20
-138.8463053038301
 30
0.0
 10
91.89723304994236
 20
-138.7491536111461
 30
0.0
 10
91.75253903956187
 20
-138.7491536111461
 30
0.0
  0
HATCH
  5
6B
330
63
100
AcDbEntity
  8
_U+30EC_U+30A4_U+30E4_U+30FC 1
 62
     7
420
 16777215
100
AcDbHatch
 10
0.0
 20
0.0
 30
0.0
210
0.0
220
0.0
230
1.0
  2
SOLID
 70
     1
 71
     0
 91
        2
 92
        1
 93
        1
 72
     4
 94
        3
 73
     0
 74
     1
 95
       32
 96
       28
 40
0.0
 40
0.0
 40
0.0
 40
0.0
 40
1.0
 40
1.0
 40
1.0
 40
2.0
 40
2.0
 40
2.0
 40
3.0
 40
3.0
 40
3.0
 40
4.0
 40
4.0
 40
4.0
 40
5.0
 40
5.0
 40
5.0
 40
6.0
 40
6.0
 40
6.0
 40
7.0
 40
7.0
 40
7.0
 40
8.0
 40
8.0
 40
8.0
 40
9.0
 40
9.0
 40
9.0
 40
9.0
 10
91.73428003349005
 20
-139.6080159156188
 10
91.18272024630154
 20
-139.6080159156188
 10
91.17359074326563
 20
-139.0537000520421
 10
91.17359074326563
 20
-138.8401041319567
 10
91.17359074326563
 20
-138.6096272439934
 10
91.19408906140288
 20
-137.962293802315
 10
91.774932160216
 20
-137.962293802315
 10
91.96027829732243
 20
-137.962293802315
 10
92.22279457329847
 20
-138.031884731117
 10
92.26344670002442
 20
-138.3639919358951
 10
92.26344670002442
 20
-138.3639919358951
 10
92.03503686935235
 20
-138.3639919358951
 10
92.03503686935235
 20
-138.3639919358951
 10
92.02366805425103
 20
-138.30680335084
 10
91.98990611849558
 20
-138.1590087545227
 10
91.77286510292484
 20
-138.1590087545227
 10
91.4607394519612
 20
-138.1590087545227
 10
91.41767575839559
 20
-138.48663733517
 10
91.40423988600311
 20
-138.6919650260909
 10
91.50380314552683
 20
-138.6137613585757
 10
91.57615015071708
 20
-138.5545057162294
 10
91.77045353608517
 20
-138.5545057162294
 10
91.96268986416212
 20
-138.5545057162294
 10
92.28583982067855
 20
-138.6623372049177
 10
92.28583982067855
 20
-139.0685139626287
 10
92.28583982067855
 20
-139.3878743141114
 10
92.07362193878716
 20
-139.6080159156188
 10
91.73428003349005
 20
-139.6080159156188
 97
        0
 97
        0
 92
        1
 93
        1
 72
     4
 94
        3
 73
     0
 74
     1
 95
       17
 96
       13
 40
0.0
 40
0.0
 40
0.0
 40
0.0
 40
1.0
 40
1.0
 40
1.0
 40
2.0
 40
2.0
 40
2.0
 40
3.0
 40
3.0
 40
3.0
 40
4.0
 40
4.0
 40
4.0
 40
4.0
 10
91.75253903956187
 20
-138.7491536111461
 10
91.47210826706254
 20
-138.7491536111461
 10
91.43145614033658
 20
-138.9606824739404
 10
91.43145614033658
 20
-139.0771267013418
 10
91.43145614033658
 20
-139.2524820615411
 10
91.53308645715146
 20
-139.4154350779934
 10
91.72980140935923
 20
-139.4154350779934
 10
91.85864798050757
 20
-139.4154350779934
 10
92.04640568445367
 20
-139.3561794356471
 10
92.04640568445367
 20
-139.0705810199199
 10
92.04640568445367
 20
-138.8463053038301
 10
91.89723304994236
 20
-138.7491536111461
 10
91.75253903956187
 20
-138.7491536111461
 97
        0
 97
        0
 75
     2
 76
     1
 98
        0
  0
POLYLINE
  5
6C
330
63
100
AcDbEntity
  8
_U+30EC_U+30A4_U+30E4_U+30FC 1
370
     0
100
AcDb2dPolyline
 66
     1
 10
0.0
 20
0.0
 30
0.0
  0
VERTEX
  5
6D
330
6C
100
AcDbEntity
  8
_U+30EC_U+30A4_U+30E4_U+30FC 1
370
     0
100
AcDbVertex
100
AcDb2dVertex
 10
92.51735023728733
 20
-139.5573730119857
 30
0.0
  0
VERTEX
  5
6E
330
6C
100
AcDbEntity
  8
_U+30EC_U+30A4_U+30E4_U+30FC 1
370
     0
100
AcDbVertex
100
AcDb2dVertex
 10
92.51735023728733
 20
-139.3055365320139
 30
0.0
  0
VERTEX
  5
6F
330
6C
100
AcDbEntity
  8
_U+30EC_U+30A4_U+30E4_U+30FC 1
370
     0
100
AcDbVertex
100
AcDb2dVertex
 10
92.78641219468534
 20
-139.3055365320139
 30
0.0
  0
VERTEX
  5
70
330
6C
100
AcDbEntity
  8
_U+30EC_U+30A4_U+30E4_U+30FC 1
370
     0
100
AcDbVertex
100
AcDb2dVertex
 10
92.78641219468534
 20
-139.5573730119857
 30
0.0
  0
VERTEX
  5
71
330
6C
100
AcDbEntity
  8
_U+30EC_U+30A4_U+30E4_U+30FC 1
370
     0
100
AcDbVertex
100
AcDb2dVertex
 10
92.51735023728733
 20
-139.5573730119857
 30
0.0
  0
SEQEND
  5
72
330
6C
100
AcDbEntity
  8
_U+30EC_U+30A4_U+30E4_U+30FC 1
370
     0
  0
HATCH
  5
73
330
63
100
AcDbEntity
  8
_U+30EC_U+30A4_U+30E4_U+30FC 1
 62
     7
420
 16777215
100
AcDbHatch
 10
0.0
 20
0.0
 30
0.0
210
0.0
220
0.0
230
1.0
  2
SOLID
 70
     1
 71
     0
 91
        1
 92
        1
 93
        4
 72
     1
 10
92.51735023728733
 20
-139.5573730119857
 11
92.51735023728733
 21
-139.3055365320139
 72
     1
 10
92.51735023728733
 20
-139.3055365320139
 11
92.78641219468534
 21
-139.3055365320139
 72
     1
 10
92.78641219468534
 20
-139.3055365320139
 11
92.78641219468534
 21
-139.5573730119857
 72
     1
 10
92.78641219468534
 20
-139.5573730119857
 11
92.51735023728733
 21
-139.5573730119857
 97
        0
 75
     2
 76
     1
 98
        0
  0
SPLINE
  5
74
330
63
100
AcDbEntity
  8
_U+30EC_U+30A4_U+30E4_U+30FC 1
370
     0
100
AcDbSpline
210
0.0
220
0.0
230
1.0
 70
    11
 71
     3
 72
    53
 73
    49
 74
     0
 42
0.0000000001
 43
0.0000000001
 12
1.0
 22
0.0
 32
0.0
 13
1.0
 23
0.0
 33
0.0
 40
0.0
 40
0.0
 40
0.0
 40
0.0
 40
1.0
 40
1.0
 40
1.0
 40
2.0
 40
2.0
 40
2.0
 40
3.0
 40
3.0
 40
3.0
 40
4.0
 40
4.0
 40
4.0
 40
5.0
 40
5.0
 40
5.0
 40
6.0
 40
6.0
 40
6.0
 40
7.0
 40
7.0
 40
7.0
 40
8.0
 40
8.0
 40
8.0
 40
9.0
 40
9.0
 40
9.0
 40
10.0
 40
10.0
 40
10.0
 40
11.0
 40
11.0
 40
11.0
 40
12.0
 40
12.0
 40
12.0
 40
13.0
 40
13.0
 40
13.0
 40
14.0
 40
14.0
 40
14.0
 40
15.0
 40
15.0
 40
15.0
 40
16.0
 40
16.0
 40
16.0
 40
16.0
 10
93.55329044970196
 20
-139.6080159156188
 30
0.0
 10
93.46957462941039
 20
-139.6080159156188
 30
0.0
 10
93.36105412162502
 20
-139.5911349477411
 30
0.0
 10
93.25253361383965
 20
-139.5277451908125
 30
0.0
 10
93.06718747673321
 20
-139.4175021352845
 30
0.0
 10
93.04444984653055
 20
-139.286588506845
 30
0.0
 10
93.02412378316758
 20
-139.1784125086082
 30
0.0
 10
93.02412378316758
 20
-139.1784125086082
 30
0.0
 10
93.2614908621013
 20
-139.1784125086082
 30
0.0
 10
93.2614908621013
 20
-139.1784125086082
 30
0.0
 10
93.32040199489907
 20
-139.3775390276556
 30
0.0
 10
93.45579424746938
 20
-139.4071668488288
 30
0.0
 10
93.5553575069931
 20
-139.4071668488288
 30
0.0
 10
93.70453014150442
 20
-139.4071668488288
 30
0.0
 10
93.86748315795674
 20
-139.307603589305
 30
0.0
 10
93.86748315795674
 20
-139.0750596440507
 30
0.0
 10
93.86748315795674
 20
-138.8190890494966
 30
0.0
 10
93.67524682987981
 20
-138.7491536111461
 30
0.0
 10
93.54640025873147
 20
-138.7491536111461
 30
0.0
 10
93.51229381342749
 20
-138.7491536111461
 30
0.0
 10
93.36105412162502
 20
-138.7491536111461
 30
0.0
 10
93.26596948623212
 20
-138.8780001822944
 30
0.0
 10
93.26596948623212
 20
-138.8780001822944
 30
0.0
 10
93.078211782286
 20
-138.8590521571255
 30
0.0
 10
93.078211782286
 20
-138.8590521571255
 30
0.0
 10
93.078211782286
 20
-138.8590521571255
 30
0.0
 10
93.20740286298287
 20
-138.0129367059482
 30
0.0
 10
93.20740286298287
 20
-138.0129367059482
 30
0.0
 10
93.20740286298287
 20
-138.0129367059482
 30
0.0
 10
94.03939342267071
 20
-138.0129367059482
 30
0.0
 10
94.03939342267071
 20
-138.0129367059482
 30
0.0
 10
94.03939342267071
 20
-138.0129367059482
 30
0.0
 10
94.03939342267071
 20
-138.2075846008648
 30
0.0
 10
94.03939342267071
 20
-138.2075846008648
 30
0.0
 10
94.03939342267071
 20
-138.2075846008648
 30
0.0
 10
93.38138018498799
 20
-138.2075846008648
 30
0.0
 10
93.38138018498799
 20
-138.2075846008648
 30
0.0
 10
93.38138018498799
 20
-138.2075846008648
 30
0.0
 10
93.3111002370889
 20
-138.6306423264535
 30
0.0
 10
93.3111002370889
 20
-138.6306423264535
 30
0.0
 10
93.37690156085716
 20
-138.596880390698
 30
0.0
 10
93.46509600527956
 20
-138.5565727735206
 30
0.0
 10
93.59153100958824
 20
-138.5565727735206
 30
0.0
 10
93.86300453382592
 20
-138.5565727735206
 30
0.0
 10
94.11621905199178
 20
-138.7426079297241
 30
0.0
 10
94.11621905199178
 20
-139.0557671093333
 30
0.0
 10
94.11621905199178
 20
-139.3730604035248
 30
0.0
 10
93.87644040621839
 20
-139.6080159156188
 30
0.0
 10
93.55329044970196
 20
-139.6080159156188
 30
0.0
  0
HATCH
  5
75
330
63
100
AcDbEntity
  8
_U+30EC_U+30A4_U+30E4_U+30FC 1
 62
     7
420
 16777215
100
AcDbHatch
 10
0.0
 20
0.0
 30
0.0
210
0.0
220
0.0
230
1.0
  2
SOLID
 70
     1
 71
     0
 91
        1
 92
        1
 93
        1
 72
     4
 94
        3
 73
     0
 74
     1
 95
       53
 96
       49
 40
0.0
 40
0.0
 40
0.0
 40
0.0
 40
1.0
 40
1.0
 40
1.0
 40
2.0
 40
2.0
 40
2.0
 40
3.0
 40
3.0
 40
3.0
 40
4.0
 40
4.0
 40
4.0
 40
5.0
 40
5.0
 40
5.0
 40
6.0
 40
6.0
 40
6.0
 40
7.0
 40
7.0
 40
7.0
 40
8.0
 40
8.0
 40
8.0
 40
9.0
 40
9.0
 40
9.0
 40
10.0
 40
10.0
 40
10.0
 40
11.0
 40
11.0
 40
11.0
 40
12.0
 40
12.0
 40
12.0
 40
13.0
 40
13.0
 40
13.0
 40
14.0
 40
14.0
 40
14.0
 40
15.0
 40
15.0
 40
15.0
 40
16.0
 40
16.0
 40
16.0
 40
16.0
 10
93.55329044970196
 20
-139.6080159156188
 10
93.46957462941039
 20
-139.6080159156188
 10
93.36105412162502
 20
-139.5911349477411
 10
93.25253361383965
 20
-139.5277451908125
 10
93.06718747673321
 20
-139.4175021352845
 10
93.04444984653055
 20
-139.286588506845
 10
93.02412378316758
 20
-139.1784125086082
 10
93.02412378316758
 20
-139.1784125086082
 10
93.2614908621013
 20
-139.1784125086082
 10
93.2614908621013
 20
-139.1784125086082
 10
93.32040199489907
 20
-139.3775390276556
 10
93.45579424746938
 20
-139.4071668488288
 10
93.5553575069931
 20
-139.4071668488288
 10
93.70453014150442
 20
-139.4071668488288
 10
93.86748315795674
 20
-139.307603589305
 10
93.86748315795674
 20
-139.0750596440507
 10
93.86748315795674
 20
-138.8190890494966
 10
93.67524682987981
 20
-138.7491536111461
 10
93.54640025873147
 20
-138.7491536111461
 10
93.51229381342749
 20
-138.7491536111461
 10
93.36105412162502
 20
-138.7491536111461
 10
93.26596948623212
 20
-138.8780001822944
 10
93.26596948623212
 20
-138.8780001822944
 10
93.078211782286
 20
-138.8590521571255
 10
93.078211782286
 20
-138.8590521571255
 10
93.078211782286
 20
-138.8590521571255
 10
93.20740286298287
 20
-138.0129367059482
 10
93.20740286298287
 20
-138.0129367059482
 10
93.20740286298287
 20
-138.0129367059482
 10
94.03939342267071
 20
-138.0129367059482
 10
94.03939342267071
 20
-138.0129367059482
 10
94.03939342267071
 20
-138.0129367059482
 10
94.03939342267071
 20
-138.2075846008648
 10
94.03939342267071
 20
-138.2075846008648
 10
94.03939342267071
 20
-138.2075846008648
 10
93.38138018498799
 20
-138.2075846008648
 10
93.38138018498799
 20
-138.2075846008648
 10
93.38138018498799
 20
-138.2075846008648
 10
93.3111002370889
 20
-138.6306423264535
 10
93.3111002370889
 20
-138.6306423264535
 10
93.37690156085716
 20
-138.596880390698
 10
93.46509600527956
 20
-138.5565727735206
 10
93.59153100958824
 20
-138.5565727735206
 10
93.86300453382592
 20
-138.5565727735206
 10
94.11621905199178
 20
-138.7426079297241
 10
94.11621905199178
 20
-139.0557671093333
 10
94.11621905199178
 20
-139.3730604035248
 10
93.87644040621839
 20
-139.6080159156188
 10
93.55329044970196
 20
-139.6080159156188
 97
        0
 97
        0
 75
     2
 76
     1
 98
        0
  0
ENDBLK
  5
66
330
63
100
AcDbEntity
  8
0
100
AcDbBlockEnd
  0
BLOCK
  5
85
330
83
100
AcDbEntity
  8
0
100
AcDbBlockBegin
  2
block 3
 70
     0
 10
0.0
 20
0.0
 30
0.0
  3
block 3
  1

  0
SPLINE
  5
87
330
83
100
AcDbEntity
  8
_U+30EC_U+30A4_U+30E4_U+30FC 1
370
     0
100
AcDbSpline
210
0.0
220
0.0
230
1.0
 70
    11
 71
     3
 72
    26
 73
    22
 74
     0
 42
0.0000000001
 43
0.0000000001
 12
1.0
 22
0.0
 32
0.0
 13
1.0
 23
0.0
 33
0.0
 40
0.0
 40
0.0
 40
0.0
 40
0.0
 40
1.0
 40
1.0
 40
1.0
 40
2.0
 40
2.0
 40
2.0
 40
3.0
 40
3.0
 40
3.0
 40
4.0
 40
4.0
 40
4.0
 40
5.0
 40
5.0
 40
5.0
 40
6.0
 40
6.0
 40
6.0
 40
7.0
 40
7.0
 40
7.0
 40
7.0
 10
79.53261309860643
 20
-129.7826035916863
 30
0.0
 10
79.53261309860643
 20
-129.7826035916863
 30
0.0
 10
78.4282877408096
 20
-129.7826035916863
 30
0.0
 10
78.4282877408096
 20
-129.7826035916863
 30
0.0
 10
78.4282877408096
 20
-129.7826035916863
 30
0.0
 10
78.4282877408096
 20
-130.1350368598274
 30
0.0
 10
78.4282877408096
 20
-130.1350368598274
 30
0.0
 10
78.4282877408096
 20
-130.1350368598274
 30
0.0
 10
78.28032088971811
 20
-130.1350368598274
 30
0.0
 10
78.28032088971811
 20
-130.1350368598274
 30
0.0
 10
78.26550697913154
 20
-129.7801920248466
 30
0.0
 10
78.10255396267922
 20
-129.730582649859
 30
0.0
 10
77.98834904734319
 20
-129.6988877713947
 30
0.0
 10
77.98834904734319
 20
-129.6988877713947
 30
0.0
 10
77.98834904734319
 20
-129.5428249459129
 30
0.0
 10
77.98834904734319
 20
-129.5428249459129
 30
0.0
 10
77.98834904734319
 20
-129.5428249459129
 30
0.0
 10
79.53261309860643
 20
-129.5428249459129
 30
0.0
 10
79.53261309860643
 20
-129.5428249459129
 30
0.0
 10
79.53261309860643
 20
-129.5428249459129
 30
0.0
 10
79.53261309860643
 20
-129.7826035916863
 30
0.0
 10
79.53261309860643
 20
-129.7826035916863
 30
0.0
  0
HATCH
  5
88
330
83
100
AcDbEntity
  8
_U+30EC_U+30A4_U+30E4_U+30FC 1
 62
     7
420
 16777215
100
AcDbHatch
 10
0.0
 20
0.0
 30
0.0
210
0.0
220
0.0
230
1.0
  2
SOLID
 70
     1
 71
     0
 91
        1
 92
        1
 93
        1
 72
     4
 94
        3
 73
     0
 74
     1
 95
       26
 96
       22
 40
0.0
 40
0.0
 40
0.0
 40
0.0
 40
1.0
 40
1.0
 40
1.0
 40
2.0
 40
2.0
 40
2.0
 40
3.0
 40
3.0
 40
3.0
 40
4.0
 40
4.0
 40
4.0
 40
5.0
 40
5.0
 40
5.0
 40
6.0
 40
6.0
 40
6.0
 40
7.0
 40
7.0
 40
7.0
 40
7.0
 10
79.53261309860643
 20
-129.7826035916863
 10
79.53261309860643
 20
-129.7826035916863
 10
78.4282877408096
 20
-129.7826035916863
 10
78.4282877408096
 20
-129.7826035916863
 10
78.4282877408096
 20
-129.7826035916863
 10
78.4282877408096
 20
-130.1350368598274
 10
78.4282877408096
 20
-130.1350368598274
 10
78.4282877408096
 20
-130.1350368598274
 10
78.28032088971811
 20
-130.1350368598274
 10
78.28032088971811
 20
-130.1350368598274
 10
78.26550697913154
 20
-129.7801920248466
 10
78.10255396267922
 20
-129.730582649859
 10
77.98834904734319
 20
-129.6988877713947
 10
77.98834904734319
 20
-129.6988877713947
 10
77.98834904734319
 20
-129.5428249459129
 10
77.98834904734319
 20
-129.5428249459129
 10
77.98834904734319
 20
-129.5428249459129
 10
79.53261309860643
 20
-129.5428249459129
 10
79.53261309860643
 20
-129.5428249459129
 10
79.53261309860643
 20
-129.5428249459129
 10
79.53261309860643
 20
-129.7826035916863
 10
79.53261309860643
 20
-129.7826035916863
 97
        0
 97
        0
 75
     2
 76
     1
 98
        0
  0
SPLINE
  5
89
330
83
100
AcDbEntity
  8
_U+30EC_U+30A4_U+30E4_U+30FC 1
370
     0
100
AcDbSpline
210
0.0
220
0.0
230
1.0
 70
    11
 71
     3
 72
    32
 73
    28
 74
     0
 42
0.0000000001
 43
0.0000000001
 12
1.0
 22
0.0
 32
0.0
 13
1.0
 23
0.0
 33
0.0
 40
0.0
 40
0.0
 40
0.0
 40
0.0
 40
1.0
 40
1.0
 40
1.0
 40
2.0
 40
2.0
 40
2.0
 40
3.0
 40
3.0
 40
3.0
 40
4.0
 40
4.0
 40
4.0
 40
5.0
 40
5.0
 40
5.0
 40
6.0
 40
6.0
 40
6.0
 40
7.0
 40
7.0
 40
7.0
 40
8.0
 40
8.0
 40
8.0
 40
9.0
 40
9.0
 40
9.0
 40
9.0
 10
79.58342825701386
 20
-128.4682996640635
 30
0.0
 10
79.58342825701386
 20
-129.019859451252
 30
0.0
 10
79.02911239343717
 20
-129.0288166995136
 30
0.0
 10
78.81551647335168
 20
-129.0288166995136
 30
0.0
 10
78.5848673306142
 20
-129.0288166995136
 30
0.0
 10
77.93753388893576
 20
-129.0084906361507
 30
0.0
 10
77.93753388893576
 20
-128.4274752825633
 30
0.0
 10
77.93753388893576
 20
-128.2421291454568
 30
0.0
 10
78.00729707251207
 20
-127.9799573790293
 30
0.0
 10
78.33957653206441
 20
-127.9391329975291
 30
0.0
 10
78.33957653206441
 20
-127.9391329975291
 30
0.0
 10
78.33957653206441
 20
-128.1675428282012
 30
0.0
 10
78.33957653206441
 20
-128.1675428282012
 30
0.0
 10
78.28238794700927
 20
-128.1789116433025
 30
0.0
 10
78.13424884114353
 20
-128.2126735790579
 30
0.0
 10
78.13424884114353
 20
-128.4297145946287
 30
0.0
 10
78.13424884114353
 20
-128.7418402455923
 30
0.0
 10
78.46222193133931
 20
-128.7849039391579
 30
0.0
 10
78.66737736748594
 20
-128.7983398115504
 30
0.0
 10
78.58917369997077
 20
-128.6987765520267
 30
0.0
 10
78.52991805762447
 20
-128.6264295468364
 30
0.0
 10
78.52991805762447
 20
-128.4321261614684
 30
0.0
 10
78.52991805762447
 20
-128.2398898333914
 30
0.0
 10
78.63774954631279
 20
-127.9165676221007
 30
0.0
 10
79.04392630402374
 20
-127.9165676221007
 30
0.0
 10
79.36345891028067
 20
-127.9165676221007
 30
0.0
 10
79.58342825701386
 20
-128.1291300135406
 30
0.0
 10
79.58342825701386
 20
-128.4682996640635
 30
0.0
  0
SPLINE
  5
8A
330
83
100
AcDbEntity
  8
_U+30EC_U+30A4_U+30E4_U+30FC 1
370
     0
100
AcDbSpline
210
0.0
220
0.0
230
1.0
 70
    11
 71
     3
 72
    17
 73
    13
 74
     0
 42
0.0000000001
 43
0.0000000001
 12
1.0
 22
0.0
 32
0.0
 13
1.0
 23
0.0
 33
0.0
 40
0.0
 40
0.0
 40
0.0
 40
0.0
 40
1.0
 40
1.0
 40
1.0
 40
2.0
 40
2.0
 40
2.0
 40
3.0
 40
3.0
 40
3.0
 40
4.0
 40
4.0
 40
4.0
 40
4.0
 10
78.72456595254108
 20
-128.4502129127659
 30
0.0
 10
78.72456595254108
 20
-128.730471430491
 30
0.0
 10
78.93609481533542
 20
-128.771123557217
 30
0.0
 10
79.05236678796261
 20
-128.771123557217
 30
0.0
 10
79.22806665771034
 20
-128.771123557217
 30
0.0
 10
79.39084741938841
 20
-128.6694932404021
 30
0.0
 10
79.39084741938841
 20
-128.4727782881943
 30
0.0
 10
79.39084741938841
 20
-128.343931717046
 30
0.0
 10
79.3315917770421
 20
-128.1561740130998
 30
0.0
 10
79.0459933613149
 20
-128.1561740130998
 30
0.0
 10
78.82188989999939
 20
-128.1561740130998
 30
0.0
 10
78.72456595254108
 20
-128.3055189023854
 30
0.0
 10
78.72456595254108
 20
-128.4502129127659
 30
0.0
  0
HATCH
  5
8B
330
83
100
AcDbEntity
  8
_U+30EC_U+30A4_U+30E4_U+30FC 1
 62
     7
420
 16777215
100
AcDbHatch
 10
0.0
 20
0.0
 30
0.0
210
0.0
220
0.0
230
1.0
  2
SOLID
 70
     1
 71
     0
 91
        2
 92
        1
 93
        1
 72
     4
 94
        3
 73
     0
 74
     1
 95
       32
 96
       28
 40
0.0
 40
0.0
 40
0.0
 40
0.0
 40
1.0
 40
1.0
 40
1.0
 40
2.0
 40
2.0
 40
2.0
 40
3.0
 40
3.0
 40
3.0
 40
4.0
 40
4.0
 40
4.0
 40
5.0
 40
5.0
 40
5.0
 40
6.0
 40
6.0
 40
6.0
 40
7.0
 40
7.0
 40
7.0
 40
8.0
 40
8.0
 40
8.0
 40
9.0
 40
9.0
 40
9.0
 40
9.0
 10
79.58342825701386
 20
-128.4682996640635
 10
79.58342825701386
 20
-129.019859451252
 10
79.02911239343717
 20
-129.0288166995136
 10
78.81551647335168
 20
-129.0288166995136
 10
78.5848673306142
 20
-129.0288166995136
 10
77.93753388893576
 20
-129.0084906361507
 10
77.93753388893576
 20
-128.4274752825633
 10
77.93753388893576
 20
-128.2421291454568
 10
78.00729707251207
 20
-127.9799573790293
 10
78.33957653206441
 20
-127.9391329975291
 10
78.33957653206441
 20
-127.9391329975291
 10
78.33957653206441
 20
-128.1675428282012
 10
78.33957653206441
 20
-128.1675428282012
 10
78.28238794700927
 20
-128.1789116433025
 10
78.13424884114353
 20
-128.2126735790579
 10
78.13424884114353
 20
-128.4297145946287
 10
78.13424884114353
 20
-128.7418402455923
 10
78.46222193133931
 20
-128.7849039391579
 10
78.66737736748594
 20
-128.7983398115504
 10
78.58917369997077
 20
-128.6987765520267
 10
78.52991805762447
 20
-128.6264295468364
 10
78.52991805762447
 20
-128.4321261614684
 10
78.52991805762447
 20
-128.2398898333914
 10
78.63774954631279
 20
-127.9165676221007
 10
79.04392630402374
 20
-127.9165676221007
 10
79.36345891028067
 20
-127.9165676221007
 10
79.58342825701386
 20
-128.1291300135406
 10
79.58342825701386
 20
-128.4682996640635
 97
        0
 97
        0
 92
        1
 93
        1
 72
     4
 94
        3
 73
     0
 74
     1
 95
       17
 96
       13
 40
0.0
 40
0.0
 40
0.0
 40
0.0
 40
1.0
 40
1.0
 40
1.0
 40
2.0
 40
2.0
 40
2.0
 40
3.0
 40
3.0
 40
3.0
 40
4.0
 40
4.0
 40
4.0
 40
4.0
 10
78.72456595254108
 20
-128.4502129127659
 10
78.72456595254108
 20
-128.730471430491
 10
78.93609481533542
 20
-128.771123557217
 10
79.05236678796261
 20
-128.771123557217
 10
79.22806665771034
 20
-128.771123557217
 10
79.39084741938841
 20
-128.6694932404021
 10
79.39084741938841
 20
-128.4727782881943
 10
79.39084741938841
 20
-128.343931717046
 10
79.3315917770421
 20
-128.1561740130998
 10
79.0459933613149
 20
-128.1561740130998
 10
78.82188989999939
 20
-128.1561740130998
 10
78.72456595254108
 20
-128.3055189023854
 10
78.72456595254108
 20
-128.4502129127659
 97
        0
 97
        0
 75
     2
 76
     1
 98
        0
  0
POLYLINE
  5
8C
330
83
100
AcDbEntity
  8
_U+30EC_U+30A4_U+30E4_U+30FC 1
370
     0
100
AcDb2dPolyline
 66
     1
 10
0.0
 20
0.0
 30
0.0
  0
VERTEX
  5
8D
330
8C
100
AcDbEntity
  8
_U+30EC_U+30A4_U+30E4_U+30FC 1
370
     0
100
AcDbVertex
100
AcDb2dVertex
 10
79.53261309860643
 20
-127.6852294602662
 30
0.0
  0
VERTEX
  5
8E
330
8C
100
AcDbEntity
  8
_U+30EC_U+30A4_U+30E4_U+30FC 1
370
     0
100
AcDbVertex
100
AcDb2dVertex
 10
79.28094887340893
 20
-127.6852294602662
 30
0.0
  0
VERTEX
  5
8F
330
8C
100
AcDbEntity
  8
_U+30EC_U+30A4_U+30E4_U+30FC 1
370
     0
100
AcDbVertex
100
AcDb2dVertex
 10
79.28094887340893
 20
-127.4161675028682
 30
0.0
  0
VERTEX
  5
90
330
8C
100
AcDbEntity
  8
_U+30EC_U+30A4_U+30E4_U+30FC 1
370
     0
100
AcDbVertex
100
AcDb2dVertex
 10
79.53261309860643
 20
-127.4161675028682
 30
0.0
  0
VERTEX
  5
91
330
8C
100
AcDbEntity
  8
_U+30EC_U+30A4_U+30E4_U+30FC 1
370
     0
100
AcDbVertex
100
AcDb2dVertex
 10
79.53261309860643
 20
-127.6852294602662
 30
0.0
  0
SEQEND
  5
92
330
8C
100
AcDbEntity
  8
_U+30EC_U+30A4_U+30E4_U+30FC 1
370
     0
  0
HATCH
  5
93
330
83
100
AcDbEntity
  8
_U+30EC_U+30A4_U+30E4_U+30FC 1
 62
     7
420
 16777215
100
AcDbHatch
 10
0.0
 20
0.0
 30
0.0
210
0.0
220
0.0
230
1.0
  2
SOLID
 70
     1
 71
     0
 91
        1
 92
        1
 93
        4
 72
     1
 10
79.53261309860643
 20
-127.6852294602662
 11
79.28094887340893
 21
-127.6852294602662
 72
     1
 10
79.28094887340893
 20
-127.6852294602662
 11
79.28094887340893
 21
-127.4161675028682
 72
     1
 10
79.28094887340893
 20
-127.4161675028682
 11
79.53261309860643
 21
-127.4161675028682
 72
     1
 10
79.53261309860643
 20
-127.4161675028682
 11
79.53261309860643
 21
-127.6852294602662
 97
        0
 75
     2
 76
     1
 98
        0
  0
SPLINE
  5
94
330
83
100
AcDbEntity
  8
_U+30EC_U+30A4_U+30E4_U+30FC 1
370
     0
100
AcDbSpline
210
0.0
220
0.0
230
1.0
 70
    11
 71
     3
 72
    53
 73
    49
 74
     0
 42
0.0000000001
 43
0.0000000001
 12
1.0
 22
0.0
 32
0.0
 13
1.0
 23
0.0
 33
0.0
 40
0.0
 40
0.0
 40
0.0
 40
0.0
 40
1.0
 40
1.0
 40
1.0
 40
2.0
 40
2.0
 40
2.0
 40
3.0
 40
3.0
 40
3.0
 40
4.0
 40
4.0
 40
4.0
 40
5.0
 40
5.0
 40
5.0
 40
6.0
 40
6.0
 40
6.0
 40
7.0
 40
7.0
 40
7.0
 40
8.0
 40
8.0
 40
8.0
 40
9.0
 40
9.0
 40
9.0
 40
10.0
 40
10.0
 40
10.0
 40
11.0
 40
11.0
 40
11.0
 40
12.0
 40
12.0
 40
12.0
 40
13.0
 40
13.0
 40
13.0
 40
14.0
 40
14.0
 40
14.0
 40
15.0
 40
15.0
 40
15.0
 40
16.0
 40
16.0
 40
16.0
 40
16.0
 10
79.58342825701386
 20
-126.6494615026258
 30
0.0
 10
79.58342825701386
 20
-126.7330050681431
 30
0.0
 10
79.56654728913614
 20
-126.8415255759285
 30
0.0
 10
79.50298527743328
 20
-126.9500460837139
 30
0.0
 10
79.39308673145382
 20
-127.1355644755946
 30
0.0
 10
79.2618285934658
 20
-127.158129851023
 30
0.0
 10
79.15399710477747
 20
-127.1784559143859
 30
0.0
 10
79.15399710477747
 20
-127.1784559143859
 30
0.0
 10
79.15399710477747
 20
-126.9410888354522
 30
0.0
 10
79.15399710477747
 20
-126.9410888354522
 30
0.0
 10
79.35277911427639
 20
-126.8823499574287
 30
0.0
 10
79.38240693544954
 20
-126.7466131953099
 30
0.0
 10
79.38240693544954
 20
-126.6472221905604
 30
0.0
 10
79.38240693544954
 20
-126.4978773012748
 30
0.0
 10
79.28301593070009
 20
-126.3350965395968
 30
0.0
 10
79.05029973067145
 20
-126.3350965395968
 30
0.0
 10
78.7943291361174
 20
-126.3350965395968
 30
0.0
 10
78.72456595254108
 20
-126.5273328676737
 30
0.0
 10
78.72456595254108
 20
-126.6561794388221
 30
0.0
 10
78.72456595254108
 20
-126.6901136293518
 30
0.0
 10
78.72456595254108
 20
-126.8415255759285
 30
0.0
 10
78.85358477846368
 20
-126.9366102113214
 30
0.0
 10
78.85358477846368
 20
-126.9366102113214
 30
0.0
 10
78.83446449852056
 20
-127.1241956604933
 30
0.0
 10
78.83446449852056
 20
-127.1241956604933
 30
0.0
 10
78.83446449852056
 20
-127.1241956604933
 30
0.0
 10
77.98834904734319
 20
-126.9953490893449
 30
0.0
 10
77.98834904734319
 20
-126.9953490893449
 30
0.0
 10
77.98834904734319
 20
-126.9953490893449
 30
0.0
 10
77.98834904734319
 20
-126.1633585296571
 30
0.0
 10
77.98834904734319
 20
-126.1633585296571
 30
0.0
 10
77.98834904734319
 20
-126.1633585296571
 30
0.0
 10
78.1829969422598
 20
-126.1633585296571
 30
0.0
 10
78.1829969422598
 20
-126.1633585296571
 30
0.0
 10
78.1829969422598
 20
-126.1633585296571
 30
0.0
 10
78.1829969422598
 20
-126.8211995125655
 30
0.0
 10
78.1829969422598
 20
-126.8211995125655
 30
0.0
 10
78.1829969422598
 20
-126.8211995125655
 30
0.0
 10
78.6060546678485
 20
-126.8913072056904
 30
0.0
 10
78.6060546678485
 20
-126.8913072056904
 30
0.0
 10
78.57229273209305
 20
-126.8258503914706
 30
0.0
 10
78.53198511491561
 20
-126.7376559470482
 30
0.0
 10
78.53198511491561
 20
-126.6110486879653
 30
0.0
 10
78.53198511491561
 20
-126.3397474185019
 30
0.0
 10
78.71819252589337
 20
-126.086532900336
 30
0.0
 10
79.03135170550259
 20
-126.086532900336
 30
0.0
 10
79.34864499969409
 20
-126.086532900336
 30
0.0
 10
79.58342825701386
 20
-126.3261392913351
 30
0.0
 10
79.58342825701386
 20
-126.6494615026258
 30
0.0
  0
HATCH
  5
95
330
83
100
AcDbEntity
  8
_U+30EC_U+30A4_U+30E4_U+30FC 1
 62
     7
420
 16777215
100
AcDbHatch
 10
0.0
 20
0.0
 30
0.0
210
0.0
220
0.0
230
1.0
  2
SOLID
 70
     1
 71
     0
 91
        1
 92
        1
 93
        1
 72
     4
 94
        3
 73
     0
 74
     1
 95
       53
 96
       49
 40
0.0
 40
0.0
 40
0.0
 40
0.0
 40
1.0
 40
1.0
 40
1.0
 40
2.0
 40
2.0
 40
2.0
 40
3.0
 40
3.0
 40
3.0
 40
4.0
 40
4.0
 40
4.0
 40
5.0
 40
5.0
 40
5.0
 40
6.0
 40
6.0
 40
6.0
 40
7.0
 40
7.0
 40
7.0
 40
8.0
 40
8.0
 40
8.0
 40
9.0
 40
9.0
 40
9.0
 40
10.0
 40
10.0
 40
10.0
 40
11.0
 40
11.0
 40
11.0
 40
12.0
 40
12.0
 40
12.0
 40
13.0
 40
13.0
 40
13.0
 40
14.0
 40
14.0
 40
14.0
 40
15.0
 40
15.0
 40
15.0
 40
16.0
 40
16.0
 40
16.0
 40
16.0
 10
79.58342825701386
 20
-126.6494615026258
 10
79.58342825701386
 20
-126.7330050681431
 10
79.56654728913614
 20
-126.8415255759285
 10
79.50298527743328
 20
-126.9500460837139
 10
79.39308673145382
 20
-127.1355644755946
 10
79.2618285934658
 20
-127.158129851023
 10
79.15399710477747
 20
-127.1784559143859
 10
79.15399710477747
 20
-127.1784559143859
 10
79.15399710477747
 20
-126.9410888354522
 10
79.15399710477747
 20
-126.9410888354522
 10
79.35277911427639
 20
-126.8823499574287
 10
79.38240693544954
 20
-126.7466131953099
 10
79.38240693544954
 20
-126.6472221905604
 10
79.38240693544954
 20
-126.4978773012748
 10
79.28301593070009
 20
-126.3350965395968
 10
79.05029973067145
 20
-126.3350965395968
 10
78.7943291361174
 20
-126.3350965395968
 10
78.72456595254108
 20
-126.5273328676737
 10
78.72456595254108
 20
-126.6561794388221
 10
78.72456595254108
 20
-126.6901136293518
 10
78.72456595254108
 20
-126.8415255759285
 10
78.85358477846368
 20
-126.9366102113214
 10
78.85358477846368
 20
-126.9366102113214
 10
78.83446449852056
 20
-127.1241956604933
 10
78.83446449852056
 20
-127.1241956604933
 10
78.83446449852056
 20
-127.1241956604933
 10
77.98834904734319
 20
-126.9953490893449
 10
77.98834904734319
 20
-126.9953490893449
 10
77.98834904734319
 20
-126.9953490893449
 10
77.98834904734319
 20
-126.1633585296571
 10
77.98834904734319
 20
-126.1633585296571
 10
77.98834904734319
 20
-126.1633585296571
 10
78.1829969422598
 20
-126.1633585296571
 10
78.1829969422598
 20
-126.1633585296571
 10
78.1829969422598
 20
-126.1633585296571
 10
78.1829969422598
 20
-126.8211995125655
 10
78.1829969422598
 20
-126.8211995125655
 10
78.1829969422598
 20
-126.8211995125655
 10
78.6060546678485
 20
-126.8913072056904
 10
78.6060546678485
 20
-126.8913072056904
 10
78.57229273209305
 20
-126.8258503914706
 10
78.53198511491561
 20
-126.7376559470482
 10
78.53198511491561
 20
-126.6110486879653
 10
78.53198511491561
 20
-126.3397474185019
 10
78.71819252589337
 20
-126.086532900336
 10
79.03135170550259
 20
-126.086532900336
 10
79.34864499969409
 20
-126.086532900336
 10
79.58342825701386
 20
-126.3261392913351
 10
79.58342825701386
 20
-126.6494615026258
 97
        0
 97
        0
 75
     2
 76
     1
 98
        0
  0
ENDBLK
  5
86
330
83
100
AcDbEntity
  8
0
100
AcDbBlockEnd
  0
BLOCK
  5
A9
330
A7
100
AcDbEntity
  8
0
100
AcDbBlockBegin
  2
block 4
 70
     0
 10
0.0
 20
0.0
 30
0.0
  3
block 4
  1

  0
SPLINE
  5
AB
330
A7
100
AcDbEntity
  8
_U+30EC_U+30A4_U+30E4_U+30FC 1
370
     0
100
AcDbSpline
210
0.0
220
0.0
230
1.0
 70
    11
 71
     3
 72
    26
 73
    22
 74
     0
 42
0.0000000001
 43
0.0000000001
 12
1.0
 22
0.0
 32
0.0
 13
1.0
 23
0.0
 33
0.0
 40
0.0
 40
0.0
 40
0.0
 40
0.0
 40
1.0
 40
1.0
 40
1.0
 40
2.0
 40
2.0
 40
2.0
 40
3.0
 40
3.0
 40
3.0
 40
4.0
 40
4.0
 40
4.0
 40
5.0
 40
5.0
 40
5.0
 40
6.0
 40
6.0
 40
6.0
 40
7.0
 40
7.0
 40
7.0
 40
7.0
 10
103.7679985634677
 20
-130.6108045463403
 30
0.0
 10
103.7679985634677
 20
-130.6108045463403
 30
0.0
 10
102.6635009508966
 20
-130.6108045463403
 30
0.0
 10
102.6635009508966
 20
-130.6108045463403
 30
0.0
 10
102.6635009508966
 20
-130.6108045463403
 30
0.0
 10
102.6635009508966
 20
-130.9635823240299
 30
0.0
 10
102.6635009508966
 20
-130.9635823240299
 30
0.0
 10
102.6635009508966
 20
-130.9635823240299
 30
0.0
 10
102.5153618450309
 20
-130.9635823240299
 30
0.0
 10
102.5153618450309
 20
-130.9635823240299
 30
0.0
 10
102.5005479344443
 20
-130.6087374890492
 30
0.0
 10
102.3379394275405
 20
-130.5591281140616
 30
0.0
 10
102.2235622574302
 20
-130.5274332355973
 30
0.0
 10
102.2235622574302
 20
-130.5274332355973
 30
0.0
 10
102.2235622574302
 20
-130.3713704101155
 30
0.0
 10
102.2235622574302
 20
-130.3713704101155
 30
0.0
 10
102.2235622574302
 20
-130.3713704101155
 30
0.0
 10
103.7679985634677
 20
-130.3713704101155
 30
0.0
 10
103.7679985634677
 20
-130.3713704101155
 30
0.0
 10
103.7679985634677
 20
-130.3713704101155
 30
0.0
 10
103.7679985634677
 20
-130.6108045463403
 30
0.0
 10
103.7679985634677
 20
-130.6108045463403
 30
0.0
  0
HATCH
  5
AC
330
A7
100
AcDbEntity
  8
_U+30EC_U+30A4_U+30E4_U+30FC 1
 62
     7
420
 16777215
100
AcDbHatch
 10
0.0
 20
0.0
 30
0.0
210
0.0
220
0.0
230
1.0
  2
SOLID
 70
     1
 71
     0
 91
        1
 92
        1
 93
        1
 72
     4
 94
        3
 73
     0
 74
     1
 95
       26
 96
       22
 40
0.0
 40
0.0
 40
0.0
 40
0.0
 40
1.0
 40
1.0
 40
1.0
 40
2.0
 40
2.0
 40
2.0
 40
3.0
 40
3.0
 40
3.0
 40
4.0
 40
4.0
 40
4.0
 40
5.0
 40
5.0
 40
5.0
 40
6.0
 40
6.0
 40
6.0
 40
7.0
 40
7.0
 40
7.0
 40
7.0
 10
103.7679985634677
 20
-130.6108045463403
 10
103.7679985634677
 20
-130.6108045463403
 10
102.6635009508966
 20
-130.6108045463403
 10
102.6635009508966
 20
-130.6108045463403
 10
102.6635009508966
 20
-130.6108045463403
 10
102.6635009508966
 20
-130.9635823240299
 10
102.6635009508966
 20
-130.9635823240299
 10
102.6635009508966
 20
-130.9635823240299
 10
102.5153618450309
 20
-130.9635823240299
 10
102.5153618450309
 20
-130.9635823240299
 10
102.5005479344443
 20
-130.6087374890492
 10
102.3379394275405
 20
-130.5591281140616
 10
102.2235622574302
 20
-130.5274332355973
 10
102.2235622574302
 20
-130.5274332355973
 10
102.2235622574302
 20
-130.3713704101155
 10
102.2235622574302
 20
-130.3713704101155
 10
102.2235622574302
 20
-130.3713704101155
 10
103.7679985634677
 20
-130.3713704101155
 10
103.7679985634677
 20
-130.3713704101155
 10
103.7679985634677
 20
-130.3713704101155
 10
103.7679985634677
 20
-130.6108045463403
 10
103.7679985634677
 20
-130.6108045463403
 97
        0
 97
        0
 75
     2
 76
     1
 98
        0
  0
SPLINE
  5
AD
330
A7
100
AcDbEntity
  8
_U+30EC_U+30A4_U+30E4_U+30FC 1
370
     0
100
AcDbSpline
210
0.0
220
0.0
230
1.0
 70
    11
 71
     3
 72
    29
 73
    25
 74
     0
 42
0.0000000001
 43
0.0000000001
 12
1.0
 22
0.0
 32
0.0
 13
1.0
 23
0.0
 33
0.0
 40
0.0
 40
0.0
 40
0.0
 40
0.0
 40
1.0
 40
1.0
 40
1.0
 40
2.0
 40
2.0
 40
2.0
 40
3.0
 40
3.0
 40
3.0
 40
4.0
 40
4.0
 40
4.0
 40
5.0
 40
5.0
 40
5.0
 40
6.0
 40
6.0
 40
6.0
 40
7.0
 40
7.0
 40
7.0
 40
8.0
 40
8.0
 40
8.0
 40
8.0
 10
103.5902316364288
 20
-128.8761989695171
 30
0.0
 10
103.799693441932
 20
-128.9916096682729
 30
0.0
 10
103.8186414671009
 20
-129.1769558053794
 30
0.0
 10
103.8186414671009
 20
-129.3013237523969
 30
0.0
 10
103.8186414671009
 20
-129.4728895075623
 30
0.0
 10
103.77213267805
 20
-129.6244737089133
 30
0.0
 10
103.5902316364288
 20
-129.7261040257282
 30
0.0
 10
103.3955837415122
 20
-129.8370361003533
 30
0.0
 10
103.158561172127
 20
-129.8573621637162
 30
0.0
 10
102.9956081556747
 20
-129.8573621637162
 30
0.0
 10
102.8519476739398
 20
-129.8573621637162
 30
0.0
 10
102.600111193968
 20
-129.8394476671929
 30
0.0
 10
102.4013291844691
 20
-129.7261040257282
 30
0.0
 10
102.1980685508394
 20
-129.6110378365209
 30
0.0
 10
102.1749864110882
 20
-129.4391275718069
 30
0.0
 10
102.1749864110882
 20
-129.3013237523969
 30
0.0
 10
102.1749864110882
 20
-129.1314805449741
 30
0.0
 10
102.2194281428479
 20
-128.9778292863319
 30
0.0
 10
102.4013291844691
 20
-128.8761989695171
 30
0.0
 10
102.5939100220946
 20
-128.7697455190228
 30
0.0
 10
102.8223198527667
 20
-128.7451130863033
 30
0.0
 10
102.9956081556747
 20
-128.7451130863033
 30
0.0
 10
103.1671739108402
 20
-128.7451130863033
 30
0.0
 10
103.3976507988034
 20
-128.7676784617317
 30
0.0
 10
103.5902316364288
 20
-128.8761989695171
 30
0.0
  0
SPLINE
  5
AE
330
A7
100
AcDbEntity
  8
_U+30EC_U+30A4_U+30E4_U+30FC 1
370
     0
100
AcDbSpline
210
0.0
220
0.0
230
1.0
 70
    11
 71
     3
 72
    17
 73
    13
 74
     0
 42
0.0000000001
 43
0.0000000001
 12
1.0
 22
0.0
 32
0.0
 13
1.0
 23
0.0
 33
0.0
 40
0.0
 40
0.0
 40
0.0
 40
0.0
 40
1.0
 40
1.0
 40
1.0
 40
2.0
 40
2.0
 40
2.0
 40
3.0
 40
3.0
 40
3.0
 40
4.0
 40
4.0
 40
4.0
 40
4.0
 10
102.3675672487137
 20
-129.3013237523969
 30
0.0
 10
102.3675672487137
 20
-129.5679741429552
 30
0.0
 10
102.6507540976012
 20
-129.6175835179428
 30
0.0
 10
102.9956081556747
 20
-129.6175835179428
 30
0.0
 10
103.3149685071574
 20
-129.6175835179428
 30
0.0
 10
103.6239935721843
 20
-129.5793429580566
 30
0.0
 10
103.6239935721843
 20
-129.3013237523969
 30
0.0
 10
103.6239935721843
 20
-129.0367404191297
 30
0.0
 10
103.3425292710394
 20
-128.9847194773024
 30
0.0
 10
102.9956081556747
 20
-128.9847194773024
 30
0.0
 10
102.6762478041921
 20
-128.9847194773024
 30
0.0
 10
102.3675672487137
 20
-129.0253716040284
 30
0.0
 10
102.3675672487137
 20
-129.3013237523969
 30
0.0
  0
HATCH
  5
AF
330
A7
100
AcDbEntity
  8
_U+30EC_U+30A4_U+30E4_U+30FC 1
 62
     7
420
 16777215
100
AcDbHatch
 10
0.0
 20
0.0
 30
0.0
210
0.0
220
0.0
230
1.0
  2
SOLID
 70
     1
 71
     0
 91
        2
 92
        1
 93
        1
 72
     4
 94
        3
 73
     0
 74
     1
 95
       29
 96
       25
 40
0.0
 40
0.0
 40
0.0
 40
0.0
 40
1.0
 40
1.0
 40
1.0
 40
2.0
 40
2.0
 40
2.0
 40
3.0
 40
3.0
 40
3.0
 40
4.0
 40
4.0
 40
4.0
 40
5.0
 40
5.0
 40
5.0
 40
6.0
 40
6.0
 40
6.0
 40
7.0
 40
7.0
 40
7.0
 40
8.0
 40
8.0
 40
8.0
 40
8.0
 10
103.5902316364288
 20
-128.8761989695171
 10
103.799693441932
 20
-128.9916096682729
 10
103.8186414671009
 20
-129.1769558053794
 10
103.8186414671009
 20
-129.3013237523969
 10
103.8186414671009
 20
-129.4728895075623
 10
103.77213267805
 20
-129.6244737089133
 10
103.5902316364288
 20
-129.7261040257282
 10
103.3955837415122
 20
-129.8370361003533
 10
103.158561172127
 20
-129.8573621637162
 10
102.9956081556747
 20
-129.8573621637162
 10
102.8519476739398
 20
-129.8573621637162
 10
102.600111193968
 20
-129.8394476671929
 10
102.4013291844691
 20
-129.7261040257282
 10
102.1980685508394
 20
-129.6110378365209
 10
102.1749864110882
 20
-129.4391275718069
 10
102.1749864110882
 20
-129.3013237523969
 10
102.1749864110882
 20
-129.1314805449741
 10
102.2194281428479
 20
-128.9778292863319
 10
102.4013291844691
 20
-128.8761989695171
 10
102.5939100220946
 20
-128.7697455190228
 10
102.8223198527667
 20
-128.7451130863033
 10
102.9956081556747
 20
-128.7451130863033
 10
103.1671739108402
 20
-128.7451130863033
 10
103.3976507988034
 20
-128.7676784617317
 10
103.5902316364288
 20
-128.8761989695171
 97
        0
 97
        0
 92
        1
 93
        1
 72
     4
 94
        3
 73
     0
 74
     1
 95
       17
 96
       13
 40
0.0
 40
0.0
 40
0.0
 40
0.0
 40
1.0
 40
1.0
 40
1.0
 40
2.0
 40
2.0
 40
2.0
 40
3.0
 40
3.0
 40
3.0
 40
4.0
 40
4.0
 40
4.0
 40
4.0
 10
102.3675672487137
 20
-129.3013237523969
 10
102.3675672487137
 20
-129.5679741429552
 10
102.6507540976012
 20
-129.6175835179428
 10
102.9956081556747
 20
-129.6175835179428
 10
103.3149685071574
 20
-129.6175835179428
 10
103.6239935721843
 20
-129.5793429580566
 10
103.6239935721843
 20
-129.3013237523969
 10
103.6239935721843
 20
-129.0367404191297
 10
103.3425292710394
 20
-128.9847194773024
 10
102.9956081556747
 20
-128.9847194773024
 10
102.6762478041921
 20
-128.9847194773024
 10
102.3675672487137
 20
-129.0253716040284
 10
102.3675672487137
 20
-129.3013237523969
 97
        0
 97
        0
 75
     2
 76
     1
 98
        0
  0
ENDBLK
  5
AA
330
A7
100
AcDbEntity
  8
0
100
AcDbBlockEnd
  0
BLOCK
  5
B2
330
B0
100
AcDbEntity
  8
0
100
AcDbBlockBegin
  2
block 5
 70
     0
 10
0.0
 20
0.0
 30
0.0
  3
block 5
  1

  0
SPLINE
  5
B4
330
B0
100
AcDbEntity
  8
_U+30EC_U+30A4_U+30E4_U+30FC 1
370
     0
100
AcDbSpline
210
0.0
220
0.0
230
1.0
 70
    11
 71
     3
 72
    26
 73
    22
 74
     0
 42
0.0000000001
 43
0.0000000001
 12
1.0
 22
0.0
 32
0.0
 13
1.0
 23
0.0
 33
0.0
 40
0.0
 40
0.0
 40
0.0
 40
0.0
 40
1.0
 40
1.0
 40
1.0
 40
2.0
 40
2.0
 40
2.0
 40
3.0
 40
3.0
 40
3.0
 40
4.0
 40
4.0
 40
4.0
 40
5.0
 40
5.0
 40
5.0
 40
6.0
 40
6.0
 40
6.0
 40
7.0
 40
7.0
 40
7.0
 40
7.0
 10
103.8441351736918
 20
-136.948402201006
 30
0.0
 10
103.8441351736918
 20
-136.948402201006
 30
0.0
 10
102.7396375611206
 20
-136.948402201006
 30
0.0
 10
102.7396375611206
 20
-136.948402201006
 30
0.0
 10
102.7396375611206
 20
-136.948402201006
 30
0.0
 10
102.7396375611206
 20
-137.300835469147
 30
0.0
 10
102.7396375611206
 20
-137.300835469147
 30
0.0
 10
102.7396375611206
 20
-137.300835469147
 30
0.0
 10
102.5914984552549
 20
-137.300835469147
 30
0.0
 10
102.5914984552549
 20
-137.300835469147
 30
0.0
 10
102.5766845446683
 20
-136.9459906341663
 30
0.0
 10
102.4140760377645
 20
-136.8963812591787
 30
0.0
 10
102.2996988676542
 20
-136.8646863807144
 30
0.0
 10
102.2996988676542
 20
-136.8646863807144
 30
0.0
 10
102.2996988676542
 20
-136.7086235552326
 30
0.0
 10
102.2996988676542
 20
-136.7086235552326
 30
0.0
 10
102.2996988676542
 20
-136.7086235552326
 30
0.0
 10
103.8441351736918
 20
-136.7086235552326
 30
0.0
 10
103.8441351736918
 20
-136.7086235552326
 30
0.0
 10
103.8441351736918
 20
-136.7086235552326
 30
0.0
 10
103.8441351736918
 20
-136.948402201006
 30
0.0
 10
103.8441351736918
 20
-136.948402201006
 30
0.0
  0
HATCH
  5
B5
330
B0
100
AcDbEntity
  8
_U+30EC_U+30A4_U+30E4_U+30FC 1
 62
     7
420
 16777215
100
AcDbHatch
 10
0.0
 20
0.0
 30
0.0
210
0.0
220
0.0
230
1.0
  2
SOLID
 70
     1
 71
     0
 91
        1
 92
        1
 93
        1
 72
     4
 94
        3
 73
     0
 74
     1
 95
       26
 96
       22
 40
0.0
 40
0.0
 40
0.0
 40
0.0
 40
1.0
 40
1.0
 40
1.0
 40
2.0
 40
2.0
 40
2.0
 40
3.0
 40
3.0
 40
3.0
 40
4.0
 40
4.0
 40
4.0
 40
5.0
 40
5.0
 40
5.0
 40
6.0
 40
6.0
 40
6.0
 40
7.0
 40
7.0
 40
7.0
 40
7.0
 10
103.8441351736918
 20
-136.948402201006
 10
103.8441351736918
 20
-136.948402201006
 10
102.7396375611206
 20
-136.948402201006
 10
102.7396375611206
 20
-136.948402201006
 10
102.7396375611206
 20
-136.948402201006
 10
102.7396375611206
 20
-137.300835469147
 10
102.7396375611206
 20
-137.300835469147
 10
102.7396375611206
 20
-137.300835469147
 10
102.5914984552549
 20
-137.300835469147
 10
102.5914984552549
 20
-137.300835469147
 10
102.5766845446683
 20
-136.9459906341663
 10
102.4140760377645
 20
-136.8963812591787
 10
102.2996988676542
 20
-136.8646863807144
 10
102.2996988676542
 20
-136.8646863807144
 10
102.2996988676542
 20
-136.7086235552326
 10
102.2996988676542
 20
-136.7086235552326
 10
102.2996988676542
 20
-136.7086235552326
 10
103.8441351736918
 20
-136.7086235552326
 10
103.8441351736918
 20
-136.7086235552326
 10
103.8441351736918
 20
-136.7086235552326
 10
103.8441351736918
 20
-136.948402201006
 10
103.8441351736918
 20
-136.948402201006
 97
        0
 97
        0
 75
     2
 76
     1
 98
        0
  0
ENDBLK
  5
B3
330
B0
100
AcDbEntity
  8
0
100
AcDbBlockEnd
  0
BLOCK
  5
C5
330
C3
100
AcDbEntity
  8
0
100
AcDbBlockBegin
  2
block 6
 70
     0
 10
0.0
 20
0.0
 30
0.0
  3
block 6
  1

  0
SPLINE
  5
C7
330
C3
100
AcDbEntity
  8
_U+30EC_U+30A4_U+30E4_U+30FC 1
370
     0
100
AcDbSpline
210
0.0
220
0.0
230
1.0
 70
    11
 71
     3
 72
    29
 73
    25
 74
     0
 42
0.0000000001
 43
0.0000000001
 12
1.0
 22
0.0
 32
0.0
 13
1.0
 23
0.0
 33
0.0
 40
0.0
 40
0.0
 40
0.0
 40
0.0
 40
1.0
 40
1.0
 40
1.0
 40
2.0
 40
2.0
 40
2.0
 40
3.0
 40
3.0
 40
3.0
 40
4.0
 40
4.0
 40
4.0
 40
5.0
 40
5.0
 40
5.0
 40
6.0
 40
6.0
 40
6.0
 40
7.0
 40
7.0
 40
7.0
 40
8.0
 40
8.0
 40
8.0
 40
8.0
 10
89.65878225840127
 20
-119.1171047336756
 30
0.0
 10
89.42899438953512
 20
-118.9489840739954
 30
0.0
 10
89.29119057012512
 20
-118.677682804532
 30
0.0
 10
89.49737953491733
 20
-118.3960462486128
 30
0.0
 10
89.64861922671979
 20
-118.1895127742721
 30
0.0
 10
89.82707517285573
 20
-118.2020873727932
 30
0.0
 10
89.95454370580998
 20
-118.2193128502195
 30
0.0
 10
89.8818521910712
 20
-118.0927055911365
 30
0.0
 10
89.88357473881383
 20
-117.9524902048869
 30
0.0
 10
89.97848711943247
 20
-117.8227823598672
 30
0.0
 10
90.140923371562
 20
-117.6007459558429
 30
0.0
 10
90.39241534198523
 20
-117.6171101593978
 30
0.0
 10
90.62961016614469
 20
-117.7907429718544
 30
0.0
 10
90.87403969082317
 20
-117.9695434275389
 30
0.0
 10
90.9532768869839
 20
-118.205876977827
 30
0.0
 10
90.79583602330798
 20
-118.4210231908809
 30
0.0
 10
90.70092364268936
 20
-118.5507310359005
 30
0.0
 10
90.56604815444183
 20
-118.5934502199176
 30
0.0
 10
90.42342120135248
 20
-118.5624443605504
 30
0.0
 10
90.46992999040336
 20
-118.6595960532344
 30
0.0
 10
90.5505452247582
 20
-118.836501706402
 30
0.0
 10
90.39568818269622
 20
-119.0482028239706
 30
0.0
 10
90.17451305254318
 20
-119.350337698027
 30
0.0
 10
89.86497122319348
 20
-119.2679999159295
 30
0.0
 10
89.65878225840127
 20
-119.1171047336756
 30
0.0
  0
SPLINE
  5
C8
330
C3
100
AcDbEntity
  8
_U+30EC_U+30A4_U+30E4_U+30FC 1
370
     0
100
AcDbSpline
210
0.0
220
0.0
230
1.0
 70
    11
 71
     3
 72
    17
 73
    13
 74
     0
 42
0.0000000001
 43
0.0000000001
 12
1.0
 22
0.0
 32
0.0
 13
1.0
 23
0.0
 33
0.0
 40
0.0
 40
0.0
 40
0.0
 40
0.0
 40
1.0
 40
1.0
 40
1.0
 40
2.0
 40
2.0
 40
2.0
 40
3.0
 40
3.0
 40
3.0
 40
4.0
 40
4.0
 40
4.0
 40
4.0
 10
90.12610946097543
 20
-118.4787285402588
 30
0.0
 10
90.00208602350642
 20
-118.3879502742225
 30
0.0
 10
89.81949596278818
 20
-118.3617675485346
 30
0.0
 10
89.69943438512723
 20
-118.5255818388582
 30
0.0
 10
89.57833927882069
 20
-118.6911186769244
 30
0.0
 10
89.62777639903403
 20
-118.8532104195055
 30
0.0
 10
89.77367619283436
 20
-118.9600083795482
 30
0.0
 10
89.93438989722127
 20
-119.0776583903695
 30
0.0
 10
90.10164928303014
 20
-119.0480305691963
 30
0.0
 10
90.20655244055601
 20
-118.9045423422357
 30
0.0
 10
90.33781057854402
 20
-118.7253973770027
 30
0.0
 10
90.2410033954085
 20
-118.5627888700989
 30
0.0
 10
90.12610946097543
 20
-118.4787285402588
 30
0.0
  0
SPLINE
  5
C9
330
C3
100
AcDbEntity
  8
_U+30EC_U+30A4_U+30E4_U+30FC 1
370
     0
100
AcDbSpline
210
0.0
220
0.0
230
1.0
 70
    11
 71
     3
 72
    17
 73
    13
 74
     0
 42
0.0000000001
 43
0.0000000001
 12
1.0
 22
0.0
 32
0.0
 13
1.0
 23
0.0
 33
0.0
 40
0.0
 40
0.0
 40
0.0
 40
0.0
 40
1.0
 40
1.0
 40
1.0
 40
2.0
 40
2.0
 40
2.0
 40
3.0
 40
3.0
 40
3.0
 40
4.0
 40
4.0
 40
4.0
 40
4.0
 10
90.51592201513144
 20
-117.9459445234649
 30
0.0
 10
90.37363957159062
 20
-117.8419026398104
 30
0.0
 10
90.24444849089376
 20
-117.8653292891101
 30
0.0
 10
90.16452227563596
 20
-117.9745388159925
 30
0.0
 10
90.09200301567145
 20
-118.0735853111934
 30
0.0
 10
90.08407929605538
 20
-118.2144897165401
 30
0.0
 10
90.237386045149
 20
-118.3267998293593
 30
0.0
 10
90.39052053946834
 20
-118.4389376874042
 30
0.0
 10
90.52263995132768
 20
-118.3886392933195
 30
0.0
 10
90.59498695651793
 20
-118.2895927981186
 30
0.0
 10
90.67491317177571
 20
-118.1803832712362
 30
0.0
 10
90.65648191092963
 20
-118.0487806236996
 30
0.0
 10
90.51592201513144
 20
-117.9459445234649
 30
0.0
  0
HATCH
  5
CA
330
C3
100
AcDbEntity
  8
_U+30EC_U+30A4_U+30E4_U+30FC 1
 62
     7
420
 16777215
100
AcDbHatch
 10
0.0
 20
0.0
 30
0.0
210
0.0
220
0.0
230
1.0
  2
SOLID
 70
     1
 71
     0
 91
        3
 92
        1
 93
        1
 72
     4
 94
        3
 73
     0
 74
     1
 95
       29
 96
       25
 40
0.0
 40
0.0
 40
0.0
 40
0.0
 40
1.0
 40
1.0
 40
1.0
 40
2.0
 40
2.0
 40
2.0
 40
3.0
 40
3.0
 40
3.0
 40
4.0
 40
4.0
 40
4.0
 40
5.0
 40
5.0
 40
5.0
 40
6.0
 40
6.0
 40
6.0
 40
7.0
 40
7.0
 40
7.0
 40
8.0
 40
8.0
 40
8.0
 40
8.0
 10
89.65878225840127
 20
-119.1171047336756
 10
89.42899438953512
 20
-118.9489840739954
 10
89.29119057012512
 20
-118.677682804532
 10
89.49737953491733
 20
-118.3960462486128
 10
89.64861922671979
 20
-118.1895127742721
 10
89.82707517285573
 20
-118.2020873727932
 10
89.95454370580998
 20
-118.2193128502195
 10
89.8818521910712
 20
-118.0927055911365
 10
89.88357473881383
 20
-117.9524902048869
 10
89.97848711943247
 20
-117.8227823598672
 10
90.140923371562
 20
-117.6007459558429
 10
90.39241534198523
 20
-117.6171101593978
 10
90.62961016614469
 20
-117.7907429718544
 10
90.87403969082317
 20
-117.9695434275389
 10
90.9532768869839
 20
-118.205876977827
 10
90.79583602330798
 20
-118.4210231908809
 10
90.70092364268936
 20
-118.5507310359005
 10
90.56604815444183
 20
-118.5934502199176
 10
90.42342120135248
 20
-118.5624443605504
 10
90.46992999040336
 20
-118.6595960532344
 10
90.5505452247582
 20
-118.836501706402
 10
90.39568818269622
 20
-119.0482028239706
 10
90.17451305254318
 20
-119.350337698027
 10
89.86497122319348
 20
-119.2679999159295
 10
89.65878225840127
 20
-119.1171047336756
 97
        0
 97
        0
 92
        1
 93
        1
 72
     4
 94
        3
 73
     0
 74
     1
 95
       17
 96
       13
 40
0.0
 40
0.0
 40
0.0
 40
0.0
 40
1.0
 40
1.0
 40
1.0
 40
2.0
 40
2.0
 40
2.0
 40
3.0
 40
3.0
 40
3.0
 40
4.0
 40
4.0
 40
4.0
 40
4.0
 10
90.12610946097543
 20
-118.4787285402588
 10
90.00208602350642
 20
-118.3879502742225
 10
89.81949596278818
 20
-118.3617675485346
 10
89.69943438512723
 20
-118.5255818388582
 10
89.57833927882069
 20
-118.6911186769244
 10
89.62777639903403
 20
-118.8532104195055
 10
89.77367619283436
 20
-118.9600083795482
 10
89.93438989722127
 20
-119.0776583903695
 10
90.10164928303014
 20
-119.0480305691963
 10
90.20655244055601
 20
-118.9045423422357
 10
90.33781057854402
 20
-118.7253973770027
 10
90.2410033954085
 20
-118.5627888700989
 10
90.12610946097543
 20
-118.4787285402588
 97
        0
 97
        0
 92
        1
 93
        1
 72
     4
 94
        3
 73
     0
 74
     1
 95
       17
 96
       13
 40
0.0
 40
0.0
 40
0.0
 40
0.0
 40
1.0
 40
1.0
 40
1.0
 40
2.0
 40
2.0
 40
2.0
 40
3.0
 40
3.0
 40
3.0
 40
4.0
 40
4.0
 40
4.0
 40
4.0
 10
90.51592201513144
 20
-117.9459445234649
 10
90.37363957159062
 20
-117.8419026398104
 10
90.24444849089376
 20
-117.8653292891101
 10
90.16452227563596
 20
-117.9745388159925
 10
90.09200301567145
 20
-118.0735853111934
 10
90.08407929605538
 20
-118.2144897165401
 10
90.237386045149
 20
-118.3267998293593
 10
90.39052053946834
 20
-118.4389376874042
 10
90.52263995132768
 20
-118.3886392933195
 10
90.59498695651793
 20
-118.2895927981186
 10
90.67491317177571
 20
-118.1803832712362
 10
90.65648191092963
 20
-118.0487806236996
 10
90.51592201513144
 20
-117.9459445234649
 97
        0
 97
        0
 75
     2
 76
     1
 98
        0
  0
ENDBLK
  5
C6
330
C3
100
AcDbEntity
  8
0
100
AcDbBlockEnd
  0
ENDSEC
  0
SECTION
  2
ENTITIES
  0
SPLINE
  5
41
330
1F
100
AcDbEntity
  8
_U+30EC_U+30A4_U+30E4_U+30FC 1
370
     0
100
AcDbSpline
210
0.0
220
0.0
230
1.0
 70
    11
 71
     3
 72
    47
 73
    43
 74
     0
 42
0.0000000001
 43
0.0000000001
 12
1.0
 22
0.0
 32
0.0
 13
1.0
 23
0.0
 33
0.0
 40
0.0
 40
0.0
 40
0.0
 40
0.0
 40
1.0
 40
1.0
 40
1.0
 40
2.0
 40
2.0
 40
2.0
 40
3.0
 40
3.0
 40
3.0
 40
4.0
 40
4.0
 40
4.0
 40
5.0
 40
5.0
 40
5.0
 40
6.0
 40
6.0
 40
6.0
 40
7.0
 40
7.0
 40
7.0
 40
8.0
 40
8.0
 40
8.0
 40
9.0
 40
9.0
 40
9.0
 40
10.0
 40
10.0
 40
10.0
 40
11.0
 40
11.0
 40
11.0
 40
12.0
 40
12.0
 40
12.0
 40
13.0
 40
13.0
 40
13.0
 40
14.0
 40
14.0
 40
14.0
 40
14.0
 10
100.1151583083043
 20
-135.9048871882462
 30
0.0
 10
100.1151583083043
 20
-135.9048871882462
 30
0.0
 10
99.16501941453403
 20
-134.9547155218171
 30
0.0
 10
99.16501941453403
 20
-134.9547155218171
 30
0.0
 10
99.15881052580355
 20
-134.9609244107041
 30
0.0
 10
99.1498499704766
 20
-134.9650519107034
 30
0.0
 10
99.14018385961208
 20
-134.9650519107034
 30
0.0
 10
99.12092219343683
 20
-134.9650519107034
 30
0.0
 10
99.10504719384183
 20
-134.9492121884849
 30
0.0
 10
99.10504719384183
 20
-134.929915244045
 30
0.0
 10
99.10504719384183
 20
-134.929915244045
 30
0.0
 10
84.90471894501127
 20
-134.929915244045
 30
0.0
 10
84.90471894501127
 20
-134.929915244045
 30
0.0
 10
84.90471894501127
 20
-134.929915244045
 30
0.0
 10
84.90471894501127
 20
-121.8693763584216
 30
0.0
 10
84.90471894501127
 20
-121.8693763584216
 30
0.0
 10
84.90471894501127
 20
-121.8693763584216
 30
0.0
 10
88.74188273600596
 20
-124.9293355243232
 30
0.0
 10
88.74188273600596
 20
-124.9293355243232
 30
0.0
 10
88.74188273600596
 20
-124.9293355243232
 30
0.0
 10
90.48439324710637
 20
-124.9293355243232
 30
0.0
 10
90.48439324710637
 20
-124.9293355243232
 30
0.0
 10
90.48439324710637
 20
-124.9224210798806
 30
0.0
 10
90.48785275515588
 20
-124.9162474687711
 30
0.0
 10
90.49197796913508
 20
-124.9107088576611
 30
0.0
 10
90.49197796913508
 20
-124.9107088576611
 30
0.0
 10
83.9324986920369
 20
-119.5480985812242
 30
0.0
 10
83.9324986920369
 20
-119.5480985812242
 30
0.0
 10
83.92632508108329
 20
-119.557729414555
 30
0.0
 10
83.9173666456874
 20
-119.5649613589975
 30
0.0
 10
83.90494674829536
 20
-119.5649613589975
 30
0.0
 10
83.90494674829536
 20
-119.5649613589975
 30
0.0
 10
83.90494674829536
 20
-135.8945507993598
 30
0.0
 10
83.90494674829536
 20
-135.8945507993598
 30
0.0
 10
83.9242436922475
 20
-135.8945507993598
 30
0.0
 10
83.94008341406561
 20
-135.9103905215778
 30
0.0
 10
83.94008341406561
 20
-135.9296874660176
 30
0.0
 10
83.94008341406561
 20
-135.9296874660176
 30
0.0
 10
100.1048193905577
 20
-135.9296874660176
 30
0.0
 10
100.1048193905577
 20
-135.9296874660176
 30
0.0
 10
100.1048193905577
 20
-135.9200566326867
 30
0.0
 10
100.1089468904524
 20
-135.9110960771333
 30
0.0
 10
100.1151583083043
 20
-135.9048871882462
 30
0.0
  0
HATCH
  5
42
330
1F
100
AcDbEntity
  8
_U+30EC_U+30A4_U+30E4_U+30FC 1
 62
   253
420
 11711154
100
AcDbHatch
 10
0.0
 20
0.0
 30
0.0
210
0.0
220
0.0
230
1.0
  2
SOLID
 70
     1
 71
     0
 91
        1
 92
        1
 93
        1
 72
     4
 94
        3
 73
     0
 74
     1
 95
       47
 96
       43
 40
0.0
 40
0.0
 40
0.0
 40
0.0
 40
1.0
 40
1.0
 40
1.0
 40
2.0
 40
2.0
 40
2.0
 40
3.0
 40
3.0
 40
3.0
 40
4.0
 40
4.0
 40
4.0
 40
5.0
 40
5.0
 40
5.0
 40
6.0
 40
6.0
 40
6.0
 40
7.0
 40
7.0
 40
7.0
 40
8.0
 40
8.0
 40
8.0
 40
9.0
 40
9.0
 40
9.0
 40
10.0
 40
10.0
 40
10.0
 40
11.0
 40
11.0
 40
11.0
 40
12.0
 40
12.0
 40
12.0
 40
13.0
 40
13.0
 40
13.0
 40
14.0
 40
14.0
 40
14.0
 40
14.0
 10
100.1151583083043
 20
-135.9048871882462
 10
100.1151583083043
 20
-135.9048871882462
 10
99.16501941453403
 20
-134.9547155218171
 10
99.16501941453403
 20
-134.9547155218171
 10
99.15881052580355
 20
-134.9609244107041
 10
99.1498499704766
 20
-134.9650519107034
 10
99.14018385961208
 20
-134.9650519107034
 10
99.12092219343683
 20
-134.9650519107034
 10
99.10504719384183
 20
-134.9492121884849
 10
99.10504719384183
 20
-134.929915244045
 10
99.10504719384183
 20
-134.929915244045
 10
84.90471894501127
 20
-134.929915244045
 10
84.90471894501127
 20
-134.929915244045
 10
84.90471894501127
 20
-134.929915244045
 10
84.90471894501127
 20
-121.8693763584216
 10
84.90471894501127
 20
-121.8693763584216
 10
84.90471894501127
 20
-121.8693763584216
 10
88.74188273600596
 20
-124.9293355243232
 10
88.74188273600596
 20
-124.9293355243232
 10
88.74188273600596
 20
-124.9293355243232
 10
90.48439324710637
 20
-124.9293355243232
 10
90.48439324710637
 20
-124.9293355243232
 10
90.48439324710637
 20
-124.9224210798806
 10
90.48785275515588
 20
-124.9162474687711
 10
90.49197796913508
 20
-124.9107088576611
 10
90.49197796913508
 20
-124.9107088576611
 10
83.9324986920369
 20
-119.5480985812242
 10
83.9324986920369
 20
-119.5480985812242
 10
83.92632508108329
 20
-119.557729414555
 10
83.9173666456874
 20
-119.5649613589975
 10
83.90494674829536
 20
-119.5649613589975
 10
83.90494674829536
 20
-119.5649613589975
 10
83.90494674829536
 20
-135.8945507993598
 10
83.90494674829536
 20
-135.8945507993598
 10
83.9242436922475
 20
-135.8945507993598
 10
83.94008341406561
 20
-135.9103905215778
 10
83.94008341406561
 20
-135.9296874660176
 10
83.94008341406561
 20
-135.9296874660176
 10
100.1048193905577
 20
-135.9296874660176
 10
100.1048193905577
 20
-135.9296874660176
 10
100.1048193905577
 20
-135.9200566326867
 10
100.1089468904524
 20
-135.9110960771333
 10
100.1151583083043
 20
-135.9048871882462
 97
        0
 97
        0
 75
     2
 76
     1
 98
        0
  0
POLYLINE
  5
43
330
1F
100
AcDbEntity
  8
_U+30EC_U+30A4_U+30E4_U+30FC 1
 62
     7
420
 16777215
370
    25
100
AcDb2dPolyline
 66
     1
 10
0.0
 20
0.0
 30
0.0
  0
VERTEX
  5
44
330
43
100
AcDbEntity
  8
_U+30EC_U+30A4_U+30E4_U+30FC 1
 62
     7
420
 16777215
370
    25
100
AcDbVertex
100
AcDb2dVertex
 10
88.74188273600596
 20
-124.9293355243232
 30
0.0
  0
VERTEX
  5
45
330
43
100
AcDbEntity
  8
_U+30EC_U+30A4_U+30E4_U+30FC 1
 62
     7
420
 16777215
370
    25
100
AcDbVertex
100
AcDb2dVertex
 10
84.90471894501127
 20
-121.8693763584216
 30
0.0
  0
VERTEX
  5
46
330
43
100
AcDbEntity
  8
_U+30EC_U+30A4_U+30E4_U+30FC 1
 62
     7
420
 16777215
370
    25
100
AcDbVertex
100
AcDb2dVertex
 10
84.90471894501127
 20
-134.929915244045
 30
0.0
  0
VERTEX
  5
47
330
43
100
AcDbEntity
  8
_U+30EC_U+30A4_U+30E4_U+30FC 1
 62
     7
420
 16777215
370
    25
100
AcDbVertex
100
AcDb2dVertex
 10
99.14018385961208
 20
-134.929915244045
 30
0.0
  0
VERTEX
  5
48
330
43
100
AcDbEntity
  8
_U+30EC_U+30A4_U+30E4_U+30FC 1
 62
     7
420
 16777215
370
    25
100
AcDbVertex
100
AcDb2dVertex
 10
100.139956056328
 20
-135.9296874660176
 30
0.0
  0
VERTEX
  5
49
330
43
100
AcDbEntity
  8
_U+30EC_U+30A4_U+30E4_U+30FC 1
 62
     7
420
 16777215
370
    25
100
AcDbVertex
100
AcDb2dVertex
 10
83.90494674829536
 20
-135.9296874660176
 30
0.0
  0
VERTEX
  5
4A
330
43
100
AcDbEntity
  8
_U+30EC_U+30A4_U+30E4_U+30FC 1
 62
     7
420
 16777215
370
    25
100
AcDbVertex
100
AcDb2dVertex
 10
83.90494674829536
 20
-119.5294719145621
 30
0.0
  0
VERTEX
  5
4B
330
43
100
AcDbEntity
  8
_U+30EC_U+30A4_U+30E4_U+30FC 1
 62
     7
420
 16777215
370
    25
100
AcDbVertex
100
AcDb2dVertex
 10
90.51952991287662
 20
-124.9293355243232
 30
0.0
  0
VERTEX
  5
4C
330
43
100
AcDbEntity
  8
_U+30EC_U+30A4_U+30E4_U+30FC 1
 62
     7
420
 16777215
370
    25
100
AcDbVertex
100
AcDb2dVertex
 10
88.74188273600596
 20
-124.9293355243232
 30
0.0
  0
SEQEND
  5
4D
330
43
100
AcDbEntity
  8
_U+30EC_U+30A4_U+30E4_U+30FC 1
 62
     7
420
 16777215
370
    25
  0
SPLINE
  5
4E
330
1F
100
AcDbEntity
  8
_U+30EC_U+30A4_U+30E4_U+30FC 1
 62
     7
420
 16777215
370
     9
100
AcDbSpline
210
0.0
220
0.0
230
1.0
 70
    11
 71
     3
 72
    17
 73
    13
 74
     0
 42
0.0000000001
 43
0.0000000001
 12
1.0
 22
0.0
 32
0.0
 13
1.0
 23
0.0
 33
0.0
 40
0.0
 40
0.0
 40
0.0
 40
0.0
 40
1.0
 40
1.0
 40
1.0
 40
2.0
 40
2.0
 40
2.0
 40
3.0
 40
3.0
 40
3.0
 40
4.0
 40
4.0
 40
4.0
 40
4.0
 10
80.00509434778888
 20
-135.9296874660176
 30
0.0
 10
80.00509434778888
 20
-135.8745835771427
 30
0.0
 10
79.960326848931
 20
-135.829780799376
 30
0.0
 10
79.90518768367104
 20
-135.829780799376
 30
0.0
 10
79.85008379618797
 20
-135.829780799376
 30
0.0
 10
79.80528101955322
 20
-135.8745835771427
 30
0.0
 10
79.80528101955322
 20
-135.9296874660176
 30
0.0
 10
79.80528101955322
 20
-135.9848266326707
 30
0.0
 10
79.85008379618797
 20
-136.0295941326592
 30
0.0
 10
79.90518768367104
 20
-136.0295941326592
 30
0.0
 10
79.960326848931
 20
-136.0295941326592
 30
0.0
 10
80.00509434778888
 20
-135.9848266326707
 30
0.0
 10
80.00509434778888
 20
-135.9296874660176
 30
0.0
  0
SPLINE
  5
4F
330
1F
100
AcDbEntity
  8
_U+30EC_U+30A4_U+30E4_U+30FC 1
 62
     7
420
 16777215
370
     9
100
AcDbSpline
210
0.0
220
0.0
230
1.0
 70
    11
 71
     3
 72
    17
 73
    13
 74
     0
 42
0.0000000001
 43
0.0000000001
 12
1.0
 22
0.0
 32
0.0
 13
1.0
 23
0.0
 33
0.0
 40
0.0
 40
0.0
 40
0.0
 40
0.0
 40
1.0
 40
1.0
 40
1.0
 40
2.0
 40
2.0
 40
2.0
 40
3.0
 40
3.0
 40
3.0
 40
4.0
 40
4.0
 40
4.0
 40
4.0
 10
84.00485553455427
 20
-139.9287410761289
 30
0.0
 10
84.00485553455427
 20
-139.873637187254
 30
0.0
 10
83.96008591355532
 20
-139.8288344094873
 30
0.0
 10
83.90494674829536
 20
-139.8288344094873
 30
0.0
 10
83.84984286081229
 20
-139.8288344094873
 30
0.0
 10
83.80504008417753
 20
-139.873637187254
 30
0.0
 10
83.80504008417753
 20
-139.9287410761289
 30
0.0
 10
83.80504008417753
 20
-139.9845505205594
 30
0.0
 10
83.84984286081229
 20
-140.0293532983261
 30
0.0
 10
83.90494674829536
 20
-140.0293532983261
 30
0.0
 10
83.96008591355532
 20
-140.0293532983261
 30
0.0
 10
84.00485553455427
 20
-139.9845505205594
 30
0.0
 10
84.00485553455427
 20
-139.9287410761289
 30
0.0
  0
SPLINE
  5
50
330
1F
100
AcDbEntity
  8
_U+30EC_U+30A4_U+30E4_U+30FC 1
 62
     7
420
 16777215
370
     9
100
AcDbSpline
210
0.0
220
0.0
230
1.0
 70
    11
 71
     3
 72
    17
 73
    13
 74
     0
 42
0.0000000001
 43
0.0000000001
 12
1.0
 22
0.0
 32
0.0
 13
1.0
 23
0.0
 33
0.0
 40
0.0
 40
0.0
 40
0.0
 40
0.0
 40
1.0
 40
1.0
 40
1.0
 40
2.0
 40
2.0
 40
2.0
 40
3.0
 40
3.0
 40
3.0
 40
4.0
 40
4.0
 40
4.0
 40
4.0
 10
104.2403273406077
 20
-134.929915244045
 30
0.0
 10
104.2403273406077
 20
-134.8748113551701
 30
0.0
 10
104.1955245639729
 20
-134.8300085774034
 30
0.0
 10
104.1397151209523
 20
-134.8300085774034
 30
0.0
 10
104.0846138628676
 20
-134.8300085774034
 30
0.0
 10
104.0398110851009
 20
-134.8748113551701
 30
0.0
 10
104.0398110851009
 20
-134.929915244045
 30
0.0
 10
104.0398110851009
 20
-134.9850544106981
 30
0.0
 10
104.0846138628676
 20
-135.0298219106867
 30
0.0
 10
104.1397151209523
 20
-135.0298219106867
 30
0.0
 10
104.1955245639729
 20
-135.0298219106867
 30
0.0
 10
104.2403273406077
 20
-134.9850544106981
 30
0.0
 10
104.2403273406077
 20
-134.929915244045
 30
0.0
  0
SPLINE
  5
51
330
1F
100
AcDbEntity
  8
_U+30EC_U+30A4_U+30E4_U+30FC 1
 62
     7
420
 16777215
370
     9
100
AcDbSpline
210
0.0
220
0.0
230
1.0
 70
    11
 71
     3
 72
    17
 73
    13
 74
     0
 42
0.0000000001
 43
0.0000000001
 12
1.0
 22
0.0
 32
0.0
 13
1.0
 23
0.0
 33
0.0
 40
0.0
 40
0.0
 40
0.0
 40
0.0
 40
1.0
 40
1.0
 40
1.0
 40
2.0
 40
2.0
 40
2.0
 40
3.0
 40
3.0
 40
3.0
 40
4.0
 40
4.0
 40
4.0
 40
4.0
 10
104.2403273406077
 20
-135.9296874660176
 30
0.0
 10
104.2403273406077
 20
-135.8745835771427
 30
0.0
 10
104.1955245639729
 20
-135.829780799376
 30
0.0
 10
104.1397151209523
 20
-135.829780799376
 30
0.0
 10
104.0846138628676
 20
-135.829780799376
 30
0.0
 10
104.0398110851009
 20
-135.8745835771427
 30
0.0
 10
104.0398110851009
 20
-135.9296874660176
 30
0.0
 10
104.0398110851009
 20
-135.9848266326707
 30
0.0
 10
104.0846138628676
 20
-136.0295941326592
 30
0.0
 10
104.1397151209523
 20
-136.0295941326592
 30
0.0
 10
104.1955245639729
 20
-136.0295941326592
 30
0.0
 10
104.2403273406077
 20
-135.9848266326707
 30
0.0
 10
104.2403273406077
 20
-135.9296874660176
 30
0.0
  0
SPLINE
  5
52
330
1F
100
AcDbEntity
  8
_U+30EC_U+30A4_U+30E4_U+30FC 1
 62
     7
420
 16777215
370
     9
100
AcDbSpline
210
0.0
220
0.0
230
1.0
 70
    11
 71
     3
 72
    17
 73
    13
 74
     0
 42
0.0000000001
 43
0.0000000001
 12
1.0
 22
0.0
 32
0.0
 13
1.0
 23
0.0
 33
0.0
 40
0.0
 40
0.0
 40
0.0
 40
0.0
 40
1.0
 40
1.0
 40
1.0
 40
2.0
 40
2.0
 40
2.0
 40
3.0
 40
3.0
 40
3.0
 40
4.0
 40
4.0
 40
4.0
 40
4.0
 10
100.2398627204458
 20
-139.9287410761289
 30
0.0
 10
100.2398627204458
 20
-139.873637187254
 30
0.0
 10
100.1950952215879
 20
-139.8288344094873
 30
0.0
 10
100.139956056328
 20
-139.8288344094873
 30
0.0
 10
100.0848521688449
 20
-139.8288344094873
 30
0.0
 10
100.0400493922102
 20
-139.873637187254
 30
0.0
 10
100.0400493922102
 20
-139.9287410761289
 30
0.0
 10
100.0400493922102
 20
-139.9845505205594
 30
0.0
 10
100.0848521688449
 20
-140.0293532983261
 30
0.0
 10
100.139956056328
 20
-140.0293532983261
 30
0.0
 10
100.1950952215879
 20
-140.0293532983261
 30
0.0
 10
100.2398627204458
 20
-139.9845505205594
 30
0.0
 10
100.2398627204458
 20
-139.9287410761289
 30
0.0
  0
SPLINE
  5
53
330
1F
100
AcDbEntity
  8
_U+30EC_U+30A4_U+30E4_U+30FC 1
 62
     7
420
 16777215
370
     9
100
AcDbSpline
210
0.0
220
0.0
230
1.0
 70
    11
 71
     3
 72
    17
 73
    13
 74
     0
 42
0.0000000001
 43
0.0000000001
 12
1.0
 22
0.0
 32
0.0
 13
1.0
 23
0.0
 33
0.0
 40
0.0
 40
0.0
 40
0.0
 40
0.0
 40
1.0
 40
1.0
 40
1.0
 40
2.0
 40
2.0
 40
2.0
 40
3.0
 40
3.0
 40
3.0
 40
4.0
 40
4.0
 40
4.0
 40
4.0
 10
80.00509434778888
 20
-119.5294719145621
 30
0.0
 10
80.00509434778888
 20
-119.4743680256868
 30
0.0
 10
79.960326848931
 20
-119.4295652479204
 30
0.0
 10
79.90518768367104
 20
-119.4295652479204
 30
0.0
 10
79.85008379618797
 20
-119.4295652479204
 30
0.0
 10
79.80528101955322
 20
-119.4743680256868
 30
0.0
 10
79.80528101955322
 20
-119.5294719145621
 30
0.0
 10
79.80528101955322
 20
-119.5849638589926
 30
0.0
 10
79.85008379618797
 20
-119.6297313589814
 30
0.0
 10
79.90518768367104
 20
-119.6297313589814
 30
0.0
 10
79.960326848931
 20
-119.6297313589814
 30
0.0
 10
80.00509434778888
 20
-119.5849638589926
 30
0.0
 10
80.00509434778888
 20
-119.5294719145621
 30
0.0
  0
SPLINE
  5
54
330
1F
100
AcDbEntity
  8
_U+30EC_U+30A4_U+30E4_U+30FC 1
 62
     7
420
 16777215
370
     9
100
AcDbSpline
210
0.0
220
0.0
230
1.0
 70
    11
 71
     3
 72
    17
 73
    13
 74
     0
 42
0.0000000001
 43
0.0000000001
 12
1.0
 22
0.0
 32
0.0
 13
1.0
 23
0.0
 33
0.0
 40
0.0
 40
0.0
 40
0.0
 40
0.0
 40
1.0
 40
1.0
 40
1.0
 40
2.0
 40
2.0
 40
2.0
 40
3.0
 40
3.0
 40
3.0
 40
4.0
 40
4.0
 40
4.0
 40
4.0
 10
92.79501942124543
 20
-121.7446694140083
 30
0.0
 10
92.79709846588212
 20
-121.6895655251331
 30
0.0
 10
92.75367152254559
 20
-121.6433869140335
 30
0.0
 10
92.69856763506252
 20
-121.6413408029229
 30
0.0
 10
92.64342846980257
 20
-121.63996496959
 30
0.0
 10
92.59728513764645
 20
-121.6826510806905
 30
0.0
 10
92.59520374881066
 20
-121.7377902473432
 30
0.0
 10
92.59347513774365
 20
-121.7928941362185
 30
0.0
 10
92.6365493033114
 20
-121.8390727473181
 30
0.0
 10
92.6916555323825
 20
-121.8411541362065
 30
0.0
 10
92.74679235605443
 20
-121.8432002473171
 30
0.0
 10
92.79297096598742
 20
-121.7998085806611
 30
0.0
 10
92.79501942124543
 20
-121.7446694140083
 30
0.0
  0
SPLINE
  5
55
330
1F
100
AcDbEntity
  8
_U+30EC_U+30A4_U+30E4_U+30FC 1
 62
     7
420
 16777215
370
     9
100
AcDbSpline
210
0.0
220
0.0
230
1.0
 70
    11
 71
     3
 72
    17
 73
    13
 74
     0
 42
0.0000000001
 43
0.0000000001
 12
1.0
 22
0.0
 32
0.0
 13
1.0
 23
0.0
 33
0.0
 40
0.0
 40
0.0
 40
0.0
 40
0.0
 40
1.0
 40
1.0
 40
1.0
 40
2.0
 40
2.0
 40
2.0
 40
3.0
 40
3.0
 40
3.0
 40
4.0
 40
4.0
 40
4.0
 40
4.0
 10
86.34218251944964
 20
-117.0166358040793
 30
0.0
 10
86.34408751940103
 20
-116.9614966374262
 30
0.0
 10
86.30083696494889
 20
-116.9146477485492
 30
0.0
 10
86.24590946635021
 20
-116.913271915216
 30
0.0
 10
86.19010002332958
 20
-116.9112258041055
 30
0.0
 10
86.14374720068625
 20
-116.9539119152059
 30
0.0
 10
86.14184002456079
 20
-117.0097566374142
 30
0.0
 10
86.13979391350189
 20
-117.0648605262895
 30
0.0
 10
86.18300919017715
 20
-117.1110391373891
 30
0.0
 10
86.23881863319778
 20
-117.1130852484996
 30
0.0
 10
86.29395779845773
 20
-117.1151666373877
 30
0.0
 10
86.34027751949823
 20
-117.0717396929542
 30
0.0
 10
86.34218251944964
 20
-117.0166358040793
 30
0.0
  0
SPLINE
  5
56
330
1F
100
AcDbEntity
  8
_U+30EC_U+30A4_U+30E4_U+30FC 1
 62
     7
420
 16777215
370
     9
100
AcDbSpline
210
0.0
220
0.0
230
1.0
 70
    11
 71
     3
 72
    17
 73
    13
 74
     0
 42
0.0000000001
 43
0.0000000001
 12
1.0
 22
0.0
 32
0.0
 13
1.0
 23
0.0
 33
0.0
 40
0.0
 40
0.0
 40
0.0
 40
0.0
 40
1.0
 40
1.0
 40
1.0
 40
2.0
 40
2.0
 40
2.0
 40
3.0
 40
3.0
 40
3.0
 40
4.0
 40
4.0
 40
4.0
 40
4.0
 10
104.2403273406077
 20
-124.9293355243232
 30
0.0
 10
104.2403273406077
 20
-124.8741963576705
 30
0.0
 10
104.1955245639729
 20
-124.8294288576816
 30
0.0
 10
104.1397151209523
 20
-124.8294288576816
 30
0.0
 10
104.0846138628676
 20
-124.8294288576816
 30
0.0
 10
104.0398110851009
 20
-124.8741963576705
 30
0.0
 10
104.0398110851009
 20
-124.9293355243232
 30
0.0
 10
104.0398110851009
 20
-124.9851449687537
 30
0.0
 10
104.0846138628676
 20
-125.0299124687426
 30
0.0
 10
104.1397151209523
 20
-125.0299124687426
 30
0.0
 10
104.1955245639729
 20
-125.0299124687426
 30
0.0
 10
104.2403273406077
 20
-124.9851449687537
 30
0.0
 10
104.2403273406077
 20
-124.9293355243232
 30
0.0
  0
POLYLINE
  5
57
330
1F
100
AcDbEntity
  8
_U+30EC_U+30A4_U+30E4_U+30FC 1
 62
     7
420
 16777215
370
     9
100
AcDb2dPolyline
 66
     1
 10
0.0
 20
0.0
 30
0.0
  0
VERTEX
  5
58
330
57
100
AcDbEntity
  8
_U+30EC_U+30A4_U+30E4_U+30FC 1
 62
     7
420
 16777215
370
     9
100
AcDbVertex
100
AcDb2dVertex
 10
83.90494674829536
 20
-139.9287410761289
 30
0.0
  0
VERTEX
  5
59
330
57
100
AcDbEntity
  8
_U+30EC_U+30A4_U+30E4_U+30FC 1
 62
     7
420
 16777215
370
     9
100
AcDbVertex
100
AcDb2dVertex
 10
100.139956056328
 20
-139.9287410761289
 30
0.0
  0
SEQEND
  5
5A
330
57
100
AcDbEntity
  8
_U+30EC_U+30A4_U+30E4_U+30FC 1
 62
     7
420
 16777215
370
     9
  0
POLYLINE
  5
5B
330
1F
100
AcDbEntity
  8
_U+30EC_U+30A4_U+30E4_U+30FC 1
 62
     7
420
 16777215
370
     9
100
AcDb2dPolyline
 66
     1
 10
0.0
 20
0.0
 30
0.0
  0
VERTEX
  5
5C
330
5B
100
AcDbEntity
  8
_U+30EC_U+30A4_U+30E4_U+30FC 1
 62
     7
420
 16777215
370
     9
100
AcDbVertex
100
AcDb2dVertex
 10
83.90494674829536
 20
-138.4687349653828
 30
0.0
  0
VERTEX
  5
5D
330
5B
100
AcDbEntity
  8
_U+30EC_U+30A4_U+30E4_U+30FC 1
 62
     7
420
 16777215
370
     9
100
AcDbVertex
100
AcDb2dVertex
 10
83.90494674829536
 20
-140.9292188536564
 30
0.0
  0
SEQEND
  5
5E
330
5B
100
AcDbEntity
  8
_U+30EC_U+30A4_U+30E4_U+30FC 1
 62
     7
420
 16777215
370
     9
  0
POLYLINE
  5
5F
330
1F
100
AcDbEntity
  8
_U+30EC_U+30A4_U+30E4_U+30FC 1
 62
     7
420
 16777215
370
     9
100
AcDb2dPolyline
 66
     1
 10
0.0
 20
0.0
 30
0.0
  0
VERTEX
  5
60
330
5F
100
AcDbEntity
  8
_U+30EC_U+30A4_U+30E4_U+30FC 1
 62
     7
420
 16777215
370
     9
100
AcDbVertex
100
AcDb2dVertex
 10
100.139956056328
 20
-138.4687349653828
 30
0.0
  0
VERTEX
  5
61
330
5F
100
AcDbEntity
  8
_U+30EC_U+30A4_U+30E4_U+30FC 1
 62
     7
420
 16777215
370
     9
100
AcDbVertex
100
AcDb2dVertex
 10
100.139956056328
 20
-140.9292188536564
 30
0.0
  0
SEQEND
  5
62
330
5F
100
AcDbEntity
  8
_U+30EC_U+30A4_U+30E4_U+30FC 1
 62
     7
420
 16777215
370
     9
  0
INSERT
  5
64
330
1F
100
AcDbEntity
  8
_U+30EC_U+30A4_U+30E4_U+30FC 1
100
AcDbBlockReference
  2
block 2
 10
0.0
 20
0.0
 30
0.0
  0
SPLINE
  5
76
330
1F
100
AcDbEntity
  8
_U+30EC_U+30A4_U+30E4_U+30FC 1
 62
     7
420
 16777215
370
     9
100
AcDbSpline
210
0.0
220
0.0
230
1.0
 70
    11
 71
     3
 72
    17
 73
    13
 74
     0
 42
0.0000000001
 43
0.0000000001
 12
1.0
 22
0.0
 32
0.0
 13
1.0
 23
0.0
 33
0.0
 40
0.0
 40
0.0
 40
0.0
 40
0.0
 40
1.0
 40
1.0
 40
1.0
 40
2.0
 40
2.0
 40
2.0
 40
3.0
 40
3.0
 40
3.0
 40
4.0
 40
4.0
 40
4.0
 40
4.0
 10
100.1750927220982
 20
-139.9287410761289
 30
0.0
 10
100.1750927220982
 20
-139.9487435761237
 30
0.0
 10
100.1592555305155
 20
-139.9645832983422
 30
0.0
 10
100.139956056328
 20
-139.9645832983422
 30
0.0
 10
100.1206591123758
 20
-139.9645832983422
 30
0.0
 10
100.1048193905577
 20
-139.9487435761237
 30
0.0
 10
100.1048193905577
 20
-139.9287410761289
 30
0.0
 10
100.1048193905577
 20
-139.9094794094673
 30
0.0
 10
100.1206591123758
 20
-139.8936044094712
 30
0.0
 10
100.139956056328
 20
-139.8936044094712
 30
0.0
 10
100.1592555305155
 20
-139.8936044094712
 30
0.0
 10
100.1750927220982
 20
-139.9094794094673
 30
0.0
 10
100.1750927220982
 20
-139.9287410761289
 30
0.0
  0
POLYLINE
  5
77
330
1F
100
AcDbEntity
  8
_U+30EC_U+30A4_U+30E4_U+30FC 1
 62
     7
420
 16777215
370
     9
100
AcDb2dPolyline
 66
     1
 10
0.0
 20
0.0
 30
0.0
  0
VERTEX
  5
78
330
77
100
AcDbEntity
  8
_U+30EC_U+30A4_U+30E4_U+30FC 1
 62
     7
420
 16777215
370
     9
100
AcDbVertex
100
AcDb2dVertex
 10
79.90518768367104
 20
-119.5294719145621
 30
0.0
  0
VERTEX
  5
79
330
77
100
AcDbEntity
  8
_U+30EC_U+30A4_U+30E4_U+30FC 1
 62
     7
420
 16777215
370
     9
100
AcDbVertex
100
AcDb2dVertex
 10
79.90518768367104
 20
-135.9296874660176
 30
0.0
  0
SEQEND
  5
7A
330
77
100
AcDbEntity
  8
_U+30EC_U+30A4_U+30E4_U+30FC 1
 62
     7
420
 16777215
370
     9
  0
POLYLINE
  5
7B
330
1F
100
AcDbEntity
  8
_U+30EC_U+30A4_U+30E4_U+30FC 1
 62
     7
420
 16777215
370
     9
100
AcDb2dPolyline
 66
     1
 10
0.0
 20
0.0
 30
0.0
  0
VERTEX
  5
7C
330
7B
100
AcDbEntity
  8
_U+30EC_U+30A4_U+30E4_U+30FC 1
 62
     7
420
 16777215
370
     9
100
AcDbVertex
100
AcDb2dVertex
 10
81.36522903531119
 20
-119.5294719145621
 30
0.0
  0
VERTEX
  5
7D
330
7B
100
AcDbEntity
  8
_U+30EC_U+30A4_U+30E4_U+30FC 1
 62
     7
420
 16777215
370
     9
100
AcDbVertex
100
AcDb2dVertex
 10
78.90474720249617
 20
-119.5294719145621
 30
0.0
  0
SEQEND
  5
7E
330
7B
100
AcDbEntity
  8
_U+30EC_U+30A4_U+30E4_U+30FC 1
 62
     7
420
 16777215
370
     9
  0
POLYLINE
  5
7F
330
1F
100
AcDbEntity
  8
_U+30EC_U+30A4_U+30E4_U+30FC 1
 62
     7
420
 16777215
370
     9
100
AcDb2dPolyline
 66
     1
 10
0.0
 20
0.0
 30
0.0
  0
VERTEX
  5
80
330
7F
100
AcDbEntity
  8
_U+30EC_U+30A4_U+30E4_U+30FC 1
 62
     7
420
 16777215
370
     9
100
AcDbVertex
100
AcDb2dVertex
 10
81.36522903531119
 20
-135.9296874660176
 30
0.0
  0
VERTEX
  5
81
330
7F
100
AcDbEntity
  8
_U+30EC_U+30A4_U+30E4_U+30FC 1
 62
     7
420
 16777215
370
     9
100
AcDbVertex
100
AcDb2dVertex
 10
78.90474720249617
 20
-135.9296874660176
 30
0.0
  0
SEQEND
  5
82
330
7F
100
AcDbEntity
  8
_U+30EC_U+30A4_U+30E4_U+30FC 1
 62
     7
420
 16777215
370
     9
  0
INSERT
  5
84
330
1F
100
AcDbEntity
  8
_U+30EC_U+30A4_U+30E4_U+30FC 1
100
AcDbBlockReference
  2
block 3
 10
0.0
 20
0.0
 30
0.0
  0
SPLINE
  5
96
330
1F
100
AcDbEntity
  8
_U+30EC_U+30A4_U+30E4_U+30FC 1
 62
     7
420
 16777215
370
     9
100
AcDbSpline
210
0.0
220
0.0
230
1.0
 70
    11
 71
     3
 72
    17
 73
    13
 74
     0
 42
0.0000000001
 43
0.0000000001
 12
1.0
 22
0.0
 32
0.0
 13
1.0
 23
0.0
 33
0.0
 40
0.0
 40
0.0
 40
0.0
 40
0.0
 40
1.0
 40
1.0
 40
1.0
 40
2.0
 40
2.0
 40
2.0
 40
3.0
 40
3.0
 40
3.0
 40
4.0
 40
4.0
 40
4.0
 40
4.0
 10
79.94032434944131
 20
-135.9296874660176
 30
0.0
 10
79.94032434944131
 20
-135.9489844104574
 30
0.0
 10
79.92448462762319
 20
-135.9648241326753
 30
0.0
 10
79.90518768367104
 20
-135.9648241326753
 30
0.0
 10
79.88522046195824
 20
-135.9648241326753
 30
0.0
 10
79.87005101790079
 20
-135.9489844104574
 30
0.0
 10
79.87005101790079
 20
-135.9296874660176
 30
0.0
 10
79.87005101790079
 20
-135.9103905215778
 30
0.0
 10
79.88522046195824
 20
-135.8945507993598
 30
0.0
 10
79.90518768367104
 20
-135.8945507993598
 30
0.0
 10
79.92448462762319
 20
-135.8945507993598
 30
0.0
 10
79.94032434944131
 20
-135.9103905215778
 30
0.0
 10
79.94032434944131
 20
-135.9296874660176
 30
0.0
  0
POLYLINE
  5
97
330
1F
100
AcDbEntity
  8
_U+30EC_U+30A4_U+30E4_U+30FC 1
 62
     7
420
 16777215
370
     9
100
AcDb2dPolyline
 66
     1
 10
0.0
 20
0.0
 30
0.0
  0
VERTEX
  5
98
330
97
100
AcDbEntity
  8
_U+30EC_U+30A4_U+30E4_U+30FC 1
 62
     7
420
 16777215
370
     9
100
AcDbVertex
100
AcDb2dVertex
 10
104.1397151209523
 20
-135.9296874660176
 30
0.0
  0
VERTEX
  5
99
330
97
100
AcDbEntity
  8
_U+30EC_U+30A4_U+30E4_U+30FC 1
 62
     7
420
 16777215
370
     9
100
AcDbVertex
100
AcDb2dVertex
 10
104.1397151209523
 20
-124.9293355243232
 30
0.0
  0
SEQEND
  5
9A
330
97
100
AcDbEntity
  8
_U+30EC_U+30A4_U+30E4_U+30FC 1
 62
     7
420
 16777215
370
     9
  0
POLYLINE
  5
9B
330
1F
100
AcDbEntity
  8
_U+30EC_U+30A4_U+30E4_U+30FC 1
 62
     7
420
 16777215
370
     9
100
AcDb2dPolyline
 66
     1
 10
0.0
 20
0.0
 30
0.0
  0
VERTEX
  5
9C
330
9B
100
AcDbEntity
  8
_U+30EC_U+30A4_U+30E4_U+30FC 1
 62
     7
420
 16777215
370
     9
100
AcDbVertex
100
AcDb2dVertex
 10
101.6799368503731
 20
-134.929915244045
 30
0.0
  0
VERTEX
  5
9D
330
9B
100
AcDbEntity
  8
_U+30EC_U+30A4_U+30E4_U+30FC 1
 62
     7
420
 16777215
370
     9
100
AcDbVertex
100
AcDb2dVertex
 10
105.1401928732058
 20
-134.929915244045
 30
0.0
  0
SEQEND
  5
9E
330
9B
100
AcDbEntity
  8
_U+30EC_U+30A4_U+30E4_U+30FC 1
 62
     7
420
 16777215
370
     9
  0
POLYLINE
  5
9F
330
1F
100
AcDbEntity
  8
_U+30EC_U+30A4_U+30E4_U+30FC 1
 62
     7
420
 16777215
370
     9
100
AcDb2dPolyline
 66
     1
 10
0.0
 20
0.0
 30
0.0
  0
VERTEX
  5
A0
330
9F
100
AcDbEntity
  8
_U+30EC_U+30A4_U+30E4_U+30FC 1
 62
     7
420
 16777215
370
     9
100
AcDbVertex
100
AcDb2dVertex
 10
101.6799368503731
 20
-135.9296874660176
 30
0.0
  0
VERTEX
  5
A1
330
9F
100
AcDbEntity
  8
_U+30EC_U+30A4_U+30E4_U+30FC 1
 62
     7
420
 16777215
370
     9
100
AcDbVertex
100
AcDb2dVertex
 10
105.1401928732058
 20
-135.9296874660176
 30
0.0
  0
SEQEND
  5
A2
330
9F
100
AcDbEntity
  8
_U+30EC_U+30A4_U+30E4_U+30FC 1
 62
     7
420
 16777215
370
     9
  0
POLYLINE
  5
A3
330
1F
100
AcDbEntity
  8
_U+30EC_U+30A4_U+30E4_U+30FC 1
 62
     7
420
 16777215
370
     9
100
AcDb2dPolyline
 66
     1
 10
0.0
 20
0.0
 30
0.0
  0
VERTEX
  5
A4
330
A3
100
AcDbEntity
  8
_U+30EC_U+30A4_U+30E4_U+30FC 1
 62
     7
420
 16777215
370
     9
100
AcDbVertex
100
AcDb2dVertex
 10
97.29430946225982
 20
-124.9293355243232
 30
0.0
  0
VERTEX
  5
A5
330
A3
100
AcDbEntity
  8
_U+30EC_U+30A4_U+30E4_U+30FC 1
 62
     7
420
 16777215
370
     9
100
AcDbVertex
100
AcDb2dVertex
 10
105.1401928732058
 20
-124.9293355243232
 30
0.0
  0
SEQEND
  5
A6
330
A3
100
AcDbEntity
  8
_U+30EC_U+30A4_U+30E4_U+30FC 1
 62
     7
420
 16777215
370
     9
  0
INSERT
  5
A8
330
1F
100
AcDbEntity
  8
_U+30EC_U+30A4_U+30E4_U+30FC 1
100
AcDbBlockReference
  2
block 4
 10
0.0
 20
0.0
 30
0.0
  0
INSERT
  5
B1
330
1F
100
AcDbEntity
  8
_U+30EC_U+30A4_U+30E4_U+30FC 1
100
AcDbBlockReference
  2
block 5
 10
0.0
 20
0.0
 30
0.0
  0
SPLINE
  5
B6
330
1F
100
AcDbEntity
  8
_U+30EC_U+30A4_U+30E4_U+30FC 1
 62
     7
420
 16777215
370
     9
100
AcDbSpline
210
0.0
220
0.0
230
1.0
 70
    11
 71
     3
 72
    17
 73
    13
 74
     0
 42
0.0000000001
 43
0.0000000001
 12
1.0
 22
0.0
 32
0.0
 13
1.0
 23
0.0
 33
0.0
 40
0.0
 40
0.0
 40
0.0
 40
0.0
 40
1.0
 40
1.0
 40
1.0
 40
2.0
 40
2.0
 40
2.0
 40
3.0
 40
3.0
 40
3.0
 40
4.0
 40
4.0
 40
4.0
 40
4.0
 10
104.1755573422601
 20
-124.9293355243232
 30
0.0
 10
104.1755573422601
 20
-124.9493027465404
 30
0.0
 10
104.159717620442
 20
-124.9651424687586
 30
0.0
 10
104.1397151209523
 20
-124.9651424687586
 30
0.0
 10
104.1204181770002
 20
-124.9651424687586
 30
0.0
 10
104.1045784551821
 20
-124.9493027465404
 30
0.0
 10
104.1045784551821
 20
-124.9293355243232
 30
0.0
 10
104.1045784551821
 20
-124.9100385798837
 30
0.0
 10
104.1204181770002
 20
-124.8941988576655
 30
0.0
 10
104.1397151209523
 20
-124.8941988576655
 30
0.0
 10
104.159717620442
 20
-124.8941988576655
 30
0.0
 10
104.1755573422601
 20
-124.9100385798837
 30
0.0
 10
104.1755573422601
 20
-124.9293355243232
 30
0.0
  0
POLYLINE
  5
B7
330
1F
100
AcDbEntity
  8
_U+30EC_U+30A4_U+30E4_U+30FC 1
 62
     7
420
 16777215
370
     9
100
AcDb2dPolyline
 66
     1
 10
0.0
 20
0.0
 30
0.0
  0
VERTEX
  5
B8
330
B7
100
AcDbEntity
  8
_U+30EC_U+30A4_U+30E4_U+30FC 1
 62
     7
420
 16777215
370
     9
100
AcDbVertex
100
AcDb2dVertex
 10
86.2422758553318
 20
-117.0131785818577
 30
0.0
  0
VERTEX
  5
B9
330
B7
100
AcDbEntity
  8
_U+30EC_U+30A4_U+30E4_U+30FC 1
 62
     7
420
 16777215
370
     9
100
AcDbVertex
100
AcDb2dVertex
 10
92.6951104129285
 20
-121.7412474695649
 30
0.0
  0
SEQEND
  5
BA
330
B7
100
AcDbEntity
  8
_U+30EC_U+30A4_U+30E4_U+30FC 1
 62
     7
420
 16777215
370
     9
  0
POLYLINE
  5
BB
330
1F
100
AcDbEntity
  8
_U+30EC_U+30A4_U+30E4_U+30FC 1
 62
     7
420
 16777215
370
     9
100
AcDb2dPolyline
 66
     1
 10
0.0
 20
0.0
 30
0.0
  0
VERTEX
  5
BC
330
BB
100
AcDbEntity
  8
_U+30EC_U+30A4_U+30E4_U+30FC 1
 62
     7
420
 16777215
370
     9
100
AcDbVertex
100
AcDb2dVertex
 10
85.37927775643311
 20
-118.1907155260079
 30
0.0
  0
VERTEX
  5
BD
330
BB
100
AcDbEntity
  8
_U+30EC_U+30A4_U+30E4_U+30FC 1
 62
     7
420
 16777215
370
     9
100
AcDbVertex
100
AcDb2dVertex
 10
86.83310806248063
 20
-116.206340526504
 30
0.0
  0
SEQEND
  5
BE
330
BB
100
AcDbEntity
  8
_U+30EC_U+30A4_U+30E4_U+30FC 1
 62
     7
420
 16777215
370
     9
  0
POLYLINE
  5
BF
330
1F
100
AcDbEntity
  8
_U+30EC_U+30A4_U+30E4_U+30FC 1
 62
     7
420
 16777215
370
     9
100
AcDb2dPolyline
 66
     1
 10
0.0
 20
0.0
 30
0.0
  0
VERTEX
  5
C0
330
BF
100
AcDbEntity
  8
_U+30EC_U+30A4_U+30E4_U+30FC 1
 62
     7
420
 16777215
370
     9
100
AcDbVertex
100
AcDb2dVertex
 10
91.83246293493646
 20
-122.9187844137147
 30
0.0
  0
VERTEX
  5
C1
330
BF
100
AcDbEntity
  8
_U+30EC_U+30A4_U+30E4_U+30FC 1
 62
     7
420
 16777215
370
     9
100
AcDbVertex
100
AcDb2dVertex
 10
93.2862953978461
 20
-120.9344094142108
 30
0.0
  0
SEQEND
  5
C2
330
BF
100
AcDbEntity
  8
_U+30EC_U+30A4_U+30E4_U+30FC 1
 62
     7
420
 16777215
370
     9
  0
INSERT
  5
C4
330
1F
100
AcDbEntity
  8
_U+30EC_U+30A4_U+30E4_U+30FC 1
100
AcDbBlockReference
  2
block 6
 10
0.0
 20
0.0
 30
0.0
  0
SPLINE
  5
CB
330
1F
100
AcDbEntity
  8
_U+30EC_U+30A4_U+30E4_U+30FC 1
 62
     7
420
 16777215
370
     9
100
AcDbSpline
210
0.0
220
0.0
230
1.0
 70
    11
 71
     3
 72
    17
 73
    13
 74
     0
 42
0.0000000001
 43
0.0000000001
 12
1.0
 22
0.0
 32
0.0
 13
1.0
 23
0.0
 33
0.0
 40
0.0
 40
0.0
 40
0.0
 40
0.0
 40
1.0
 40
1.0
 40
1.0
 40
2.0
 40
2.0
 40
2.0
 40
3.0
 40
3.0
 40
3.0
 40
4.0
 40
4.0
 40
4.0
 40
4.0
 10
92.73024707869875
 20
-121.7426233028977
 30
0.0
 10
92.72957680093808
 20
-121.7619202473372
 30
0.0
 10
92.71370180134308
 20
-121.7770544140003
 30
0.0
 10
92.69408735739904
 20
-121.7763841362226
 30
0.0
 10
92.6747904134469
 20
-121.7756785806671
 30
0.0
 10
92.65930346939756
 20
-121.7591333028936
 30
0.0
 10
92.65997374715823
 20
-121.7398716362317
 30
0.0
 10
92.6606793026958
 20
-121.7205746917921
 30
0.0
 10
92.6771916434975
 20
-121.7046996917961
 30
0.0
 10
92.69648624622673
 20
-121.7054052473516
 30
0.0
 10
92.71648874571642
 20
-121.7061108029068
 30
0.0
 10
92.7309526342363
 20
-121.7226208029027
 30
0.0
 10
92.73024707869875
 20
-121.7426233028977
 30
0.0
  0
POLYLINE
  5
CC
330
1F
100
AcDbEntity
  8
_U+30EC_U+30A4_U+30E4_U+30FC 1
  6
AI-Linetype-1
 62
   251
420
  5855577
370
    25
100
AcDb2dPolyline
 66
     1
 10
0.0
 20
0.0
 30
0.0
  0
VERTEX
  5
CD
330
CC
100
AcDbEntity
  8
_U+30EC_U+30A4_U+30E4_U+30FC 1
  6
AI-Linetype-1
 62
   251
420
  5855577
370
    25
100
AcDbVertex
100
AcDb2dVertex
 10
83.13134037914281
 20
-135.9296874660176
 30
0.0
  0
VERTEX
  5
CE
330
CC
100
AcDbEntity
  8
_U+30EC_U+30A4_U+30E4_U+30FC 1
  6
AI-Linetype-1
 62
   251
420
  5855577
370
    25
100
AcDbVertex
100
AcDb2dVertex
 10
83.13134037914281
 20
-117.9288838594068
 30
0.0
  0
VERTEX
  5
CF
330
CC
100
AcDbEntity
  8
_U+30EC_U+30A4_U+30E4_U+30FC 1
  6
AI-Linetype-1
 62
   251
420
  5855577
370
    25
100
AcDbVertex
100
AcDb2dVertex
 10
91.81662321311835
 20
-125.1367335798271
 30
0.0
  0
SEQEND
  5
D1
330
CC
100
AcDbEntity
  8
_U+30EC_U+30A4_U+30E4_U+30FC 1
  6
AI-Linetype-1
 62
   251
420
  5855577
370
    25
  0
ENDSEC
  0
SECTION
  2
OBJECTS
  0
DICTIONARY
  5
C
330
0
100
AcDbDictionary
281
     1
  3
ACAD_GROUP
350
D
  3
ACAD_LAYOUT
350
1A
  3
ACAD_MATERIAL
350
3B
  3
ACAD_MLEADERSTYLE
350
D3
  3
ACAD_MLINESTYLE
350
17
  3
ACAD_PLOTSETTINGS
350
19
  3
ACAD_PLOTSTYLENAME
350
E
  3
ACAD_TABLESTYLE
350
D2
  3
ACAD_VISUALSTYLE
350
2A
  0
SUN
  5
3F
330
29
100
AcDbSun
 90
        1
290
     0
 63
     7
421
 16777215
 40
1.0
291
     1
 91
  2455826
 92
 54000000
292
     0
 70
     2
 71
   256
280
     1
  0
DICTIONARY
  5
D
102
{ACAD_REACTORS
330
C
102
}
330
C
100
AcDbDictionary
281
     1
  0
DICTIONARY
  5
1A
102
{ACAD_REACTORS
330
C
102
}
330
C
100
AcDbDictionary
281
     1
  3
Layout1
350
1E
  3
Layout2
350
26
  3
Model
350
22
  0
DICTIONARY
  5
3B
102
{ACAD_REACTORS
330
C
102
}
330
C
100
AcDbDictionary
281
     1
  3
ByBlock
350
3D
  3
ByLayer
350
3C
  3
Global
350
3E
  0
DICTIONARY
  5
D3
102
{ACAD_REACTORS
330
C
102
}
330
C
100
AcDbDictionary
281
     1
  0
DICTIONARY
  5
17
102
{ACAD_REACTORS
330
C
102
}
330
C
100
AcDbDictionary
281
     1
  3
Standard
350
18
  0
DICTIONARY
  5
19
102
{ACAD_REACTORS
330
C
102
}
330
C
100
AcDbDictionary
281
     1
  0
ACDBDICTIONARYWDFLT
  5
E
102
{ACAD_REACTORS
330
C
102
}
330
C
100
AcDbDictionary
281
     1
  3
Normal
350
F
100
AcDbDictionaryWithDefault
340
F
  0
DICTIONARY
  5
D2
102
{ACAD_REACTORS
330
C
102
}
330
C
100
AcDbDictionary
281
     1
  0
DICTIONARY
  5
2A
102
{ACAD_REACTORS
330
C
102
}
330
C
100
AcDbDictionary
281
     1
  3
2dWireframe
350
2F
  3
3D Hidden
350
31
  3
3dWireframe
350
30
  3
Basic
350
32
  3
Brighten
350
36
  3
ColorChange
350
3A
  3
Conceptual
350
34
  3
Dim
350
35
  3
Facepattern
350
39
  3
Flat
350
2B
  3
FlatWithEdges
350
2C
  3
Gouraud
350
2D
  3
GouraudWithEdges
350
2E
  3
Linepattern
350
38
  3
Realistic
350
33
  3
Thicken
350
37
  0
LAYOUT
  5
1E
102
{ACAD_REACTORS
330
1A
102
}
330
1A
100
AcDbPlotSettings
  1

  2
none_device
  4

  6

 40
0.0
 41
0.0
 42
0.0
 43
0.0
 44
0.0
 45
0.0
 46
0.0
 47
0.0
 48
0.0
 49
0.0
140
0.0
141
0.0
142
1.0
143
1.0
 70
   688
 72
     0
 73
     0
 74
     5
  7

 75
    16
 76
     0
 77
     2
 78
   300
147
1.0
148
0.0
149
0.0
100
AcDbLayout
  1
Layout1
 70
     1
 71
     1
 10
0.0
 20
0.0
 11
12.0
 21
9.0
 12
0.0
 22
0.0
 32
0.0
 14
1.000000000000000E+20
 24
1.000000000000000E+20
 34
1.000000000000000E+20
 15
-1.000000000000000E+20
 25
-1.000000000000000E+20
 35
-1.000000000000000E+20
146
0.0
 13
0.0
 23
0.0
 33
0.0
 16
1.0
 26
0.0
 36
0.0
 17
0.0
 27
1.0
 37
0.0
 76
     0
330
1B
  0
LAYOUT
  5
26
102
{ACAD_REACTORS
330
1A
102
}
330
1A
100
AcDbPlotSettings
  1

  2
none_device
  4

  6

 40
0.0
 41
0.0
 42
0.0
 43
0.0
 44
0.0
 45
0.0
 46
0.0
 47
0.0
 48
0.0
 49
0.0
140
0.0
141
0.0
142
1.0
143
1.0
 70
   688
 72
     0
 73
     0
 74
     5
  7

 75
    16
 76
     0
 77
     2
 78
   300
147
1.0
148
0.0
149
0.0
100
AcDbLayout
  1
Layout2
 70
     1
 71
     2
 10
0.0
 20
0.0
 11
0.0
 21
0.0
 12
0.0
 22
0.0
 32
0.0
 14
0.0
 24
0.0
 34
0.0
 15
0.0
 25
0.0
 35
0.0
146
0.0
 13
0.0
 23
0.0
 33
0.0
 16
1.0
 26
0.0
 36
0.0
 17
0.0
 27
1.0
 37
0.0
 76
     0
330
23
  0
LAYOUT
  5
22
102
{ACAD_REACTORS
330
1A
102
}
330
1A
100
AcDbPlotSettings
  1

  2
none_device
  4

  6

 40
0.0
 41
0.0
 42
0.0
 43
0.0
 44
0.0
 45
0.0
 46
0.0
 47
0.0
 48
0.0
 49
0.0
140
0.0
141
0.0
142
1.0
143
1.0
 70
  1712
 72
     0
 73
     0
 74
     0
  7

 75
     0
 76
     0
 77
     2
 78
   300
147
1.0
148
0.0
149
0.0
100
AcDbLayout
  1
Model
 70
     1
 71
     0
 10
0.0
 20
0.0
 11
12.0
 21
9.0
 12
0.0
 22
0.0
 32
0.0
 14
1.000000000000000E+20
 24
1.000000000000000E+20
 34
1.000000000000000E+20
 15
-1.000000000000000E+20
 25
-1.000000000000000E+20
 35
-1.000000000000000E+20
146
0.0
 13
0.0
 23
0.0
 33
0.0
 16
1.0
 26
0.0
 36
0.0
 17
0.0
 27
1.0
 37
0.0
 76
     0
330
1F
331
29
  0
MATERIAL
  5
3D
102
{ACAD_REACTORS
330
3B
102
}
330
3B
100
AcDbMaterial
  1
ByBlock
 72
     1
 94
      127
  0
MATERIAL
  5
3C
102
{ACAD_REACTORS
330
3B
102
}
330
3B
100
AcDbMaterial
  1
ByLayer
 72
     1
 94
      127
  0
MATERIAL
  5
3E
102
{ACAD_REACTORS
330
3B
102
}
330
3B
100
AcDbMaterial
  1
Global
 72
     1
 94
      127
  0
MLINESTYLE
  5
18
102
{ACAD_REACTORS
330
17
102
}
330
17
100
AcDbMlineStyle
  2
Standard
 70
     0
  3

 62
   256
 51
90.0
 52
90.0
 71
     2
 49
0.5
 62
   256
  6
BYLAYER
 49
-0.5
 62
   256
  6
BYLAYER
  0
ACDBPLACEHOLDER
  5
F
102
{ACAD_REACTORS
330
E
102
}
330
E
  0
VISUALSTYLE
  5
2F
102
{ACAD_REACTORS
330
2A
102
}
330
2A
100
AcDbVisualStyle
  2
2dWireframe
 70
     4
177
     2
291
     0
 71
     0
176
     1
 72
     2
176
     1
 73
     0
176
     1
 90
        0
176
     1
 40
-0.6
176
     1
 41
-30.0
176
     1
 62
     5
 63
     7
421
 16777215
176
     1
 74
     1
176
     1
 91
        4
176
     1
 64
     7
176
     1
 65
   257
176
     1
 75
     1
176
     1
175
     1
176
     1
 42
1.0
176
     1
 92
        0
176
     1
 66
   257
176
     1
 43
1.0
176
     1
 76
     1
176
     1
 77
     6
176
     1
 78
     2
176
     1
 67
     7
176
     1
 79
     5
176
     1
170
     0
176
     1
171
     0
176
     1
290
     0
176
     1
 93
        1
176
     1
 44
0.0
176
     1
173
     0
176
     1
  0
VISUALSTYLE
  5
31
102
{ACAD_REACTORS
330
2A
102
}
330
2A
100
AcDbVisualStyle
  2
3D Hidden
 70
     6
177
     2
291
     0
 71
     1
176
     1
 72
     2
176
     1
 73
     2
176
     1
 90
        0
176
     1
 40
-0.6
176
     1
 41
-30.0
176
     1
 62
     5
 63
     7
421
 16777215
176
     1
 74
     2
176
     1
 91
        2
176
     1
 64
     7
176
     1
 65
   257
176
     1
 75
     2
176
     1
175
     1
176
     1
 42
40.0
176
     1
 92
        0
176
     1
 66
   257
176
     1
 43
1.0
176
     1
 76
     1
176
     1
 77
     6
176
     1
 78
     2
176
     1
 67
     7
176
     1
 79
     3
176
     1
170
     0
176
     1
171
     0
176
     1
290
     0
176
     1
 93
        1
176
     1
 44
0.0
176
     1
173
     0
176
     1
  0
VISUALSTYLE
  5
30
102
{ACAD_REACTORS
330
2A
102
}
330
2A
100
AcDbVisualStyle
  2
3dWireframe
 70
     5
177
     2
291
     0
 71
     0
176
     1
 72
     2
176
     1
 73
     0
176
     1
 90
        0
176
     1
 40
-0.6
176
     1
 41
-30.0
176
     1
 62
     5
 63
     7
421
 16777215
176
     1
 74
     1
176
     1
 91
        4
176
     1
 64
     7
176
     1
 65
   257
176
     1
 75
     1
176
     1
175
     1
176
     1
 42
1.0
176
     1
 92
        0
176
     1
 66
   257
176
     1
 43
1.0
176
     1
 76
     1
176
     1
 77
     6
176
     1
 78
     2
176
     1
 67
     7
176
     1
 79
     5
176
     1
170
     0
176
     1
171
     0
176
     1
290
     0
176
     1
 93
        1
176
     1
 44
0.0
176
     1
173
     0
176
     1
  0
VISUALSTYLE
  5
32
102
{ACAD_REACTORS
330
2A
102
}
330
2A
100
AcDbVisualStyle
  2
Basic
 70
     7
177
     2
291
     1
 71
     1
176
     1
 72
     0
176
     1
 73
     1
176
     1
 90
        0
176
     1
 40
-0.6
176
     1
 41
-30.0
176
     1
 62
     5
 63
     7
421
 16777215
176
     1
 74
     0
176
     1
 91
        4
176
     1
 64
     7
176
     1
 65
   257
176
     1
 75
     1
176
     1
175
     1
176
     1
 42
1.0
176
     1
 92
        8
176
     1
 66
     7
176
     1
 43
1.0
176
     1
 76
     1
176
     1
 77
     6
176
     1
 78
     2
176
     1
 67
     7
176
     1
 79
     5
176
     1
170
     0
176
     1
171
     0
176
     1
290
     0
176
     1
 93
        1
176
     1
 44
0.0
176
     1
173
     0
176
     1
  0
VISUALSTYLE
  5
36
102
{ACAD_REACTORS
330
2A
102
}
330
2A
100
AcDbVisualStyle
  2
Brighten
 70
    12
177
     2
291
     1
 71
     2
176
     1
 72
     2
176
     1
 73
     0
176
     1
 90
        0
176
     1
 40
-0.6
176
     1
 41
-30.0
176
     1
 62
     5
 63
     7
421
 16777215
176
     1
 74
     1
176
     1
 91
        4
176
     1
 64
     7
176
     1
 65
   257
176
     1
 75
     1
176
     1
175
     1
176
     1
 42
1.0
176
     1
 92
        8
176
     1
 66
     7
176
     1
 43
1.0
176
     1
 76
     1
176
     1
 77
     6
176
     1
 78
     2
176
     1
 67
     7
176
     1
 79
     5
176
     1
170
     0
176
     1
171
     0
176
     1
290
     0
176
     1
 93
        1
176
     1
 44
50.0
176
     1
173
     0
176
     1
  0
VISUALSTYLE
  5
3A
102
{ACAD_REACTORS
330
2A
102
}
330
2A
100
AcDbVisualStyle
  2
ColorChange
 70
    16
177
     2
291
     1
 71
     2
176
     1
 72
     2
176
     1
 73
     3
176
     1
 90
        0
176
     1
 40
-0.6
176
     1
 41
-30.0
176
     1
 62
     5
 63
     8
421
  8421504
176
     1
 74
     1
176
     1
 91
        4
176
     1
 64
     7
176
     1
 65
   257
176
     1
 75
     1
176
     1
175
     1
176
     1
 42
1.0
176
     1
 92
        8
176
     1
 66
     8
424
  8421504
176
     1
 43
1.0
176
     1
 76
     1
176
     1
 77
     6
176
     1
 78
     2
176
     1
 67
     7
176
     1
 79
     5
176
     1
170
     0
176
     1
171
     0
176
     1
290
     0
176
     1
 93
        1
176
     1
 44
0.0
176
     1
173
     0
176
     1
  0
VISUALSTYLE
  5
34
102
{ACAD_REACTORS
330
2A
102
}
330
2A
100
AcDbVisualStyle
  2
Conceptual
 70
     9
177
     2
291
     0
 71
     3
176
     1
 72
     2
176
     1
 73
     0
176
     1
 90
        0
176
     1
 40
-0.6
176
     1
 41
-30.0
176
     1
 62
     5
 63
     7
421
 16777215
176
     1
 74
     2
176
     1
 91
        2
176
     1
 64
     7
176
     1
 65
   257
176
     1
 75
     1
176
     1
175
     1
176
     1
 42
40.0
176
     1
 92
        8
176
     1
 66
     7
176
     1
 43
1.0
176
     1
 76
     1
176
     1
 77
     6
176
     1
 78
     2
176
     1
 67
     7
176
     1
 79
     3
176
     1
170
     0
176
     1
171
     0
176
     1
290
     0
176
     1
 93
        1
176
     1
 44
0.0
176
     1
173
     0
176
     1
  0
VISUALSTYLE
  5
35
102
{ACAD_REACTORS
330
2A
102
}
330
2A
100
AcDbVisualStyle
  2
Dim
 70
    11
177
     2
291
     1
 71
     2
176
     1
 72
     2
176
     1
 73
     0
176
     1
 90
        0
176
     1
 40
-0.6
176
     1
 41
-30.0
176
     1
 62
     5
 63
     7
421
 16777215
176
     1
 74
     1
176
     1
 91
        4
176
     1
 64
     7
176
     1
 65
   257
176
     1
 75
     1
176
     1
175
     1
176
     1
 42
1.0
176
     1
 92
        8
176
     1
 66
     7
176
     1
 43
1.0
176
     1
 76
     1
176
     1
 77
     6
176
     1
 78
     2
176
     1
 67
     7
176
     1
 79
     5
176
     1
170
     0
176
     1
171
     0
176
     1
290
     0
176
     1
 93
        1
176
     1
 44
-50.0
176
     1
173
     0
176
     1
  0
VISUALSTYLE
  5
39
102
{ACAD_REACTORS
330
2A
102
}
330
2A
100
AcDbVisualStyle
  2
Facepattern
 70
    15
177
     2
291
     1
 71
     2
176
     1
 72
     2
176
     1
 73
     0
176
     1
 90
        0
176
     1
 40
-0.6
176
     1
 41
-30.0
176
     1
 62
     5
 63
     7
421
 16777215
176
     1
 74
     1
176
     1
 91
        4
176
     1
 64
     7
176
     1
 65
   257
176
     1
 75
     1
176
     1
175
     1
176
     1
 42
1.0
176
     1
 92
        8
176
     1
 66
     7
176
     1
 43
1.0
176
     1
 76
     1
176
     1
 77
     6
176
     1
 78
     2
176
     1
 67
     7
176
     1
 79
     5
176
     1
170
     0
176
     1
171
     0
176
     1
290
     0
176
     1
 93
        1
176
     1
 44
0.0
176
     1
173
     0
176
     1
  0
VISUALSTYLE
  5
2B
102
{ACAD_REACTORS
330
2A
102
}
330
2A
100
AcDbVisualStyle
  2
Flat
 70
     0
177
     2
291
     1
 71
     2
176
     1
 72
     1
176
     1
 73
     1
176
     1
 90
        2
176
     1
 40
-0.6
176
     1
 41
30.0
176
     1
 62
     5
 63
     7
421
 16777215
176
     1
 74
     0
176
     1
 91
        4
176
     1
 64
     7
176
     1
 65
   257
176
     1
 75
     1
176
     1
175
     1
176
     1
 42
1.0
176
     1
 92
        8
176
     1
 66
     7
176
     1
 43
1.0
176
     1
 76
     1
176
     1
 77
     6
176
     1
 78
     2
176
     1
 67
     7
176
     1
 79
     5
176
     1
170
     0
176
     1
171
     0
176
     1
290
     0
176
     1
 93
       13
176
     1
 44
0.0
176
     1
173
     0
176
     1
  0
VISUALSTYLE
  5
2C
102
{ACAD_REACTORS
330
2A
102
}
330
2A
100
AcDbVisualStyle
  2
FlatWithEdges
 70
     1
177
     2
291
     1
 71
     2
176
     1
 72
     1
176
     1
 73
     1
176
     1
 90
        2
176
     1
 40
-0.6
176
     1
 41
30.0
176
     1
 62
     5
 63
     7
421
 16777215
176
     1
 74
     1
176
     1
 91
        4
176
     1
 64
     7
176
     1
 65
   257
176
     1
 75
     1
176
     1
175
     1
176
     1
 42
1.0
176
     1
 92
        0
176
     1
 66
   257
176
     1
 43
1.0
176
     1
 76
     1
176
     1
 77
     6
176
     1
 78
     2
176
     1
 67
     7
176
     1
 79
     5
176
     1
170
     0
176
     1
171
     0
176
     1
290
     0
176
     1
 93
       13
176
     1
 44
0.0
176
     1
173
     0
176
     1
  0
VISUALSTYLE
  5
2D
102
{ACAD_REACTORS
330
2A
102
}
330
2A
100
AcDbVisualStyle
  2
Gouraud
 70
     2
177
     2
291
     1
 71
     2
176
     1
 72
     2
176
     1
 73
     1
176
     1
 90
        2
176
     1
 40
-0.6
176
     1
 41
30.0
176
     1
 62
     5
 63
     7
421
 16777215
176
     1
 74
     0
176
     1
 91
        4
176
     1
 64
     7
176
     1
 65
   257
176
     1
 75
     1
176
     1
175
     1
176
     1
 42
1.0
176
     1
 92
        0
176
     1
 66
     7
176
     1
 43
1.0
176
     1
 76
     1
176
     1
 77
     6
176
     1
 78
     2
176
     1
 67
     7
176
     1
 79
     5
176
     1
170
     0
176
     1
171
     0
176
     1
290
     0
176
     1
 93
       13
176
     1
 44
0.0
176
     1
173
     0
176
     1
  0
VISUALSTYLE
  5
2E
102
{ACAD_REACTORS
330
2A
102
}
330
2A
100
AcDbVisualStyle
  2
GouraudWithEdges
 70
     3
177
     2
291
     1
 71
     2
176
     1
 72
     2
176
     1
 73
     1
176
     1
 90
        2
176
     1
 40
-0.6
176
     1
 41
30.0
176
     1
 62
     5
 63
     7
421
 16777215
176
     1
 74
     1
176
     1
 91
        4
176
     1
 64
     7
176
     1
 65
   257
176
     1
 75
     1
176
     1
175
     1
176
     1
 42
1.0
176
     1
 92
        0
176
     1
 66
   257
176
     1
 43
1.0
176
     1
 76
     1
176
     1
 77
     6
176
     1
 78
     2
176
     1
 67
     7
176
     1
 79
     5
176
     1
170
     0
176
     1
171
     0
176
     1
290
     0
176
     1
 93
       13
176
     1
 44
0.0
176
     1
173
     0
176
     1
  0
VISUALSTYLE
  5
38
102
{ACAD_REACTORS
330
2A
102
}
330
2A
100
AcDbVisualStyle
  2
Linepattern
 70
    14
177
     2
291
     1
 71
     2
176
     1
 72
     2
176
     1
 73
     0
176
     1
 90
        0
176
     1
 40
-0.6
176
     1
 41
-30.0
176
     1
 62
     5
 63
     7
421
 16777215
176
     1
 74
     1
176
     1
 91
        4
176
     1
 64
     7
176
     1
 65
   257
176
     1
 75
     7
176
     1
175
     7
176
     1
 42
1.0
176
     1
 92
        8
176
     1
 66
     7
176
     1
 43
1.0
176
     1
 76
     1
176
     1
 77
     6
176
     1
 78
     2
176
     1
 67
     7
176
     1
 79
     5
176
     1
170
     0
176
     1
171
     0
176
     1
290
     0
176
     1
 93
        1
176
     1
 44
0.0
176
     1
173
     0
176
     1
  0
VISUALSTYLE
  5
33
102
{ACAD_REACTORS
330
2A
102
}
330
2A
100
AcDbVisualStyle
  2
Realistic
 70
     8
177
     2
291
     0
 71
     2
176
     1
 72
     2
176
     1
 73
     0
176
     1
 90
        0
176
     1
 40
-0.6
176
     1
 41
-30.0
176
     1
 62
     5
 63
     7
421
 16777215
176
     1
 74
     1
176
     1
 91
        0
176
     1
 64
     7
176
     1
 65
   257
176
     1
 75
     1
176
     1
175
     1
176
     1
 42
1.0
176
     1
 92
        8
176
     1
 66
     8
424
  7895160
176
     1
 43
1.0
176
     1
 76
     1
176
     1
 77
     6
176
     1
 78
     2
176
     1
 67
     7
176
     1
 79
     5
176
     1
170
     0
176
     1
171
     0
176
     1
290
     0
176
     1
 93
       13
176
     1
 44
0.0
176
     1
173
     0
176
     1
  0
VISUALSTYLE
  5
37
102
{ACAD_REACTORS
330
2A
102
}
330
2A
100
AcDbVisualStyle
  2
Thicken
 70
    13
177
     2
291
     1
 71
     2
176
     1
 72
     2
176
     1
 73
     0
176
     1
 90
        0
176
     1
 40
-0.6
176
     1
 41
-30.0
176
     1
 62
     5
 63
     7
421
 16777215
176
     1
 74
     1
176
     1
 91
        4
176
     1
 64
     7
176
     1
 65
   257
176
     1
 75
     1
176
     1
175
     1
176
     1
 42
1.0
176
     1
 92
       12
176
     1
 66
     7
176
     1
 43
1.0
176
     1
 76
     1
176
     1
 77
     6
176
     1
 78
     2
176
     1
 67
     7
176
     1
 79
     5
176
     1
170
     0
176
     1
171
     0
176
     1
290
     0
176
     1
 93
        1
176
     1
 44
0.0
176
     1
173
     0
176
     1
  0
ENDSEC
  0
EOF
