  0
SECTION
  2
HEADER
  9
$ACADVER
  1
AC1024
  9
$ACADMAINTVER
 70
     6
  9
$DWGCODEPAGE
  3
UNDEFINED
  9
$INSBASE
 10
0.0
 20
0.0
 30
0.0
  9
$EXTMIN
 10
1.000000000000000E+20
 20
1.000000000000000E+20
 30
1.000000000000000E+20
  9
$EXTMAX
 10
-1.000000000000000E+20
 20
-1.000000000000000E+20
 30
-1.000000000000000E+20
  9
$LIMMIN
 10
0.0
 20
0.0
  9
$LIMMAX
 10
12.0
 20
9.0
  9
$ORTHOMODE
 70
     0
  9
$REGENMODE
 70
     1
  9
$FILLMODE
 70
     1
  9
$QTEXTMODE
 70
     0
  9
$MIRRTEXT
 70
     1
  9
$LTSCALE
 40
1.0
  9
$ATTMODE
 70
     1
  9
$TEXTSIZE
 40
0.2
  9
$TRACEWID
 40
0.05
  9
$TEXTSTYLE
  7
Standard
  9
$CLAYER
  8
0
  9
$CELTYPE
  6
ByLayer
  9
$CECOLOR
 62
   256
  9
$CELTSCALE
 40
1.0
  9
$DISPSILH
 70
     0
  9
$DIMSCALE
 40
1.0
  9
$DIMASZ
 40
0.18
  9
$DIMEXO
 40
0.0625
  9
$DIMDLI
 40
0.38
  9
$DIMRND
 40
0.0
  9
$DIMDLE
 40
0.0
  9
$DIMEXE
 40
0.18
  9
$DIMTP
 40
0.0
  9
$DIMTM
 40
0.0
  9
$DIMTXT
 40
0.18
  9
$DIMCEN
 40
0.09
  9
$DIMTSZ
 40
0.0
  9
$DIMTOL
 70
     0
  9
$DIMLIM
 70
     0
  9
$DIMTIH
 70
     1
  9
$DIMTOH
 70
     1
  9
$DIMSE1
 70
     0
  9
$DIMSE2
 70
     0
  9
$DIMTAD
 70
     0
  9
$DIMZIN
 70
     0
  9
$DIMBLK
  1

  9
$DIMASO
 70
     1
  9
$DIMSHO
 70
     1
  9
$DIMPOST
  1

  9
$DIMAPOST
  1

  9
$DIMALT
 70
     0
  9
$DIMALTD
 70
     2
  9
$DIMALTF
 40
25.4
  9
$DIMLFAC
 40
1.0
  9
$DIMTOFL
 70
     0
  9
$DIMTVP
 40
0.0
  9
$DIMTIX
 70
     0
  9
$DIMSOXD
 70
     0
  9
$DIMSAH
 70
     0
  9
$DIMBLK1
  1

  9
$DIMBLK2
  1

  9
$DIMSTYLE
  2
Standard
  9
$DIMCLRD
 70
     0
  9
$DIMCLRE
 70
     0
  9
$DIMCLRT
 70
     0
  9
$DIMTFAC
 40
1.0
  9
$DIMGAP
 40
0.09
  9
$DIMJUST
 70
     0
  9
$DIMSD1
 70
     0
  9
$DIMSD2
 70
     0
  9
$DIMTOLJ
 70
     1
  9
$DIMTZIN
 70
     0
  9
$DIMALTZ
 70
     0
  9
$DIMALTTZ
 70
     0
  9
$DIMUPT
 70
     0
  9
$DIMDEC
 70
     4
  9
$DIMTDEC
 70
     4
  9
$DIMALTU
 70
     2
  9
$DIMALTTD
 70
     2
  9
$DIMTXSTY
  7
Standard
  9
$DIMAUNIT
 70
     0
  9
$DIMADEC
 70
     0
  9
$DIMALTRND
 40
0.0
  9
$DIMAZIN
 70
     0
  9
$DIMDSEP
 70
    46
  9
$DIMATFIT
 70
     3
  9
$DIMFRAC
 70
     0
  9
$DIMLDRBLK
  1

  9
$DIMLUNIT
 70
     2
  9
$DIMLWD
 70
    -2
  9
$DIMLWE
 70
    -2
  9
$DIMTMOVE
 70
     0
  9
$DIMFXL
 40
1.0
  9
$DIMFXLON
 70
     0
  9
$DIMJOGANG
 40
0.7853981633974483
  9
$DIMTFILL
 70
     0
  9
$DIMTFILLCLR
 70
     0
  9
$DIMARCSYM
 70
     0
  9
$DIMLTYPE
  6

  9
$DIMLTEX1
  6

  9
$DIMLTEX2
  6

  9
$DIMTXTDIRECTION
 70
     0
  9
$LUNITS
 70
     2
  9
$LUPREC
 70
     4
  9
$SKETCHINC
 40
0.1
  9
$FILLETRAD
 40
0.5
  9
$AUNITS
 70
     0
  9
$AUPREC
 70
     0
  9
$MENU
  1
.
  9
$ELEVATION
 40
0.0
  9
$PELEVATION
 40
0.0
  9
$THICKNESS
 40
0.0
  9
$LIMCHECK
 70
     0
  9
$CHAMFERA
 40
0.5
  9
$CHAMFERB
 40
0.5
  9
$CHAMFERC
 40
1.0
  9
$CHAMFERD
 40
0.0
  9
$SKPOLY
 70
     0
  9
$TDCREATE
 40
2457917.622557871
  9
$TDUCREATE
 40
2457917.247557871
  9
$TDUPDATE
 40
2457917.622557871
  9
$TDUUPDATE
 40
2457917.247557871
  9
$TDINDWG
 40
0.0000000116
  9
$TDUSRTIMER
 40
0.0000000116
  9
$USRTIMER
 70
     1
  9
$ANGBASE
 50
0.0
  9
$ANGDIR
 70
     0
  9
$PDMODE
 70
     0
  9
$PDSIZE
 40
0.0
  9
$PLINEWID
 40
0.0
  9
$SPLFRAME
 70
     0
  9
$SPLINETYPE
 70
     6
  9
$SPLINESEGS
 70
     8
  9
$HANDSEED
  5
EB
  9
$SURFTAB1
 70
     6
  9
$SURFTAB2
 70
     6
  9
$SURFTYPE
 70
     6
  9
$SURFU
 70
     6
  9
$SURFV
 70
     6
  9
$UCSBASE
  2

  9
$UCSNAME
  2

  9
$UCSORG
 10
0.0
 20
0.0
 30
0.0
  9
$UCSXDIR
 10
1.0
 20
0.0
 30
0.0
  9
$UCSYDIR
 10
0.0
 20
1.0
 30
0.0
  9
$UCSORTHOREF
  2

  9
$UCSORTHOVIEW
 70
     0
  9
$UCSORGTOP
 10
0.0
 20
0.0
 30
0.0
  9
$UCSORGBOTTOM
 10
0.0
 20
0.0
 30
0.0
  9
$UCSORGLEFT
 10
0.0
 20
0.0
 30
0.0
  9
$UCSORGRIGHT
 10
0.0
 20
0.0
 30
0.0
  9
$UCSORGFRONT
 10
0.0
 20
0.0
 30
0.0
  9
$UCSORGBACK
 10
0.0
 20
0.0
 30
0.0
  9
$PUCSBASE
  2

  9
$PUCSNAME
  2

  9
$PUCSORG
 10
0.0
 20
0.0
 30
0.0
  9
$PUCSXDIR
 10
1.0
 20
0.0
 30
0.0
  9
$PUCSYDIR
 10
0.0
 20
1.0
 30
0.0
  9
$PUCSORTHOREF
  2

  9
$PUCSORTHOVIEW
 70
     0
  9
$PUCSORGTOP
 10
0.0
 20
0.0
 30
0.0
  9
$PUCSORGBOTTOM
 10
0.0
 20
0.0
 30
0.0
  9
$PUCSORGLEFT
 10
0.0
 20
0.0
 30
0.0
  9
$PUCSORGRIGHT
 10
0.0
 20
0.0
 30
0.0
  9
$PUCSORGFRONT
 10
0.0
 20
0.0
 30
0.0
  9
$PUCSORGBACK
 10
0.0
 20
0.0
 30
0.0
  9
$USERI1
 70
     0
  9
$USERI2
 70
     0
  9
$USERI3
 70
     0
  9
$USERI4
 70
     0
  9
$USERI5
 70
     0
  9
$USERR1
 40
0.0
  9
$USERR2
 40
0.0
  9
$USERR3
 40
0.0
  9
$USERR4
 40
0.0
  9
$USERR5
 40
0.0
  9
$WORLDVIEW
 70
     1
  9
$SHADEDGE
 70
     3
  9
$SHADEDIF
 70
    70
  9
$TILEMODE
 70
     1
  9
$MAXACTVP
 70
    64
  9
$PINSBASE
 10
0.0
 20
0.0
 30
0.0
  9
$PLIMCHECK
 70
     0
  9
$PEXTMIN
 10
1.000000000000000E+20
 20
1.000000000000000E+20
 30
1.000000000000000E+20
  9
$PEXTMAX
 10
-1.000000000000000E+20
 20
-1.000000000000000E+20
 30
-1.000000000000000E+20
  9
$PLIMMIN
 10
0.0
 20
0.0
  9
$PLIMMAX
 10
12.0
 20
9.0
  9
$UNITMODE
 70
     0
  9
$VISRETAIN
 70
     1
  9
$PLINEGEN
 70
     0
  9
$PSLTSCALE
 70
     1
  9
$TREEDEPTH
 70
  3020
  9
$CMLSTYLE
  2
Standard
  9
$CMLJUST
 70
     0
  9
$CMLSCALE
 40
1.0
  9
$PROXYGRAPHICS
 70
     1
  9
$MEASUREMENT
 70
     0
  9
$CELWEIGHT
370
    -1
  9
$ENDCAPS
280
     0
  9
$JOINSTYLE
280
     0
  9
$LWDISPLAY
290
     1
  9
$INSUNITS
 70
     1
  9
$HYPERLINKBASE
  1

  9
$STYLESHEET
  1

  9
$XEDIT
290
     1
  9
$CEPSNTYPE
380
     0
  9
$PSTYLEMODE
290
     1
  9
$FINGERPRINTGUID
  2
{2AF2CC41-91C7-4E77-C791-DD8DD01FC628}
  9
$VERSIONGUID
  2
{FAEB1C32-E019-11D5-929B-00C0DF256EC4}
  9
$EXTNAMES
290
     1
  9
$PSVPSCALE
 40
0.0
  9
$OLESTARTUP
290
     0
  9
$SORTENTS
280
   127
  9
$INDEXCTL
280
     0
  9
$HIDETEXT
280
     1
  9
$XCLIPFRAME
280
     2
  9
$HALOGAP
280
     0
  9
$OBSCOLOR
 70
   257
  9
$OBSLTYPE
280
     0
  9
$INTERSECTIONDISPLAY
280
     0
  9
$INTERSECTIONCOLOR
 70
   257
  9
$DIMASSOC
280
     2
  9
$PROJECTNAME
  1

  9
$CAMERADISPLAY
290
     0
  9
$LENSLENGTH
 40
50.0
  9
$CAMERAHEIGHT
 40
0.0
  9
$STEPSPERSEC
 40
2.0
  9
$STEPSIZE
 40
6.0
  9
$3DDWFPREC
 40
2.0
  9
$PSOLWIDTH
 40
0.25
  9
$PSOLHEIGHT
 40
4.0
  9
$LOFTANG1
 40
1.570796326794897
  9
$LOFTANG2
 40
1.570796326794897
  9
$LOFTMAG1
 40
0.0
  9
$LOFTMAG2
 40
0.0
  9
$LOFTPARAM
 70
     7
  9
$LOFTNORMALS
280
     1
  9
$LATITUDE
 40
37.795
  9
$LONGITUDE
 40
-122.394
  9
$NORTHDIRECTION
 40
0.0
  9
$TIMEZONE
 70
 -8000
  9
$LIGHTGLYPHDISPLAY
280
     1
  9
$TILEMODELIGHTSYNCH
280
     1
  9
$CMATERIAL
347
3C
  9
$SOLIDHIST
280
     1
  9
$SHOWHIST
280
     1
  9
$DWFFRAME
280
     2
  9
$DGNFRAME
280
     2
  9
$REALWORLDSCALE
290
     1
  9
$INTERFERECOLOR
 62
   256
  9
$CSHADOW
280
     0
  9
$SHADOWPLANELOCATION
 40
0.0
  0
ENDSEC
  0
SECTION
  2
CLASSES
  0
CLASS
  1
ACDBDICTIONARYWDFLT
  2
AcDbDictionaryWithDefault
  3
ObjectDBX Classes
 90
        0
 91
        4
280
     0
281
     0
  0
CLASS
  1
VISUALSTYLE
  2
AcDbVisualStyle
  3
ObjectDBX Classes
 90
     4095
 91
        4
280
     0
281
     0
  0
CLASS
  1
MATERIAL
  2
AcDbMaterial
  3
ObjectDBX Classes
 90
     1153
 91
        4
280
     0
281
     0
  0
CLASS
  1
SUN
  2
AcDbSun
  3
SCENEOE
 90
     1024
 91
        4
280
     0
281
     0
  0
ENDSEC
  0
SECTION
  2
TABLES
  0
TABLE
  2
VPORT
  5
8
330
0
100
AcDbSymbolTable
 70
     1
  0
VPORT
  5
29
330
8
100
AcDbSymbolTableRecord
100
AcDbViewportTableRecord
  2
*Active
 70
     0
 10
0.0
 20
0.0
 11
1.0
 21
1.0
 12
0.0
 22
0.0
 13
0.0
 23
0.0
 14
0.5
 24
0.5
 15
0.5
 25
0.5
 16
0.0
 26
0.0
 36
1.0
 17
91.00082462281999
 27
-128.4993055234307
 37
0.0
 40
256.9986110468615
 41
0.7081814508812795
 42
50.0
 43
0.0
 44
0.0
 50
0.0
 51
0.0
 71
     0
 72
   100
 73
     1
 74
     3
 75
     0
 76
     0
 77
     0
 78
     0
281
     0
 65
     1
110
0.0
120
0.0
130
0.0
111
1.0
121
0.0
131
0.0
112
0.0
122
1.0
132
0.0
 79
     0
146
0.0
 60
     3
 61
     5
292
     1
282
     1
141
0.0
142
0.0
 63
   250
361
3F
  0
ENDTAB
  0
TABLE
  2
LTYPE
  5
5
330
0
100
AcDbSymbolTable
 70
     1
  0
LTYPE
  5
14
330
5
100
AcDbSymbolTableRecord
100
AcDbLinetypeTableRecord
  2
ByBlock
 70
     0
  3

 72
    65
 73
     0
 40
0.0
  0
LTYPE
  5
15
330
5
100
AcDbSymbolTableRecord
100
AcDbLinetypeTableRecord
  2
ByLayer
 70
     0
  3

 72
    65
 73
     0
 40
0.0
  0
LTYPE
  5
16
330
5
100
AcDbSymbolTableRecord
100
AcDbLinetypeTableRecord
  2
Continuous
 70
     0
  3
Solid line
 72
    65
 73
     0
 40
0.0
  0
ENDTAB
  0
TABLE
  2
LAYER
  5
2
330
0
100
AcDbSymbolTable
 70
     2
  0
LAYER
  5
10
330
2
100
AcDbSymbolTableRecord
100
AcDbLayerTableRecord
  2
0
 70
     0
 62
     7
  6
Continuous
370
    -3
390
F
347
3E
  0
LAYER
  5
40
330
2
100
AcDbSymbolTableRecord
100
AcDbLayerTableRecord
  2
_U+30EC_U+30A4_U+30E4_U+30FC 1
 70
     0
 62
     7
  6
Continuous
370
    -3
390
F
347
3E
  0
ENDTAB
  0
TABLE
  2
STYLE
  5
3
330
0
100
AcDbSymbolTable
 70
     1
  0
STYLE
  5
11
330
3
100
AcDbSymbolTableRecord
100
AcDbTextStyleTableRecord
  2
Standard
 70
     0
 40
0.0
 41
1.0
 50
0.0
 71
     0
 42
0.2
  3
txt
  4

  0
ENDTAB
  0
TABLE
  2
VIEW
  5
6
330
0
100
AcDbSymbolTable
 70
     0
  0
ENDTAB
  0
TABLE
  2
UCS
  5
7
330
0
100
AcDbSymbolTable
 70
     0
  0
ENDTAB
  0
TABLE
  2
APPID
  5
9
330
0
100
AcDbSymbolTable
 70
     1
  0
APPID
  5
12
330
9
100
AcDbSymbolTableRecord
100
AcDbRegAppTableRecord
  2
ACAD
 70
     0
  0
ENDTAB
  0
TABLE
  2
DIMSTYLE
  5
A
330
0
100
AcDbSymbolTable
 70
     1
100
AcDbDimStyleTable
  0
DIMSTYLE
105
27
330
A
100
AcDbSymbolTableRecord
100
AcDbDimStyleTableRecord
  2
Standard
 70
     0
178
     0
340
11
  0
ENDTAB
  0
TABLE
  2
BLOCK_RECORD
  5
1
330
0
100
AcDbSymbolTable
 70
     6
  0
BLOCK_RECORD
  5
1F
330
1
100
AcDbSymbolTableRecord
100
AcDbBlockTableRecord
  2
*Model_Space
340
22
 70
     0
280
     1
281
     0
  0
BLOCK_RECORD
  5
1B
330
1
100
AcDbSymbolTableRecord
100
AcDbBlockTableRecord
  2
*Paper_Space
340
1E
 70
     0
280
     1
281
     0
  0
BLOCK_RECORD
  5
23
330
1
100
AcDbSymbolTableRecord
100
AcDbBlockTableRecord
  2
*Paper_Space0
340
26
 70
     0
280
     1
281
     0
  0
BLOCK_RECORD
  5
78
330
1
100
AcDbSymbolTableRecord
100
AcDbBlockTableRecord
  2
block 2
340
0
102
{BLKREFS
331
79
102
}
 70
     0
280
     1
281
     0
  0
BLOCK_RECORD
  5
9A
330
1
100
AcDbSymbolTableRecord
100
AcDbBlockTableRecord
  2
block 3
340
0
102
{BLKREFS
331
9B
102
}
 70
     0
280
     1
281
     0
  0
BLOCK_RECORD
  5
C0
330
1
100
AcDbSymbolTableRecord
100
AcDbBlockTableRecord
  2
block 4
340
0
102
{BLKREFS
331
C1
102
}
 70
     0
280
     1
281
     0
  0
BLOCK_RECORD
  5
C9
330
1
100
AcDbSymbolTableRecord
100
AcDbBlockTableRecord
  2
block 5
340
0
102
{BLKREFS
331
CA
102
}
 70
     0
280
     1
281
     0
  0
BLOCK_RECORD
  5
DE
330
1
100
AcDbSymbolTableRecord
100
AcDbBlockTableRecord
  2
block 6
340
0
102
{BLKREFS
331
DF
102
}
 70
     0
280
     1
281
     0
  0
ENDTAB
  0
ENDSEC
  0
SECTION
  2
BLOCKS
  0
BLOCK
  5
20
330
1F
100
AcDbEntity
  8
0
100
AcDbBlockBegin
  2
*Model_Space
 70
     0
 10
0.0
 20
0.0
 30
0.0
  3
*Model_Space
  1

  0
ENDBLK
  5
21
330
1F
100
AcDbEntity
  8
0
100
AcDbBlockEnd
  0
BLOCK
  5
1C
330
1B
100
AcDbEntity
 67
     1
  8
0
100
AcDbBlockBegin
  2
*Paper_Space
 70
     0
 10
0.0
 20
0.0
 30
0.0
  3
*Paper_Space
  1

  0
ENDBLK
  5
1D
330
1B
100
AcDbEntity
 67
     1
  8
0
100
AcDbBlockEnd
  0
BLOCK
  5
24
330
23
100
AcDbEntity
  8
0
100
AcDbBlockBegin
  2
*Paper_Space0
 70
     0
 10
0.0
 20
0.0
 30
0.0
  3
*Paper_Space0
  1

  0
ENDBLK
  5
25
330
23
100
AcDbEntity
  8
0
100
AcDbBlockEnd
  0
BLOCK
  5
7A
330
78
100
AcDbEntity
  8
0
100
AcDbBlockBegin
  2
block 2
 70
     0
 10
0.0
 20
0.0
 30
0.0
  3
block 2
  1

  0
SPLINE
  5
7C
330
78
100
AcDbEntity
  8
_U+30EC_U+30A4_U+30E4_U+30FC 1
370
     0
100
AcDbSpline
210
0.0
220
0.0
230
1.0
 70
    11
 71
     3
 72
    26
 73
    22
 74
     0
 42
0.0000000001
 43
0.0000000001
 12
1.0
 22
0.0
 32
0.0
 13
1.0
 23
0.0
 33
0.0
 40
0.0
 40
0.0
 40
0.0
 40
0.0
 40
1.0
 40
1.0
 40
1.0
 40
2.0
 40
2.0
 40
2.0
 40
3.0
 40
3.0
 40
3.0
 40
4.0
 40
4.0
 40
4.0
 40
5.0
 40
5.0
 40
5.0
 40
6.0
 40
6.0
 40
6.0
 40
7.0
 40
7.0
 40
7.0
 40
7.0
 10
90.39999455205279
 20
-139.2424912846338
 30
0.0
 10
90.39999455205279
 20
-139.2424912846338
 30
0.0
 10
90.39999455205279
 20
-138.1379936720627
 30
0.0
 10
90.39999455205279
 20
-138.1379936720627
 30
0.0
 10
90.39999455205279
 20
-138.1379936720627
 30
0.0
 10
90.04721677436319
 20
-138.1379936720627
 30
0.0
 10
90.04721677436319
 20
-138.1379936720627
 30
0.0
 10
90.04721677436319
 20
-138.1379936720627
 30
0.0
 10
90.04721677436319
 20
-137.989854566197
 30
0.0
 10
90.04721677436319
 20
-137.989854566197
 30
0.0
 10
90.4022338641182
 20
-137.9750406556104
 30
0.0
 10
90.4518432391058
 20
-137.8124321487066
 30
0.0
 10
90.48353811757009
 20
-137.6980549785963
 30
0.0
 10
90.48353811757009
 20
-137.6980549785963
 30
0.0
 10
90.6396009430519
 20
-137.6980549785963
 30
0.0
 10
90.6396009430519
 20
-137.6980549785963
 30
0.0
 10
90.6396009430519
 20
-137.6980549785963
 30
0.0
 10
90.6396009430519
 20
-139.2424912846338
 30
0.0
 10
90.6396009430519
 20
-139.2424912846338
 30
0.0
 10
90.6396009430519
 20
-139.2424912846338
 30
0.0
 10
90.39999455205279
 20
-139.2424912846338
 30
0.0
 10
90.39999455205279
 20
-139.2424912846338
 30
0.0
  0
HATCH
  5
7D
330
78
100
AcDbEntity
  8
_U+30EC_U+30A4_U+30E4_U+30FC 1
 62
   179
420
  2234388
100
AcDbHatch
 10
0.0
 20
0.0
 30
0.0
210
0.0
220
0.0
230
1.0
  2
SOLID
 70
     1
 71
     0
 91
        1
 92
        1
 93
        1
 72
     4
 94
        3
 73
     0
 74
     1
 95
       26
 96
       22
 40
0.0
 40
0.0
 40
0.0
 40
0.0
 40
1.0
 40
1.0
 40
1.0
 40
2.0
 40
2.0
 40
2.0
 40
3.0
 40
3.0
 40
3.0
 40
4.0
 40
4.0
 40
4.0
 40
5.0
 40
5.0
 40
5.0
 40
6.0
 40
6.0
 40
6.0
 40
7.0
 40
7.0
 40
7.0
 40
7.0
 10
90.39999455205279
 20
-139.2424912846338
 10
90.39999455205279
 20
-139.2424912846338
 10
90.39999455205279
 20
-138.1379936720627
 10
90.39999455205279
 20
-138.1379936720627
 10
90.39999455205279
 20
-138.1379936720627
 10
90.04721677436319
 20
-138.1379936720627
 10
90.04721677436319
 20
-138.1379936720627
 10
90.04721677436319
 20
-138.1379936720627
 10
90.04721677436319
 20
-137.989854566197
 10
90.04721677436319
 20
-137.989854566197
 10
90.4022338641182
 20
-137.9750406556104
 10
90.4518432391058
 20
-137.8124321487066
 10
90.48353811757009
 20
-137.6980549785963
 10
90.48353811757009
 20
-137.6980549785963
 10
90.6396009430519
 20
-137.6980549785963
 10
90.6396009430519
 20
-137.6980549785963
 10
90.6396009430519
 20
-137.6980549785963
 10
90.6396009430519
 20
-139.2424912846338
 10
90.6396009430519
 20
-139.2424912846338
 10
90.6396009430519
 20
-139.2424912846338
 10
90.39999455205279
 20
-139.2424912846338
 10
90.39999455205279
 20
-139.2424912846338
 97
        0
 97
        0
 75
     2
 76
     1
 98
        0
  0
SPLINE
  5
7E
330
78
100
AcDbEntity
  8
_U+30EC_U+30A4_U+30E4_U+30FC 1
370
     0
100
AcDbSpline
210
0.0
220
0.0
230
1.0
 70
    11
 71
     3
 72
    32
 73
    28
 74
     0
 42
0.0000000001
 43
0.0000000001
 12
1.0
 22
0.0
 32
0.0
 13
1.0
 23
0.0
 33
0.0
 40
0.0
 40
0.0
 40
0.0
 40
0.0
 40
1.0
 40
1.0
 40
1.0
 40
2.0
 40
2.0
 40
2.0
 40
3.0
 40
3.0
 40
3.0
 40
4.0
 40
4.0
 40
4.0
 40
5.0
 40
5.0
 40
5.0
 40
6.0
 40
6.0
 40
6.0
 40
7.0
 40
7.0
 40
7.0
 40
8.0
 40
8.0
 40
8.0
 40
9.0
 40
9.0
 40
9.0
 40
9.0
 10
91.71429847967559
 20
-139.293134188267
 30
0.0
 10
91.16256643771284
 20
-139.293134188267
 30
0.0
 10
91.15343693467692
 20
-138.7388183246903
 30
0.0
 10
91.15343693467692
 20
-138.5252224046048
 30
0.0
 10
91.15343693467692
 20
-138.2947455166416
 30
0.0
 10
91.17393525281416
 20
-137.6474120749631
 30
0.0
 10
91.75495060640155
 20
-137.6474120749631
 30
0.0
 10
91.94029674350799
 20
-137.6474120749631
 30
0.0
 10
92.2024685099355
 20
-137.7170030037652
 30
0.0
 10
92.24312063666144
 20
-138.0491102085433
 30
0.0
 10
92.24312063666144
 20
-138.0491102085433
 30
0.0
 10
92.01505531553791
 20
-138.0491102085433
 30
0.0
 10
92.01505531553791
 20
-138.0491102085433
 30
0.0
 10
92.00368650043659
 20
-137.9919216234881
 30
0.0
 10
91.96958005513261
 20
-137.8441270271709
 30
0.0
 10
91.75253903956187
 20
-137.8441270271709
 30
0.0
 10
91.44075789814676
 20
-137.8441270271709
 30
0.0
 10
91.39769420458114
 20
-138.1717556078182
 30
0.0
 10
91.38425833218867
 20
-138.3770832987391
 30
0.0
 10
91.48347708216386
 20
-138.2988796312239
 30
0.0
 10
91.5558240873541
 20
-138.2396239888776
 30
0.0
 10
91.75047198227072
 20
-138.2396239888776
 30
0.0
 10
91.94270831034765
 20
-138.2396239888776
 30
0.0
 10
92.2658582668641
 20
-138.3474554775659
 30
0.0
 10
92.2658582668641
 20
-138.7536322352769
 30
0.0
 10
92.2658582668641
 20
-139.0729925867595
 30
0.0
 10
92.05329587542418
 20
-139.293134188267
 30
0.0
 10
91.71429847967559
 20
-139.293134188267
 30
0.0
  0
SPLINE
  5
7F
330
78
100
AcDbEntity
  8
_U+30EC_U+30A4_U+30E4_U+30FC 1
370
     0
100
AcDbSpline
210
0.0
220
0.0
230
1.0
 70
    11
 71
     3
 72
    17
 73
    13
 74
     0
 42
0.0000000001
 43
0.0000000001
 12
1.0
 22
0.0
 32
0.0
 13
1.0
 23
0.0
 33
0.0
 40
0.0
 40
0.0
 40
0.0
 40
0.0
 40
1.0
 40
1.0
 40
1.0
 40
2.0
 40
2.0
 40
2.0
 40
3.0
 40
3.0
 40
3.0
 40
4.0
 40
4.0
 40
4.0
 40
4.0
 10
91.7322129761989
 20
-138.4342718837942
 30
0.0
 10
91.45178220369957
 20
-138.4342718837942
 30
0.0
 10
91.4111300769736
 20
-138.6458007465885
 30
0.0
 10
91.4111300769736
 20
-138.76224497399
 30
0.0
 10
91.4111300769736
 20
-138.9376003341892
 30
0.0
 10
91.51310490333701
 20
-139.1005533506415
 30
0.0
 10
91.70981985554477
 20
-139.1005533506415
 30
0.0
 10
91.83866642669311
 20
-139.1005533506415
 30
0.0
 10
92.0260796210907
 20
-139.0412977082952
 30
0.0
 10
92.0260796210907
 20
-138.755699292568
 30
0.0
 10
92.0260796210907
 20
-138.5314235764783
 30
0.0
 10
91.87690698657939
 20
-138.4342718837942
 30
0.0
 10
91.7322129761989
 20
-138.4342718837942
 30
0.0
  0
HATCH
  5
80
330
78
100
AcDbEntity
  8
_U+30EC_U+30A4_U+30E4_U+30FC 1
 62
   179
420
  2234388
100
AcDbHatch
 10
0.0
 20
0.0
 30
0.0
210
0.0
220
0.0
230
1.0
  2
SOLID
 70
     1
 71
     0
 91
        2
 92
        1
 93
        1
 72
     4
 94
        3
 73
     0
 74
     1
 95
       32
 96
       28
 40
0.0
 40
0.0
 40
0.0
 40
0.0
 40
1.0
 40
1.0
 40
1.0
 40
2.0
 40
2.0
 40
2.0
 40
3.0
 40
3.0
 40
3.0
 40
4.0
 40
4.0
 40
4.0
 40
5.0
 40
5.0
 40
5.0
 40
6.0
 40
6.0
 40
6.0
 40
7.0
 40
7.0
 40
7.0
 40
8.0
 40
8.0
 40
8.0
 40
9.0
 40
9.0
 40
9.0
 40
9.0
 10
91.71429847967559
 20
-139.293134188267
 10
91.16256643771284
 20
-139.293134188267
 10
91.15343693467692
 20
-138.7388183246903
 10
91.15343693467692
 20
-138.5252224046048
 10
91.15343693467692
 20
-138.2947455166416
 10
91.17393525281416
 20
-137.6474120749631
 10
91.75495060640155
 20
-137.6474120749631
 10
91.94029674350799
 20
-137.6474120749631
 10
92.2024685099355
 20
-137.7170030037652
 10
92.24312063666144
 20
-138.0491102085433
 10
92.24312063666144
 20
-138.0491102085433
 10
92.01505531553791
 20
-138.0491102085433
 10
92.01505531553791
 20
-138.0491102085433
 10
92.00368650043659
 20
-137.9919216234881
 10
91.96958005513261
 20
-137.8441270271709
 10
91.75253903956187
 20
-137.8441270271709
 10
91.44075789814676
 20
-137.8441270271709
 10
91.39769420458114
 20
-138.1717556078182
 10
91.38425833218867
 20
-138.3770832987391
 10
91.48347708216386
 20
-138.2988796312239
 10
91.5558240873541
 20
-138.2396239888776
 10
91.75047198227072
 20
-138.2396239888776
 10
91.94270831034765
 20
-138.2396239888776
 10
92.2658582668641
 20
-138.3474554775659
 10
92.2658582668641
 20
-138.7536322352769
 10
92.2658582668641
 20
-139.0729925867595
 10
92.05329587542418
 20
-139.293134188267
 10
91.71429847967559
 20
-139.293134188267
 97
        0
 97
        0
 92
        1
 93
        1
 72
     4
 94
        3
 73
     0
 74
     1
 95
       17
 96
       13
 40
0.0
 40
0.0
 40
0.0
 40
0.0
 40
1.0
 40
1.0
 40
1.0
 40
2.0
 40
2.0
 40
2.0
 40
3.0
 40
3.0
 40
3.0
 40
4.0
 40
4.0
 40
4.0
 40
4.0
 10
91.7322129761989
 20
-138.4342718837942
 10
91.45178220369957
 20
-138.4342718837942
 10
91.4111300769736
 20
-138.6458007465885
 10
91.4111300769736
 20
-138.76224497399
 10
91.4111300769736
 20
-138.9376003341892
 10
91.51310490333701
 20
-139.1005533506415
 10
91.70981985554477
 20
-139.1005533506415
 10
91.83866642669311
 20
-139.1005533506415
 10
92.0260796210907
 20
-139.0412977082952
 10
92.0260796210907
 20
-138.755699292568
 10
92.0260796210907
 20
-138.5314235764783
 10
91.87690698657939
 20
-138.4342718837942
 10
91.7322129761989
 20
-138.4342718837942
 97
        0
 97
        0
 75
     2
 76
     1
 98
        0
  0
POLYLINE
  5
81
330
78
100
AcDbEntity
  8
_U+30EC_U+30A4_U+30E4_U+30FC 1
370
     0
100
AcDb2dPolyline
 66
     1
 10
0.0
 20
0.0
 30
0.0
  0
VERTEX
  5
82
330
81
100
AcDbEntity
  8
_U+30EC_U+30A4_U+30E4_U+30FC 1
370
     0
100
AcDbVertex
100
AcDb2dVertex
 10
92.49736868347289
 20
-139.2424912846338
 30
0.0
  0
VERTEX
  5
83
330
81
100
AcDbEntity
  8
_U+30EC_U+30A4_U+30E4_U+30FC 1
370
     0
100
AcDbVertex
100
AcDb2dVertex
 10
92.49736868347289
 20
-138.9906548046621
 30
0.0
  0
VERTEX
  5
84
330
81
100
AcDbEntity
  8
_U+30EC_U+30A4_U+30E4_U+30FC 1
370
     0
100
AcDbVertex
100
AcDb2dVertex
 10
92.76608613132237
 20
-138.9906548046621
 30
0.0
  0
VERTEX
  5
85
330
81
100
AcDbEntity
  8
_U+30EC_U+30A4_U+30E4_U+30FC 1
370
     0
100
AcDbVertex
100
AcDb2dVertex
 10
92.76608613132237
 20
-139.2424912846338
 30
0.0
  0
VERTEX
  5
86
330
81
100
AcDbEntity
  8
_U+30EC_U+30A4_U+30E4_U+30FC 1
370
     0
100
AcDbVertex
100
AcDb2dVertex
 10
92.49736868347289
 20
-139.2424912846338
 30
0.0
  0
SEQEND
  5
87
330
81
100
AcDbEntity
  8
_U+30EC_U+30A4_U+30E4_U+30FC 1
370
     0
  0
HATCH
  5
88
330
78
100
AcDbEntity
  8
_U+30EC_U+30A4_U+30E4_U+30FC 1
 62
   179
420
  2234388
100
AcDbHatch
 10
0.0
 20
0.0
 30
0.0
210
0.0
220
0.0
230
1.0
  2
SOLID
 70
     1
 71
     0
 91
        1
 92
        1
 93
        4
 72
     1
 10
92.49736868347289
 20
-139.2424912846338
 11
92.49736868347289
 21
-138.9906548046621
 72
     1
 10
92.49736868347289
 20
-138.9906548046621
 11
92.76608613132237
 21
-138.9906548046621
 72
     1
 10
92.76608613132237
 20
-138.9906548046621
 11
92.76608613132237
 21
-139.2424912846338
 72
     1
 10
92.76608613132237
 20
-139.2424912846338
 11
92.49736868347289
 21
-139.2424912846338
 97
        0
 75
     2
 76
     1
 98
        0
  0
SPLINE
  5
89
330
78
100
AcDbEntity
  8
_U+30EC_U+30A4_U+30E4_U+30FC 1
370
     0
100
AcDbSpline
210
0.0
220
0.0
230
1.0
 70
    11
 71
     3
 72
    53
 73
    49
 74
     0
 42
0.0000000001
 43
0.0000000001
 12
1.0
 22
0.0
 32
0.0
 13
1.0
 23
0.0
 33
0.0
 40
0.0
 40
0.0
 40
0.0
 40
0.0
 40
1.0
 40
1.0
 40
1.0
 40
2.0
 40
2.0
 40
2.0
 40
3.0
 40
3.0
 40
3.0
 40
4.0
 40
4.0
 40
4.0
 40
5.0
 40
5.0
 40
5.0
 40
6.0
 40
6.0
 40
6.0
 40
7.0
 40
7.0
 40
7.0
 40
8.0
 40
8.0
 40
8.0
 40
9.0
 40
9.0
 40
9.0
 40
10.0
 40
10.0
 40
10.0
 40
11.0
 40
11.0
 40
11.0
 40
12.0
 40
12.0
 40
12.0
 40
13.0
 40
13.0
 40
13.0
 40
14.0
 40
14.0
 40
14.0
 40
15.0
 40
15.0
 40
15.0
 40
16.0
 40
16.0
 40
16.0
 40
16.0
 10
93.53296438633899
 20
-139.293134188267
 30
0.0
 10
93.44924856604742
 20
-139.293134188267
 30
0.0
 10
93.34072805826204
 20
-139.2762532203893
 30
0.0
 10
93.23220755047667
 20
-139.2128634634607
 30
0.0
 10
93.04686141337024
 20
-139.1026204079327
 30
0.0
 10
93.02446829271611
 20
-138.9717067794932
 30
0.0
 10
93.00379771980461
 20
-138.8635307812563
 30
0.0
 10
93.00379771980461
 20
-138.8635307812563
 30
0.0
 10
93.24150930828685
 20
-138.8635307812563
 30
0.0
 10
93.24150930828685
 20
-138.8635307812563
 30
0.0
 10
93.3000759315361
 20
-139.0626573003038
 30
0.0
 10
93.43581269365494
 20
-139.0922851214769
 30
0.0
 10
93.53537595317866
 20
-139.0922851214769
 30
0.0
 10
93.68454858768997
 20
-139.0922851214769
 30
0.0
 10
93.84715709459377
 20
-138.9927218619532
 30
0.0
 10
93.84715709459377
 20
-138.7601779166989
 30
0.0
 10
93.84715709459377
 20
-138.5042073221448
 30
0.0
 10
93.65492076651682
 20
-138.4342718837942
 30
0.0
 10
93.52607419536848
 20
-138.4342718837942
 30
0.0
 10
93.49231225961304
 20
-138.4342718837942
 30
0.0
 10
93.34072805826204
 20
-138.4342718837942
 30
0.0
 10
93.24598793241768
 20
-138.5631184549426
 30
0.0
 10
93.24598793241768
 20
-138.5631184549426
 30
0.0
 10
93.05823022847156
 20
-138.5441704297737
 30
0.0
 10
93.05823022847156
 20
-138.5441704297737
 30
0.0
 10
93.05823022847156
 20
-138.5441704297737
 30
0.0
 10
93.1870767996199
 20
-137.6980549785963
 30
0.0
 10
93.1870767996199
 20
-137.6980549785963
 30
0.0
 10
93.1870767996199
 20
-137.6980549785963
 30
0.0
 10
94.01906735930774
 20
-137.6980549785963
 30
0.0
 10
94.01906735930774
 20
-137.6980549785963
 30
0.0
 10
94.01906735930774
 20
-137.6980549785963
 30
0.0
 10
94.01906735930774
 20
-137.8927028735129
 30
0.0
 10
94.01906735930774
 20
-137.8927028735129
 30
0.0
 10
94.01906735930774
 20
-137.8927028735129
 30
0.0
 10
93.36105412162502
 20
-137.8927028735129
 30
0.0
 10
93.36105412162502
 20
-137.8927028735129
 30
0.0
 10
93.36105412162502
 20
-137.8927028735129
 30
0.0
 10
93.29111868327445
 20
-138.3157605991016
 30
0.0
 10
93.29111868327445
 20
-138.3157605991016
 30
0.0
 10
93.35657549749419
 20
-138.2819986633462
 30
0.0
 10
93.44476994191659
 20
-138.2416910461687
 30
0.0
 10
93.57154945577378
 20
-138.2416910461687
 30
0.0
 10
93.84267847046294
 20
-138.2416910461687
 30
0.0
 10
94.0958929886288
 20
-138.4277262023722
 30
0.0
 10
94.0958929886288
 20
-138.7408853819815
 30
0.0
 10
94.0958929886288
 20
-139.058178676173
 30
0.0
 10
93.85645885240395
 20
-139.293134188267
 30
0.0
 10
93.53296438633899
 20
-139.293134188267
 30
0.0
  0
HATCH
  5
8A
330
78
100
AcDbEntity
  8
_U+30EC_U+30A4_U+30E4_U+30FC 1
 62
   179
420
  2234388
100
AcDbHatch
 10
0.0
 20
0.0
 30
0.0
210
0.0
220
0.0
230
1.0
  2
SOLID
 70
     1
 71
     0
 91
        1
 92
        1
 93
        1
 72
     4
 94
        3
 73
     0
 74
     1
 95
       53
 96
       49
 40
0.0
 40
0.0
 40
0.0
 40
0.0
 40
1.0
 40
1.0
 40
1.0
 40
2.0
 40
2.0
 40
2.0
 40
3.0
 40
3.0
 40
3.0
 40
4.0
 40
4.0
 40
4.0
 40
5.0
 40
5.0
 40
5.0
 40
6.0
 40
6.0
 40
6.0
 40
7.0
 40
7.0
 40
7.0
 40
8.0
 40
8.0
 40
8.0
 40
9.0
 40
9.0
 40
9.0
 40
10.0
 40
10.0
 40
10.0
 40
11.0
 40
11.0
 40
11.0
 40
12.0
 40
12.0
 40
12.0
 40
13.0
 40
13.0
 40
13.0
 40
14.0
 40
14.0
 40
14.0
 40
15.0
 40
15.0
 40
15.0
 40
16.0
 40
16.0
 40
16.0
 40
16.0
 10
93.53296438633899
 20
-139.293134188267
 10
93.44924856604742
 20
-139.293134188267
 10
93.34072805826204
 20
-139.2762532203893
 10
93.23220755047667
 20
-139.2128634634607
 10
93.04686141337024
 20
-139.1026204079327
 10
93.02446829271611
 20
-138.9717067794932
 10
93.00379771980461
 20
-138.8635307812563
 10
93.00379771980461
 20
-138.8635307812563
 10
93.24150930828685
 20
-138.8635307812563
 10
93.24150930828685
 20
-138.8635307812563
 10
93.3000759315361
 20
-139.0626573003038
 10
93.43581269365494
 20
-139.0922851214769
 10
93.53537595317866
 20
-139.0922851214769
 10
93.68454858768997
 20
-139.0922851214769
 10
93.84715709459377
 20
-138.9927218619532
 10
93.84715709459377
 20
-138.7601779166989
 10
93.84715709459377
 20
-138.5042073221448
 10
93.65492076651682
 20
-138.4342718837942
 10
93.52607419536848
 20
-138.4342718837942
 10
93.49231225961304
 20
-138.4342718837942
 10
93.34072805826204
 20
-138.4342718837942
 10
93.24598793241768
 20
-138.5631184549426
 10
93.24598793241768
 20
-138.5631184549426
 10
93.05823022847156
 20
-138.5441704297737
 10
93.05823022847156
 20
-138.5441704297737
 10
93.05823022847156
 20
-138.5441704297737
 10
93.1870767996199
 20
-137.6980549785963
 10
93.1870767996199
 20
-137.6980549785963
 10
93.1870767996199
 20
-137.6980549785963
 10
94.01906735930774
 20
-137.6980549785963
 10
94.01906735930774
 20
-137.6980549785963
 10
94.01906735930774
 20
-137.6980549785963
 10
94.01906735930774
 20
-137.8927028735129
 10
94.01906735930774
 20
-137.8927028735129
 10
94.01906735930774
 20
-137.8927028735129
 10
93.36105412162502
 20
-137.8927028735129
 10
93.36105412162502
 20
-137.8927028735129
 10
93.36105412162502
 20
-137.8927028735129
 10
93.29111868327445
 20
-138.3157605991016
 10
93.29111868327445
 20
-138.3157605991016
 10
93.35657549749419
 20
-138.2819986633462
 10
93.44476994191659
 20
-138.2416910461687
 10
93.57154945577378
 20
-138.2416910461687
 10
93.84267847046294
 20
-138.2416910461687
 10
94.0958929886288
 20
-138.4277262023722
 10
94.0958929886288
 20
-138.7408853819815
 10
94.0958929886288
 20
-139.058178676173
 10
93.85645885240395
 20
-139.293134188267
 10
93.53296438633899
 20
-139.293134188267
 97
        0
 97
        0
 75
     2
 76
     1
 98
        0
  0
ENDBLK
  5
7B
330
78
100
AcDbEntity
  8
0
100
AcDbBlockEnd
  0
BLOCK
  5
9C
330
9A
100
AcDbEntity
  8
0
100
AcDbBlockBegin
  2
block 3
 70
     0
 10
0.0
 20
0.0
 30
0.0
  3
block 3
  1

  0
SPLINE
  5
9E
330
9A
100
AcDbEntity
  8
_U+30EC_U+30A4_U+30E4_U+30FC 1
370
     0
100
AcDbSpline
210
0.0
220
0.0
230
1.0
 70
    11
 71
     3
 72
    26
 73
    22
 74
     0
 42
0.0000000001
 43
0.0000000001
 12
1.0
 22
0.0
 32
0.0
 13
1.0
 23
0.0
 33
0.0
 40
0.0
 40
0.0
 40
0.0
 40
0.0
 40
1.0
 40
1.0
 40
1.0
 40
2.0
 40
2.0
 40
2.0
 40
3.0
 40
3.0
 40
3.0
 40
4.0
 40
4.0
 40
4.0
 40
5.0
 40
5.0
 40
5.0
 40
6.0
 40
6.0
 40
6.0
 40
7.0
 40
7.0
 40
7.0
 40
7.0
 10
79.51263154479199
 20
-129.467377354786
 30
0.0
 10
79.51263154479199
 20
-129.467377354786
 30
0.0
 10
78.40830618699515
 20
-129.467377354786
 30
0.0
 10
78.40830618699515
 20
-129.467377354786
 30
0.0
 10
78.40830618699515
 20
-129.467377354786
 30
0.0
 10
78.40830618699515
 20
-129.8201551324755
 30
0.0
 10
78.40830618699515
 20
-129.8201551324755
 30
0.0
 10
78.40830618699515
 20
-129.8201551324755
 30
0.0
 10
78.26033933590367
 20
-129.8201551324755
 30
0.0
 10
78.26033933590367
 20
-129.8201551324755
 30
0.0
 10
78.2455254253171
 20
-129.4649657879463
 30
0.0
 10
78.08257240886478
 20
-129.4153564129587
 30
0.0
 10
77.96836749352875
 20
-129.3836615344944
 30
0.0
 10
77.96836749352875
 20
-129.3836615344944
 30
0.0
 10
77.96836749352875
 20
-129.2275987090125
 30
0.0
 10
77.96836749352875
 20
-129.2275987090125
 30
0.0
 10
77.96836749352875
 20
-129.2275987090125
 30
0.0
 10
79.51263154479199
 20
-129.2275987090125
 30
0.0
 10
79.51263154479199
 20
-129.2275987090125
 30
0.0
 10
79.51263154479199
 20
-129.2275987090125
 30
0.0
 10
79.51263154479199
 20
-129.467377354786
 30
0.0
 10
79.51263154479199
 20
-129.467377354786
 30
0.0
  0
HATCH
  5
9F
330
9A
100
AcDbEntity
  8
_U+30EC_U+30A4_U+30E4_U+30FC 1
 62
   179
420
  2234388
100
AcDbHatch
 10
0.0
 20
0.0
 30
0.0
210
0.0
220
0.0
230
1.0
  2
SOLID
 70
     1
 71
     0
 91
        1
 92
        1
 93
        1
 72
     4
 94
        3
 73
     0
 74
     1
 95
       26
 96
       22
 40
0.0
 40
0.0
 40
0.0
 40
0.0
 40
1.0
 40
1.0
 40
1.0
 40
2.0
 40
2.0
 40
2.0
 40
3.0
 40
3.0
 40
3.0
 40
4.0
 40
4.0
 40
4.0
 40
5.0
 40
5.0
 40
5.0
 40
6.0
 40
6.0
 40
6.0
 40
7.0
 40
7.0
 40
7.0
 40
7.0
 10
79.51263154479199
 20
-129.467377354786
 10
79.51263154479199
 20
-129.467377354786
 10
78.40830618699515
 20
-129.467377354786
 10
78.40830618699515
 20
-129.467377354786
 10
78.40830618699515
 20
-129.467377354786
 10
78.40830618699515
 20
-129.8201551324755
 10
78.40830618699515
 20
-129.8201551324755
 10
78.40830618699515
 20
-129.8201551324755
 10
78.26033933590367
 20
-129.8201551324755
 10
78.26033933590367
 20
-129.8201551324755
 10
78.2455254253171
 20
-129.4649657879463
 10
78.08257240886478
 20
-129.4153564129587
 10
77.96836749352875
 20
-129.3836615344944
 10
77.96836749352875
 20
-129.3836615344944
 10
77.96836749352875
 20
-129.2275987090125
 10
77.96836749352875
 20
-129.2275987090125
 10
77.96836749352875
 20
-129.2275987090125
 10
79.51263154479199
 20
-129.2275987090125
 10
79.51263154479199
 20
-129.2275987090125
 10
79.51263154479199
 20
-129.2275987090125
 10
79.51263154479199
 20
-129.467377354786
 10
79.51263154479199
 20
-129.467377354786
 97
        0
 97
        0
 75
     2
 76
     1
 98
        0
  0
SPLINE
  5
A0
330
9A
100
AcDbEntity
  8
_U+30EC_U+30A4_U+30E4_U+30FC 1
370
     0
100
AcDbSpline
210
0.0
220
0.0
230
1.0
 70
    11
 71
     3
 72
    32
 73
    28
 74
     0
 42
0.0000000001
 43
0.0000000001
 12
1.0
 22
0.0
 32
0.0
 13
1.0
 23
0.0
 33
0.0
 40
0.0
 40
0.0
 40
0.0
 40
0.0
 40
1.0
 40
1.0
 40
1.0
 40
2.0
 40
2.0
 40
2.0
 40
3.0
 40
3.0
 40
3.0
 40
4.0
 40
4.0
 40
4.0
 40
5.0
 40
5.0
 40
5.0
 40
6.0
 40
6.0
 40
6.0
 40
7.0
 40
7.0
 40
7.0
 40
8.0
 40
8.0
 40
8.0
 40
9.0
 40
9.0
 40
9.0
 40
9.0
 10
79.56344670319942
 20
-128.1530734271631
 30
0.0
 10
79.56344670319942
 20
-128.7048054691259
 30
0.0
 10
79.00913083962273
 20
-128.7137627173875
 30
0.0
 10
78.79553491953723
 20
-128.7137627173875
 30
0.0
 10
78.56488577679976
 20
-128.7137627173875
 30
0.0
 10
77.91755233512131
 20
-128.6934366540246
 30
0.0
 10
77.91755233512131
 20
-128.1124213004372
 30
0.0
 10
77.91755233512131
 20
-127.9270751633307
 30
0.0
 10
77.98731551869761
 20
-127.664731142129
 30
0.0
 10
78.31959497824997
 20
-127.624079015403
 30
0.0
 10
78.31959497824997
 20
-127.624079015403
 30
0.0
 10
78.31959497824997
 20
-127.8523165913008
 30
0.0
 10
78.31959497824997
 20
-127.8523165913008
 30
0.0
 10
78.26240639319482
 20
-127.8636854064021
 30
0.0
 10
78.11426728732907
 20
-127.8976195969318
 30
0.0
 10
78.11426728732907
 20
-128.1146606125026
 30
0.0
 10
78.11426728732907
 20
-128.426614008692
 30
0.0
 10
78.44224037752485
 20
-128.4696777022576
 30
0.0
 10
78.6473958136715
 20
-128.48311357465
 30
0.0
 10
78.56919214615631
 20
-128.3837225699006
 30
0.0
 10
78.50993650381002
 20
-128.3113755647103
 30
0.0
 10
78.50993650381002
 20
-128.116899924568
 30
0.0
 10
78.50993650381002
 20
-127.9246635964911
 30
0.0
 10
78.61776799249834
 20
-127.6015136399746
 30
0.0
 10
79.0239447502093
 20
-127.6015136399746
 30
0.0
 10
79.34347735646622
 20
-127.6015136399746
 30
0.0
 10
79.56344670319942
 20
-127.8139037766403
 30
0.0
 10
79.56344670319942
 20
-128.1530734271631
 30
0.0
  0
SPLINE
  5
A1
330
9A
100
AcDbEntity
  8
_U+30EC_U+30A4_U+30E4_U+30FC 1
370
     0
100
AcDbSpline
210
0.0
220
0.0
230
1.0
 70
    11
 71
     3
 72
    17
 73
    13
 74
     0
 42
0.0000000001
 43
0.0000000001
 12
1.0
 22
0.0
 32
0.0
 13
1.0
 23
0.0
 33
0.0
 40
0.0
 40
0.0
 40
0.0
 40
0.0
 40
1.0
 40
1.0
 40
1.0
 40
2.0
 40
2.0
 40
2.0
 40
3.0
 40
3.0
 40
3.0
 40
4.0
 40
4.0
 40
4.0
 40
4.0
 10
78.70458439872664
 20
-128.1349866758656
 30
0.0
 10
78.70458439872664
 20
-128.4154174483649
 30
0.0
 10
78.91611326152098
 20
-128.4560695750909
 30
0.0
 10
79.03238523414815
 20
-128.4560695750909
 30
0.0
 10
79.2080851038959
 20
-128.4560695750909
 30
0.0
 10
79.37086586557395
 20
-128.3542670035017
 30
0.0
 10
79.37086586557395
 20
-128.1575520512939
 30
0.0
 10
79.37086586557395
 20
-128.0287054801456
 30
0.0
 10
79.31161022322766
 20
-127.8411200309738
 30
0.0
 10
79.02601180750044
 20
-127.8411200309738
 30
0.0
 10
78.80190834618494
 20
-127.8411200309738
 30
0.0
 10
78.70458439872664
 20
-127.9902926654851
 30
0.0
 10
78.70458439872664
 20
-128.1349866758656
 30
0.0
  0
HATCH
  5
A2
330
9A
100
AcDbEntity
  8
_U+30EC_U+30A4_U+30E4_U+30FC 1
 62
   179
420
  2234388
100
AcDbHatch
 10
0.0
 20
0.0
 30
0.0
210
0.0
220
0.0
230
1.0
  2
SOLID
 70
     1
 71
     0
 91
        2
 92
        1
 93
        1
 72
     4
 94
        3
 73
     0
 74
     1
 95
       32
 96
       28
 40
0.0
 40
0.0
 40
0.0
 40
0.0
 40
1.0
 40
1.0
 40
1.0
 40
2.0
 40
2.0
 40
2.0
 40
3.0
 40
3.0
 40
3.0
 40
4.0
 40
4.0
 40
4.0
 40
5.0
 40
5.0
 40
5.0
 40
6.0
 40
6.0
 40
6.0
 40
7.0
 40
7.0
 40
7.0
 40
8.0
 40
8.0
 40
8.0
 40
9.0
 40
9.0
 40
9.0
 40
9.0
 10
79.56344670319942
 20
-128.1530734271631
 10
79.56344670319942
 20
-128.7048054691259
 10
79.00913083962273
 20
-128.7137627173875
 10
78.79553491953723
 20
-128.7137627173875
 10
78.56488577679976
 20
-128.7137627173875
 10
77.91755233512131
 20
-128.6934366540246
 10
77.91755233512131
 20
-128.1124213004372
 10
77.91755233512131
 20
-127.9270751633307
 10
77.98731551869761
 20
-127.664731142129
 10
78.31959497824997
 20
-127.624079015403
 10
78.31959497824997
 20
-127.624079015403
 10
78.31959497824997
 20
-127.8523165913008
 10
78.31959497824997
 20
-127.8523165913008
 10
78.26240639319482
 20
-127.8636854064021
 10
78.11426728732907
 20
-127.8976195969318
 10
78.11426728732907
 20
-128.1146606125026
 10
78.11426728732907
 20
-128.426614008692
 10
78.44224037752485
 20
-128.4696777022576
 10
78.6473958136715
 20
-128.48311357465
 10
78.56919214615631
 20
-128.3837225699006
 10
78.50993650381002
 20
-128.3113755647103
 10
78.50993650381002
 20
-128.116899924568
 10
78.50993650381002
 20
-127.9246635964911
 10
78.61776799249834
 20
-127.6015136399746
 10
79.0239447502093
 20
-127.6015136399746
 10
79.34347735646622
 20
-127.6015136399746
 10
79.56344670319942
 20
-127.8139037766403
 10
79.56344670319942
 20
-128.1530734271631
 97
        0
 97
        0
 92
        1
 93
        1
 72
     4
 94
        3
 73
     0
 74
     1
 95
       17
 96
       13
 40
0.0
 40
0.0
 40
0.0
 40
0.0
 40
1.0
 40
1.0
 40
1.0
 40
2.0
 40
2.0
 40
2.0
 40
3.0
 40
3.0
 40
3.0
 40
4.0
 40
4.0
 40
4.0
 40
4.0
 10
78.70458439872664
 20
-128.1349866758656
 10
78.70458439872664
 20
-128.4154174483649
 10
78.91611326152098
 20
-128.4560695750909
 10
79.03238523414815
 20
-128.4560695750909
 10
79.2080851038959
 20
-128.4560695750909
 10
79.37086586557395
 20
-128.3542670035017
 10
79.37086586557395
 20
-128.1575520512939
 10
79.37086586557395
 20
-128.0287054801456
 10
79.31161022322766
 20
-127.8411200309738
 10
79.02601180750044
 20
-127.8411200309738
 10
78.80190834618494
 20
-127.8411200309738
 10
78.70458439872664
 20
-127.9902926654851
 10
78.70458439872664
 20
-128.1349866758656
 97
        0
 97
        0
 75
     2
 76
     1
 98
        0
  0
POLYLINE
  5
A3
330
9A
100
AcDbEntity
  8
_U+30EC_U+30A4_U+30E4_U+30FC 1
370
     0
100
AcDb2dPolyline
 66
     1
 10
0.0
 20
0.0
 30
0.0
  0
VERTEX
  5
A4
330
A3
100
AcDbEntity
  8
_U+30EC_U+30A4_U+30E4_U+30FC 1
370
     0
100
AcDbVertex
100
AcDb2dVertex
 10
79.51263154479199
 20
-127.3701754781401
 30
0.0
  0
VERTEX
  5
A5
330
A3
100
AcDbEntity
  8
_U+30EC_U+30A4_U+30E4_U+30FC 1
370
     0
100
AcDbVertex
100
AcDb2dVertex
 10
79.26096731959449
 20
-127.3701754781401
 30
0.0
  0
VERTEX
  5
A6
330
A3
100
AcDbEntity
  8
_U+30EC_U+30A4_U+30E4_U+30FC 1
370
     0
100
AcDbVertex
100
AcDb2dVertex
 10
79.26096731959449
 20
-127.1011135207421
 30
0.0
  0
VERTEX
  5
A7
330
A3
100
AcDbEntity
  8
_U+30EC_U+30A4_U+30E4_U+30FC 1
370
     0
100
AcDbVertex
100
AcDb2dVertex
 10
79.51263154479199
 20
-127.1011135207421
 30
0.0
  0
VERTEX
  5
A8
330
A3
100
AcDbEntity
  8
_U+30EC_U+30A4_U+30E4_U+30FC 1
370
     0
100
AcDbVertex
100
AcDb2dVertex
 10
79.51263154479199
 20
-127.3701754781401
 30
0.0
  0
SEQEND
  5
A9
330
A3
100
AcDbEntity
  8
_U+30EC_U+30A4_U+30E4_U+30FC 1
370
     0
  0
HATCH
  5
AA
330
9A
100
AcDbEntity
  8
_U+30EC_U+30A4_U+30E4_U+30FC 1
 62
   179
420
  2234388
100
AcDbHatch
 10
0.0
 20
0.0
 30
0.0
210
0.0
220
0.0
230
1.0
  2
SOLID
 70
     1
 71
     0
 91
        1
 92
        1
 93
        4
 72
     1
 10
79.51263154479199
 20
-127.3701754781401
 11
79.26096731959449
 21
-127.3701754781401
 72
     1
 10
79.26096731959449
 20
-127.3701754781401
 11
79.26096731959449
 21
-127.1011135207421
 72
     1
 10
79.26096731959449
 20
-127.1011135207421
 11
79.51263154479199
 21
-127.1011135207421
 72
     1
 10
79.51263154479199
 20
-127.1011135207421
 11
79.51263154479199
 21
-127.3701754781401
 97
        0
 75
     2
 76
     1
 98
        0
  0
SPLINE
  5
AB
330
9A
100
AcDbEntity
  8
_U+30EC_U+30A4_U+30E4_U+30FC 1
370
     0
100
AcDbSpline
210
0.0
220
0.0
230
1.0
 70
    11
 71
     3
 72
    53
 73
    49
 74
     0
 42
0.0000000001
 43
0.0000000001
 12
1.0
 22
0.0
 32
0.0
 13
1.0
 23
0.0
 33
0.0
 40
0.0
 40
0.0
 40
0.0
 40
0.0
 40
1.0
 40
1.0
 40
1.0
 40
2.0
 40
2.0
 40
2.0
 40
3.0
 40
3.0
 40
3.0
 40
4.0
 40
4.0
 40
4.0
 40
5.0
 40
5.0
 40
5.0
 40
6.0
 40
6.0
 40
6.0
 40
7.0
 40
7.0
 40
7.0
 40
8.0
 40
8.0
 40
8.0
 40
9.0
 40
9.0
 40
9.0
 40
10.0
 40
10.0
 40
10.0
 40
11.0
 40
11.0
 40
11.0
 40
12.0
 40
12.0
 40
12.0
 40
13.0
 40
13.0
 40
13.0
 40
14.0
 40
14.0
 40
14.0
 40
15.0
 40
15.0
 40
15.0
 40
16.0
 40
16.0
 40
16.0
 40
16.0
 10
79.56344670319942
 20
-126.3342352657255
 30
0.0
 10
79.56344670319942
 20
-126.417951086017
 30
0.0
 10
79.54656573532169
 20
-126.5264715938024
 30
0.0
 10
79.48300372361884
 20
-126.6349921015878
 30
0.0
 10
79.37310517763936
 20
-126.8203382386942
 30
0.0
 10
79.24184703965135
 20
-126.8430758688969
 30
0.0
 10
79.13401555096303
 20
-126.8634019322598
 30
0.0
 10
79.13401555096303
 20
-126.8634019322598
 30
0.0
 10
79.13401555096303
 20
-126.6260348533261
 30
0.0
 10
79.13401555096303
 20
-126.6260348533261
 30
0.0
 10
79.33279756046194
 20
-126.5671237205284
 30
0.0
 10
79.36242538163509
 20
-126.4315592131838
 30
0.0
 10
79.36242538163509
 20
-126.3319959536601
 30
0.0
 10
79.36242538163509
 20
-126.1828233191487
 30
0.0
 10
79.26303437688563
 20
-126.0200425574707
 30
0.0
 10
79.03031817685701
 20
-126.0200425574707
 30
0.0
 10
78.77434758230295
 20
-126.0200425574707
 30
0.0
 10
78.70458439872664
 20
-126.2122788855476
 30
0.0
 10
78.70458439872664
 20
-126.341125456696
 30
0.0
 10
78.70458439872664
 20
-126.3750596472257
 30
0.0
 10
78.70458439872664
 20
-126.5264715938024
 30
0.0
 10
78.83360322464924
 20
-126.6213839744211
 30
0.0
 10
78.83360322464924
 20
-126.6213839744211
 30
0.0
 10
78.8144829447061
 20
-126.8091416783672
 30
0.0
 10
78.8144829447061
 20
-126.8091416783672
 30
0.0
 10
78.8144829447061
 20
-126.8091416783672
 30
0.0
 10
77.96836749352875
 20
-126.6802951072188
 30
0.0
 10
77.96836749352875
 20
-126.6802951072188
 30
0.0
 10
77.96836749352875
 20
-126.6802951072188
 30
0.0
 10
77.96836749352875
 20
-125.848304547531
 30
0.0
 10
77.96836749352875
 20
-125.848304547531
 30
0.0
 10
77.96836749352875
 20
-125.848304547531
 30
0.0
 10
78.16301538844536
 20
-125.848304547531
 30
0.0
 10
78.16301538844536
 20
-125.848304547531
 30
0.0
 10
78.16301538844536
 20
-125.848304547531
 30
0.0
 10
78.16301538844536
 20
-126.5061455304394
 30
0.0
 10
78.16301538844536
 20
-126.5061455304394
 30
0.0
 10
78.16301538844536
 20
-126.5061455304394
 30
0.0
 10
78.58607311403404
 20
-126.5762532235643
 30
0.0
 10
78.58607311403404
 20
-126.5762532235643
 30
0.0
 10
78.55231117827859
 20
-126.5106241545703
 30
0.0
 10
78.51200356110117
 20
-126.4224297101479
 30
0.0
 10
78.51200356110117
 20
-126.2958224510649
 30
0.0
 10
78.51200356110117
 20
-126.0245211816015
 30
0.0
 10
78.69821097207893
 20
-125.7713066634357
 30
0.0
 10
79.01137015168813
 20
-125.7713066634357
 30
0.0
 10
79.32866344587964
 20
-125.7713066634357
 30
0.0
 10
79.56344670319942
 20
-126.011085309209
 30
0.0
 10
79.56344670319942
 20
-126.3342352657255
 30
0.0
  0
HATCH
  5
AC
330
9A
100
AcDbEntity
  8
_U+30EC_U+30A4_U+30E4_U+30FC 1
 62
   179
420
  2234388
100
AcDbHatch
 10
0.0
 20
0.0
 30
0.0
210
0.0
220
0.0
230
1.0
  2
SOLID
 70
     1
 71
     0
 91
        1
 92
        1
 93
        1
 72
     4
 94
        3
 73
     0
 74
     1
 95
       53
 96
       49
 40
0.0
 40
0.0
 40
0.0
 40
0.0
 40
1.0
 40
1.0
 40
1.0
 40
2.0
 40
2.0
 40
2.0
 40
3.0
 40
3.0
 40
3.0
 40
4.0
 40
4.0
 40
4.0
 40
5.0
 40
5.0
 40
5.0
 40
6.0
 40
6.0
 40
6.0
 40
7.0
 40
7.0
 40
7.0
 40
8.0
 40
8.0
 40
8.0
 40
9.0
 40
9.0
 40
9.0
 40
10.0
 40
10.0
 40
10.0
 40
11.0
 40
11.0
 40
11.0
 40
12.0
 40
12.0
 40
12.0
 40
13.0
 40
13.0
 40
13.0
 40
14.0
 40
14.0
 40
14.0
 40
15.0
 40
15.0
 40
15.0
 40
16.0
 40
16.0
 40
16.0
 40
16.0
 10
79.56344670319942
 20
-126.3342352657255
 10
79.56344670319942
 20
-126.417951086017
 10
79.54656573532169
 20
-126.5264715938024
 10
79.48300372361884
 20
-126.6349921015878
 10
79.37310517763936
 20
-126.8203382386942
 10
79.24184703965135
 20
-126.8430758688969
 10
79.13401555096303
 20
-126.8634019322598
 10
79.13401555096303
 20
-126.8634019322598
 10
79.13401555096303
 20
-126.6260348533261
 10
79.13401555096303
 20
-126.6260348533261
 10
79.33279756046194
 20
-126.5671237205284
 10
79.36242538163509
 20
-126.4315592131838
 10
79.36242538163509
 20
-126.3319959536601
 10
79.36242538163509
 20
-126.1828233191487
 10
79.26303437688563
 20
-126.0200425574707
 10
79.03031817685701
 20
-126.0200425574707
 10
78.77434758230295
 20
-126.0200425574707
 10
78.70458439872664
 20
-126.2122788855476
 10
78.70458439872664
 20
-126.341125456696
 10
78.70458439872664
 20
-126.3750596472257
 10
78.70458439872664
 20
-126.5264715938024
 10
78.83360322464924
 20
-126.6213839744211
 10
78.83360322464924
 20
-126.6213839744211
 10
78.8144829447061
 20
-126.8091416783672
 10
78.8144829447061
 20
-126.8091416783672
 10
78.8144829447061
 20
-126.8091416783672
 10
77.96836749352875
 20
-126.6802951072188
 10
77.96836749352875
 20
-126.6802951072188
 10
77.96836749352875
 20
-126.6802951072188
 10
77.96836749352875
 20
-125.848304547531
 10
77.96836749352875
 20
-125.848304547531
 10
77.96836749352875
 20
-125.848304547531
 10
78.16301538844536
 20
-125.848304547531
 10
78.16301538844536
 20
-125.848304547531
 10
78.16301538844536
 20
-125.848304547531
 10
78.16301538844536
 20
-126.5061455304394
 10
78.16301538844536
 20
-126.5061455304394
 10
78.16301538844536
 20
-126.5061455304394
 10
78.58607311403404
 20
-126.5762532235643
 10
78.58607311403404
 20
-126.5762532235643
 10
78.55231117827859
 20
-126.5106241545703
 10
78.51200356110117
 20
-126.4224297101479
 10
78.51200356110117
 20
-126.2958224510649
 10
78.51200356110117
 20
-126.0245211816015
 10
78.69821097207893
 20
-125.7713066634357
 10
79.01137015168813
 20
-125.7713066634357
 10
79.32866344587964
 20
-125.7713066634357
 10
79.56344670319942
 20
-126.011085309209
 10
79.56344670319942
 20
-126.3342352657255
 97
        0
 97
        0
 75
     2
 76
     1
 98
        0
  0
ENDBLK
  5
9D
330
9A
100
AcDbEntity
  8
0
100
AcDbBlockEnd
  0
BLOCK
  5
C2
330
C0
100
AcDbEntity
  8
0
100
AcDbBlockBegin
  2
block 4
 70
     0
 10
0.0
 20
0.0
 30
0.0
  3
block 4
  1

  0
SPLINE
  5
C4
330
C0
100
AcDbEntity
  8
_U+30EC_U+30A4_U+30E4_U+30FC 1
370
     0
100
AcDbSpline
210
0.0
220
0.0
230
1.0
 70
    11
 71
     3
 72
    26
 73
    22
 74
     0
 42
0.0000000001
 43
0.0000000001
 12
1.0
 22
0.0
 32
0.0
 13
1.0
 23
0.0
 33
0.0
 40
0.0
 40
0.0
 40
0.0
 40
0.0
 40
1.0
 40
1.0
 40
1.0
 40
2.0
 40
2.0
 40
2.0
 40
3.0
 40
3.0
 40
3.0
 40
4.0
 40
4.0
 40
4.0
 40
5.0
 40
5.0
 40
5.0
 40
6.0
 40
6.0
 40
6.0
 40
7.0
 40
7.0
 40
7.0
 40
7.0
 10
103.7476725001048
 20
-130.2959228189885
 30
0.0
 10
103.7476725001048
 20
-130.2959228189885
 30
0.0
 10
102.6431748875337
 20
-130.2959228189885
 30
0.0
 10
102.6431748875337
 20
-130.2959228189885
 30
0.0
 10
102.6431748875337
 20
-130.2959228189885
 30
0.0
 10
102.6431748875337
 20
-130.6487005966781
 30
0.0
 10
102.6431748875337
 20
-130.6487005966781
 30
0.0
 10
102.6431748875337
 20
-130.6487005966781
 30
0.0
 10
102.4950357816679
 20
-130.6487005966781
 30
0.0
 10
102.4950357816679
 20
-130.6487005966781
 30
0.0
 10
102.4802218710813
 20
-130.2938557616974
 30
0.0
 10
102.3176133641775
 20
-130.2439018771612
 30
0.0
 10
102.2032361940672
 20
-130.212206998697
 30
0.0
 10
102.2032361940672
 20
-130.212206998697
 30
0.0
 10
102.2032361940672
 20
-130.0564886827637
 30
0.0
 10
102.2032361940672
 20
-130.0564886827637
 30
0.0
 10
102.2032361940672
 20
-130.0564886827637
 30
0.0
 10
103.7476725001048
 20
-130.0564886827637
 30
0.0
 10
103.7476725001048
 20
-130.0564886827637
 30
0.0
 10
103.7476725001048
 20
-130.0564886827637
 30
0.0
 10
103.7476725001048
 20
-130.2959228189885
 30
0.0
 10
103.7476725001048
 20
-130.2959228189885
 30
0.0
  0
HATCH
  5
C5
330
C0
100
AcDbEntity
  8
_U+30EC_U+30A4_U+30E4_U+30FC 1
 62
   179
420
  2234388
100
AcDbHatch
 10
0.0
 20
0.0
 30
0.0
210
0.0
220
0.0
230
1.0
  2
SOLID
 70
     1
 71
     0
 91
        1
 92
        1
 93
        1
 72
     4
 94
        3
 73
     0
 74
     1
 95
       26
 96
       22
 40
0.0
 40
0.0
 40
0.0
 40
0.0
 40
1.0
 40
1.0
 40
1.0
 40
2.0
 40
2.0
 40
2.0
 40
3.0
 40
3.0
 40
3.0
 40
4.0
 40
4.0
 40
4.0
 40
5.0
 40
5.0
 40
5.0
 40
6.0
 40
6.0
 40
6.0
 40
7.0
 40
7.0
 40
7.0
 40
7.0
 10
103.7476725001048
 20
-130.2959228189885
 10
103.7476725001048
 20
-130.2959228189885
 10
102.6431748875337
 20
-130.2959228189885
 10
102.6431748875337
 20
-130.2959228189885
 10
102.6431748875337
 20
-130.2959228189885
 10
102.6431748875337
 20
-130.6487005966781
 10
102.6431748875337
 20
-130.6487005966781
 10
102.6431748875337
 20
-130.6487005966781
 10
102.4950357816679
 20
-130.6487005966781
 10
102.4950357816679
 20
-130.6487005966781
 10
102.4802218710813
 20
-130.2938557616974
 10
102.3176133641775
 20
-130.2439018771612
 10
102.2032361940672
 20
-130.212206998697
 10
102.2032361940672
 20
-130.212206998697
 10
102.2032361940672
 20
-130.0564886827637
 10
102.2032361940672
 20
-130.0564886827637
 10
102.2032361940672
 20
-130.0564886827637
 10
103.7476725001048
 20
-130.0564886827637
 10
103.7476725001048
 20
-130.0564886827637
 10
103.7476725001048
 20
-130.0564886827637
 10
103.7476725001048
 20
-130.2959228189885
 10
103.7476725001048
 20
-130.2959228189885
 97
        0
 97
        0
 75
     2
 76
     1
 98
        0
  0
SPLINE
  5
C6
330
C0
100
AcDbEntity
  8
_U+30EC_U+30A4_U+30E4_U+30FC 1
370
     0
100
AcDbSpline
210
0.0
220
0.0
230
1.0
 70
    11
 71
     3
 72
    29
 73
    25
 74
     0
 42
0.0000000001
 43
0.0000000001
 12
1.0
 22
0.0
 32
0.0
 13
1.0
 23
0.0
 33
0.0
 40
0.0
 40
0.0
 40
0.0
 40
0.0
 40
1.0
 40
1.0
 40
1.0
 40
2.0
 40
2.0
 40
2.0
 40
3.0
 40
3.0
 40
3.0
 40
4.0
 40
4.0
 40
4.0
 40
5.0
 40
5.0
 40
5.0
 40
6.0
 40
6.0
 40
6.0
 40
7.0
 40
7.0
 40
7.0
 40
8.0
 40
8.0
 40
8.0
 40
8.0
 10
103.5699055730659
 20
-128.561144987391
 30
0.0
 10
103.779367378569
 20
-128.6765556861468
 30
0.0
 10
103.7983154037379
 20
-128.861729568479
 30
0.0
 10
103.7983154037379
 20
-128.9860975154965
 30
0.0
 10
103.7983154037379
 20
-129.1580077802105
 30
0.0
 10
103.7518066146871
 20
-129.3095919815615
 30
0.0
 10
103.5699055730659
 20
-129.4112222983764
 30
0.0
 10
103.3752576781492
 20
-129.5221543730014
 30
0.0
 10
103.1382351087641
 20
-129.5424804363644
 30
0.0
 10
102.9752820923117
 20
-129.5424804363644
 30
0.0
 10
102.8316216105768
 20
-129.5424804363644
 30
0.0
 10
102.5797851306051
 20
-129.5242214302926
 30
0.0
 10
102.3810031211061
 20
-129.4112222983764
 30
0.0
 10
102.1777424874764
 20
-129.2958115996205
 30
0.0
 10
102.1546603477252
 20
-129.1242458444551
 30
0.0
 10
102.1546603477252
 20
-128.9860975154965
 30
0.0
 10
102.1546603477252
 20
-128.8165988176222
 30
0.0
 10
102.1991020794849
 20
-128.6629475589801
 30
0.0
 10
102.3810031211061
 20
-128.561144987391
 30
0.0
 10
102.5735839587316
 20
-128.454863791671
 30
0.0
 10
102.8019937894037
 20
-128.4300591041772
 30
0.0
 10
102.9752820923117
 20
-128.4300591041772
 30
0.0
 10
103.1468478474772
 20
-128.4300591041772
 30
0.0
 10
103.3773247354404
 20
-128.4526244796056
 30
0.0
 10
103.5699055730659
 20
-128.561144987391
 30
0.0
  0
SPLINE
  5
C7
330
C0
100
AcDbEntity
  8
_U+30EC_U+30A4_U+30E4_U+30FC 1
370
     0
100
AcDbSpline
210
0.0
220
0.0
230
1.0
 70
    11
 71
     3
 72
    17
 73
    13
 74
     0
 42
0.0000000001
 43
0.0000000001
 12
1.0
 22
0.0
 32
0.0
 13
1.0
 23
0.0
 33
0.0
 40
0.0
 40
0.0
 40
0.0
 40
0.0
 40
1.0
 40
1.0
 40
1.0
 40
2.0
 40
2.0
 40
2.0
 40
3.0
 40
3.0
 40
3.0
 40
4.0
 40
4.0
 40
4.0
 40
4.0
 10
102.3468966758022
 20
-128.9860975154965
 30
0.0
 10
102.3468966758022
 20
-129.2530924156034
 30
0.0
 10
102.6304280342382
 20
-129.302701790591
 30
0.0
 10
102.9752820923117
 20
-129.302701790591
 30
0.0
 10
103.2949869533429
 20
-129.302701790591
 30
0.0
 10
103.6036675088213
 20
-129.2644612307047
 30
0.0
 10
103.6036675088213
 20
-128.9860975154965
 30
0.0
 10
103.6036675088213
 20
-128.7216864370036
 30
0.0
 10
103.3222032076764
 20
-128.6696654951763
 30
0.0
 10
102.9752820923117
 20
-128.6696654951763
 30
0.0
 10
102.6559217408291
 20
-128.6696654951763
 30
0.0
 10
102.3468966758022
 20
-128.7104898766765
 30
0.0
 10
102.3468966758022
 20
-128.9860975154965
 30
0.0
  0
HATCH
  5
C8
330
C0
100
AcDbEntity
  8
_U+30EC_U+30A4_U+30E4_U+30FC 1
 62
   179
420
  2234388
100
AcDbHatch
 10
0.0
 20
0.0
 30
0.0
210
0.0
220
0.0
230
1.0
  2
SOLID
 70
     1
 71
     0
 91
        2
 92
        1
 93
        1
 72
     4
 94
        3
 73
     0
 74
     1
 95
       29
 96
       25
 40
0.0
 40
0.0
 40
0.0
 40
0.0
 40
1.0
 40
1.0
 40
1.0
 40
2.0
 40
2.0
 40
2.0
 40
3.0
 40
3.0
 40
3.0
 40
4.0
 40
4.0
 40
4.0
 40
5.0
 40
5.0
 40
5.0
 40
6.0
 40
6.0
 40
6.0
 40
7.0
 40
7.0
 40
7.0
 40
8.0
 40
8.0
 40
8.0
 40
8.0
 10
103.5699055730659
 20
-128.561144987391
 10
103.779367378569
 20
-128.6765556861468
 10
103.7983154037379
 20
-128.861729568479
 10
103.7983154037379
 20
-128.9860975154965
 10
103.7983154037379
 20
-129.1580077802105
 10
103.7518066146871
 20
-129.3095919815615
 10
103.5699055730659
 20
-129.4112222983764
 10
103.3752576781492
 20
-129.5221543730014
 10
103.1382351087641
 20
-129.5424804363644
 10
102.9752820923117
 20
-129.5424804363644
 10
102.8316216105768
 20
-129.5424804363644
 10
102.5797851306051
 20
-129.5242214302926
 10
102.3810031211061
 20
-129.4112222983764
 10
102.1777424874764
 20
-129.2958115996205
 10
102.1546603477252
 20
-129.1242458444551
 10
102.1546603477252
 20
-128.9860975154965
 10
102.1546603477252
 20
-128.8165988176222
 10
102.1991020794849
 20
-128.6629475589801
 10
102.3810031211061
 20
-128.561144987391
 10
102.5735839587316
 20
-128.454863791671
 10
102.8019937894037
 20
-128.4300591041772
 10
102.9752820923117
 20
-128.4300591041772
 10
103.1468478474772
 20
-128.4300591041772
 10
103.3773247354404
 20
-128.4526244796056
 10
103.5699055730659
 20
-128.561144987391
 97
        0
 97
        0
 92
        1
 93
        1
 72
     4
 94
        3
 73
     0
 74
     1
 95
       17
 96
       13
 40
0.0
 40
0.0
 40
0.0
 40
0.0
 40
1.0
 40
1.0
 40
1.0
 40
2.0
 40
2.0
 40
2.0
 40
3.0
 40
3.0
 40
3.0
 40
4.0
 40
4.0
 40
4.0
 40
4.0
 10
102.3468966758022
 20
-128.9860975154965
 10
102.3468966758022
 20
-129.2530924156034
 10
102.6304280342382
 20
-129.302701790591
 10
102.9752820923117
 20
-129.302701790591
 10
103.2949869533429
 20
-129.302701790591
 10
103.6036675088213
 20
-129.2644612307047
 10
103.6036675088213
 20
-128.9860975154965
 10
103.6036675088213
 20
-128.7216864370036
 10
103.3222032076764
 20
-128.6696654951763
 10
102.9752820923117
 20
-128.6696654951763
 10
102.6559217408291
 20
-128.6696654951763
 10
102.3468966758022
 20
-128.7104898766765
 10
102.3468966758022
 20
-128.9860975154965
 97
        0
 97
        0
 75
     2
 76
     1
 98
        0
  0
ENDBLK
  5
C3
330
C0
100
AcDbEntity
  8
0
100
AcDbBlockEnd
  0
BLOCK
  5
CB
330
C9
100
AcDbEntity
  8
0
100
AcDbBlockBegin
  2
block 5
 70
     0
 10
0.0
 20
0.0
 30
0.0
  3
block 5
  1

  0
SPLINE
  5
CD
330
C9
100
AcDbEntity
  8
_U+30EC_U+30A4_U+30E4_U+30FC 1
370
     0
100
AcDbSpline
210
0.0
220
0.0
230
1.0
 70
    11
 71
     3
 72
    26
 73
    22
 74
     0
 42
0.0000000001
 43
0.0000000001
 12
1.0
 22
0.0
 32
0.0
 13
1.0
 23
0.0
 33
0.0
 40
0.0
 40
0.0
 40
0.0
 40
0.0
 40
1.0
 40
1.0
 40
1.0
 40
2.0
 40
2.0
 40
2.0
 40
3.0
 40
3.0
 40
3.0
 40
4.0
 40
4.0
 40
4.0
 40
5.0
 40
5.0
 40
5.0
 40
6.0
 40
6.0
 40
6.0
 40
7.0
 40
7.0
 40
7.0
 40
7.0
 10
103.8241536198773
 20
-136.6335204736541
 30
0.0
 10
103.8241536198773
 20
-136.6335204736541
 30
0.0
 10
102.7196560073062
 20
-136.6335204736541
 30
0.0
 10
102.7196560073062
 20
-136.6335204736541
 30
0.0
 10
102.7196560073062
 20
-136.6335204736541
 30
0.0
 10
102.7196560073062
 20
-136.9859537417952
 30
0.0
 10
102.7196560073062
 20
-136.9859537417952
 30
0.0
 10
102.7196560073062
 20
-136.9859537417952
 30
0.0
 10
102.5715169014405
 20
-136.9859537417952
 30
0.0
 10
102.5715169014405
 20
-136.9859537417952
 30
0.0
 10
102.5567029908539
 20
-136.6311089068145
 30
0.0
 10
102.3940944839501
 20
-136.5814995318269
 30
0.0
 10
102.2797173138398
 20
-136.5498046533625
 30
0.0
 10
102.2797173138398
 20
-136.5498046533625
 30
0.0
 10
102.2797173138398
 20
-136.3937418278807
 30
0.0
 10
102.2797173138398
 20
-136.3937418278807
 30
0.0
 10
102.2797173138398
 20
-136.3937418278807
 30
0.0
 10
103.8241536198773
 20
-136.3937418278807
 30
0.0
 10
103.8241536198773
 20
-136.3937418278807
 30
0.0
 10
103.8241536198773
 20
-136.3937418278807
 30
0.0
 10
103.8241536198773
 20
-136.6335204736541
 30
0.0
 10
103.8241536198773
 20
-136.6335204736541
 30
0.0
  0
HATCH
  5
CE
330
C9
100
AcDbEntity
  8
_U+30EC_U+30A4_U+30E4_U+30FC 1
 62
   179
420
  2234388
100
AcDbHatch
 10
0.0
 20
0.0
 30
0.0
210
0.0
220
0.0
230
1.0
  2
SOLID
 70
     1
 71
     0
 91
        1
 92
        1
 93
        1
 72
     4
 94
        3
 73
     0
 74
     1
 95
       26
 96
       22
 40
0.0
 40
0.0
 40
0.0
 40
0.0
 40
1.0
 40
1.0
 40
1.0
 40
2.0
 40
2.0
 40
2.0
 40
3.0
 40
3.0
 40
3.0
 40
4.0
 40
4.0
 40
4.0
 40
5.0
 40
5.0
 40
5.0
 40
6.0
 40
6.0
 40
6.0
 40
7.0
 40
7.0
 40
7.0
 40
7.0
 10
103.8241536198773
 20
-136.6335204736541
 10
103.8241536198773
 20
-136.6335204736541
 10
102.7196560073062
 20
-136.6335204736541
 10
102.7196560073062
 20
-136.6335204736541
 10
102.7196560073062
 20
-136.6335204736541
 10
102.7196560073062
 20
-136.9859537417952
 10
102.7196560073062
 20
-136.9859537417952
 10
102.7196560073062
 20
-136.9859537417952
 10
102.5715169014405
 20
-136.9859537417952
 10
102.5715169014405
 20
-136.9859537417952
 10
102.5567029908539
 20
-136.6311089068145
 10
102.3940944839501
 20
-136.5814995318269
 10
102.2797173138398
 20
-136.5498046533625
 10
102.2797173138398
 20
-136.5498046533625
 10
102.2797173138398
 20
-136.3937418278807
 10
102.2797173138398
 20
-136.3937418278807
 10
102.2797173138398
 20
-136.3937418278807
 10
103.8241536198773
 20
-136.3937418278807
 10
103.8241536198773
 20
-136.3937418278807
 10
103.8241536198773
 20
-136.3937418278807
 10
103.8241536198773
 20
-136.6335204736541
 10
103.8241536198773
 20
-136.6335204736541
 97
        0
 97
        0
 75
     2
 76
     1
 98
        0
  0
ENDBLK
  5
CC
330
C9
100
AcDbEntity
  8
0
100
AcDbBlockEnd
  0
BLOCK
  5
E0
330
DE
100
AcDbEntity
  8
0
100
AcDbBlockBegin
  2
block 6
 70
     0
 10
0.0
 20
0.0
 30
0.0
  3
block 6
  1

  0
SPLINE
  5
E2
330
DE
100
AcDbEntity
  8
_U+30EC_U+30A4_U+30E4_U+30FC 1
370
     0
100
AcDbSpline
210
0.0
220
0.0
230
1.0
 70
    11
 71
     3
 72
    29
 73
    25
 74
     0
 42
0.0000000001
 43
0.0000000001
 12
1.0
 22
0.0
 32
0.0
 13
1.0
 23
0.0
 33
0.0
 40
0.0
 40
0.0
 40
0.0
 40
0.0
 40
1.0
 40
1.0
 40
1.0
 40
2.0
 40
2.0
 40
2.0
 40
3.0
 40
3.0
 40
3.0
 40
4.0
 40
4.0
 40
4.0
 40
5.0
 40
5.0
 40
5.0
 40
6.0
 40
6.0
 40
6.0
 40
7.0
 40
7.0
 40
7.0
 40
8.0
 40
8.0
 40
8.0
 40
8.0
 10
89.6384561950383
 20
-118.802395261098
 30
0.0
 10
89.40849607139788
 20
-118.6342746014178
 30
0.0
 10
89.27086450676215
 20
-118.3629733319544
 30
0.0
 10
89.47705347155436
 20
-118.0813367760352
 30
0.0
 10
89.62812090858256
 20
-117.8748033016945
 30
0.0
 10
89.8065768547185
 20
-117.8873779002157
 30
0.0
 10
89.93404538767274
 20
-117.9046033776419
 30
0.0
 10
89.86152612770823
 20
-117.777996118559
 30
0.0
 10
89.86324867545086
 20
-117.6377807323093
 30
0.0
 10
89.95816105606949
 20
-117.5080728872897
 30
0.0
 10
90.12059730819902
 20
-117.2862087380396
 30
0.0
 10
90.37208927862225
 20
-117.3024006868202
 30
0.0
 10
90.60928410278171
 20
-117.4760334992768
 30
0.0
 10
90.85371362746018
 20
-117.6550062097356
 30
0.0
 10
90.93295082362093
 20
-117.8911675052494
 30
0.0
 10
90.77550995994501
 20
-118.1063137183033
 30
0.0
 10
90.68059757932639
 20
-118.236021563323
 30
0.0
 10
90.54554983630459
 20
-118.27874074734
 30
0.0
 10
90.40292288321524
 20
-118.2479071427471
 30
0.0
 10
90.44960392704039
 20
-118.3448865806568
 30
0.0
 10
90.53021916139522
 20
-118.5217922338244
 30
0.0
 10
90.37536211933325
 20
-118.733493351393
 30
0.0
 10
90.1541869891802
 20
-119.0358004802237
 30
0.0
 10
89.8446451598305
 20
-118.953290443352
 30
0.0
 10
89.6384561950383
 20
-118.802395261098
 30
0.0
  0
SPLINE
  5
E3
330
DE
100
AcDbEntity
  8
_U+30EC_U+30A4_U+30E4_U+30FC 1
370
     0
100
AcDbSpline
210
0.0
220
0.0
230
1.0
 70
    11
 71
     3
 72
    17
 73
    13
 74
     0
 42
0.0000000001
 43
0.0000000001
 12
1.0
 22
0.0
 32
0.0
 13
1.0
 23
0.0
 33
0.0
 40
0.0
 40
0.0
 40
0.0
 40
0.0
 40
1.0
 40
1.0
 40
1.0
 40
2.0
 40
2.0
 40
2.0
 40
3.0
 40
3.0
 40
3.0
 40
4.0
 40
4.0
 40
4.0
 40
4.0
 10
90.10578339761244
 20
-118.1640190676812
 30
0.0
 10
89.98175996014345
 20
-118.0732408016449
 30
0.0
 10
89.79916989942521
 20
-118.047058075957
 30
0.0
 10
89.67910832176426
 20
-118.2108723662806
 30
0.0
 10
89.55801321545772
 20
-118.3765814591211
 30
0.0
 10
89.60745033567106
 20
-118.5385009469279
 30
0.0
 10
89.75335012947139
 20
-118.6454711617449
 30
0.0
 10
89.91389157908404
 20
-118.7629489177919
 30
0.0
 10
90.08132321966717
 20
-118.7333210966188
 30
0.0
 10
90.18622637719304
 20
-118.5900051244324
 30
0.0
 10
90.31748451518105
 20
-118.4106879044251
 30
0.0
 10
90.22067733204553
 20
-118.2480793975213
 30
0.0
 10
90.10578339761244
 20
-118.1640190676812
 30
0.0
  0
SPLINE
  5
E4
330
DE
100
AcDbEntity
  8
_U+30EC_U+30A4_U+30E4_U+30FC 1
370
     0
100
AcDbSpline
210
0.0
220
0.0
230
1.0
 70
    11
 71
     3
 72
    17
 73
    13
 74
     0
 42
0.0000000001
 43
0.0000000001
 12
1.0
 22
0.0
 32
0.0
 13
1.0
 23
0.0
 33
0.0
 40
0.0
 40
0.0
 40
0.0
 40
0.0
 40
1.0
 40
1.0
 40
1.0
 40
2.0
 40
2.0
 40
2.0
 40
3.0
 40
3.0
 40
3.0
 40
4.0
 40
4.0
 40
4.0
 40
4.0
 10
90.49559595176846
 20
-117.6314073056616
 30
0.0
 10
90.35331350822764
 20
-117.5271931672328
 30
0.0
 10
90.22412242753077
 20
-117.5506198165325
 30
0.0
 10
90.14402395749872
 20
-117.6598293434149
 30
0.0
 10
90.07167695230848
 20
-117.7588758386158
 30
0.0
 10
90.0637532326924
 20
-117.8999524987368
 30
0.0
 10
90.21688772701175
 20
-118.0120903567817
 30
0.0
 10
90.37019447610537
 20
-118.1242282148266
 30
0.0
 10
90.50214163319045
 20
-118.0739298207419
 30
0.0
 10
90.57466089315496
 20
-117.9750555803153
 30
0.0
 10
90.65458710841274
 20
-117.8656737986586
 30
0.0
 10
90.6359835927924
 20
-117.7342434058963
 30
0.0
 10
90.49559595176846
 20
-117.6314073056616
 30
0.0
  0
HATCH
  5
E5
330
DE
100
AcDbEntity
  8
_U+30EC_U+30A4_U+30E4_U+30FC 1
 62
   179
420
  2234388
100
AcDbHatch
 10
0.0
 20
0.0
 30
0.0
210
0.0
220
0.0
230
1.0
  2
SOLID
 70
     1
 71
     0
 91
        3
 92
        1
 93
        1
 72
     4
 94
        3
 73
     0
 74
     1
 95
       29
 96
       25
 40
0.0
 40
0.0
 40
0.0
 40
0.0
 40
1.0
 40
1.0
 40
1.0
 40
2.0
 40
2.0
 40
2.0
 40
3.0
 40
3.0
 40
3.0
 40
4.0
 40
4.0
 40
4.0
 40
5.0
 40
5.0
 40
5.0
 40
6.0
 40
6.0
 40
6.0
 40
7.0
 40
7.0
 40
7.0
 40
8.0
 40
8.0
 40
8.0
 40
8.0
 10
89.6384561950383
 20
-118.802395261098
 10
89.40849607139788
 20
-118.6342746014178
 10
89.27086450676215
 20
-118.3629733319544
 10
89.47705347155436
 20
-118.0813367760352
 10
89.62812090858256
 20
-117.8748033016945
 10
89.8065768547185
 20
-117.8873779002157
 10
89.93404538767274
 20
-117.9046033776419
 10
89.86152612770823
 20
-117.777996118559
 10
89.86324867545086
 20
-117.6377807323093
 10
89.95816105606949
 20
-117.5080728872897
 10
90.12059730819902
 20
-117.2862087380396
 10
90.37208927862225
 20
-117.3024006868202
 10
90.60928410278171
 20
-117.4760334992768
 10
90.85371362746018
 20
-117.6550062097356
 10
90.93295082362093
 20
-117.8911675052494
 10
90.77550995994501
 20
-118.1063137183033
 10
90.68059757932639
 20
-118.236021563323
 10
90.54554983630459
 20
-118.27874074734
 10
90.40292288321524
 20
-118.2479071427471
 10
90.44960392704039
 20
-118.3448865806568
 10
90.53021916139522
 20
-118.5217922338244
 10
90.37536211933325
 20
-118.733493351393
 10
90.1541869891802
 20
-119.0358004802237
 10
89.8446451598305
 20
-118.953290443352
 10
89.6384561950383
 20
-118.802395261098
 97
        0
 97
        0
 92
        1
 93
        1
 72
     4
 94
        3
 73
     0
 74
     1
 95
       17
 96
       13
 40
0.0
 40
0.0
 40
0.0
 40
0.0
 40
1.0
 40
1.0
 40
1.0
 40
2.0
 40
2.0
 40
2.0
 40
3.0
 40
3.0
 40
3.0
 40
4.0
 40
4.0
 40
4.0
 40
4.0
 10
90.10578339761244
 20
-118.1640190676812
 10
89.98175996014345
 20
-118.0732408016449
 10
89.79916989942521
 20
-118.047058075957
 10
89.67910832176426
 20
-118.2108723662806
 10
89.55801321545772
 20
-118.3765814591211
 10
89.60745033567106
 20
-118.5385009469279
 10
89.75335012947139
 20
-118.6454711617449
 10
89.91389157908404
 20
-118.7629489177919
 10
90.08132321966717
 20
-118.7333210966188
 10
90.18622637719304
 20
-118.5900051244324
 10
90.31748451518105
 20
-118.4106879044251
 10
90.22067733204553
 20
-118.2480793975213
 10
90.10578339761244
 20
-118.1640190676812
 97
        0
 97
        0
 92
        1
 93
        1
 72
     4
 94
        3
 73
     0
 74
     1
 95
       17
 96
       13
 40
0.0
 40
0.0
 40
0.0
 40
0.0
 40
1.0
 40
1.0
 40
1.0
 40
2.0
 40
2.0
 40
2.0
 40
3.0
 40
3.0
 40
3.0
 40
4.0
 40
4.0
 40
4.0
 40
4.0
 10
90.49559595176846
 20
-117.6314073056616
 10
90.35331350822764
 20
-117.5271931672328
 10
90.22412242753077
 20
-117.5506198165325
 10
90.14402395749872
 20
-117.6598293434149
 10
90.07167695230848
 20
-117.7588758386158
 10
90.0637532326924
 20
-117.8999524987368
 10
90.21688772701175
 20
-118.0120903567817
 10
90.37019447610537
 20
-118.1242282148266
 10
90.50214163319045
 20
-118.0739298207419
 10
90.57466089315496
 20
-117.9750555803153
 10
90.65458710841274
 20
-117.8656737986586
 10
90.6359835927924
 20
-117.7342434058963
 10
90.49559595176846
 20
-117.6314073056616
 97
        0
 97
        0
 75
     2
 76
     1
 98
        0
  0
ENDBLK
  5
E1
330
DE
100
AcDbEntity
  8
0
100
AcDbBlockEnd
  0
ENDSEC
  0
SECTION
  2
ENTITIES
  0
SPLINE
  5
41
330
1F
100
AcDbEntity
  8
_U+30EC_U+30A4_U+30E4_U+30FC 1
370
     0
100
AcDbSpline
210
0.0
220
0.0
230
1.0
 70
    11
 71
     3
 72
    47
 73
    43
 74
     0
 42
0.0000000001
 43
0.0000000001
 12
1.0
 22
0.0
 32
0.0
 13
1.0
 23
0.0
 33
0.0
 40
0.0
 40
0.0
 40
0.0
 40
0.0
 40
1.0
 40
1.0
 40
1.0
 40
2.0
 40
2.0
 40
2.0
 40
3.0
 40
3.0
 40
3.0
 40
4.0
 40
4.0
 40
4.0
 40
5.0
 40
5.0
 40
5.0
 40
6.0
 40
6.0
 40
6.0
 40
7.0
 40
7.0
 40
7.0
 40
8.0
 40
8.0
 40
8.0
 40
9.0
 40
9.0
 40
9.0
 40
10.0
 40
10.0
 40
10.0
 40
11.0
 40
11.0
 40
11.0
 40
12.0
 40
12.0
 40
12.0
 40
13.0
 40
13.0
 40
13.0
 40
14.0
 40
14.0
 40
14.0
 40
14.0
 10
100.0951885574701
 20
-135.5899977438801
 30
0.0
 10
100.0951885574701
 20
-135.5899977438801
 30
0.0
 10
99.14501941965793
 20
-134.6398613552291
 30
0.0
 10
99.14501941965793
 20
-134.6398613552291
 30
0.0
 10
99.13880802631385
 20
-134.6460349663387
 30
0.0
 10
99.1298499752174
 20
-134.6501624663373
 30
0.0
 10
99.12021663789926
 20
-134.6501624663373
 30
0.0
 10
99.10092219744674
 20
-134.6501624663373
 30
0.0
 10
99.08507997212901
 20
-134.6343227441194
 30
0.0
 10
99.08507997212901
 20
-134.6150257996796
 30
0.0
 10
99.08507997212901
 20
-134.6150257996796
 30
0.0
 10
84.88439894552968
 20
-134.6150257996796
 30
0.0
 10
84.88439894552968
 20
-134.6150257996796
 30
0.0
 10
84.88439894552968
 20
-134.6150257996796
 30
0.0
 10
84.88439894552968
 20
-121.5546985807226
 30
0.0
 10
84.88439894552968
 20
-121.5546985807226
 30
0.0
 10
84.88439894552968
 20
-121.5546985807226
 30
0.0
 10
88.72152745874749
 20
-124.6147988577352
 30
0.0
 10
88.72152745874749
 20
-124.6147988577352
 30
0.0
 10
88.72152745874749
 20
-124.6147988577352
 30
0.0
 10
90.46407324762477
 20
-124.6147988577352
 30
0.0
 10
90.46407324762477
 20
-124.6147988577352
 30
0.0
 10
90.46407324762477
 20
-124.6075669132927
 30
0.0
 10
90.4675304697588
 20
-124.6017108021828
 30
0.0
 10
90.47165796965349
 20
-124.5961721910731
 30
0.0
 10
90.47165796965349
 20
-124.5961721910731
 30
0.0
 10
83.9121786925553
 20
-119.2333855257473
 30
0.0
 10
83.9121786925553
 20
-119.2333855257473
 30
0.0
 10
83.90600508160169
 20
-119.2430163590781
 30
0.0
 10
83.89704452627474
 20
-119.2502483035206
 30
0.0
 10
83.88462674881377
 20
-119.2502483035206
 30
0.0
 10
83.88462674881377
 20
-119.2502483035206
 30
0.0
 10
83.88462674881377
 20
-135.5796613549938
 30
0.0
 10
83.88462674881377
 20
-135.5796613549938
 30
0.0
 10
83.90392369276591
 20
-135.5796613549938
 30
0.0
 10
83.91976341458403
 20
-135.5955010772123
 30
0.0
 10
83.91976341458403
 20
-135.6147980216521
 30
0.0
 10
83.91976341458403
 20
-135.6147980216521
 30
0.0
 10
100.0848521688449
 20
-135.6147980216521
 30
0.0
 10
100.0848521688449
 20
-135.6147980216521
 30
0.0
 10
100.0848521688449
 20
-135.6051671883206
 30
0.0
 10
100.0889796687396
 20
-135.5962066327678
 30
0.0
 10
100.0951885574701
 20
-135.5899977438801
 30
0.0
  0
HATCH
  5
42
330
1F
100
AcDbEntity
  8
_U+30EC_U+30A4_U+30E4_U+30FC 1
 62
   253
420
 11711154
100
AcDbHatch
 10
0.0
 20
0.0
 30
0.0
210
0.0
220
0.0
230
1.0
  2
SOLID
 70
     1
 71
     0
 91
        1
 92
        1
 93
        1
 72
     4
 94
        3
 73
     0
 74
     1
 95
       47
 96
       43
 40
0.0
 40
0.0
 40
0.0
 40
0.0
 40
1.0
 40
1.0
 40
1.0
 40
2.0
 40
2.0
 40
2.0
 40
3.0
 40
3.0
 40
3.0
 40
4.0
 40
4.0
 40
4.0
 40
5.0
 40
5.0
 40
5.0
 40
6.0
 40
6.0
 40
6.0
 40
7.0
 40
7.0
 40
7.0
 40
8.0
 40
8.0
 40
8.0
 40
9.0
 40
9.0
 40
9.0
 40
10.0
 40
10.0
 40
10.0
 40
11.0
 40
11.0
 40
11.0
 40
12.0
 40
12.0
 40
12.0
 40
13.0
 40
13.0
 40
13.0
 40
14.0
 40
14.0
 40
14.0
 40
14.0
 10
100.0951885574701
 20
-135.5899977438801
 10
100.0951885574701
 20
-135.5899977438801
 10
99.14501941965793
 20
-134.6398613552291
 10
99.14501941965793
 20
-134.6398613552291
 10
99.13880802631385
 20
-134.6460349663387
 10
99.1298499752174
 20
-134.6501624663373
 10
99.12021663789926
 20
-134.6501624663373
 10
99.10092219744674
 20
-134.6501624663373
 10
99.08507997212901
 20
-134.6343227441194
 10
99.08507997212901
 20
-134.6150257996796
 10
99.08507997212901
 20
-134.6150257996796
 10
84.88439894552968
 20
-134.6150257996796
 10
84.88439894552968
 20
-134.6150257996796
 10
84.88439894552968
 20
-134.6150257996796
 10
84.88439894552968
 20
-121.5546985807226
 10
84.88439894552968
 20
-121.5546985807226
 10
84.88439894552968
 20
-121.5546985807226
 10
88.72152745874749
 20
-124.6147988577352
 10
88.72152745874749
 20
-124.6147988577352
 10
88.72152745874749
 20
-124.6147988577352
 10
90.46407324762477
 20
-124.6147988577352
 10
90.46407324762477
 20
-124.6147988577352
 10
90.46407324762477
 20
-124.6075669132927
 10
90.4675304697588
 20
-124.6017108021828
 10
90.47165796965349
 20
-124.5961721910731
 10
90.47165796965349
 20
-124.5961721910731
 10
83.9121786925553
 20
-119.2333855257473
 10
83.9121786925553
 20
-119.2333855257473
 10
83.90600508160169
 20
-119.2430163590781
 10
83.89704452627474
 20
-119.2502483035206
 10
83.88462674881377
 20
-119.2502483035206
 10
83.88462674881377
 20
-119.2502483035206
 10
83.88462674881377
 20
-135.5796613549938
 10
83.88462674881377
 20
-135.5796613549938
 10
83.90392369276591
 20
-135.5796613549938
 10
83.91976341458403
 20
-135.5955010772123
 10
83.91976341458403
 20
-135.6147980216521
 10
83.91976341458403
 20
-135.6147980216521
 10
100.0848521688449
 20
-135.6147980216521
 10
100.0848521688449
 20
-135.6147980216521
 10
100.0848521688449
 20
-135.6051671883206
 10
100.0889796687396
 20
-135.5962066327678
 10
100.0951885574701
 20
-135.5899977438801
 97
        0
 97
        0
 75
     2
 76
     1
 98
        0
  0
POLYLINE
  5
43
330
1F
100
AcDbEntity
  8
_U+30EC_U+30A4_U+30E4_U+30FC 1
 62
   179
420
  2234388
370
    25
100
AcDb2dPolyline
 66
     1
 10
0.0
 20
0.0
 30
0.0
  0
VERTEX
  5
44
330
43
100
AcDbEntity
  8
_U+30EC_U+30A4_U+30E4_U+30FC 1
 62
   179
420
  2234388
370
    25
100
AcDbVertex
100
AcDb2dVertex
 10
84.88439894552968
 20
-134.6150257996796
 30
0.0
  0
VERTEX
  5
45
330
43
100
AcDbEntity
  8
_U+30EC_U+30A4_U+30E4_U+30FC 1
 62
   179
420
  2234388
370
    25
100
AcDbVertex
100
AcDb2dVertex
 10
99.12021663789926
 20
-134.6150257996796
 30
0.0
  0
SEQEND
  5
46
330
43
100
AcDbEntity
  8
_U+30EC_U+30A4_U+30E4_U+30FC 1
 62
   179
420
  2234388
370
    25
  0
POLYLINE
  5
47
330
1F
100
AcDbEntity
  8
_U+30EC_U+30A4_U+30E4_U+30FC 1
 62
   179
420
  2234388
370
    25
100
AcDb2dPolyline
 66
     1
 10
0.0
 20
0.0
 30
0.0
  0
VERTEX
  5
48
330
47
100
AcDbEntity
  8
_U+30EC_U+30A4_U+30E4_U+30FC 1
 62
   179
420
  2234388
370
    25
100
AcDbVertex
100
AcDb2dVertex
 10
83.88462674881377
 20
-119.2147588590852
 30
0.0
  0
VERTEX
  5
49
330
47
100
AcDbEntity
  8
_U+30EC_U+30A4_U+30E4_U+30FC 1
 62
   179
420
  2234388
370
    25
100
AcDbVertex
100
AcDb2dVertex
 10
83.88462674881377
 20
-135.6147980216521
 30
0.0
  0
SEQEND
  5
4A
330
47
100
AcDbEntity
  8
_U+30EC_U+30A4_U+30E4_U+30FC 1
 62
   179
420
  2234388
370
    25
  0
POLYLINE
  5
4B
330
1F
100
AcDbEntity
  8
_U+30EC_U+30A4_U+30E4_U+30FC 1
 62
   179
420
  2234388
370
    25
100
AcDb2dPolyline
 66
     1
 10
0.0
 20
0.0
 30
0.0
  0
VERTEX
  5
4C
330
4B
100
AcDbEntity
  8
_U+30EC_U+30A4_U+30E4_U+30FC 1
 62
   179
420
  2234388
370
    25
100
AcDbVertex
100
AcDb2dVertex
 10
83.88462674881377
 20
-135.6147980216521
 30
0.0
  0
VERTEX
  5
4D
330
4B
100
AcDbEntity
  8
_U+30EC_U+30A4_U+30E4_U+30FC 1
 62
   179
420
  2234388
370
    25
100
AcDbVertex
100
AcDb2dVertex
 10
100.1199888346152
 20
-135.6147980216521
 30
0.0
  0
SEQEND
  5
4E
330
4B
100
AcDbEntity
  8
_U+30EC_U+30A4_U+30E4_U+30FC 1
 62
   179
420
  2234388
370
    25
  0
POLYLINE
  5
4F
330
1F
100
AcDbEntity
  8
_U+30EC_U+30A4_U+30E4_U+30FC 1
 62
   179
420
  2234388
370
    25
100
AcDb2dPolyline
 66
     1
 10
0.0
 20
0.0
 30
0.0
  0
VERTEX
  5
50
330
4F
100
AcDbEntity
  8
_U+30EC_U+30A4_U+30E4_U+30FC 1
 62
   179
420
  2234388
370
    25
100
AcDbVertex
100
AcDb2dVertex
 10
84.88439894552968
 20
-121.5546985807226
 30
0.0
  0
VERTEX
  5
51
330
4F
100
AcDbEntity
  8
_U+30EC_U+30A4_U+30E4_U+30FC 1
 62
   179
420
  2234388
370
    25
100
AcDbVertex
100
AcDb2dVertex
 10
84.88439894552968
 20
-134.6150257996796
 30
0.0
  0
SEQEND
  5
52
330
4F
100
AcDbEntity
  8
_U+30EC_U+30A4_U+30E4_U+30FC 1
 62
   179
420
  2234388
370
    25
  0
POLYLINE
  5
53
330
1F
100
AcDbEntity
  8
_U+30EC_U+30A4_U+30E4_U+30FC 1
 62
   179
420
  2234388
370
    25
100
AcDb2dPolyline
 66
     1
 10
0.0
 20
0.0
 30
0.0
  0
VERTEX
  5
54
330
53
100
AcDbEntity
  8
_U+30EC_U+30A4_U+30E4_U+30FC 1
 62
   179
420
  2234388
370
    25
100
AcDbVertex
100
AcDb2dVertex
 10
99.12021663789926
 20
-134.6150257996796
 30
0.0
  0
VERTEX
  5
55
330
53
100
AcDbEntity
  8
_U+30EC_U+30A4_U+30E4_U+30FC 1
 62
   179
420
  2234388
370
    25
100
AcDbVertex
100
AcDb2dVertex
 10
100.1199888346152
 20
-135.6147980216521
 30
0.0
  0
SEQEND
  5
56
330
53
100
AcDbEntity
  8
_U+30EC_U+30A4_U+30E4_U+30FC 1
 62
   179
420
  2234388
370
    25
  0
POLYLINE
  5
57
330
1F
100
AcDbEntity
  8
_U+30EC_U+30A4_U+30E4_U+30FC 1
 62
   179
420
  2234388
370
    25
100
AcDb2dPolyline
 66
     1
 10
0.0
 20
0.0
 30
0.0
  0
VERTEX
  5
58
330
57
100
AcDbEntity
  8
_U+30EC_U+30A4_U+30E4_U+30FC 1
 62
   179
420
  2234388
370
    25
100
AcDbVertex
100
AcDb2dVertex
 10
88.72152745874749
 20
-124.6147988577352
 30
0.0
  0
VERTEX
  5
59
330
57
100
AcDbEntity
  8
_U+30EC_U+30A4_U+30E4_U+30FC 1
 62
   179
420
  2234388
370
    25
100
AcDbVertex
100
AcDb2dVertex
 10
90.49920991339502
 20
-124.6147988577352
 30
0.0
  0
SEQEND
  5
5A
330
57
100
AcDbEntity
  8
_U+30EC_U+30A4_U+30E4_U+30FC 1
 62
   179
420
  2234388
370
    25
  0
POLYLINE
  5
5B
330
1F
100
AcDbEntity
  8
_U+30EC_U+30A4_U+30E4_U+30FC 1
 62
   179
420
  2234388
370
    25
100
AcDb2dPolyline
 66
     1
 10
0.0
 20
0.0
 30
0.0
  0
VERTEX
  5
5C
330
5B
100
AcDbEntity
  8
_U+30EC_U+30A4_U+30E4_U+30FC 1
 62
   179
420
  2234388
370
    25
100
AcDbVertex
100
AcDb2dVertex
 10
83.88462674881377
 20
-119.2147588590852
 30
0.0
  0
VERTEX
  5
5D
330
5B
100
AcDbEntity
  8
_U+30EC_U+30A4_U+30E4_U+30FC 1
 62
   179
420
  2234388
370
    25
100
AcDbVertex
100
AcDb2dVertex
 10
90.49920991339502
 20
-124.6147988577352
 30
0.0
  0
SEQEND
  5
5E
330
5B
100
AcDbEntity
  8
_U+30EC_U+30A4_U+30E4_U+30FC 1
 62
   179
420
  2234388
370
    25
  0
POLYLINE
  5
5F
330
1F
100
AcDbEntity
  8
_U+30EC_U+30A4_U+30E4_U+30FC 1
 62
   179
420
  2234388
370
    25
100
AcDb2dPolyline
 66
     1
 10
0.0
 20
0.0
 30
0.0
  0
VERTEX
  5
60
330
5F
100
AcDbEntity
  8
_U+30EC_U+30A4_U+30E4_U+30FC 1
 62
   179
420
  2234388
370
    25
100
AcDbVertex
100
AcDb2dVertex
 10
84.88439894552968
 20
-121.5546985807226
 30
0.0
  0
VERTEX
  5
61
330
5F
100
AcDbEntity
  8
_U+30EC_U+30A4_U+30E4_U+30FC 1
 62
   179
420
  2234388
370
    25
100
AcDbVertex
100
AcDb2dVertex
 10
88.72152745874749
 20
-124.6147988577352
 30
0.0
  0
SEQEND
  5
62
330
5F
100
AcDbEntity
  8
_U+30EC_U+30A4_U+30E4_U+30FC 1
 62
   179
420
  2234388
370
    25
  0
SPLINE
  5
63
330
1F
100
AcDbEntity
  8
_U+30EC_U+30A4_U+30E4_U+30FC 1
 62
   179
420
  2234388
370
     9
100
AcDbSpline
210
0.0
220
0.0
230
1.0
 70
    11
 71
     3
 72
    17
 73
    13
 74
     0
 42
0.0000000001
 43
0.0000000001
 12
1.0
 22
0.0
 32
0.0
 13
1.0
 23
0.0
 33
0.0
 40
0.0
 40
0.0
 40
0.0
 40
0.0
 40
1.0
 40
1.0
 40
1.0
 40
2.0
 40
2.0
 40
2.0
 40
3.0
 40
3.0
 40
3.0
 40
4.0
 40
4.0
 40
4.0
 40
4.0
 10
79.9847743483073
 20
-135.6147980216521
 30
0.0
 10
79.9847743483073
 20
-135.5596941327766
 30
0.0
 10
79.9400068494494
 20
-135.5148913550099
 30
0.0
 10
79.88486768418946
 20
-135.5148913550099
 30
0.0
 10
79.82976379670639
 20
-135.5148913550099
 30
0.0
 10
79.78496102007162
 20
-135.5596941327766
 30
0.0
 10
79.78496102007162
 20
-135.6147980216521
 30
0.0
 10
79.78496102007162
 20
-135.6699371883046
 30
0.0
 10
79.82976379670639
 20
-135.7147046882938
 30
0.0
 10
79.88486768418946
 20
-135.7147046882938
 30
0.0
 10
79.9400068494494
 20
-135.7147046882938
 30
0.0
 10
79.9847743483073
 20
-135.6699371883046
 30
0.0
 10
79.9847743483073
 20
-135.6147980216521
 30
0.0
  0
SPLINE
  5
64
330
1F
100
AcDbEntity
  8
_U+30EC_U+30A4_U+30E4_U+30FC 1
 62
   179
420
  2234388
370
     9
100
AcDbSpline
210
0.0
220
0.0
230
1.0
 70
    11
 71
     3
 72
    17
 73
    13
 74
     0
 42
0.0000000001
 43
0.0000000001
 12
1.0
 22
0.0
 32
0.0
 13
1.0
 23
0.0
 33
0.0
 40
0.0
 40
0.0
 40
0.0
 40
0.0
 40
1.0
 40
1.0
 40
1.0
 40
2.0
 40
2.0
 40
2.0
 40
3.0
 40
3.0
 40
3.0
 40
4.0
 40
4.0
 40
4.0
 40
4.0
 10
83.98453341293161
 20
-139.6142044095406
 30
0.0
 10
83.98453341293161
 20
-139.5591005206657
 30
0.0
 10
83.93976591407372
 20
-139.514297742899
 30
0.0
 10
83.88462674881377
 20
-139.514297742899
 30
0.0
 10
83.82952497904277
 20
-139.514297742899
 30
0.0
 10
83.78472220127604
 20
-139.5591005206657
 30
0.0
 10
83.78472220127604
 20
-139.6142044095406
 30
0.0
 10
83.78472220127604
 20
-139.6700138539717
 30
0.0
 10
83.82952497904277
 20
-139.7148166317378
 30
0.0
 10
83.88462674881377
 20
-139.7148166317378
 30
0.0
 10
83.93976591407372
 20
-139.7148166317378
 30
0.0
 10
83.98453341293161
 20
-139.6700138539717
 30
0.0
 10
83.98453341293161
 20
-139.6142044095406
 30
0.0
  0
SPLINE
  5
65
330
1F
100
AcDbEntity
  8
_U+30EC_U+30A4_U+30E4_U+30FC 1
 62
   179
420
  2234388
370
     9
100
AcDbSpline
210
0.0
220
0.0
230
1.0
 70
    11
 71
     3
 72
    17
 73
    13
 74
     0
 42
0.0000000001
 43
0.0000000001
 12
1.0
 22
0.0
 32
0.0
 13
1.0
 23
0.0
 33
0.0
 40
0.0
 40
0.0
 40
0.0
 40
0.0
 40
1.0
 40
1.0
 40
1.0
 40
2.0
 40
2.0
 40
2.0
 40
3.0
 40
3.0
 40
3.0
 40
4.0
 40
4.0
 40
4.0
 40
4.0
 10
104.220324841118
 20
-134.6150257996796
 30
0.0
 10
104.220324841118
 20
-134.5599219108047
 30
0.0
 10
104.1755573422601
 20
-134.515119133038
 30
0.0
 10
104.1197478992395
 20
-134.515119133038
 30
0.0
 10
104.0646087339795
 20
-134.515119133038
 30
0.0
 10
104.0198412351216
 20
-134.5599219108047
 30
0.0
 10
104.0198412351216
 20
-134.6150257996796
 30
0.0
 10
104.0198412351216
 20
-134.6701649663327
 30
0.0
 10
104.0646087339795
 20
-134.7149324663212
 30
0.0
 10
104.1197478992395
 20
-134.7149324663212
 30
0.0
 10
104.1755573422601
 20
-134.7149324663212
 30
0.0
 10
104.220324841118
 20
-134.6701649663327
 30
0.0
 10
104.220324841118
 20
-134.6150257996796
 30
0.0
  0
SPLINE
  5
66
330
1F
100
AcDbEntity
  8
_U+30EC_U+30A4_U+30E4_U+30FC 1
 62
   179
420
  2234388
370
     9
100
AcDbSpline
210
0.0
220
0.0
230
1.0
 70
    11
 71
     3
 72
    17
 73
    13
 74
     0
 42
0.0000000001
 43
0.0000000001
 12
1.0
 22
0.0
 32
0.0
 13
1.0
 23
0.0
 33
0.0
 40
0.0
 40
0.0
 40
0.0
 40
0.0
 40
1.0
 40
1.0
 40
1.0
 40
2.0
 40
2.0
 40
2.0
 40
3.0
 40
3.0
 40
3.0
 40
4.0
 40
4.0
 40
4.0
 40
4.0
 10
104.220324841118
 20
-135.6151507994292
 30
0.0
 10
104.220324841118
 20
-135.5600116327768
 30
0.0
 10
104.1755573422601
 20
-135.5152441327876
 30
0.0
 10
104.1197478992395
 20
-135.5152441327876
 30
0.0
 10
104.0646087339795
 20
-135.5152441327876
 30
0.0
 10
104.0198412351216
 20
-135.5600116327768
 30
0.0
 10
104.0198412351216
 20
-135.6151507994292
 30
0.0
 10
104.0198412351216
 20
-135.6702546883048
 30
0.0
 10
104.0646087339795
 20
-135.7150574660715
 30
0.0
 10
104.1197478992395
 20
-135.7150574660715
 30
0.0
 10
104.1755573422601
 20
-135.7150574660715
 30
0.0
 10
104.220324841118
 20
-135.6702546883048
 30
0.0
 10
104.220324841118
 20
-135.6151507994292
 30
0.0
  0
SPLINE
  5
67
330
1F
100
AcDbEntity
  8
_U+30EC_U+30A4_U+30E4_U+30FC 1
 62
   179
420
  2234388
370
     9
100
AcDbSpline
210
0.0
220
0.0
230
1.0
 70
    11
 71
     3
 72
    17
 73
    13
 74
     0
 42
0.0000000001
 43
0.0000000001
 12
1.0
 22
0.0
 32
0.0
 13
1.0
 23
0.0
 33
0.0
 40
0.0
 40
0.0
 40
0.0
 40
0.0
 40
1.0
 40
1.0
 40
1.0
 40
2.0
 40
2.0
 40
2.0
 40
3.0
 40
3.0
 40
3.0
 40
4.0
 40
4.0
 40
4.0
 40
4.0
 10
100.219895498733
 20
-139.6142044095406
 30
0.0
 10
100.219895498733
 20
-139.5591005206657
 30
0.0
 10
100.1750927220982
 20
-139.514297742899
 30
0.0
 10
100.1199888346152
 20
-139.514297742899
 30
0.0
 10
100.0648496693552
 20
-139.514297742899
 30
0.0
 10
100.0200821704973
 20
-139.5591005206657
 30
0.0
 10
100.0200821704973
 20
-139.6142044095406
 30
0.0
 10
100.0200821704973
 20
-139.6700138539717
 30
0.0
 10
100.0648496693552
 20
-139.7148166317378
 30
0.0
 10
100.1199888346152
 20
-139.7148166317378
 30
0.0
 10
100.1750927220982
 20
-139.7148166317378
 30
0.0
 10
100.219895498733
 20
-139.6700138539717
 30
0.0
 10
100.219895498733
 20
-139.6142044095406
 30
0.0
  0
SPLINE
  5
68
330
1F
100
AcDbEntity
  8
_U+30EC_U+30A4_U+30E4_U+30FC 1
 62
   179
420
  2234388
370
     9
100
AcDbSpline
210
0.0
220
0.0
230
1.0
 70
    11
 71
     3
 72
    17
 73
    13
 74
     0
 42
0.0000000001
 43
0.0000000001
 12
1.0
 22
0.0
 32
0.0
 13
1.0
 23
0.0
 33
0.0
 40
0.0
 40
0.0
 40
0.0
 40
0.0
 40
1.0
 40
1.0
 40
1.0
 40
2.0
 40
2.0
 40
2.0
 40
3.0
 40
3.0
 40
3.0
 40
4.0
 40
4.0
 40
4.0
 40
4.0
 10
79.9847743483073
 20
-119.2147588590852
 30
0.0
 10
79.9847743483073
 20
-119.1596549702103
 30
0.0
 10
79.9400068494494
 20
-119.1148521924435
 30
0.0
 10
79.88486768418946
 20
-119.1148521924435
 30
0.0
 10
79.82976379670639
 20
-119.1148521924435
 30
0.0
 10
79.78496102007162
 20
-119.1596549702103
 30
0.0
 10
79.78496102007162
 20
-119.2147588590852
 30
0.0
 10
79.78496102007162
 20
-119.2702508035157
 30
0.0
 10
79.82976379670639
 20
-119.3150183035046
 30
0.0
 10
79.88486768418946
 20
-119.3150183035046
 30
0.0
 10
79.9400068494494
 20
-119.3150183035046
 30
0.0
 10
79.9847743483073
 20
-119.2702508035157
 30
0.0
 10
79.9847743483073
 20
-119.2147588590852
 30
0.0
  0
SPLINE
  5
69
330
1F
100
AcDbEntity
  8
_U+30EC_U+30A4_U+30E4_U+30FC 1
 62
   179
420
  2234388
370
     9
100
AcDbSpline
210
0.0
220
0.0
230
1.0
 70
    11
 71
     3
 72
    17
 73
    13
 74
     0
 42
0.0000000001
 43
0.0000000001
 12
1.0
 22
0.0
 32
0.0
 13
1.0
 23
0.0
 33
0.0
 40
0.0
 40
0.0
 40
0.0
 40
0.0
 40
1.0
 40
1.0
 40
1.0
 40
2.0
 40
2.0
 40
2.0
 40
3.0
 40
3.0
 40
3.0
 40
4.0
 40
4.0
 40
4.0
 40
4.0
 10
92.7750498553335
 20
-121.4297799696425
 30
0.0
 10
92.77709596639242
 20
-121.3746760807676
 30
0.0
 10
92.73370430083277
 20
-121.328497469668
 30
0.0
 10
92.67856513557282
 20
-121.3268041363349
 30
0.0
 10
92.62346124808975
 20
-121.3250755252242
 30
0.0
 10
92.57728263815676
 20
-121.3677969141026
 30
0.0
 10
92.57523886574496
 20
-121.4229008029775
 30
0.0
 10
92.57315513826205
 20
-121.4780399696306
 30
0.0
 10
92.61658208159858
 20
-121.5241833029523
 30
0.0
 10
92.67168596908165
 20
-121.5262646918407
 30
0.0
 10
92.72682513434161
 20
-121.5283108029513
 30
0.0
 10
92.77296846649773
 20
-121.4849191362956
 30
0.0
 10
92.7750498553335
 20
-121.4297799696425
 30
0.0
  0
SPLINE
  5
6A
330
1F
100
AcDbEntity
  8
_U+30EC_U+30A4_U+30E4_U+30FC 1
 62
   179
420
  2234388
370
     9
100
AcDbSpline
210
0.0
220
0.0
230
1.0
 70
    11
 71
     3
 72
    17
 73
    13
 74
     0
 42
0.0000000001
 43
0.0000000001
 12
1.0
 22
0.0
 32
0.0
 13
1.0
 23
0.0
 33
0.0
 40
0.0
 40
0.0
 40
0.0
 40
0.0
 40
1.0
 40
1.0
 40
1.0
 40
2.0
 40
2.0
 40
2.0
 40
3.0
 40
3.0
 40
3.0
 40
4.0
 40
4.0
 40
4.0
 40
4.0
 10
86.3223916866212
 20
-116.7024519152687
 30
0.0
 10
86.32376751991944
 20
-116.6469599708382
 30
0.0
 10
86.28104613212047
 20
-116.6004638597387
 30
0.0
 10
86.2259069668605
 20
-116.598735248628
 30
0.0
 10
86.17009752383989
 20
-116.5970066375174
 30
0.0
 10
86.12395419168377
 20
-116.6397280263957
 30
0.0
 10
86.12187497846953
 20
-116.6952199708262
 30
0.0
 10
86.11979141401218
 20
-116.7503238597015
 30
0.0
 10
86.16321835734873
 20
-116.7965024708007
 30
0.0
 10
86.21902780036935
 20
-116.7985485819116
 30
0.0
 10
86.27413168785242
 20
-116.8006299707997
 30
0.0
 10
86.32031029778541
 20
-116.7572030263662
 30
0.0
 10
86.3223916866212
 20
-116.7024519152687
 30
0.0
  0
SPLINE
  5
6B
330
1F
100
AcDbEntity
  8
_U+30EC_U+30A4_U+30E4_U+30FC 1
 62
   179
420
  2234388
370
     9
100
AcDbSpline
210
0.0
220
0.0
230
1.0
 70
    11
 71
     3
 72
    17
 73
    13
 74
     0
 42
0.0000000001
 43
0.0000000001
 12
1.0
 22
0.0
 32
0.0
 13
1.0
 23
0.0
 33
0.0
 40
0.0
 40
0.0
 40
0.0
 40
0.0
 40
1.0
 40
1.0
 40
1.0
 40
2.0
 40
2.0
 40
2.0
 40
3.0
 40
3.0
 40
3.0
 40
4.0
 40
4.0
 40
4.0
 40
4.0
 10
104.220324841118
 20
-124.6147988577352
 30
0.0
 10
104.220324841118
 20
-124.5596596910825
 30
0.0
 10
104.1755573422601
 20
-124.5148921910936
 30
0.0
 10
104.1197478992395
 20
-124.5148921910936
 30
0.0
 10
104.0646087339795
 20
-124.5148921910936
 30
0.0
 10
104.0198412351216
 20
-124.5596596910825
 30
0.0
 10
104.0198412351216
 20
-124.6147988577352
 30
0.0
 10
104.0198412351216
 20
-124.6702555243879
 30
0.0
 10
104.0646087339795
 20
-124.7150230243768
 30
0.0
 10
104.1197478992395
 20
-124.7150230243768
 30
0.0
 10
104.1755573422601
 20
-124.7150230243768
 30
0.0
 10
104.220324841118
 20
-124.6702555243879
 30
0.0
 10
104.220324841118
 20
-124.6147988577352
 30
0.0
  0
POLYLINE
  5
6C
330
1F
100
AcDbEntity
  8
_U+30EC_U+30A4_U+30E4_U+30FC 1
 62
   179
420
  2234388
370
     9
100
AcDb2dPolyline
 66
     1
 10
0.0
 20
0.0
 30
0.0
  0
VERTEX
  5
6D
330
6C
100
AcDbEntity
  8
_U+30EC_U+30A4_U+30E4_U+30FC 1
 62
   179
420
  2234388
370
     9
100
AcDbVertex
100
AcDb2dVertex
 10
83.88462674881377
 20
-139.6142044095406
 30
0.0
  0
VERTEX
  5
6E
330
6C
100
AcDbEntity
  8
_U+30EC_U+30A4_U+30E4_U+30FC 1
 62
   179
420
  2234388
370
     9
100
AcDbVertex
100
AcDb2dVertex
 10
100.1199888346152
 20
-139.6142044095406
 30
0.0
  0
SEQEND
  5
6F
330
6C
100
AcDbEntity
  8
_U+30EC_U+30A4_U+30E4_U+30FC 1
 62
   179
420
  2234388
370
     9
  0
POLYLINE
  5
70
330
1F
100
AcDbEntity
  8
_U+30EC_U+30A4_U+30E4_U+30FC 1
 62
   179
420
  2234388
370
     9
100
AcDb2dPolyline
 66
     1
 10
0.0
 20
0.0
 30
0.0
  0
VERTEX
  5
71
330
70
100
AcDbEntity
  8
_U+30EC_U+30A4_U+30E4_U+30FC 1
 62
   179
420
  2234388
370
     9
100
AcDbVertex
100
AcDb2dVertex
 10
83.88462674881377
 20
-138.1541982987951
 30
0.0
  0
VERTEX
  5
72
330
70
100
AcDbEntity
  8
_U+30EC_U+30A4_U+30E4_U+30FC 1
 62
   179
420
  2234388
370
     9
100
AcDbVertex
100
AcDb2dVertex
 10
83.88462674881377
 20
-140.6146821870687
 30
0.0
  0
SEQEND
  5
73
330
70
100
AcDbEntity
  8
_U+30EC_U+30A4_U+30E4_U+30FC 1
 62
   179
420
  2234388
370
     9
  0
POLYLINE
  5
74
330
1F
100
AcDbEntity
  8
_U+30EC_U+30A4_U+30E4_U+30FC 1
 62
   179
420
  2234388
370
     9
100
AcDb2dPolyline
 66
     1
 10
0.0
 20
0.0
 30
0.0
  0
VERTEX
  5
75
330
74
100
AcDbEntity
  8
_U+30EC_U+30A4_U+30E4_U+30FC 1
 62
   179
420
  2234388
370
     9
100
AcDbVertex
100
AcDb2dVertex
 10
100.1199888346152
 20
-138.1541982987951
 30
0.0
  0
VERTEX
  5
76
330
74
100
AcDbEntity
  8
_U+30EC_U+30A4_U+30E4_U+30FC 1
 62
   179
420
  2234388
370
     9
100
AcDbVertex
100
AcDb2dVertex
 10
100.1199888346152
 20
-140.6146821870687
 30
0.0
  0
SEQEND
  5
77
330
74
100
AcDbEntity
  8
_U+30EC_U+30A4_U+30E4_U+30FC 1
 62
   179
420
  2234388
370
     9
  0
INSERT
  5
79
330
1F
100
AcDbEntity
  8
_U+30EC_U+30A4_U+30E4_U+30FC 1
100
AcDbBlockReference
  2
block 2
 10
0.0
 20
0.0
 30
0.0
  0
SPLINE
  5
8B
330
1F
100
AcDbEntity
  8
_U+30EC_U+30A4_U+30E4_U+30FC 1
 62
   179
420
  2234388
370
    25
100
AcDbSpline
210
0.0
220
0.0
230
1.0
 70
    11
 71
     3
 72
    17
 73
    13
 74
     0
 42
0.0000000001
 43
0.0000000001
 12
1.0
 22
0.0
 32
0.0
 13
1.0
 23
0.0
 33
0.0
 40
0.0
 40
0.0
 40
0.0
 40
0.0
 40
1.0
 40
1.0
 40
1.0
 40
2.0
 40
2.0
 40
2.0
 40
3.0
 40
3.0
 40
3.0
 40
4.0
 40
4.0
 40
4.0
 40
4.0
 10
83.91976341458403
 20
-135.6147980216521
 30
0.0
 10
83.91976341458403
 20
-135.6340949660913
 30
0.0
 10
83.90392369276591
 20
-135.6499346883099
 30
0.0
 10
83.88462674881377
 20
-135.6499346883099
 30
0.0
 10
83.86532980486163
 20
-135.6499346883099
 30
0.0
 10
83.84949008304352
 20
-135.6340949660913
 30
0.0
 10
83.84949008304352
 20
-135.6147980216521
 30
0.0
 10
83.84949008304352
 20
-135.5955010772123
 30
0.0
 10
83.86532980486163
 20
-135.5796613549938
 30
0.0
 10
83.88462674881377
 20
-135.5796613549938
 30
0.0
 10
83.90392369276591
 20
-135.5796613549938
 30
0.0
 10
83.91976341458403
 20
-135.5955010772123
 30
0.0
 10
83.91976341458403
 20
-135.6147980216521
 30
0.0
  0
SPLINE
  5
8C
330
1F
100
AcDbEntity
  8
_U+30EC_U+30A4_U+30E4_U+30FC 1
 62
   179
420
  2234388
370
    25
100
AcDbSpline
210
0.0
220
0.0
230
1.0
 70
    11
 71
     3
 72
    17
 73
    13
 74
     0
 42
0.0000000001
 43
0.0000000001
 12
1.0
 22
0.0
 32
0.0
 13
1.0
 23
0.0
 33
0.0
 40
0.0
 40
0.0
 40
0.0
 40
0.0
 40
1.0
 40
1.0
 40
1.0
 40
2.0
 40
2.0
 40
2.0
 40
3.0
 40
3.0
 40
3.0
 40
4.0
 40
4.0
 40
4.0
 40
4.0
 10
100.1551255003854
 20
-135.6147980216521
 30
0.0
 10
100.1551255003854
 20
-135.6340949660913
 30
0.0
 10
100.1392857785673
 20
-135.6499346883099
 30
0.0
 10
100.1199888346152
 20
-135.6499346883099
 30
0.0
 10
100.1006944194193
 20
-135.6499346883099
 30
0.0
 10
100.0848521688449
 20
-135.6340949660913
 30
0.0
 10
100.0848521688449
 20
-135.6147980216521
 30
0.0
 10
100.0848521688449
 20
-135.5955010772123
 30
0.0
 10
100.1006944194193
 20
-135.5796613549938
 30
0.0
 10
100.1199888346152
 20
-135.5796613549938
 30
0.0
 10
100.1392857785673
 20
-135.5796613549938
 30
0.0
 10
100.1551255003854
 20
-135.5955010772123
 30
0.0
 10
100.1551255003854
 20
-135.6147980216521
 30
0.0
  0
SPLINE
  5
8D
330
1F
100
AcDbEntity
  8
_U+30EC_U+30A4_U+30E4_U+30FC 1
 62
   179
420
  2234388
370
     9
100
AcDbSpline
210
0.0
220
0.0
230
1.0
 70
    11
 71
     3
 72
    17
 73
    13
 74
     0
 42
0.0000000001
 43
0.0000000001
 12
1.0
 22
0.0
 32
0.0
 13
1.0
 23
0.0
 33
0.0
 40
0.0
 40
0.0
 40
0.0
 40
0.0
 40
1.0
 40
1.0
 40
1.0
 40
2.0
 40
2.0
 40
2.0
 40
3.0
 40
3.0
 40
3.0
 40
4.0
 40
4.0
 40
4.0
 40
4.0
 10
100.1551255003854
 20
-139.6142044095406
 30
0.0
 10
100.1551255003854
 20
-139.634206909536
 30
0.0
 10
100.1392857785673
 20
-139.6500466317539
 30
0.0
 10
100.1199888346152
 20
-139.6500466317539
 30
0.0
 10
100.1006944194193
 20
-139.6500466317539
 30
0.0
 10
100.0848521688449
 20
-139.634206909536
 30
0.0
 10
100.0848521688449
 20
-139.6142044095406
 30
0.0
 10
100.0848521688449
 20
-139.5949074651014
 30
0.0
 10
100.1006944194193
 20
-139.5790677428829
 30
0.0
 10
100.1199888346152
 20
-139.5790677428829
 30
0.0
 10
100.1392857785673
 20
-139.5790677428829
 30
0.0
 10
100.1551255003854
 20
-139.5949074651014
 30
0.0
 10
100.1551255003854
 20
-139.6142044095406
 30
0.0
  0
POLYLINE
  5
8E
330
1F
100
AcDbEntity
  8
_U+30EC_U+30A4_U+30E4_U+30FC 1
 62
   179
420
  2234388
370
     9
100
AcDb2dPolyline
 66
     1
 10
0.0
 20
0.0
 30
0.0
  0
VERTEX
  5
8F
330
8E
100
AcDbEntity
  8
_U+30EC_U+30A4_U+30E4_U+30FC 1
 62
   179
420
  2234388
370
     9
100
AcDbVertex
100
AcDb2dVertex
 10
79.88486768418946
 20
-119.2147588590852
 30
0.0
  0
VERTEX
  5
90
330
8E
100
AcDbEntity
  8
_U+30EC_U+30A4_U+30E4_U+30FC 1
 62
   179
420
  2234388
370
     9
100
AcDbVertex
100
AcDb2dVertex
 10
79.88486768418946
 20
-135.6147980216521
 30
0.0
  0
SEQEND
  5
91
330
8E
100
AcDbEntity
  8
_U+30EC_U+30A4_U+30E4_U+30FC 1
 62
   179
420
  2234388
370
     9
  0
POLYLINE
  5
92
330
1F
100
AcDbEntity
  8
_U+30EC_U+30A4_U+30E4_U+30FC 1
 62
   179
420
  2234388
370
     9
100
AcDb2dPolyline
 66
     1
 10
0.0
 20
0.0
 30
0.0
  0
VERTEX
  5
93
330
92
100
AcDbEntity
  8
_U+30EC_U+30A4_U+30E4_U+30FC 1
 62
   179
420
  2234388
370
     9
100
AcDbVertex
100
AcDb2dVertex
 10
81.34491109077483
 20
-119.2147588590852
 30
0.0
  0
VERTEX
  5
94
330
92
100
AcDbEntity
  8
_U+30EC_U+30A4_U+30E4_U+30FC 1
 62
   179
420
  2234388
370
     9
100
AcDbVertex
100
AcDb2dVertex
 10
78.88442520971287
 20
-119.2147588590852
 30
0.0
  0
SEQEND
  5
95
330
92
100
AcDbEntity
  8
_U+30EC_U+30A4_U+30E4_U+30FC 1
 62
   179
420
  2234388
370
     9
  0
POLYLINE
  5
96
330
1F
100
AcDbEntity
  8
_U+30EC_U+30A4_U+30E4_U+30FC 1
 62
   179
420
  2234388
370
     9
100
AcDb2dPolyline
 66
     1
 10
0.0
 20
0.0
 30
0.0
  0
VERTEX
  5
97
330
96
100
AcDbEntity
  8
_U+30EC_U+30A4_U+30E4_U+30FC 1
 62
   179
420
  2234388
370
     9
100
AcDbVertex
100
AcDb2dVertex
 10
81.34491109077483
 20
-135.6147980216521
 30
0.0
  0
VERTEX
  5
98
330
96
100
AcDbEntity
  8
_U+30EC_U+30A4_U+30E4_U+30FC 1
 62
   179
420
  2234388
370
     9
100
AcDbVertex
100
AcDb2dVertex
 10
78.88442520971287
 20
-135.6147980216521
 30
0.0
  0
SEQEND
  5
99
330
96
100
AcDbEntity
  8
_U+30EC_U+30A4_U+30E4_U+30FC 1
 62
   179
420
  2234388
370
     9
  0
INSERT
  5
9B
330
1F
100
AcDbEntity
  8
_U+30EC_U+30A4_U+30E4_U+30FC 1
100
AcDbBlockReference
  2
block 3
 10
0.0
 20
0.0
 30
0.0
  0
SPLINE
  5
AD
330
1F
100
AcDbEntity
  8
_U+30EC_U+30A4_U+30E4_U+30FC 1
 62
   179
420
  2234388
370
    25
100
AcDbSpline
210
0.0
220
0.0
230
1.0
 70
    11
 71
     3
 72
    17
 73
    13
 74
     0
 42
0.0000000001
 43
0.0000000001
 12
1.0
 22
0.0
 32
0.0
 13
1.0
 23
0.0
 33
0.0
 40
0.0
 40
0.0
 40
0.0
 40
0.0
 40
1.0
 40
1.0
 40
1.0
 40
2.0
 40
2.0
 40
2.0
 40
3.0
 40
3.0
 40
3.0
 40
4.0
 40
4.0
 40
4.0
 40
4.0
 10
83.91976341458403
 20
-119.2147588590852
 30
0.0
 10
83.91976341458403
 20
-119.2344085813024
 30
0.0
 10
83.90392369276591
 20
-119.2502483035206
 30
0.0
 10
83.88462674881377
 20
-119.2502483035206
 30
0.0
 10
83.86532980486163
 20
-119.2502483035206
 30
0.0
 10
83.84949008304352
 20
-119.2344085813024
 30
0.0
 10
83.84949008304352
 20
-119.2147588590852
 30
0.0
 10
83.84949008304352
 20
-119.1954971924235
 30
0.0
 10
83.86532980486163
 20
-119.1796221924274
 30
0.0
 10
83.88462674881377
 20
-119.1796221924274
 30
0.0
 10
83.90392369276591
 20
-119.1796221924274
 30
0.0
 10
83.91976341458403
 20
-119.1954971924235
 30
0.0
 10
83.91976341458403
 20
-119.2147588590852
 30
0.0
  0
SPLINE
  5
AE
330
1F
100
AcDbEntity
  8
_U+30EC_U+30A4_U+30E4_U+30FC 1
 62
   179
420
  2234388
370
    25
100
AcDbSpline
210
0.0
220
0.0
230
1.0
 70
    11
 71
     3
 72
    17
 73
    13
 74
     0
 42
0.0000000001
 43
0.0000000001
 12
1.0
 22
0.0
 32
0.0
 13
1.0
 23
0.0
 33
0.0
 40
0.0
 40
0.0
 40
0.0
 40
0.0
 40
1.0
 40
1.0
 40
1.0
 40
2.0
 40
2.0
 40
2.0
 40
3.0
 40
3.0
 40
3.0
 40
4.0
 40
4.0
 40
4.0
 40
4.0
 10
83.91976341458403
 20
-135.6147980216521
 30
0.0
 10
83.91976341458403
 20
-135.6340949660913
 30
0.0
 10
83.90392369276591
 20
-135.6499346883099
 30
0.0
 10
83.88462674881377
 20
-135.6499346883099
 30
0.0
 10
83.86532980486163
 20
-135.6499346883099
 30
0.0
 10
83.84949008304352
 20
-135.6340949660913
 30
0.0
 10
83.84949008304352
 20
-135.6147980216521
 30
0.0
 10
83.84949008304352
 20
-135.5955010772123
 30
0.0
 10
83.86532980486163
 20
-135.5796613549938
 30
0.0
 10
83.88462674881377
 20
-135.5796613549938
 30
0.0
 10
83.90392369276591
 20
-135.5796613549938
 30
0.0
 10
83.91976341458403
 20
-135.5955010772123
 30
0.0
 10
83.91976341458403
 20
-135.6147980216521
 30
0.0
  0
SPLINE
  5
AF
330
1F
100
AcDbEntity
  8
_U+30EC_U+30A4_U+30E4_U+30FC 1
 62
   179
420
  2234388
370
     9
100
AcDbSpline
210
0.0
220
0.0
230
1.0
 70
    11
 71
     3
 72
    17
 73
    13
 74
     0
 42
0.0000000001
 43
0.0000000001
 12
1.0
 22
0.0
 32
0.0
 13
1.0
 23
0.0
 33
0.0
 40
0.0
 40
0.0
 40
0.0
 40
0.0
 40
1.0
 40
1.0
 40
1.0
 40
2.0
 40
2.0
 40
2.0
 40
3.0
 40
3.0
 40
3.0
 40
4.0
 40
4.0
 40
4.0
 40
4.0
 10
79.92000434995971
 20
-135.6147980216521
 30
0.0
 10
79.92000434995971
 20
-135.6340949660913
 30
0.0
 10
79.90416664669063
 20
-135.6499346883099
 30
0.0
 10
79.88486768418946
 20
-135.6499346883099
 30
0.0
 10
79.86490046247664
 20
-135.6499346883099
 30
0.0
 10
79.8497310184192
 20
-135.6340949660913
 30
0.0
 10
79.8497310184192
 20
-135.6147980216521
 30
0.0
 10
79.8497310184192
 20
-135.5955010772123
 30
0.0
 10
79.86490046247664
 20
-135.5796613549938
 30
0.0
 10
79.88486768418946
 20
-135.5796613549938
 30
0.0
 10
79.90416664669063
 20
-135.5796613549938
 30
0.0
 10
79.92000434995971
 20
-135.5955010772123
 30
0.0
 10
79.92000434995971
 20
-135.6147980216521
 30
0.0
  0
POLYLINE
  5
B0
330
1F
100
AcDbEntity
  8
_U+30EC_U+30A4_U+30E4_U+30FC 1
 62
   179
420
  2234388
370
     9
100
AcDb2dPolyline
 66
     1
 10
0.0
 20
0.0
 30
0.0
  0
VERTEX
  5
B1
330
B0
100
AcDbEntity
  8
_U+30EC_U+30A4_U+30E4_U+30FC 1
 62
   179
420
  2234388
370
     9
100
AcDbVertex
100
AcDb2dVertex
 10
104.1197478992395
 20
-135.6151507994292
 30
0.0
  0
VERTEX
  5
B2
330
B0
100
AcDbEntity
  8
_U+30EC_U+30A4_U+30E4_U+30FC 1
 62
   179
420
  2234388
370
     9
100
AcDbVertex
100
AcDb2dVertex
 10
104.1197478992395
 20
-124.6147988577352
 30
0.0
  0
SEQEND
  5
B3
330
B0
100
AcDbEntity
  8
_U+30EC_U+30A4_U+30E4_U+30FC 1
 62
   179
420
  2234388
370
     9
  0
POLYLINE
  5
B4
330
1F
100
AcDbEntity
  8
_U+30EC_U+30A4_U+30E4_U+30FC 1
 62
   179
420
  2234388
370
     9
100
AcDb2dPolyline
 66
     1
 10
0.0
 20
0.0
 30
0.0
  0
VERTEX
  5
B5
330
B4
100
AcDbEntity
  8
_U+30EC_U+30A4_U+30E4_U+30FC 1
 62
   179
420
  2234388
370
     9
100
AcDbVertex
100
AcDb2dVertex
 10
101.6599343508834
 20
-134.6150257996796
 30
0.0
  0
VERTEX
  5
B6
330
B4
100
AcDbEntity
  8
_U+30EC_U+30A4_U+30E4_U+30FC 1
 62
   179
420
  2234388
370
     9
100
AcDbVertex
100
AcDb2dVertex
 10
105.1201903737161
 20
-134.6150257996796
 30
0.0
  0
SEQEND
  5
B7
330
B4
100
AcDbEntity
  8
_U+30EC_U+30A4_U+30E4_U+30FC 1
 62
   179
420
  2234388
370
     9
  0
POLYLINE
  5
B8
330
1F
100
AcDbEntity
  8
_U+30EC_U+30A4_U+30E4_U+30FC 1
 62
   179
420
  2234388
370
     9
100
AcDb2dPolyline
 66
     1
 10
0.0
 20
0.0
 30
0.0
  0
VERTEX
  5
B9
330
B8
100
AcDbEntity
  8
_U+30EC_U+30A4_U+30E4_U+30FC 1
 62
   179
420
  2234388
370
     9
100
AcDbVertex
100
AcDb2dVertex
 10
101.6599343508834
 20
-135.6151507994292
 30
0.0
  0
VERTEX
  5
BA
330
B8
100
AcDbEntity
  8
_U+30EC_U+30A4_U+30E4_U+30FC 1
 62
   179
420
  2234388
370
     9
100
AcDbVertex
100
AcDb2dVertex
 10
105.1201903737161
 20
-135.6151507994292
 30
0.0
  0
SEQEND
  5
BB
330
B8
100
AcDbEntity
  8
_U+30EC_U+30A4_U+30E4_U+30FC 1
 62
   179
420
  2234388
370
     9
  0
POLYLINE
  5
BC
330
1F
100
AcDbEntity
  8
_U+30EC_U+30A4_U+30E4_U+30FC 1
 62
   179
420
  2234388
370
     9
100
AcDb2dPolyline
 66
     1
 10
0.0
 20
0.0
 30
0.0
  0
VERTEX
  5
BD
330
BC
100
AcDbEntity
  8
_U+30EC_U+30A4_U+30E4_U+30FC 1
 62
   179
420
  2234388
370
     9
100
AcDbVertex
100
AcDb2dVertex
 10
97.274342240547
 20
-124.6147988577352
 30
0.0
  0
VERTEX
  5
BE
330
BC
100
AcDbEntity
  8
_U+30EC_U+30A4_U+30E4_U+30FC 1
 62
   179
420
  2234388
370
     9
100
AcDbVertex
100
AcDb2dVertex
 10
105.1201903737161
 20
-124.6147988577352
 30
0.0
  0
SEQEND
  5
BF
330
BC
100
AcDbEntity
  8
_U+30EC_U+30A4_U+30E4_U+30FC 1
 62
   179
420
  2234388
370
     9
  0
INSERT
  5
C1
330
1F
100
AcDbEntity
  8
_U+30EC_U+30A4_U+30E4_U+30FC 1
100
AcDbBlockReference
  2
block 4
 10
0.0
 20
0.0
 30
0.0
  0
INSERT
  5
CA
330
1F
100
AcDbEntity
  8
_U+30EC_U+30A4_U+30E4_U+30FC 1
100
AcDbBlockReference
  2
block 5
 10
0.0
 20
0.0
 30
0.0
  0
SPLINE
  5
CF
330
1F
100
AcDbEntity
  8
_U+30EC_U+30A4_U+30E4_U+30FC 1
 62
   179
420
  2234388
370
    25
100
AcDbSpline
210
0.0
220
0.0
230
1.0
 70
    11
 71
     3
 72
    17
 73
    13
 74
     0
 42
0.0000000001
 43
0.0000000001
 12
1.0
 22
0.0
 32
0.0
 13
1.0
 23
0.0
 33
0.0
 40
0.0
 40
0.0
 40
0.0
 40
0.0
 40
1.0
 40
1.0
 40
1.0
 40
2.0
 40
2.0
 40
2.0
 40
3.0
 40
3.0
 40
3.0
 40
4.0
 40
4.0
 40
4.0
 40
4.0
 10
99.15535330366953
 20
-134.6150257996796
 30
0.0
 10
99.15535330366953
 20
-134.6343227441194
 30
0.0
 10
99.1395135818514
 20
-134.6501624663373
 30
0.0
 10
99.12021663789926
 20
-134.6501624663373
 30
0.0
 10
99.10092219744674
 20
-134.6501624663373
 30
0.0
 10
99.08507997212901
 20
-134.6343227441194
 30
0.0
 10
99.08507997212901
 20
-134.6150257996796
 30
0.0
 10
99.08507997212901
 20
-134.5950585774624
 30
0.0
 10
99.10092219744674
 20
-134.5792188552439
 30
0.0
 10
99.12021663789926
 20
-134.5792188552439
 30
0.0
 10
99.1395135818514
 20
-134.5792188552439
 30
0.0
 10
99.15535330366953
 20
-134.5950585774624
 30
0.0
 10
99.15535330366953
 20
-134.6150257996796
 30
0.0
  0
SPLINE
  5
D0
330
1F
100
AcDbEntity
  8
_U+30EC_U+30A4_U+30E4_U+30FC 1
 62
   179
420
  2234388
370
    25
100
AcDbSpline
210
0.0
220
0.0
230
1.0
 70
    11
 71
     3
 72
    17
 73
    13
 74
     0
 42
0.0000000001
 43
0.0000000001
 12
1.0
 22
0.0
 32
0.0
 13
1.0
 23
0.0
 33
0.0
 40
0.0
 40
0.0
 40
0.0
 40
0.0
 40
1.0
 40
1.0
 40
1.0
 40
2.0
 40
2.0
 40
2.0
 40
3.0
 40
3.0
 40
3.0
 40
4.0
 40
4.0
 40
4.0
 40
4.0
 10
90.53434657916529
 20
-124.6147988577352
 30
0.0
 10
90.53434657916529
 20
-124.6344133021747
 30
0.0
 10
90.51850685734716
 20
-124.6502883021707
 30
0.0
 10
90.49920991339502
 20
-124.6502883021707
 30
0.0
 10
90.47924269168222
 20
-124.6502883021707
 30
0.0
 10
90.46407324762477
 20
-124.6344133021747
 30
0.0
 10
90.46407324762477
 20
-124.6147988577352
 30
0.0
 10
90.46407324762477
 20
-124.5955019132957
 30
0.0
 10
90.47924269168222
 20
-124.5796621910772
 30
0.0
 10
90.49920991339502
 20
-124.5796621910772
 30
0.0
 10
90.51850685734716
 20
-124.5796621910772
 30
0.0
 10
90.53434657916529
 20
-124.5955019132957
 30
0.0
 10
90.53434657916529
 20
-124.6147988577352
 30
0.0
  0
SPLINE
  5
D1
330
1F
100
AcDbEntity
  8
_U+30EC_U+30A4_U+30E4_U+30FC 1
 62
   179
420
  2234388
370
     9
100
AcDbSpline
210
0.0
220
0.0
230
1.0
 70
    11
 71
     3
 72
    17
 73
    13
 74
     0
 42
0.0000000001
 43
0.0000000001
 12
1.0
 22
0.0
 32
0.0
 13
1.0
 23
0.0
 33
0.0
 40
0.0
 40
0.0
 40
0.0
 40
0.0
 40
1.0
 40
1.0
 40
1.0
 40
2.0
 40
2.0
 40
2.0
 40
3.0
 40
3.0
 40
3.0
 40
4.0
 40
4.0
 40
4.0
 40
4.0
 10
104.1555548427704
 20
-124.6147988577352
 30
0.0
 10
104.1555548427704
 20
-124.6344133021747
 30
0.0
 10
104.1397151209523
 20
-124.6502883021707
 30
0.0
 10
104.1197478992395
 20
-124.6502883021707
 30
0.0
 10
104.1004509552873
 20
-124.6502883021707
 30
0.0
 10
104.0846138628676
 20
-124.6344133021747
 30
0.0
 10
104.0846138628676
 20
-124.6147988577352
 30
0.0
 10
104.0846138628676
 20
-124.5955019132957
 30
0.0
 10
104.1004509552873
 20
-124.5796621910772
 30
0.0
 10
104.1197478992395
 20
-124.5796621910772
 30
0.0
 10
104.1397151209523
 20
-124.5796621910772
 30
0.0
 10
104.1555548427704
 20
-124.5955019132957
 30
0.0
 10
104.1555548427704
 20
-124.6147988577352
 30
0.0
  0
POLYLINE
  5
D2
330
1F
100
AcDbEntity
  8
_U+30EC_U+30A4_U+30E4_U+30FC 1
 62
   179
420
  2234388
370
     9
100
AcDb2dPolyline
 66
     1
 10
0.0
 20
0.0
 30
0.0
  0
VERTEX
  5
D3
330
D2
100
AcDbEntity
  8
_U+30EC_U+30A4_U+30E4_U+30FC 1
 62
   179
420
  2234388
370
     9
100
AcDbVertex
100
AcDb2dVertex
 10
86.22248502250336
 20
-116.6986419152697
 30
0.0
  0
VERTEX
  5
D4
330
D2
100
AcDbEntity
  8
_U+30EC_U+30A4_U+30E4_U+30FC 1
 62
   179
420
  2234388
370
     9
100
AcDbVertex
100
AcDb2dVertex
 10
92.67514319121568
 20
-121.4263580251991
 30
0.0
  0
SEQEND
  5
D5
330
D2
100
AcDbEntity
  8
_U+30EC_U+30A4_U+30E4_U+30FC 1
 62
   179
420
  2234388
370
     9
  0
POLYLINE
  5
D6
330
1F
100
AcDbEntity
  8
_U+30EC_U+30A4_U+30E4_U+30FC 1
 62
   179
420
  2234388
370
     9
100
AcDb2dPolyline
 66
     1
 10
0.0
 20
0.0
 30
0.0
  0
VERTEX
  5
D7
330
D6
100
AcDbEntity
  8
_U+30EC_U+30A4_U+30E4_U+30FC 1
 62
   179
420
  2234388
370
     9
100
AcDbVertex
100
AcDb2dVertex
 10
85.35913198897379
 20
-117.8765316371977
 30
0.0
  0
VERTEX
  5
D8
330
D6
100
AcDbEntity
  8
_U+30EC_U+30A4_U+30E4_U+30FC 1
 62
   179
420
  2234388
370
     9
100
AcDbVertex
100
AcDb2dVertex
 10
86.81296664496337
 20
-115.8921566376937
 30
0.0
  0
SEQEND
  5
D9
330
D6
100
AcDbEntity
  8
_U+30EC_U+30A4_U+30E4_U+30FC 1
 62
   179
420
  2234388
370
     9
  0
POLYLINE
  5
DA
330
1F
100
AcDbEntity
  8
_U+30EC_U+30A4_U+30E4_U+30FC 1
 62
   179
420
  2234388
370
     9
100
AcDb2dPolyline
 66
     1
 10
0.0
 20
0.0
 30
0.0
  0
VERTEX
  5
DB
330
DA
100
AcDbEntity
  8
_U+30EC_U+30A4_U+30E4_U+30FC 1
 62
   179
420
  2234388
370
     9
100
AcDbVertex
100
AcDb2dVertex
 10
91.81249571322365
 20
-122.6042477471267
 30
0.0
  0
VERTEX
  5
DC
330
DA
100
AcDbEntity
  8
_U+30EC_U+30A4_U+30E4_U+30FC 1
 62
   179
420
  2234388
370
     9
100
AcDbVertex
100
AcDb2dVertex
 10
93.26633053223912
 20
-120.6198727476228
 30
0.0
  0
SEQEND
  5
DD
330
DA
100
AcDbEntity
  8
_U+30EC_U+30A4_U+30E4_U+30FC 1
 62
   179
420
  2234388
370
     9
  0
INSERT
  5
DF
330
1F
100
AcDbEntity
  8
_U+30EC_U+30A4_U+30E4_U+30FC 1
100
AcDbBlockReference
  2
block 6
 10
0.0
 20
0.0
 30
0.0
  0
SPLINE
  5
E6
330
1F
100
AcDbEntity
  8
_U+30EC_U+30A4_U+30E4_U+30FC 1
 62
   179
420
  2234388
370
    25
100
AcDbSpline
210
0.0
220
0.0
230
1.0
 70
    11
 71
     3
 72
    17
 73
    13
 74
     0
 42
0.0000000001
 43
0.0000000001
 12
1.0
 22
0.0
 32
0.0
 13
1.0
 23
0.0
 33
0.0
 40
0.0
 40
0.0
 40
0.0
 40
0.0
 40
1.0
 40
1.0
 40
1.0
 40
2.0
 40
2.0
 40
2.0
 40
3.0
 40
3.0
 40
3.0
 40
4.0
 40
4.0
 40
4.0
 40
4.0
 10
83.91976341458403
 20
-119.2147588590852
 30
0.0
 10
83.91976341458403
 20
-119.2344085813024
 30
0.0
 10
83.90392369276591
 20
-119.2502483035206
 30
0.0
 10
83.88462674881377
 20
-119.2502483035206
 30
0.0
 10
83.86532980486163
 20
-119.2502483035206
 30
0.0
 10
83.84949008304352
 20
-119.2344085813024
 30
0.0
 10
83.84949008304352
 20
-119.2147588590852
 30
0.0
 10
83.84949008304352
 20
-119.1954971924235
 30
0.0
 10
83.86532980486163
 20
-119.1796221924274
 30
0.0
 10
83.88462674881377
 20
-119.1796221924274
 30
0.0
 10
83.90392369276591
 20
-119.1796221924274
 30
0.0
 10
83.91976341458403
 20
-119.1954971924235
 30
0.0
 10
83.91976341458403
 20
-119.2147588590852
 30
0.0
  0
SPLINE
  5
E7
330
1F
100
AcDbEntity
  8
_U+30EC_U+30A4_U+30E4_U+30FC 1
 62
   179
420
  2234388
370
    25
100
AcDbSpline
210
0.0
220
0.0
230
1.0
 70
    11
 71
     3
 72
    17
 73
    13
 74
     0
 42
0.0000000001
 43
0.0000000001
 12
1.0
 22
0.0
 32
0.0
 13
1.0
 23
0.0
 33
0.0
 40
0.0
 40
0.0
 40
0.0
 40
0.0
 40
1.0
 40
1.0
 40
1.0
 40
2.0
 40
2.0
 40
2.0
 40
3.0
 40
3.0
 40
3.0
 40
4.0
 40
4.0
 40
4.0
 40
4.0
 10
90.53434657916529
 20
-124.6147988577352
 30
0.0
 10
90.53434657916529
 20
-124.6344133021747
 30
0.0
 10
90.51850685734716
 20
-124.6502883021707
 30
0.0
 10
90.49920991339502
 20
-124.6502883021707
 30
0.0
 10
90.47924269168222
 20
-124.6502883021707
 30
0.0
 10
90.46407324762477
 20
-124.6344133021747
 30
0.0
 10
90.46407324762477
 20
-124.6147988577352
 30
0.0
 10
90.46407324762477
 20
-124.5955019132957
 30
0.0
 10
90.47924269168222
 20
-124.5796621910772
 30
0.0
 10
90.49920991339502
 20
-124.5796621910772
 30
0.0
 10
90.51850685734716
 20
-124.5796621910772
 30
0.0
 10
90.53434657916529
 20
-124.5955019132957
 30
0.0
 10
90.53434657916529
 20
-124.6147988577352
 30
0.0
  0
SPLINE
  5
E8
330
1F
100
AcDbEntity
  8
_U+30EC_U+30A4_U+30E4_U+30FC 1
 62
   179
420
  2234388
370
     9
100
AcDbSpline
210
0.0
220
0.0
230
1.0
 70
    11
 71
     3
 72
    17
 73
    13
 74
     0
 42
0.0000000001
 43
0.0000000001
 12
1.0
 22
0.0
 32
0.0
 13
1.0
 23
0.0
 33
0.0
 40
0.0
 40
0.0
 40
0.0
 40
0.0
 40
1.0
 40
1.0
 40
1.0
 40
2.0
 40
2.0
 40
2.0
 40
3.0
 40
3.0
 40
3.0
 40
4.0
 40
4.0
 40
4.0
 40
4.0
 10
92.71027985698593
 20
-121.427733858532
 30
0.0
 10
92.70957430144838
 20
-121.4470308029715
 30
0.0
 10
92.69373457963026
 20
-121.4621649696345
 30
0.0
 10
92.67376735791744
 20
-121.4614946918568
 30
0.0
 10
92.65447041396531
 20
-121.4607891363016
 30
0.0
 10
92.63930096990786
 20
-121.4442791363057
 30
0.0
 10
92.64000652544543
 20
-121.4253349696436
 30
0.0
 10
92.6406768032061
 20
-121.4056852474264
 30
0.0
 10
92.65722208056177
 20
-121.3901630252081
 30
0.0
 10
92.67651902451391
 20
-121.3908685807633
 30
0.0
 10
92.69648624622673
 20
-121.3915741363188
 30
0.0
 10
92.71095013474661
 20
-121.4080841363147
 30
0.0
 10
92.71027985698593
 20
-121.427733858532
 30
0.0
  0
ENDSEC
  0
SECTION
  2
OBJECTS
  0
DICTIONARY
  5
C
330
0
100
AcDbDictionary
281
     1
  3
ACAD_GROUP
350
D
  3
ACAD_LAYOUT
350
1A
  3
ACAD_MATERIAL
350
3B
  3
ACAD_MLEADERSTYLE
350
EA
  3
ACAD_MLINESTYLE
350
17
  3
ACAD_PLOTSETTINGS
350
19
  3
ACAD_PLOTSTYLENAME
350
E
  3
ACAD_TABLESTYLE
350
E9
  3
ACAD_VISUALSTYLE
350
2A
  0
SUN
  5
3F
330
29
100
AcDbSun
 90
        1
290
     0
 63
     7
421
 16777215
 40
1.0
291
     1
 91
  2455826
 92
 54000000
292
     0
 70
     2
 71
   256
280
     1
  0
DICTIONARY
  5
D
102
{ACAD_REACTORS
330
C
102
}
330
C
100
AcDbDictionary
281
     1
  0
DICTIONARY
  5
1A
102
{ACAD_REACTORS
330
C
102
}
330
C
100
AcDbDictionary
281
     1
  3
Layout1
350
1E
  3
Layout2
350
26
  3
Model
350
22
  0
DICTIONARY
  5
3B
102
{ACAD_REACTORS
330
C
102
}
330
C
100
AcDbDictionary
281
     1
  3
ByBlock
350
3D
  3
ByLayer
350
3C
  3
Global
350
3E
  0
DICTIONARY
  5
EA
102
{ACAD_REACTORS
330
C
102
}
330
C
100
AcDbDictionary
281
     1
  0
DICTIONARY
  5
17
102
{ACAD_REACTORS
330
C
102
}
330
C
100
AcDbDictionary
281
     1
  3
Standard
350
18
  0
DICTIONARY
  5
19
102
{ACAD_REACTORS
330
C
102
}
330
C
100
AcDbDictionary
281
     1
  0
ACDBDICTIONARYWDFLT
  5
E
102
{ACAD_REACTORS
330
C
102
}
330
C
100
AcDbDictionary
281
     1
  3
Normal
350
F
100
AcDbDictionaryWithDefault
340
F
  0
DICTIONARY
  5
E9
102
{ACAD_REACTORS
330
C
102
}
330
C
100
AcDbDictionary
281
     1
  0
DICTIONARY
  5
2A
102
{ACAD_REACTORS
330
C
102
}
330
C
100
AcDbDictionary
281
     1
  3
2dWireframe
350
2F
  3
3D Hidden
350
31
  3
3dWireframe
350
30
  3
Basic
350
32
  3
Brighten
350
36
  3
ColorChange
350
3A
  3
Conceptual
350
34
  3
Dim
350
35
  3
Facepattern
350
39
  3
Flat
350
2B
  3
FlatWithEdges
350
2C
  3
Gouraud
350
2D
  3
GouraudWithEdges
350
2E
  3
Linepattern
350
38
  3
Realistic
350
33
  3
Thicken
350
37
  0
LAYOUT
  5
1E
102
{ACAD_REACTORS
330
1A
102
}
330
1A
100
AcDbPlotSettings
  1

  2
none_device
  4

  6

 40
0.0
 41
0.0
 42
0.0
 43
0.0
 44
0.0
 45
0.0
 46
0.0
 47
0.0
 48
0.0
 49
0.0
140
0.0
141
0.0
142
1.0
143
1.0
 70
   688
 72
     0
 73
     0
 74
     5
  7

 75
    16
 76
     0
 77
     2
 78
   300
147
1.0
148
0.0
149
0.0
100
AcDbLayout
  1
Layout1
 70
     1
 71
     1
 10
0.0
 20
0.0
 11
12.0
 21
9.0
 12
0.0
 22
0.0
 32
0.0
 14
1.000000000000000E+20
 24
1.000000000000000E+20
 34
1.000000000000000E+20
 15
-1.000000000000000E+20
 25
-1.000000000000000E+20
 35
-1.000000000000000E+20
146
0.0
 13
0.0
 23
0.0
 33
0.0
 16
1.0
 26
0.0
 36
0.0
 17
0.0
 27
1.0
 37
0.0
 76
     0
330
1B
  0
LAYOUT
  5
26
102
{ACAD_REACTORS
330
1A
102
}
330
1A
100
AcDbPlotSettings
  1

  2
none_device
  4

  6

 40
0.0
 41
0.0
 42
0.0
 43
0.0
 44
0.0
 45
0.0
 46
0.0
 47
0.0
 48
0.0
 49
0.0
140
0.0
141
0.0
142
1.0
143
1.0
 70
   688
 72
     0
 73
     0
 74
     5
  7

 75
    16
 76
     0
 77
     2
 78
   300
147
1.0
148
0.0
149
0.0
100
AcDbLayout
  1
Layout2
 70
     1
 71
     2
 10
0.0
 20
0.0
 11
0.0
 21
0.0
 12
0.0
 22
0.0
 32
0.0
 14
0.0
 24
0.0
 34
0.0
 15
0.0
 25
0.0
 35
0.0
146
0.0
 13
0.0
 23
0.0
 33
0.0
 16
1.0
 26
0.0
 36
0.0
 17
0.0
 27
1.0
 37
0.0
 76
     0
330
23
  0
LAYOUT
  5
22
102
{ACAD_REACTORS
330
1A
102
}
330
1A
100
AcDbPlotSettings
  1

  2
none_device
  4

  6

 40
0.0
 41
0.0
 42
0.0
 43
0.0
 44
0.0
 45
0.0
 46
0.0
 47
0.0
 48
0.0
 49
0.0
140
0.0
141
0.0
142
1.0
143
1.0
 70
  1712
 72
     0
 73
     0
 74
     0
  7

 75
     0
 76
     0
 77
     2
 78
   300
147
1.0
148
0.0
149
0.0
100
AcDbLayout
  1
Model
 70
     1
 71
     0
 10
0.0
 20
0.0
 11
12.0
 21
9.0
 12
0.0
 22
0.0
 32
0.0
 14
1.000000000000000E+20
 24
1.000000000000000E+20
 34
1.000000000000000E+20
 15
-1.000000000000000E+20
 25
-1.000000000000000E+20
 35
-1.000000000000000E+20
146
0.0
 13
0.0
 23
0.0
 33
0.0
 16
1.0
 26
0.0
 36
0.0
 17
0.0
 27
1.0
 37
0.0
 76
     0
330
1F
331
29
  0
MATERIAL
  5
3D
102
{ACAD_REACTORS
330
3B
102
}
330
3B
100
AcDbMaterial
  1
ByBlock
 72
     1
 94
      127
  0
MATERIAL
  5
3C
102
{ACAD_REACTORS
330
3B
102
}
330
3B
100
AcDbMaterial
  1
ByLayer
 72
     1
 94
      127
  0
MATERIAL
  5
3E
102
{ACAD_REACTORS
330
3B
102
}
330
3B
100
AcDbMaterial
  1
Global
 72
     1
 94
      127
  0
MLINESTYLE
  5
18
102
{ACAD_REACTORS
330
17
102
}
330
17
100
AcDbMlineStyle
  2
Standard
 70
     0
  3

 62
   256
 51
90.0
 52
90.0
 71
     2
 49
0.5
 62
   256
  6
BYLAYER
 49
-0.5
 62
   256
  6
BYLAYER
  0
ACDBPLACEHOLDER
  5
F
102
{ACAD_REACTORS
330
E
102
}
330
E
  0
VISUALSTYLE
  5
2F
102
{ACAD_REACTORS
330
2A
102
}
330
2A
100
AcDbVisualStyle
  2
2dWireframe
 70
     4
177
     2
291
     0
 71
     0
176
     1
 72
     2
176
     1
 73
     0
176
     1
 90
        0
176
     1
 40
-0.6
176
     1
 41
-30.0
176
     1
 62
     5
 63
     7
421
 16777215
176
     1
 74
     1
176
     1
 91
        4
176
     1
 64
     7
176
     1
 65
   257
176
     1
 75
     1
176
     1
175
     1
176
     1
 42
1.0
176
     1
 92
        0
176
     1
 66
   257
176
     1
 43
1.0
176
     1
 76
     1
176
     1
 77
     6
176
     1
 78
     2
176
     1
 67
     7
176
     1
 79
     5
176
     1
170
     0
176
     1
171
     0
176
     1
290
     0
176
     1
 93
        1
176
     1
 44
0.0
176
     1
173
     0
176
     1
  0
VISUALSTYLE
  5
31
102
{ACAD_REACTORS
330
2A
102
}
330
2A
100
AcDbVisualStyle
  2
3D Hidden
 70
     6
177
     2
291
     0
 71
     1
176
     1
 72
     2
176
     1
 73
     2
176
     1
 90
        0
176
     1
 40
-0.6
176
     1
 41
-30.0
176
     1
 62
     5
 63
     7
421
 16777215
176
     1
 74
     2
176
     1
 91
        2
176
     1
 64
     7
176
     1
 65
   257
176
     1
 75
     2
176
     1
175
     1
176
     1
 42
40.0
176
     1
 92
        0
176
     1
 66
   257
176
     1
 43
1.0
176
     1
 76
     1
176
     1
 77
     6
176
     1
 78
     2
176
     1
 67
     7
176
     1
 79
     3
176
     1
170
     0
176
     1
171
     0
176
     1
290
     0
176
     1
 93
        1
176
     1
 44
0.0
176
     1
173
     0
176
     1
  0
VISUALSTYLE
  5
30
102
{ACAD_REACTORS
330
2A
102
}
330
2A
100
AcDbVisualStyle
  2
3dWireframe
 70
     5
177
     2
291
     0
 71
     0
176
     1
 72
     2
176
     1
 73
     0
176
     1
 90
        0
176
     1
 40
-0.6
176
     1
 41
-30.0
176
     1
 62
     5
 63
     7
421
 16777215
176
     1
 74
     1
176
     1
 91
        4
176
     1
 64
     7
176
     1
 65
   257
176
     1
 75
     1
176
     1
175
     1
176
     1
 42
1.0
176
     1
 92
        0
176
     1
 66
   257
176
     1
 43
1.0
176
     1
 76
     1
176
     1
 77
     6
176
     1
 78
     2
176
     1
 67
     7
176
     1
 79
     5
176
     1
170
     0
176
     1
171
     0
176
     1
290
     0
176
     1
 93
        1
176
     1
 44
0.0
176
     1
173
     0
176
     1
  0
VISUALSTYLE
  5
32
102
{ACAD_REACTORS
330
2A
102
}
330
2A
100
AcDbVisualStyle
  2
Basic
 70
     7
177
     2
291
     1
 71
     1
176
     1
 72
     0
176
     1
 73
     1
176
     1
 90
        0
176
     1
 40
-0.6
176
     1
 41
-30.0
176
     1
 62
     5
 63
     7
421
 16777215
176
     1
 74
     0
176
     1
 91
        4
176
     1
 64
     7
176
     1
 65
   257
176
     1
 75
     1
176
     1
175
     1
176
     1
 42
1.0
176
     1
 92
        8
176
     1
 66
     7
176
     1
 43
1.0
176
     1
 76
     1
176
     1
 77
     6
176
     1
 78
     2
176
     1
 67
     7
176
     1
 79
     5
176
     1
170
     0
176
     1
171
     0
176
     1
290
     0
176
     1
 93
        1
176
     1
 44
0.0
176
     1
173
     0
176
     1
  0
VISUALSTYLE
  5
36
102
{ACAD_REACTORS
330
2A
102
}
330
2A
100
AcDbVisualStyle
  2
Brighten
 70
    12
177
     2
291
     1
 71
     2
176
     1
 72
     2
176
     1
 73
     0
176
     1
 90
        0
176
     1
 40
-0.6
176
     1
 41
-30.0
176
     1
 62
     5
 63
     7
421
 16777215
176
     1
 74
     1
176
     1
 91
        4
176
     1
 64
     7
176
     1
 65
   257
176
     1
 75
     1
176
     1
175
     1
176
     1
 42
1.0
176
     1
 92
        8
176
     1
 66
     7
176
     1
 43
1.0
176
     1
 76
     1
176
     1
 77
     6
176
     1
 78
     2
176
     1
 67
     7
176
     1
 79
     5
176
     1
170
     0
176
     1
171
     0
176
     1
290
     0
176
     1
 93
        1
176
     1
 44
50.0
176
     1
173
     0
176
     1
  0
VISUALSTYLE
  5
3A
102
{ACAD_REACTORS
330
2A
102
}
330
2A
100
AcDbVisualStyle
  2
ColorChange
 70
    16
177
     2
291
     1
 71
     2
176
     1
 72
     2
176
     1
 73
     3
176
     1
 90
        0
176
     1
 40
-0.6
176
     1
 41
-30.0
176
     1
 62
     5
 63
     8
421
  8421504
176
     1
 74
     1
176
     1
 91
        4
176
     1
 64
     7
176
     1
 65
   257
176
     1
 75
     1
176
     1
175
     1
176
     1
 42
1.0
176
     1
 92
        8
176
     1
 66
     8
424
  8421504
176
     1
 43
1.0
176
     1
 76
     1
176
     1
 77
     6
176
     1
 78
     2
176
     1
 67
     7
176
     1
 79
     5
176
     1
170
     0
176
     1
171
     0
176
     1
290
     0
176
     1
 93
        1
176
     1
 44
0.0
176
     1
173
     0
176
     1
  0
VISUALSTYLE
  5
34
102
{ACAD_REACTORS
330
2A
102
}
330
2A
100
AcDbVisualStyle
  2
Conceptual
 70
     9
177
     2
291
     0
 71
     3
176
     1
 72
     2
176
     1
 73
     0
176
     1
 90
        0
176
     1
 40
-0.6
176
     1
 41
-30.0
176
     1
 62
     5
 63
     7
421
 16777215
176
     1
 74
     2
176
     1
 91
        2
176
     1
 64
     7
176
     1
 65
   257
176
     1
 75
     1
176
     1
175
     1
176
     1
 42
40.0
176
     1
 92
        8
176
     1
 66
     7
176
     1
 43
1.0
176
     1
 76
     1
176
     1
 77
     6
176
     1
 78
     2
176
     1
 67
     7
176
     1
 79
     3
176
     1
170
     0
176
     1
171
     0
176
     1
290
     0
176
     1
 93
        1
176
     1
 44
0.0
176
     1
173
     0
176
     1
  0
VISUALSTYLE
  5
35
102
{ACAD_REACTORS
330
2A
102
}
330
2A
100
AcDbVisualStyle
  2
Dim
 70
    11
177
     2
291
     1
 71
     2
176
     1
 72
     2
176
     1
 73
     0
176
     1
 90
        0
176
     1
 40
-0.6
176
     1
 41
-30.0
176
     1
 62
     5
 63
     7
421
 16777215
176
     1
 74
     1
176
     1
 91
        4
176
     1
 64
     7
176
     1
 65
   257
176
     1
 75
     1
176
     1
175
     1
176
     1
 42
1.0
176
     1
 92
        8
176
     1
 66
     7
176
     1
 43
1.0
176
     1
 76
     1
176
     1
 77
     6
176
     1
 78
     2
176
     1
 67
     7
176
     1
 79
     5
176
     1
170
     0
176
     1
171
     0
176
     1
290
     0
176
     1
 93
        1
176
     1
 44
-50.0
176
     1
173
     0
176
     1
  0
VISUALSTYLE
  5
39
102
{ACAD_REACTORS
330
2A
102
}
330
2A
100
AcDbVisualStyle
  2
Facepattern
 70
    15
177
     2
291
     1
 71
     2
176
     1
 72
     2
176
     1
 73
     0
176
     1
 90
        0
176
     1
 40
-0.6
176
     1
 41
-30.0
176
     1
 62
     5
 63
     7
421
 16777215
176
     1
 74
     1
176
     1
 91
        4
176
     1
 64
     7
176
     1
 65
   257
176
     1
 75
     1
176
     1
175
     1
176
     1
 42
1.0
176
     1
 92
        8
176
     1
 66
     7
176
     1
 43
1.0
176
     1
 76
     1
176
     1
 77
     6
176
     1
 78
     2
176
     1
 67
     7
176
     1
 79
     5
176
     1
170
     0
176
     1
171
     0
176
     1
290
     0
176
     1
 93
        1
176
     1
 44
0.0
176
     1
173
     0
176
     1
  0
VISUALSTYLE
  5
2B
102
{ACAD_REACTORS
330
2A
102
}
330
2A
100
AcDbVisualStyle
  2
Flat
 70
     0
177
     2
291
     1
 71
     2
176
     1
 72
     1
176
     1
 73
     1
176
     1
 90
        2
176
     1
 40
-0.6
176
     1
 41
30.0
176
     1
 62
     5
 63
     7
421
 16777215
176
     1
 74
     0
176
     1
 91
        4
176
     1
 64
     7
176
     1
 65
   257
176
     1
 75
     1
176
     1
175
     1
176
     1
 42
1.0
176
     1
 92
        8
176
     1
 66
     7
176
     1
 43
1.0
176
     1
 76
     1
176
     1
 77
     6
176
     1
 78
     2
176
     1
 67
     7
176
     1
 79
     5
176
     1
170
     0
176
     1
171
     0
176
     1
290
     0
176
     1
 93
       13
176
     1
 44
0.0
176
     1
173
     0
176
     1
  0
VISUALSTYLE
  5
2C
102
{ACAD_REACTORS
330
2A
102
}
330
2A
100
AcDbVisualStyle
  2
FlatWithEdges
 70
     1
177
     2
291
     1
 71
     2
176
     1
 72
     1
176
     1
 73
     1
176
     1
 90
        2
176
     1
 40
-0.6
176
     1
 41
30.0
176
     1
 62
     5
 63
     7
421
 16777215
176
     1
 74
     1
176
     1
 91
        4
176
     1
 64
     7
176
     1
 65
   257
176
     1
 75
     1
176
     1
175
     1
176
     1
 42
1.0
176
     1
 92
        0
176
     1
 66
   257
176
     1
 43
1.0
176
     1
 76
     1
176
     1
 77
     6
176
     1
 78
     2
176
     1
 67
     7
176
     1
 79
     5
176
     1
170
     0
176
     1
171
     0
176
     1
290
     0
176
     1
 93
       13
176
     1
 44
0.0
176
     1
173
     0
176
     1
  0
VISUALSTYLE
  5
2D
102
{ACAD_REACTORS
330
2A
102
}
330
2A
100
AcDbVisualStyle
  2
Gouraud
 70
     2
177
     2
291
     1
 71
     2
176
     1
 72
     2
176
     1
 73
     1
176
     1
 90
        2
176
     1
 40
-0.6
176
     1
 41
30.0
176
     1
 62
     5
 63
     7
421
 16777215
176
     1
 74
     0
176
     1
 91
        4
176
     1
 64
     7
176
     1
 65
   257
176
     1
 75
     1
176
     1
175
     1
176
     1
 42
1.0
176
     1
 92
        0
176
     1
 66
     7
176
     1
 43
1.0
176
     1
 76
     1
176
     1
 77
     6
176
     1
 78
     2
176
     1
 67
     7
176
     1
 79
     5
176
     1
170
     0
176
     1
171
     0
176
     1
290
     0
176
     1
 93
       13
176
     1
 44
0.0
176
     1
173
     0
176
     1
  0
VISUALSTYLE
  5
2E
102
{ACAD_REACTORS
330
2A
102
}
330
2A
100
AcDbVisualStyle
  2
GouraudWithEdges
 70
     3
177
     2
291
     1
 71
     2
176
     1
 72
     2
176
     1
 73
     1
176
     1
 90
        2
176
     1
 40
-0.6
176
     1
 41
30.0
176
     1
 62
     5
 63
     7
421
 16777215
176
     1
 74
     1
176
     1
 91
        4
176
     1
 64
     7
176
     1
 65
   257
176
     1
 75
     1
176
     1
175
     1
176
     1
 42
1.0
176
     1
 92
        0
176
     1
 66
   257
176
     1
 43
1.0
176
     1
 76
     1
176
     1
 77
     6
176
     1
 78
     2
176
     1
 67
     7
176
     1
 79
     5
176
     1
170
     0
176
     1
171
     0
176
     1
290
     0
176
     1
 93
       13
176
     1
 44
0.0
176
     1
173
     0
176
     1
  0
VISUALSTYLE
  5
38
102
{ACAD_REACTORS
330
2A
102
}
330
2A
100
AcDbVisualStyle
  2
Linepattern
 70
    14
177
     2
291
     1
 71
     2
176
     1
 72
     2
176
     1
 73
     0
176
     1
 90
        0
176
     1
 40
-0.6
176
     1
 41
-30.0
176
     1
 62
     5
 63
     7
421
 16777215
176
     1
 74
     1
176
     1
 91
        4
176
     1
 64
     7
176
     1
 65
   257
176
     1
 75
     7
176
     1
175
     7
176
     1
 42
1.0
176
     1
 92
        8
176
     1
 66
     7
176
     1
 43
1.0
176
     1
 76
     1
176
     1
 77
     6
176
     1
 78
     2
176
     1
 67
     7
176
     1
 79
     5
176
     1
170
     0
176
     1
171
     0
176
     1
290
     0
176
     1
 93
        1
176
     1
 44
0.0
176
     1
173
     0
176
     1
  0
VISUALSTYLE
  5
33
102
{ACAD_REACTORS
330
2A
102
}
330
2A
100
AcDbVisualStyle
  2
Realistic
 70
     8
177
     2
291
     0
 71
     2
176
     1
 72
     2
176
     1
 73
     0
176
     1
 90
        0
176
     1
 40
-0.6
176
     1
 41
-30.0
176
     1
 62
     5
 63
     7
421
 16777215
176
     1
 74
     1
176
     1
 91
        0
176
     1
 64
     7
176
     1
 65
   257
176
     1
 75
     1
176
     1
175
     1
176
     1
 42
1.0
176
     1
 92
        8
176
     1
 66
     8
424
  7895160
176
     1
 43
1.0
176
     1
 76
     1
176
     1
 77
     6
176
     1
 78
     2
176
     1
 67
     7
176
     1
 79
     5
176
     1
170
     0
176
     1
171
     0
176
     1
290
     0
176
     1
 93
       13
176
     1
 44
0.0
176
     1
173
     0
176
     1
  0
VISUALSTYLE
  5
37
102
{ACAD_REACTORS
330
2A
102
}
330
2A
100
AcDbVisualStyle
  2
Thicken
 70
    13
177
     2
291
     1
 71
     2
176
     1
 72
     2
176
     1
 73
     0
176
     1
 90
        0
176
     1
 40
-0.6
176
     1
 41
-30.0
176
     1
 62
     5
 63
     7
421
 16777215
176
     1
 74
     1
176
     1
 91
        4
176
     1
 64
     7
176
     1
 65
   257
176
     1
 75
     1
176
     1
175
     1
176
     1
 42
1.0
176
     1
 92
       12
176
     1
 66
     7
176
     1
 43
1.0
176
     1
 76
     1
176
     1
 77
     6
176
     1
 78
     2
176
     1
 67
     7
176
     1
 79
     5
176
     1
170
     0
176
     1
171
     0
176
     1
290
     0
176
     1
 93
        1
176
     1
 44
0.0
176
     1
173
     0
176
     1
  0
ENDSEC
  0
EOF
