  0
SECTION
  2
HEADER
  9
$ACADVER
  1
AC1024
  9
$ACADMAINTVER
 70
     6
  9
$DWGCODEPAGE
  3
UNDEFINED
  9
$INSBASE
 10
0.0
 20
0.0
 30
0.0
  9
$EXTMIN
 10
1.000000000000000E+20
 20
1.000000000000000E+20
 30
1.000000000000000E+20
  9
$EXTMAX
 10
-1.000000000000000E+20
 20
-1.000000000000000E+20
 30
-1.000000000000000E+20
  9
$LIMMIN
 10
0.0
 20
0.0
  9
$LIMMAX
 10
12.0
 20
9.0
  9
$ORTHOMODE
 70
     0
  9
$REGENMODE
 70
     1
  9
$FILLMODE
 70
     1
  9
$QTEXTMODE
 70
     0
  9
$MIRRTEXT
 70
     1
  9
$LTSCALE
 40
1.0
  9
$ATTMODE
 70
     1
  9
$TEXTSIZE
 40
0.2
  9
$TRACEWID
 40
0.05
  9
$TEXTSTYLE
  7
Standard
  9
$CLAYER
  8
0
  9
$CELTYPE
  6
ByLayer
  9
$CECOLOR
 62
   256
  9
$CELTSCALE
 40
1.0
  9
$DISPSILH
 70
     0
  9
$DIMSCALE
 40
1.0
  9
$DIMASZ
 40
0.18
  9
$DIMEXO
 40
0.0625
  9
$DIMDLI
 40
0.38
  9
$DIMRND
 40
0.0
  9
$DIMDLE
 40
0.0
  9
$DIMEXE
 40
0.18
  9
$DIMTP
 40
0.0
  9
$DIMTM
 40
0.0
  9
$DIMTXT
 40
0.18
  9
$DIMCEN
 40
0.09
  9
$DIMTSZ
 40
0.0
  9
$DIMTOL
 70
     0
  9
$DIMLIM
 70
     0
  9
$DIMTIH
 70
     1
  9
$DIMTOH
 70
     1
  9
$DIMSE1
 70
     0
  9
$DIMSE2
 70
     0
  9
$DIMTAD
 70
     0
  9
$DIMZIN
 70
     0
  9
$DIMBLK
  1

  9
$DIMASO
 70
     1
  9
$DIMSHO
 70
     1
  9
$DIMPOST
  1

  9
$DIMAPOST
  1

  9
$DIMALT
 70
     0
  9
$DIMALTD
 70
     2
  9
$DIMALTF
 40
25.4
  9
$DIMLFAC
 40
1.0
  9
$DIMTOFL
 70
     0
  9
$DIMTVP
 40
0.0
  9
$DIMTIX
 70
     0
  9
$DIMSOXD
 70
     0
  9
$DIMSAH
 70
     0
  9
$DIMBLK1
  1

  9
$DIMBLK2
  1

  9
$DIMSTYLE
  2
Standard
  9
$DIMCLRD
 70
     0
  9
$DIMCLRE
 70
     0
  9
$DIMCLRT
 70
     0
  9
$DIMTFAC
 40
1.0
  9
$DIMGAP
 40
0.09
  9
$DIMJUST
 70
     0
  9
$DIMSD1
 70
     0
  9
$DIMSD2
 70
     0
  9
$DIMTOLJ
 70
     1
  9
$DIMTZIN
 70
     0
  9
$DIMALTZ
 70
     0
  9
$DIMALTTZ
 70
     0
  9
$DIMUPT
 70
     0
  9
$DIMDEC
 70
     4
  9
$DIMTDEC
 70
     4
  9
$DIMALTU
 70
     2
  9
$DIMALTTD
 70
     2
  9
$DIMTXSTY
  7
Standard
  9
$DIMAUNIT
 70
     0
  9
$DIMADEC
 70
     0
  9
$DIMALTRND
 40
0.0
  9
$DIMAZIN
 70
     0
  9
$DIMDSEP
 70
    46
  9
$DIMATFIT
 70
     3
  9
$DIMFRAC
 70
     0
  9
$DIMLDRBLK
  1

  9
$DIMLUNIT
 70
     2
  9
$DIMLWD
 70
    -2
  9
$DIMLWE
 70
    -2
  9
$DIMTMOVE
 70
     0
  9
$DIMFXL
 40
1.0
  9
$DIMFXLON
 70
     0
  9
$DIMJOGANG
 40
0.7853981633974483
  9
$DIMTFILL
 70
     0
  9
$DIMTFILLCLR
 70
     0
  9
$DIMARCSYM
 70
     0
  9
$DIMLTYPE
  6

  9
$DIMLTEX1
  6

  9
$DIMLTEX2
  6

  9
$DIMTXTDIRECTION
 70
     0
  9
$LUNITS
 70
     2
  9
$LUPREC
 70
     4
  9
$SKETCHINC
 40
0.1
  9
$FILLETRAD
 40
0.5
  9
$AUNITS
 70
     0
  9
$AUPREC
 70
     0
  9
$MENU
  1
.
  9
$ELEVATION
 40
0.0
  9
$PELEVATION
 40
0.0
  9
$THICKNESS
 40
0.0
  9
$LIMCHECK
 70
     0
  9
$CHAMFERA
 40
0.5
  9
$CHAMFERB
 40
0.5
  9
$CHAMFERC
 40
1.0
  9
$CHAMFERD
 40
0.0
  9
$SKPOLY
 70
     0
  9
$TDCREATE
 40
2457917.62253471
  9
$TDUCREATE
 40
2457917.247534722
  9
$TDUPDATE
 40
2457917.62253471
  9
$TDUUPDATE
 40
2457917.247534722
  9
$TDINDWG
 40
0.0000000116
  9
$TDUSRTIMER
 40
0.0000000116
  9
$USRTIMER
 70
     1
  9
$ANGBASE
 50
0.0
  9
$ANGDIR
 70
     0
  9
$PDMODE
 70
     0
  9
$PDSIZE
 40
0.0
  9
$PLINEWID
 40
0.0
  9
$SPLFRAME
 70
     0
  9
$SPLINETYPE
 70
     6
  9
$SPLINESEGS
 70
     8
  9
$HANDSEED
  5
CD
  9
$SURFTAB1
 70
     6
  9
$SURFTAB2
 70
     6
  9
$SURFTYPE
 70
     6
  9
$SURFU
 70
     6
  9
$SURFV
 70
     6
  9
$UCSBASE
  2

  9
$UCSNAME
  2

  9
$UCSORG
 10
0.0
 20
0.0
 30
0.0
  9
$UCSXDIR
 10
1.0
 20
0.0
 30
0.0
  9
$UCSYDIR
 10
0.0
 20
1.0
 30
0.0
  9
$UCSORTHOREF
  2

  9
$UCSORTHOVIEW
 70
     0
  9
$UCSORGTOP
 10
0.0
 20
0.0
 30
0.0
  9
$UCSORGBOTTOM
 10
0.0
 20
0.0
 30
0.0
  9
$UCSORGLEFT
 10
0.0
 20
0.0
 30
0.0
  9
$UCSORGRIGHT
 10
0.0
 20
0.0
 30
0.0
  9
$UCSORGFRONT
 10
0.0
 20
0.0
 30
0.0
  9
$UCSORGBACK
 10
0.0
 20
0.0
 30
0.0
  9
$PUCSBASE
  2

  9
$PUCSNAME
  2

  9
$PUCSORG
 10
0.0
 20
0.0
 30
0.0
  9
$PUCSXDIR
 10
1.0
 20
0.0
 30
0.0
  9
$PUCSYDIR
 10
0.0
 20
1.0
 30
0.0
  9
$PUCSORTHOREF
  2

  9
$PUCSORTHOVIEW
 70
     0
  9
$PUCSORGTOP
 10
0.0
 20
0.0
 30
0.0
  9
$PUCSORGBOTTOM
 10
0.0
 20
0.0
 30
0.0
  9
$PUCSORGLEFT
 10
0.0
 20
0.0
 30
0.0
  9
$PUCSORGRIGHT
 10
0.0
 20
0.0
 30
0.0
  9
$PUCSORGFRONT
 10
0.0
 20
0.0
 30
0.0
  9
$PUCSORGBACK
 10
0.0
 20
0.0
 30
0.0
  9
$USERI1
 70
     0
  9
$USERI2
 70
     0
  9
$USERI3
 70
     0
  9
$USERI4
 70
     0
  9
$USERI5
 70
     0
  9
$USERR1
 40
0.0
  9
$USERR2
 40
0.0
  9
$USERR3
 40
0.0
  9
$USERR4
 40
0.0
  9
$USERR5
 40
0.0
  9
$WORLDVIEW
 70
     1
  9
$SHADEDGE
 70
     3
  9
$SHADEDIF
 70
    70
  9
$TILEMODE
 70
     1
  9
$MAXACTVP
 70
    64
  9
$PINSBASE
 10
0.0
 20
0.0
 30
0.0
  9
$PLIMCHECK
 70
     0
  9
$PEXTMIN
 10
1.000000000000000E+20
 20
1.000000000000000E+20
 30
1.000000000000000E+20
  9
$PEXTMAX
 10
-1.000000000000000E+20
 20
-1.000000000000000E+20
 30
-1.000000000000000E+20
  9
$PLIMMIN
 10
0.0
 20
0.0
  9
$PLIMMAX
 10
12.0
 20
9.0
  9
$UNITMODE
 70
     0
  9
$VISRETAIN
 70
     1
  9
$PLINEGEN
 70
     0
  9
$PSLTSCALE
 70
     1
  9
$TREEDEPTH
 70
  3020
  9
$CMLSTYLE
  2
Standard
  9
$CMLJUST
 70
     0
  9
$CMLSCALE
 40
1.0
  9
$PROXYGRAPHICS
 70
     1
  9
$MEASUREMENT
 70
     0
  9
$CELWEIGHT
370
    -1
  9
$ENDCAPS
280
     0
  9
$JOINSTYLE
280
     0
  9
$LWDISPLAY
290
     1
  9
$INSUNITS
 70
     1
  9
$HYPERLINKBASE
  1

  9
$STYLESHEET
  1

  9
$XEDIT
290
     1
  9
$CEPSNTYPE
380
     0
  9
$PSTYLEMODE
290
     1
  9
$FINGERPRINTGUID
  2
{84CDEACD-A22B-99EC-C656-6859335ABD7F}
  9
$VERSIONGUID
  2
{FAEB1C32-E019-11D5-929B-00C0DF256EC4}
  9
$EXTNAMES
290
     1
  9
$PSVPSCALE
 40
0.0
  9
$OLESTARTUP
290
     0
  9
$SORTENTS
280
   127
  9
$INDEXCTL
280
     0
  9
$HIDETEXT
280
     1
  9
$XCLIPFRAME
280
     2
  9
$HALOGAP
280
     0
  9
$OBSCOLOR
 70
   257
  9
$OBSLTYPE
280
     0
  9
$INTERSECTIONDISPLAY
280
     0
  9
$INTERSECTIONCOLOR
 70
   257
  9
$DIMASSOC
280
     2
  9
$PROJECTNAME
  1

  9
$CAMERADISPLAY
290
     0
  9
$LENSLENGTH
 40
50.0
  9
$CAMERAHEIGHT
 40
0.0
  9
$STEPSPERSEC
 40
2.0
  9
$STEPSIZE
 40
6.0
  9
$3DDWFPREC
 40
2.0
  9
$PSOLWIDTH
 40
0.25
  9
$PSOLHEIGHT
 40
4.0
  9
$LOFTANG1
 40
1.570796326794897
  9
$LOFTANG2
 40
1.570796326794897
  9
$LOFTMAG1
 40
0.0
  9
$LOFTMAG2
 40
0.0
  9
$LOFTPARAM
 70
     7
  9
$LOFTNORMALS
280
     1
  9
$LATITUDE
 40
37.795
  9
$LONGITUDE
 40
-122.394
  9
$NORTHDIRECTION
 40
0.0
  9
$TIMEZONE
 70
 -8000
  9
$LIGHTGLYPHDISPLAY
280
     1
  9
$TILEMODELIGHTSYNCH
280
     1
  9
$CMATERIAL
347
3C
  9
$SOLIDHIST
280
     1
  9
$SHOWHIST
280
     1
  9
$DWFFRAME
280
     2
  9
$DGNFRAME
280
     2
  9
$REALWORLDSCALE
290
     1
  9
$INTERFERECOLOR
 62
   256
  9
$CSHADOW
280
     0
  9
$SHADOWPLANELOCATION
 40
0.0
  0
ENDSEC
  0
SECTION
  2
CLASSES
  0
CLASS
  1
ACDBDICTIONARYWDFLT
  2
AcDbDictionaryWithDefault
  3
ObjectDBX Classes
 90
        0
 91
        4
280
     0
281
     0
  0
CLASS
  1
VISUALSTYLE
  2
AcDbVisualStyle
  3
ObjectDBX Classes
 90
     4095
 91
        4
280
     0
281
     0
  0
CLASS
  1
MATERIAL
  2
AcDbMaterial
  3
ObjectDBX Classes
 90
     1153
 91
        4
280
     0
281
     0
  0
CLASS
  1
SUN
  2
AcDbSun
  3
SCENEOE
 90
     1024
 91
        4
280
     0
281
     0
  0
ENDSEC
  0
SECTION
  2
TABLES
  0
TABLE
  2
VPORT
  5
8
330
0
100
AcDbSymbolTable
 70
     1
  0
VPORT
  5
29
330
8
100
AcDbSymbolTableRecord
100
AcDbViewportTableRecord
  2
*Active
 70
     0
 10
0.0
 20
0.0
 11
1.0
 21
1.0
 12
0.0
 22
0.0
 13
0.0
 23
0.0
 14
0.5
 24
0.5
 15
0.5
 25
0.5
 16
0.0
 26
0.0
 36
1.0
 17
91.00082462281999
 27
-128.4993055234307
 37
0.0
 40
256.9986110468615
 41
0.7081814508812795
 42
50.0
 43
0.0
 44
0.0
 50
0.0
 51
0.0
 71
     0
 72
   100
 73
     1
 74
     3
 75
     0
 76
     0
 77
     0
 78
     0
281
     0
 65
     1
110
0.0
120
0.0
130
0.0
111
1.0
121
0.0
131
0.0
112
0.0
122
1.0
132
0.0
 79
     0
146
0.0
 60
     3
 61
     5
292
     1
282
     1
141
0.0
142
0.0
 63
   250
361
3F
  0
ENDTAB
  0
TABLE
  2
LTYPE
  5
5
330
0
100
AcDbSymbolTable
 70
     2
  0
LTYPE
  5
14
330
5
100
AcDbSymbolTableRecord
100
AcDbLinetypeTableRecord
  2
ByBlock
 70
     0
  3

 72
    65
 73
     0
 40
0.0
  0
LTYPE
  5
15
330
5
100
AcDbSymbolTableRecord
100
AcDbLinetypeTableRecord
  2
ByLayer
 70
     0
  3

 72
    65
 73
     0
 40
0.0
  0
LTYPE
  5
16
330
5
100
AcDbSymbolTableRecord
100
AcDbLinetypeTableRecord
  2
Continuous
 70
     0
  3
Solid line
 72
    65
 73
     0
 40
0.0
  0
LTYPE
  5
C9
330
5
100
AcDbSymbolTableRecord
100
AcDbLinetypeTableRecord
  2
AI-Linetype-1
 70
     0
  3
Adobe Illustrator Linetype No. 1
 72
    65
 73
     2
 40
1.411111110758333
 49
0.7055555553791667
 74
     0
 49
-0.7055555553791667
 74
     0
  0
ENDTAB
  0
TABLE
  2
LAYER
  5
2
330
0
100
AcDbSymbolTable
 70
     2
  0
LAYER
  5
10
330
2
100
AcDbSymbolTableRecord
100
AcDbLayerTableRecord
  2
0
 70
     0
 62
     7
  6
Continuous
370
    -3
390
F
347
3E
  0
LAYER
  5
40
330
2
100
AcDbSymbolTableRecord
100
AcDbLayerTableRecord
  2
_U+30EC_U+30A4_U+30E4_U+30FC 1
 70
     0
 62
     7
  6
Continuous
370
    -3
390
F
347
3E
  0
ENDTAB
  0
TABLE
  2
STYLE
  5
3
330
0
100
AcDbSymbolTable
 70
     1
  0
STYLE
  5
11
330
3
100
AcDbSymbolTableRecord
100
AcDbTextStyleTableRecord
  2
Standard
 70
     0
 40
0.0
 41
1.0
 50
0.0
 71
     0
 42
0.2
  3
txt
  4

  0
ENDTAB
  0
TABLE
  2
VIEW
  5
6
330
0
100
AcDbSymbolTable
 70
     0
  0
ENDTAB
  0
TABLE
  2
UCS
  5
7
330
0
100
AcDbSymbolTable
 70
     0
  0
ENDTAB
  0
TABLE
  2
APPID
  5
9
330
0
100
AcDbSymbolTable
 70
     1
  0
APPID
  5
12
330
9
100
AcDbSymbolTableRecord
100
AcDbRegAppTableRecord
  2
ACAD
 70
     0
  0
ENDTAB
  0
TABLE
  2
DIMSTYLE
  5
A
330
0
100
AcDbSymbolTable
 70
     1
100
AcDbDimStyleTable
  0
DIMSTYLE
105
27
330
A
100
AcDbSymbolTableRecord
100
AcDbDimStyleTableRecord
  2
Standard
 70
     0
178
     0
340
11
  0
ENDTAB
  0
TABLE
  2
BLOCK_RECORD
  5
1
330
0
100
AcDbSymbolTable
 70
     7
  0
BLOCK_RECORD
  5
1F
330
1
100
AcDbSymbolTableRecord
100
AcDbBlockTableRecord
  2
*Model_Space
340
22
 70
     0
280
     1
281
     0
  0
BLOCK_RECORD
  5
1B
330
1
100
AcDbSymbolTableRecord
100
AcDbBlockTableRecord
  2
*Paper_Space
340
1E
 70
     0
280
     1
281
     0
  0
BLOCK_RECORD
  5
23
330
1
100
AcDbSymbolTableRecord
100
AcDbBlockTableRecord
  2
*Paper_Space0
340
26
 70
     0
280
     1
281
     0
  0
BLOCK_RECORD
  5
52
330
1
100
AcDbSymbolTableRecord
100
AcDbBlockTableRecord
  2
block 2
340
0
102
{BLKREFS
331
53
102
}
 70
     0
280
     1
281
     0
  0
BLOCK_RECORD
  5
68
330
1
100
AcDbSymbolTableRecord
100
AcDbBlockTableRecord
  2
block 3
340
0
102
{BLKREFS
331
69
102
}
 70
     0
280
     1
281
     0
  0
BLOCK_RECORD
  5
7C
330
1
100
AcDbSymbolTableRecord
100
AcDbBlockTableRecord
  2
block 4
340
0
102
{BLKREFS
331
7D
102
}
 70
     0
280
     1
281
     0
  0
BLOCK_RECORD
  5
90
330
1
100
AcDbSymbolTableRecord
100
AcDbBlockTableRecord
  2
block 5
340
0
102
{BLKREFS
331
91
102
}
 70
     0
280
     1
281
     0
  0
BLOCK_RECORD
  5
A2
330
1
100
AcDbSymbolTableRecord
100
AcDbBlockTableRecord
  2
block 6
340
0
102
{BLKREFS
331
A3
102
}
 70
     0
280
     1
281
     0
  0
BLOCK_RECORD
  5
B6
330
1
100
AcDbSymbolTableRecord
100
AcDbBlockTableRecord
  2
block 7
340
0
102
{BLKREFS
331
B7
102
}
 70
     0
280
     1
281
     0
  0
ENDTAB
  0
ENDSEC
  0
SECTION
  2
BLOCKS
  0
BLOCK
  5
20
330
1F
100
AcDbEntity
  8
0
100
AcDbBlockBegin
  2
*Model_Space
 70
     0
 10
0.0
 20
0.0
 30
0.0
  3
*Model_Space
  1

  0
ENDBLK
  5
21
330
1F
100
AcDbEntity
  8
0
100
AcDbBlockEnd
  0
BLOCK
  5
1C
330
1B
100
AcDbEntity
 67
     1
  8
0
100
AcDbBlockBegin
  2
*Paper_Space
 70
     0
 10
0.0
 20
0.0
 30
0.0
  3
*Paper_Space
  1

  0
ENDBLK
  5
1D
330
1B
100
AcDbEntity
 67
     1
  8
0
100
AcDbBlockEnd
  0
BLOCK
  5
24
330
23
100
AcDbEntity
  8
0
100
AcDbBlockBegin
  2
*Paper_Space0
 70
     0
 10
0.0
 20
0.0
 30
0.0
  3
*Paper_Space0
  1

  0
ENDBLK
  5
25
330
23
100
AcDbEntity
  8
0
100
AcDbBlockEnd
  0
BLOCK
  5
54
330
52
100
AcDbEntity
  8
0
100
AcDbBlockBegin
  2
block 2
 70
     0
 10
0.0
 20
0.0
 30
0.0
  3
block 2
  1

  0
SPLINE
  5
56
330
52
100
AcDbEntity
  8
_U+30EC_U+30A4_U+30E4_U+30FC 1
370
     0
100
AcDbSpline
210
0.0
220
0.0
230
1.0
 70
    11
 71
     3
 72
    26
 73
    22
 74
     0
 42
0.0000000001
 43
0.0000000001
 12
1.0
 22
0.0
 32
0.0
 13
1.0
 23
0.0
 33
0.0
 40
0.0
 40
0.0
 40
0.0
 40
0.0
 40
1.0
 40
1.0
 40
1.0
 40
2.0
 40
2.0
 40
2.0
 40
3.0
 40
3.0
 40
3.0
 40
4.0
 40
4.0
 40
4.0
 40
5.0
 40
5.0
 40
5.0
 40
6.0
 40
6.0
 40
6.0
 40
7.0
 40
7.0
 40
7.0
 40
7.0
 10
87.95724959823639
 20
-114.4035250907568
 30
0.0
 10
87.95724959823639
 20
-114.4035250907568
 30
0.0
 10
87.72039928362545
 20
-114.4035250907568
 30
0.0
 10
87.72039928362545
 20
-114.4035250907568
 30
0.0
 10
87.74572073544205
 20
-114.0946722805041
 30
0.0
 10
87.9383015730675
 20
-113.5763576647483
 30
0.0
 10
88.34447833077847
 20
-113.0707899022879
 30
0.0
 10
88.34447833077847
 20
-113.0707899022879
 30
0.0
 10
87.5066311087657
 20
-113.0707899022879
 30
0.0
 10
87.5066311087657
 20
-113.0707899022879
 30
0.0
 10
87.5066311087657
 20
-113.0707899022879
 30
0.0
 10
87.5066311087657
 20
-112.8592610394935
 30
0.0
 10
87.5066311087657
 20
-112.8592610394935
 30
0.0
 10
87.5066311087657
 20
-112.8592610394935
 30
0.0
 10
88.58132864538939
 20
-112.8592610394935
 30
0.0
 10
88.58132864538939
 20
-112.8592610394935
 30
0.0
 10
88.58132864538939
 20
-112.8592610394935
 30
0.0
 10
88.58132864538939
 20
-113.0707899022879
 30
0.0
 10
88.58132864538939
 20
-113.0707899022879
 30
0.0
 10
88.25766192455018
 20
-113.3605224325974
 30
0.0
 10
87.9911837887661
 20
-113.9529066012861
 30
0.0
 10
87.95724959823639
 20
-114.4035250907568
 30
0.0
  0
HATCH
  5
57
330
52
100
AcDbEntity
  8
_U+30EC_U+30A4_U+30E4_U+30FC 1
 62
     7
420
 16777215
100
AcDbHatch
 10
0.0
 20
0.0
 30
0.0
210
0.0
220
0.0
230
1.0
  2
SOLID
 70
     1
 71
     0
 91
        1
 92
        1
 93
        1
 72
     4
 94
        3
 73
     0
 74
     1
 95
       26
 96
       22
 40
0.0
 40
0.0
 40
0.0
 40
0.0
 40
1.0
 40
1.0
 40
1.0
 40
2.0
 40
2.0
 40
2.0
 40
3.0
 40
3.0
 40
3.0
 40
4.0
 40
4.0
 40
4.0
 40
5.0
 40
5.0
 40
5.0
 40
6.0
 40
6.0
 40
6.0
 40
7.0
 40
7.0
 40
7.0
 40
7.0
 10
87.95724959823639
 20
-114.4035250907568
 10
87.95724959823639
 20
-114.4035250907568
 10
87.72039928362545
 20
-114.4035250907568
 10
87.72039928362545
 20
-114.4035250907568
 10
87.74572073544205
 20
-114.0946722805041
 10
87.9383015730675
 20
-113.5763576647483
 10
88.34447833077847
 20
-113.0707899022879
 10
88.34447833077847
 20
-113.0707899022879
 10
87.5066311087657
 20
-113.0707899022879
 10
87.5066311087657
 20
-113.0707899022879
 10
87.5066311087657
 20
-113.0707899022879
 10
87.5066311087657
 20
-112.8592610394935
 10
87.5066311087657
 20
-112.8592610394935
 10
87.5066311087657
 20
-112.8592610394935
 10
88.58132864538939
 20
-112.8592610394935
 10
88.58132864538939
 20
-112.8592610394935
 10
88.58132864538939
 20
-112.8592610394935
 10
88.58132864538939
 20
-113.0707899022879
 10
88.58132864538939
 20
-113.0707899022879
 10
88.25766192455018
 20
-113.3605224325974
 10
87.9911837887661
 20
-113.9529066012861
 10
87.95724959823639
 20
-114.4035250907568
 97
        0
 97
        0
 75
     2
 76
     1
 98
        0
  0
ENDBLK
  5
55
330
52
100
AcDbEntity
  8
0
100
AcDbBlockEnd
  0
BLOCK
  5
6A
330
68
100
AcDbEntity
  8
0
100
AcDbBlockBegin
  2
block 3
 70
     0
 10
0.0
 20
0.0
 30
0.0
  3
block 3
  1

  0
SPLINE
  5
6C
330
68
100
AcDbEntity
  8
_U+30EC_U+30A4_U+30E4_U+30FC 1
370
     0
100
AcDbSpline
210
0.0
220
0.0
230
1.0
 70
    11
 71
     3
 72
    26
 73
    22
 74
     0
 42
0.0000000001
 43
0.0000000001
 12
1.0
 22
0.0
 32
0.0
 13
1.0
 23
0.0
 33
0.0
 40
0.0
 40
0.0
 40
0.0
 40
0.0
 40
1.0
 40
1.0
 40
1.0
 40
2.0
 40
2.0
 40
2.0
 40
3.0
 40
3.0
 40
3.0
 40
4.0
 40
4.0
 40
4.0
 40
5.0
 40
5.0
 40
5.0
 40
6.0
 40
6.0
 40
6.0
 40
7.0
 40
7.0
 40
7.0
 40
7.0
 10
87.51558835702735
 20
-121.4716552430696
 30
0.0
 10
87.51558835702735
 20
-121.4716552430696
 30
0.0
 10
87.51558835702735
 20
-120.3673298852728
 30
0.0
 10
87.51558835702735
 20
-120.3673298852728
 30
0.0
 10
87.51558835702735
 20
-120.3673298852728
 30
0.0
 10
87.18554820954043
 20
-120.3673298852728
 30
0.0
 10
87.18554820954043
 20
-120.3673298852728
 30
0.0
 10
87.18554820954043
 20
-120.3673298852728
 30
0.0
 10
87.18554820954043
 20
-120.2193630341813
 30
0.0
 10
87.18554820954043
 20
-120.2193630341813
 30
0.0
 10
87.51765541431851
 20
-120.2045491235947
 30
0.0
 10
87.56416420336937
 20
-120.0415961071424
 30
0.0
 10
87.59379202454252
 20
-119.9273911918064
 30
0.0
 10
87.59379202454252
 20
-119.9273911918064
 30
0.0
 10
87.73986407311712
 20
-119.9273911918064
 30
0.0
 10
87.73986407311712
 20
-119.9273911918064
 30
0.0
 10
87.73986407311712
 20
-119.9273911918064
 30
0.0
 10
87.73986407311712
 20
-121.4716552430696
 30
0.0
 10
87.73986407311712
 20
-121.4716552430696
 30
0.0
 10
87.73986407311712
 20
-121.4716552430696
 30
0.0
 10
87.51558835702735
 20
-121.4716552430696
 30
0.0
 10
87.51558835702735
 20
-121.4716552430696
 30
0.0
  0
HATCH
  5
6D
330
68
100
AcDbEntity
  8
_U+30EC_U+30A4_U+30E4_U+30FC 1
 62
     7
420
 16777215
100
AcDbHatch
 10
0.0
 20
0.0
 30
0.0
210
0.0
220
0.0
230
1.0
  2
SOLID
 70
     1
 71
     0
 91
        1
 92
        1
 93
        1
 72
     4
 94
        3
 73
     0
 74
     1
 95
       26
 96
       22
 40
0.0
 40
0.0
 40
0.0
 40
0.0
 40
1.0
 40
1.0
 40
1.0
 40
2.0
 40
2.0
 40
2.0
 40
3.0
 40
3.0
 40
3.0
 40
4.0
 40
4.0
 40
4.0
 40
5.0
 40
5.0
 40
5.0
 40
6.0
 40
6.0
 40
6.0
 40
7.0
 40
7.0
 40
7.0
 40
7.0
 10
87.51558835702735
 20
-121.4716552430696
 10
87.51558835702735
 20
-121.4716552430696
 10
87.51558835702735
 20
-120.3673298852728
 10
87.51558835702735
 20
-120.3673298852728
 10
87.51558835702735
 20
-120.3673298852728
 10
87.18554820954043
 20
-120.3673298852728
 10
87.18554820954043
 20
-120.3673298852728
 10
87.18554820954043
 20
-120.3673298852728
 10
87.18554820954043
 20
-120.2193630341813
 10
87.18554820954043
 20
-120.2193630341813
 10
87.51765541431851
 20
-120.2045491235947
 10
87.56416420336937
 20
-120.0415961071424
 10
87.59379202454252
 20
-119.9273911918064
 10
87.59379202454252
 20
-119.9273911918064
 10
87.73986407311712
 20
-119.9273911918064
 10
87.73986407311712
 20
-119.9273911918064
 10
87.73986407311712
 20
-119.9273911918064
 10
87.73986407311712
 20
-121.4716552430696
 10
87.73986407311712
 20
-121.4716552430696
 10
87.73986407311712
 20
-121.4716552430696
 10
87.51558835702735
 20
-121.4716552430696
 10
87.51558835702735
 20
-121.4716552430696
 97
        0
 97
        0
 75
     2
 76
     1
 98
        0
  0
ENDBLK
  5
6B
330
68
100
AcDbEntity
  8
0
100
AcDbBlockEnd
  0
BLOCK
  5
7E
330
7C
100
AcDbEntity
  8
0
100
AcDbBlockBegin
  2
block 4
 70
     0
 10
0.0
 20
0.0
 30
0.0
  3
block 4
  1

  0
SPLINE
  5
80
330
7C
100
AcDbEntity
  8
_U+30EC_U+30A4_U+30E4_U+30FC 1
370
     0
100
AcDbSpline
210
0.0
220
0.0
230
1.0
 70
    11
 71
     3
 72
    26
 73
    22
 74
     0
 42
0.0000000001
 43
0.0000000001
 12
1.0
 22
0.0
 32
0.0
 13
1.0
 23
0.0
 33
0.0
 40
0.0
 40
0.0
 40
0.0
 40
0.0
 40
1.0
 40
1.0
 40
1.0
 40
2.0
 40
2.0
 40
2.0
 40
3.0
 40
3.0
 40
3.0
 40
4.0
 40
4.0
 40
4.0
 40
5.0
 40
5.0
 40
5.0
 40
6.0
 40
6.0
 40
6.0
 40
7.0
 40
7.0
 40
7.0
 40
7.0
 10
102.9804497355396
 20
-133.1308918938006
 30
0.0
 10
102.9804497355396
 20
-133.1308918938006
 30
0.0
 10
101.876296632517
 20
-133.1308918938006
 30
0.0
 10
101.876296632517
 20
-133.1308918938006
 30
0.0
 10
101.876296632517
 20
-133.1308918938006
 30
0.0
 10
101.876296632517
 20
-133.4609320412875
 30
0.0
 10
101.876296632517
 20
-133.4609320412875
 30
0.0
 10
101.876296632517
 20
-133.4609320412875
 30
0.0
 10
101.7281575266513
 20
-133.4609320412875
 30
0.0
 10
101.7281575266513
 20
-133.4609320412875
 30
0.0
 10
101.7133436160647
 20
-133.1288248365095
 30
0.0
 10
101.5503905996124
 20
-133.0823160474586
 30
0.0
 10
101.4360134295021
 20
-133.0526882262855
 30
0.0
 10
101.4360134295021
 20
-133.0526882262855
 30
0.0
 10
101.4360134295021
 20
-132.9066161777108
 30
0.0
 10
101.4360134295021
 20
-132.9066161777108
 30
0.0
 10
101.4360134295021
 20
-132.9066161777108
 30
0.0
 10
102.9804497355396
 20
-132.9066161777108
 30
0.0
 10
102.9804497355396
 20
-132.9066161777108
 30
0.0
 10
102.9804497355396
 20
-132.9066161777108
 30
0.0
 10
102.9804497355396
 20
-133.1308918938006
 30
0.0
 10
102.9804497355396
 20
-133.1308918938006
 30
0.0
  0
HATCH
  5
81
330
7C
100
AcDbEntity
  8
_U+30EC_U+30A4_U+30E4_U+30FC 1
 62
     7
420
 16777215
100
AcDbHatch
 10
0.0
 20
0.0
 30
0.0
210
0.0
220
0.0
230
1.0
  2
SOLID
 70
     1
 71
     0
 91
        1
 92
        1
 93
        1
 72
     4
 94
        3
 73
     0
 74
     1
 95
       26
 96
       22
 40
0.0
 40
0.0
 40
0.0
 40
0.0
 40
1.0
 40
1.0
 40
1.0
 40
2.0
 40
2.0
 40
2.0
 40
3.0
 40
3.0
 40
3.0
 40
4.0
 40
4.0
 40
4.0
 40
5.0
 40
5.0
 40
5.0
 40
6.0
 40
6.0
 40
6.0
 40
7.0
 40
7.0
 40
7.0
 40
7.0
 10
102.9804497355396
 20
-133.1308918938006
 10
102.9804497355396
 20
-133.1308918938006
 10
101.876296632517
 20
-133.1308918938006
 10
101.876296632517
 20
-133.1308918938006
 10
101.876296632517
 20
-133.1308918938006
 10
101.876296632517
 20
-133.4609320412875
 10
101.876296632517
 20
-133.4609320412875
 10
101.876296632517
 20
-133.4609320412875
 10
101.7281575266513
 20
-133.4609320412875
 10
101.7281575266513
 20
-133.4609320412875
 10
101.7133436160647
 20
-133.1288248365095
 10
101.5503905996124
 20
-133.0823160474586
 10
101.4360134295021
 20
-133.0526882262855
 10
101.4360134295021
 20
-133.0526882262855
 10
101.4360134295021
 20
-132.9066161777108
 10
101.4360134295021
 20
-132.9066161777108
 10
101.4360134295021
 20
-132.9066161777108
 10
102.9804497355396
 20
-132.9066161777108
 10
102.9804497355396
 20
-132.9066161777108
 10
102.9804497355396
 20
-132.9066161777108
 10
102.9804497355396
 20
-133.1308918938006
 10
102.9804497355396
 20
-133.1308918938006
 97
        0
 97
        0
 75
     2
 76
     1
 98
        0
  0
SPLINE
  5
82
330
7C
100
AcDbEntity
  8
_U+30EC_U+30A4_U+30E4_U+30FC 1
370
     0
100
AcDbSpline
210
0.0
220
0.0
230
1.0
 70
    11
 71
     3
 72
    62
 73
    58
 74
     0
 42
0.0000000001
 43
0.0000000001
 12
1.0
 22
0.0
 32
0.0
 13
1.0
 23
0.0
 33
0.0
 40
0.0
 40
0.0
 40
0.0
 40
0.0
 40
1.0
 40
1.0
 40
1.0
 40
2.0
 40
2.0
 40
2.0
 40
3.0
 40
3.0
 40
3.0
 40
4.0
 40
4.0
 40
4.0
 40
5.0
 40
5.0
 40
5.0
 40
6.0
 40
6.0
 40
6.0
 40
7.0
 40
7.0
 40
7.0
 40
8.0
 40
8.0
 40
8.0
 40
9.0
 40
9.0
 40
9.0
 40
10.0
 40
10.0
 40
10.0
 40
11.0
 40
11.0
 40
11.0
 40
12.0
 40
12.0
 40
12.0
 40
13.0
 40
13.0
 40
13.0
 40
14.0
 40
14.0
 40
14.0
 40
15.0
 40
15.0
 40
15.0
 40
16.0
 40
16.0
 40
16.0
 40
17.0
 40
17.0
 40
17.0
 40
18.0
 40
18.0
 40
18.0
 40
19.0
 40
19.0
 40
19.0
 40
19.0
 10
103.0310926391728
 20
-131.9137396588619
 30
0.0
 10
103.0310926391728
 20
-132.0091688038033
 30
0.0
 10
103.0100775567128
 20
-132.2268988384711
 30
0.0
 10
102.8240424005093
 20
-132.3519558045856
 30
0.0
 10
102.7117322876901
 20
-132.4260253575185
 30
0.0
 10
102.6125135377149
 20
-132.4301594721008
 30
0.0
 10
102.5277641887778
 20
-132.4342935866831
 30
0.0
 10
102.5277641887778
 20
-132.4342935866831
 30
0.0
 10
102.5277641887778
 20
-132.2141519851756
 30
0.0
 10
102.5277641887778
 20
-132.2141519851756
 30
0.0
 10
102.6018337417107
 20
-132.2120849278845
 30
0.0
 10
102.8364447442562
 20
-132.2017496414287
 30
0.0
 10
102.8364447442562
 20
-131.9182182829927
 30
0.0
 10
102.8364447442562
 20
-131.7807589731312
 30
0.0
 10
102.7668538154541
 20
-131.6281412431346
 30
0.0
 10
102.5384439847821
 20
-131.6281412431346
 30
0.0
 10
102.4219997573806
 20
-131.6281412431346
 30
0.0
 10
102.3734239110386
 20
-131.6663818030209
 30
0.0
 10
102.3417290325743
 20
-131.6980766814852
 30
0.0
 10
102.2676594796414
 20
-131.7721462344181
 30
0.0
 10
102.254912626346
 20
-131.8885904618195
 30
0.0
 10
102.254912626346
 20
-131.943367480035
 30
0.0
 10
102.254912626346
 20
-131.9626600147524
 30
0.0
 10
102.2569796836372
 20
-131.998489007799
 30
0.0
 10
102.2611137982195
 20
-132.026049771681
 30
0.0
 10
102.2611137982195
 20
-132.026049771681
 30
0.0
 10
102.0664659033028
 20
-132.026049771681
 30
0.0
 10
102.0664659033028
 20
-132.026049771681
 30
0.0
 10
102.0730115847248
 20
-131.9878092117947
 30
0.0
 10
102.075078642016
 20
-131.9457790468747
 30
0.0
 10
102.075078642016
 20
-131.9392333654527
 30
0.0
 10
102.075078642016
 20
-131.873776551233
 30
0.0
 10
102.0537190500074
 20
-131.674994541734
 30
0.0
 10
101.8170409901707
 20
-131.674994541734
 30
0.0
 10
101.6392740631319
 20
-131.674994541734
 30
0.0
 10
101.5841525353678
 20
-131.8059081701735
 30
0.0
 10
101.5841525353678
 20
-131.9161512257015
 30
0.0
 10
101.5841525353678
 20
-132.1803900494202
 30
0.0
 10
101.8170409901707
 20
-132.1890027881333
 30
0.0
 10
101.8886989762639
 20
-132.1931369027156
 30
0.0
 10
101.8886989762639
 20
-132.1931369027156
 30
0.0
 10
101.8886989762639
 20
-132.3963975363453
 30
0.0
 10
101.8886989762639
 20
-132.3963975363453
 30
0.0
 10
101.7639865196979
 20
-132.3877847976322
 30
0.0
 10
101.3874375831601
 20
-132.3602240337502
 30
0.0
 10
101.3874375831601
 20
-131.9034043724061
 30
0.0
 10
101.3874375831601
 20
-131.6791286563163
 30
0.0
 10
101.5145616065658
 20
-131.4379719723488
 30
0.0
 10
101.8104953087488
 20
-131.4379719723488
 30
0.0
 10
101.9968749745008
 20
-131.4379719723488
 30
0.0
 10
102.0792127565983
 20
-131.5330566077417
 30
0.0
 10
102.1405354562357
 20
-131.6326198672655
 30
0.0
 10
102.1680962201177
 20
-131.571297167628
 30
0.0
 10
102.248366944924
 20
-131.3893961260068
 30
0.0
 10
102.5256971314866
 20
-131.3893961260068
 30
0.0
 10
102.8640055081382
 20
-131.3893961260068
 30
0.0
 10
103.0310926391728
 20
-131.6367539818478
 30
0.0
 10
103.0310926391728
 20
-131.9137396588619
 30
0.0
  0
HATCH
  5
83
330
7C
100
AcDbEntity
  8
_U+30EC_U+30A4_U+30E4_U+30FC 1
 62
     7
420
 16777215
100
AcDbHatch
 10
0.0
 20
0.0
 30
0.0
210
0.0
220
0.0
230
1.0
  2
SOLID
 70
     1
 71
     0
 91
        1
 92
        1
 93
        1
 72
     4
 94
        3
 73
     0
 74
     1
 95
       62
 96
       58
 40
0.0
 40
0.0
 40
0.0
 40
0.0
 40
1.0
 40
1.0
 40
1.0
 40
2.0
 40
2.0
 40
2.0
 40
3.0
 40
3.0
 40
3.0
 40
4.0
 40
4.0
 40
4.0
 40
5.0
 40
5.0
 40
5.0
 40
6.0
 40
6.0
 40
6.0
 40
7.0
 40
7.0
 40
7.0
 40
8.0
 40
8.0
 40
8.0
 40
9.0
 40
9.0
 40
9.0
 40
10.0
 40
10.0
 40
10.0
 40
11.0
 40
11.0
 40
11.0
 40
12.0
 40
12.0
 40
12.0
 40
13.0
 40
13.0
 40
13.0
 40
14.0
 40
14.0
 40
14.0
 40
15.0
 40
15.0
 40
15.0
 40
16.0
 40
16.0
 40
16.0
 40
17.0
 40
17.0
 40
17.0
 40
18.0
 40
18.0
 40
18.0
 40
19.0
 40
19.0
 40
19.0
 40
19.0
 10
103.0310926391728
 20
-131.9137396588619
 10
103.0310926391728
 20
-132.0091688038033
 10
103.0100775567128
 20
-132.2268988384711
 10
102.8240424005093
 20
-132.3519558045856
 10
102.7117322876901
 20
-132.4260253575185
 10
102.6125135377149
 20
-132.4301594721008
 10
102.5277641887778
 20
-132.4342935866831
 10
102.5277641887778
 20
-132.4342935866831
 10
102.5277641887778
 20
-132.2141519851756
 10
102.5277641887778
 20
-132.2141519851756
 10
102.6018337417107
 20
-132.2120849278845
 10
102.8364447442562
 20
-132.2017496414287
 10
102.8364447442562
 20
-131.9182182829927
 10
102.8364447442562
 20
-131.7807589731312
 10
102.7668538154541
 20
-131.6281412431346
 10
102.5384439847821
 20
-131.6281412431346
 10
102.4219997573806
 20
-131.6281412431346
 10
102.3734239110386
 20
-131.6663818030209
 10
102.3417290325743
 20
-131.6980766814852
 10
102.2676594796414
 20
-131.7721462344181
 10
102.254912626346
 20
-131.8885904618195
 10
102.254912626346
 20
-131.943367480035
 10
102.254912626346
 20
-131.9626600147524
 10
102.2569796836372
 20
-131.998489007799
 10
102.2611137982195
 20
-132.026049771681
 10
102.2611137982195
 20
-132.026049771681
 10
102.0664659033028
 20
-132.026049771681
 10
102.0664659033028
 20
-132.026049771681
 10
102.0730115847248
 20
-131.9878092117947
 10
102.075078642016
 20
-131.9457790468747
 10
102.075078642016
 20
-131.9392333654527
 10
102.075078642016
 20
-131.873776551233
 10
102.0537190500074
 20
-131.674994541734
 10
101.8170409901707
 20
-131.674994541734
 10
101.6392740631319
 20
-131.674994541734
 10
101.5841525353678
 20
-131.8059081701735
 10
101.5841525353678
 20
-131.9161512257015
 10
101.5841525353678
 20
-132.1803900494202
 10
101.8170409901707
 20
-132.1890027881333
 10
101.8886989762639
 20
-132.1931369027156
 10
101.8886989762639
 20
-132.1931369027156
 10
101.8886989762639
 20
-132.3963975363453
 10
101.8886989762639
 20
-132.3963975363453
 10
101.7639865196979
 20
-132.3877847976322
 10
101.3874375831601
 20
-132.3602240337502
 10
101.3874375831601
 20
-131.9034043724061
 10
101.3874375831601
 20
-131.6791286563163
 10
101.5145616065658
 20
-131.4379719723488
 10
101.8104953087488
 20
-131.4379719723488
 10
101.9968749745008
 20
-131.4379719723488
 10
102.0792127565983
 20
-131.5330566077417
 10
102.1405354562357
 20
-131.6326198672655
 10
102.1680962201177
 20
-131.571297167628
 10
102.248366944924
 20
-131.3893961260068
 10
102.5256971314866
 20
-131.3893961260068
 10
102.8640055081382
 20
-131.3893961260068
 10
103.0310926391728
 20
-131.6367539818478
 10
103.0310926391728
 20
-131.9137396588619
 97
        0
 97
        0
 75
     2
 76
     1
 98
        0
  0
ENDBLK
  5
7F
330
7C
100
AcDbEntity
  8
0
100
AcDbBlockEnd
  0
BLOCK
  5
92
330
90
100
AcDbEntity
  8
0
100
AcDbBlockBegin
  2
block 5
 70
     0
 10
0.0
 20
0.0
 30
0.0
  3
block 5
  1

  0
SPLINE
  5
94
330
90
100
AcDbEntity
  8
_U+30EC_U+30A4_U+30E4_U+30FC 1
370
     0
100
AcDbSpline
210
0.0
220
0.0
230
1.0
 70
    11
 71
     3
 72
    26
 73
    22
 74
     0
 42
0.0000000001
 43
0.0000000001
 12
1.0
 22
0.0
 32
0.0
 13
1.0
 23
0.0
 33
0.0
 40
0.0
 40
0.0
 40
0.0
 40
0.0
 40
1.0
 40
1.0
 40
1.0
 40
2.0
 40
2.0
 40
2.0
 40
3.0
 40
3.0
 40
3.0
 40
4.0
 40
4.0
 40
4.0
 40
5.0
 40
5.0
 40
5.0
 40
6.0
 40
6.0
 40
6.0
 40
7.0
 40
7.0
 40
7.0
 40
7.0
 10
102.9663248440501
 20
-121.5498589105848
 30
0.0
 10
102.9663248440501
 20
-121.5498589105848
 30
0.0
 10
102.9663248440501
 20
-121.7867092251957
 30
0.0
 10
102.9663248440501
 20
-121.7867092251957
 30
0.0
 10
102.6572997790232
 20
-121.7613877733791
 30
0.0
 10
102.1391574180416
 20
-121.5688069357536
 30
0.0
 10
101.6334174008069
 20
-121.1626301780427
 30
0.0
 10
101.6334174008069
 20
-121.1626301780427
 30
0.0
 10
101.6334174008069
 20
-122.0004774000554
 30
0.0
 10
101.6334174008069
 20
-122.0004774000554
 30
0.0
 10
101.6334174008069
 20
-122.0004774000554
 30
0.0
 10
101.4218885380126
 20
-122.0004774000554
 30
0.0
 10
101.4218885380126
 20
-122.0004774000554
 30
0.0
 10
101.4218885380126
 20
-122.0004774000554
 30
0.0
 10
101.4218885380126
 20
-120.9257798634318
 30
0.0
 10
101.4218885380126
 20
-120.9257798634318
 30
0.0
 10
101.4218885380126
 20
-120.9257798634318
 30
0.0
 10
101.6334174008069
 20
-120.9257798634318
 30
0.0
 10
101.6334174008069
 20
-120.9257798634318
 30
0.0
 10
101.923494440665
 20
-121.249446584271
 30
0.0
 10
102.5157063545794
 20
-121.5159247200551
 30
0.0
 10
102.9663248440501
 20
-121.5498589105848
 30
0.0
  0
HATCH
  5
95
330
90
100
AcDbEntity
  8
_U+30EC_U+30A4_U+30E4_U+30FC 1
 62
     7
420
 16777215
100
AcDbHatch
 10
0.0
 20
0.0
 30
0.0
210
0.0
220
0.0
230
1.0
  2
SOLID
 70
     1
 71
     0
 91
        1
 92
        1
 93
        1
 72
     4
 94
        3
 73
     0
 74
     1
 95
       26
 96
       22
 40
0.0
 40
0.0
 40
0.0
 40
0.0
 40
1.0
 40
1.0
 40
1.0
 40
2.0
 40
2.0
 40
2.0
 40
3.0
 40
3.0
 40
3.0
 40
4.0
 40
4.0
 40
4.0
 40
5.0
 40
5.0
 40
5.0
 40
6.0
 40
6.0
 40
6.0
 40
7.0
 40
7.0
 40
7.0
 40
7.0
 10
102.9663248440501
 20
-121.5498589105848
 10
102.9663248440501
 20
-121.5498589105848
 10
102.9663248440501
 20
-121.7867092251957
 10
102.9663248440501
 20
-121.7867092251957
 10
102.6572997790232
 20
-121.7613877733791
 10
102.1391574180416
 20
-121.5688069357536
 10
101.6334174008069
 20
-121.1626301780427
 10
101.6334174008069
 20
-121.1626301780427
 10
101.6334174008069
 20
-122.0004774000554
 10
101.6334174008069
 20
-122.0004774000554
 10
101.6334174008069
 20
-122.0004774000554
 10
101.4218885380126
 20
-122.0004774000554
 10
101.4218885380126
 20
-122.0004774000554
 10
101.4218885380126
 20
-122.0004774000554
 10
101.4218885380126
 20
-120.9257798634318
 10
101.4218885380126
 20
-120.9257798634318
 10
101.4218885380126
 20
-120.9257798634318
 10
101.6334174008069
 20
-120.9257798634318
 10
101.6334174008069
 20
-120.9257798634318
 10
101.923494440665
 20
-121.249446584271
 10
102.5157063545794
 20
-121.5159247200551
 10
102.9663248440501
 20
-121.5498589105848
 97
        0
 97
        0
 75
     2
 76
     1
 98
        0
  0
ENDBLK
  5
93
330
90
100
AcDbEntity
  8
0
100
AcDbBlockEnd
  0
BLOCK
  5
A4
330
A2
100
AcDbEntity
  8
0
100
AcDbBlockBegin
  2
block 6
 70
     0
 10
0.0
 20
0.0
 30
0.0
  3
block 6
  1

  0
SPLINE
  5
A6
330
A2
100
AcDbEntity
  8
_U+30EC_U+30A4_U+30E4_U+30FC 1
370
     0
100
AcDbSpline
210
0.0
220
0.0
230
1.0
 70
    11
 71
     3
 72
    44
 73
    40
 74
     0
 42
0.0000000001
 43
0.0000000001
 12
1.0
 22
0.0
 32
0.0
 13
1.0
 23
0.0
 33
0.0
 40
0.0
 40
0.0
 40
0.0
 40
0.0
 40
1.0
 40
1.0
 40
1.0
 40
2.0
 40
2.0
 40
2.0
 40
3.0
 40
3.0
 40
3.0
 40
4.0
 40
4.0
 40
4.0
 40
5.0
 40
5.0
 40
5.0
 40
6.0
 40
6.0
 40
6.0
 40
7.0
 40
7.0
 40
7.0
 40
8.0
 40
8.0
 40
8.0
 40
9.0
 40
9.0
 40
9.0
 40
10.0
 40
10.0
 40
10.0
 40
11.0
 40
11.0
 40
11.0
 40
12.0
 40
12.0
 40
12.0
 40
13.0
 40
13.0
 40
13.0
 40
13.0
 10
78.38401826382413
 20
-129.502172819187
 30
0.0
 10
78.5426649109199
 20
-129.7202473634033
 30
0.0
 10
78.61673446385277
 20
-129.813264941505
 30
0.0
 10
78.76056720036195
 20
-129.8618407878471
 30
0.0
 10
78.76056720036195
 20
-129.8618407878471
 30
0.0
 10
78.76056720036195
 20
-129.0835937177291
 30
0.0
 10
78.76056720036195
 20
-129.0835937177291
 30
0.0
 10
78.76056720036195
 20
-129.0835937177291
 30
0.0
 10
78.96572263650857
 20
-129.0835937177291
 30
0.0
 10
78.96572263650857
 20
-129.0835937177291
 30
0.0
 10
78.96572263650857
 20
-129.0835937177291
 30
0.0
 10
78.96572263650857
 20
-130.1116102105277
 30
0.0
 10
78.96572263650857
 20
-130.1116102105277
 30
0.0
 10
78.60812172513964
 20
-130.0799153320634
 30
0.0
 10
78.52991805762447
 20
-130.0144585178436
 30
0.0
 10
78.23157278860184
 20
-129.6292968425927
 30
0.0
 10
78.03279077910291
 20
-129.3733262480386
 30
0.0
 10
77.96509465281775
 20
-129.3078694338189
 30
0.0
 10
77.82763534295628
 20
-129.3078694338189
 30
0.0
 10
77.7091240582637
 20
-129.3078694338189
 30
0.0
 10
77.57786592027567
 20
-129.3795274199121
 30
0.0
 10
77.57786592027567
 20
-129.5762423721198
 30
0.0
 10
77.57786592027567
 20
-129.8366915908047
 30
0.0
 10
77.80851506301315
 20
-129.8449598199693
 30
0.0
 10
77.92495929041459
 20
-129.8494384441001
 30
0.0
 10
77.92495929041459
 20
-129.8494384441001
 30
0.0
 10
77.92495929041459
 20
-130.0733696506414
 30
0.0
 10
77.92495929041459
 20
-130.0733696506414
 30
0.0
 10
77.79800752178313
 20
-130.0651014214768
 30
0.0
 10
77.68586966373826
 20
-130.0544216254725
 30
0.0
 10
77.56735837904566
 20
-129.9741509006662
 30
0.0
 10
77.40664467465876
 20
-129.8642523546867
 30
0.0
 10
77.37271048412904
 20
-129.6778726889347
 30
0.0
 10
77.37271048412904
 20
-129.5614284615333
 30
0.0
 10
77.37271048412904
 20
-129.2844427845192
 30
0.0
 10
77.55685083781565
 20
-129.0770480363071
 30
0.0
 10
77.82970240024744
 20
-129.0770480363071
 30
0.0
 10
78.0581122309195
 20
-129.0770480363071
 30
0.0
 10
78.15767549044322
 20
-129.1934922637086
 30
0.0
 10
78.38401826382413
 20
-129.502172819187
 30
0.0
  0
HATCH
  5
A7
330
A2
100
AcDbEntity
  8
_U+30EC_U+30A4_U+30E4_U+30FC 1
 62
     7
420
 16777215
100
AcDbHatch
 10
0.0
 20
0.0
 30
0.0
210
0.0
220
0.0
230
1.0
  2
SOLID
 70
     1
 71
     0
 91
        1
 92
        1
 93
        1
 72
     4
 94
        3
 73
     0
 74
     1
 95
       44
 96
       40
 40
0.0
 40
0.0
 40
0.0
 40
0.0
 40
1.0
 40
1.0
 40
1.0
 40
2.0
 40
2.0
 40
2.0
 40
3.0
 40
3.0
 40
3.0
 40
4.0
 40
4.0
 40
4.0
 40
5.0
 40
5.0
 40
5.0
 40
6.0
 40
6.0
 40
6.0
 40
7.0
 40
7.0
 40
7.0
 40
8.0
 40
8.0
 40
8.0
 40
9.0
 40
9.0
 40
9.0
 40
10.0
 40
10.0
 40
10.0
 40
11.0
 40
11.0
 40
11.0
 40
12.0
 40
12.0
 40
12.0
 40
13.0
 40
13.0
 40
13.0
 40
13.0
 10
78.38401826382413
 20
-129.502172819187
 10
78.5426649109199
 20
-129.7202473634033
 10
78.61673446385277
 20
-129.813264941505
 10
78.76056720036195
 20
-129.8618407878471
 10
78.76056720036195
 20
-129.8618407878471
 10
78.76056720036195
 20
-129.0835937177291
 10
78.76056720036195
 20
-129.0835937177291
 10
78.76056720036195
 20
-129.0835937177291
 10
78.96572263650857
 20
-129.0835937177291
 10
78.96572263650857
 20
-129.0835937177291
 10
78.96572263650857
 20
-129.0835937177291
 10
78.96572263650857
 20
-130.1116102105277
 10
78.96572263650857
 20
-130.1116102105277
 10
78.60812172513964
 20
-130.0799153320634
 10
78.52991805762447
 20
-130.0144585178436
 10
78.23157278860184
 20
-129.6292968425927
 10
78.03279077910291
 20
-129.3733262480386
 10
77.96509465281775
 20
-129.3078694338189
 10
77.82763534295628
 20
-129.3078694338189
 10
77.7091240582637
 20
-129.3078694338189
 10
77.57786592027567
 20
-129.3795274199121
 10
77.57786592027567
 20
-129.5762423721198
 10
77.57786592027567
 20
-129.8366915908047
 10
77.80851506301315
 20
-129.8449598199693
 10
77.92495929041459
 20
-129.8494384441001
 10
77.92495929041459
 20
-129.8494384441001
 10
77.92495929041459
 20
-130.0733696506414
 10
77.92495929041459
 20
-130.0733696506414
 10
77.79800752178313
 20
-130.0651014214768
 10
77.68586966373826
 20
-130.0544216254725
 10
77.56735837904566
 20
-129.9741509006662
 10
77.40664467465876
 20
-129.8642523546867
 10
77.37271048412904
 20
-129.6778726889347
 10
77.37271048412904
 20
-129.5614284615333
 10
77.37271048412904
 20
-129.2844427845192
 10
77.55685083781565
 20
-129.0770480363071
 10
77.82970240024744
 20
-129.0770480363071
 10
78.0581122309195
 20
-129.0770480363071
 10
78.15767549044322
 20
-129.1934922637086
 10
78.38401826382413
 20
-129.502172819187
 97
        0
 97
        0
 75
     2
 76
     1
 98
        0
  0
SPLINE
  5
A8
330
A2
100
AcDbEntity
  8
_U+30EC_U+30A4_U+30E4_U+30FC 1
370
     0
100
AcDbSpline
210
0.0
220
0.0
230
1.0
 70
    11
 71
     3
 72
    44
 73
    40
 74
     0
 42
0.0000000001
 43
0.0000000001
 12
1.0
 22
0.0
 32
0.0
 13
1.0
 23
0.0
 33
0.0
 40
0.0
 40
0.0
 40
0.0
 40
0.0
 40
1.0
 40
1.0
 40
1.0
 40
2.0
 40
2.0
 40
2.0
 40
3.0
 40
3.0
 40
3.0
 40
4.0
 40
4.0
 40
4.0
 40
5.0
 40
5.0
 40
5.0
 40
6.0
 40
6.0
 40
6.0
 40
7.0
 40
7.0
 40
7.0
 40
8.0
 40
8.0
 40
8.0
 40
9.0
 40
9.0
 40
9.0
 40
10.0
 40
10.0
 40
10.0
 40
11.0
 40
11.0
 40
11.0
 40
12.0
 40
12.0
 40
12.0
 40
13.0
 40
13.0
 40
13.0
 40
13.0
 10
78.38401826382413
 20
-128.3255004561999
 30
0.0
 10
78.5426649109199
 20
-128.5434027456419
 30
0.0
 10
78.61673446385277
 20
-128.6365925785179
 30
0.0
 10
78.76056720036195
 20
-128.68516842486
 30
0.0
 10
78.76056720036195
 20
-128.68516842486
 30
0.0
 10
78.76056720036195
 20
-127.9067490999678
 30
0.0
 10
78.76056720036195
 20
-127.9067490999678
 30
0.0
 10
78.76056720036195
 20
-127.9067490999678
 30
0.0
 10
78.96572263650857
 20
-127.9067490999678
 30
0.0
 10
78.96572263650857
 20
-127.9067490999678
 30
0.0
 10
78.96572263650857
 20
-127.9067490999678
 30
0.0
 10
78.96572263650857
 20
-128.9347655927663
 30
0.0
 10
78.96572263650857
 20
-128.9347655927663
 30
0.0
 10
78.60812172513964
 20
-128.903070714302
 30
0.0
 10
78.52991805762447
 20
-128.8376139000823
 30
0.0
 10
78.23157278860184
 20
-128.4524522248313
 30
0.0
 10
78.03279077910291
 20
-128.1964816302773
 30
0.0
 10
77.96509465281775
 20
-128.1310248160575
 30
0.0
 10
77.82763534295628
 20
-128.1310248160575
 30
0.0
 10
77.7091240582637
 20
-128.1310248160575
 30
0.0
 10
77.57786592027567
 20
-128.202855056925
 30
0.0
 10
77.57786592027567
 20
-128.3995700091328
 30
0.0
 10
77.57786592027567
 20
-128.6598469730434
 30
0.0
 10
77.80851506301315
 20
-128.6682874569822
 30
0.0
 10
77.92495929041459
 20
-128.6725938263388
 30
0.0
 10
77.92495929041459
 20
-128.6725938263388
 30
0.0
 10
77.92495929041459
 20
-128.89652503288
 30
0.0
 10
77.92495929041459
 20
-128.89652503288
 30
0.0
 10
77.79800752178313
 20
-128.8882568037154
 30
0.0
 10
77.68586966373826
 20
-128.8775770077112
 30
0.0
 10
77.56735837904566
 20
-128.7973062829049
 30
0.0
 10
77.40664467465876
 20
-128.6874077369254
 30
0.0
 10
77.37271048412904
 20
-128.5012003259476
 30
0.0
 10
77.37271048412904
 20
-128.3847560985462
 30
0.0
 10
77.37271048412904
 20
-128.1075981667578
 30
0.0
 10
77.55685083781565
 20
-127.9003756733201
 30
0.0
 10
77.82970240024744
 20
-127.9003756733201
 30
0.0
 10
78.0581122309195
 20
-127.9003756733201
 30
0.0
 10
78.15767549044322
 20
-128.0166476459472
 30
0.0
 10
78.38401826382413
 20
-128.3255004561999
 30
0.0
  0
HATCH
  5
A9
330
A2
100
AcDbEntity
  8
_U+30EC_U+30A4_U+30E4_U+30FC 1
 62
     7
420
 16777215
100
AcDbHatch
 10
0.0
 20
0.0
 30
0.0
210
0.0
220
0.0
230
1.0
  2
SOLID
 70
     1
 71
     0
 91
        1
 92
        1
 93
        1
 72
     4
 94
        3
 73
     0
 74
     1
 95
       44
 96
       40
 40
0.0
 40
0.0
 40
0.0
 40
0.0
 40
1.0
 40
1.0
 40
1.0
 40
2.0
 40
2.0
 40
2.0
 40
3.0
 40
3.0
 40
3.0
 40
4.0
 40
4.0
 40
4.0
 40
5.0
 40
5.0
 40
5.0
 40
6.0
 40
6.0
 40
6.0
 40
7.0
 40
7.0
 40
7.0
 40
8.0
 40
8.0
 40
8.0
 40
9.0
 40
9.0
 40
9.0
 40
10.0
 40
10.0
 40
10.0
 40
11.0
 40
11.0
 40
11.0
 40
12.0
 40
12.0
 40
12.0
 40
13.0
 40
13.0
 40
13.0
 40
13.0
 10
78.38401826382413
 20
-128.3255004561999
 10
78.5426649109199
 20
-128.5434027456419
 10
78.61673446385277
 20
-128.6365925785179
 10
78.76056720036195
 20
-128.68516842486
 10
78.76056720036195
 20
-128.68516842486
 10
78.76056720036195
 20
-127.9067490999678
 10
78.76056720036195
 20
-127.9067490999678
 10
78.76056720036195
 20
-127.9067490999678
 10
78.96572263650857
 20
-127.9067490999678
 10
78.96572263650857
 20
-127.9067490999678
 10
78.96572263650857
 20
-127.9067490999678
 10
78.96572263650857
 20
-128.9347655927663
 10
78.96572263650857
 20
-128.9347655927663
 10
78.60812172513964
 20
-128.903070714302
 10
78.52991805762447
 20
-128.8376139000823
 10
78.23157278860184
 20
-128.4524522248313
 10
78.03279077910291
 20
-128.1964816302773
 10
77.96509465281775
 20
-128.1310248160575
 10
77.82763534295628
 20
-128.1310248160575
 10
77.7091240582637
 20
-128.1310248160575
 10
77.57786592027567
 20
-128.202855056925
 10
77.57786592027567
 20
-128.3995700091328
 10
77.57786592027567
 20
-128.6598469730434
 10
77.80851506301315
 20
-128.6682874569822
 10
77.92495929041459
 20
-128.6725938263388
 10
77.92495929041459
 20
-128.6725938263388
 10
77.92495929041459
 20
-128.89652503288
 10
77.92495929041459
 20
-128.89652503288
 10
77.79800752178313
 20
-128.8882568037154
 10
77.68586966373826
 20
-128.8775770077112
 10
77.56735837904566
 20
-128.7973062829049
 10
77.40664467465876
 20
-128.6874077369254
 10
77.37271048412904
 20
-128.5012003259476
 10
77.37271048412904
 20
-128.3847560985462
 10
77.37271048412904
 20
-128.1075981667578
 10
77.55685083781565
 20
-127.9003756733201
 10
77.82970240024744
 20
-127.9003756733201
 10
78.0581122309195
 20
-127.9003756733201
 10
78.15767549044322
 20
-128.0166476459472
 10
78.38401826382413
 20
-128.3255004561999
 97
        0
 97
        0
 75
     2
 76
     1
 98
        0
  0
ENDBLK
  5
A5
330
A2
100
AcDbEntity
  8
0
100
AcDbBlockEnd
  0
BLOCK
  5
B8
330
B6
100
AcDbEntity
  8
0
100
AcDbBlockBegin
  2
block 7
 70
     0
 10
0.0
 20
0.0
 30
0.0
  3
block 7
  1

  0
SPLINE
  5
BA
330
B6
100
AcDbEntity
  8
_U+30EC_U+30A4_U+30E4_U+30FC 1
370
     0
100
AcDbSpline
210
0.0
220
0.0
230
1.0
 70
    11
 71
     3
 72
    26
 73
    22
 74
     0
 42
0.0000000001
 43
0.0000000001
 12
1.0
 22
0.0
 32
0.0
 13
1.0
 23
0.0
 33
0.0
 40
0.0
 40
0.0
 40
0.0
 40
0.0
 40
1.0
 40
1.0
 40
1.0
 40
2.0
 40
2.0
 40
2.0
 40
3.0
 40
3.0
 40
3.0
 40
4.0
 40
4.0
 40
4.0
 40
5.0
 40
5.0
 40
5.0
 40
6.0
 40
6.0
 40
6.0
 40
7.0
 40
7.0
 40
7.0
 40
7.0
 10
90.8490627485551
 20
-143.3245849251064
 30
0.0
 10
90.8490627485551
 20
-143.3245849251064
 30
0.0
 10
90.8490627485551
 20
-142.2204318220838
 30
0.0
 10
90.8490627485551
 20
-142.2204318220838
 30
0.0
 10
90.8490627485551
 20
-142.2204318220838
 30
0.0
 10
90.51902260106816
 20
-142.2204318220838
 30
0.0
 10
90.51902260106816
 20
-142.2204318220838
 30
0.0
 10
90.51902260106816
 20
-142.2204318220838
 30
0.0
 10
90.51902260106816
 20
-142.072292716218
 30
0.0
 10
90.51902260106816
 20
-142.072292716218
 30
0.0
 10
90.85112980584626
 20
-142.0574788056315
 30
0.0
 10
90.89763859489712
 20
-141.8945257891791
 30
0.0
 10
90.92726641607027
 20
-141.7801486190689
 30
0.0
 10
90.92726641607027
 20
-141.7801486190689
 30
0.0
 10
91.07333846464486
 20
-141.7801486190689
 30
0.0
 10
91.07333846464486
 20
-141.7801486190689
 30
0.0
 10
91.07333846464486
 20
-141.7801486190689
 30
0.0
 10
91.07333846464486
 20
-143.3245849251064
 30
0.0
 10
91.07333846464486
 20
-143.3245849251064
 30
0.0
 10
91.07333846464486
 20
-143.3245849251064
 30
0.0
 10
90.8490627485551
 20
-143.3245849251064
 30
0.0
 10
90.8490627485551
 20
-143.3245849251064
 30
0.0
  0
HATCH
  5
BB
330
B6
100
AcDbEntity
  8
_U+30EC_U+30A4_U+30E4_U+30FC 1
 62
     7
420
 16777215
100
AcDbHatch
 10
0.0
 20
0.0
 30
0.0
210
0.0
220
0.0
230
1.0
  2
SOLID
 70
     1
 71
     0
 91
        1
 92
        1
 93
        1
 72
     4
 94
        3
 73
     0
 74
     1
 95
       26
 96
       22
 40
0.0
 40
0.0
 40
0.0
 40
0.0
 40
1.0
 40
1.0
 40
1.0
 40
2.0
 40
2.0
 40
2.0
 40
3.0
 40
3.0
 40
3.0
 40
4.0
 40
4.0
 40
4.0
 40
5.0
 40
5.0
 40
5.0
 40
6.0
 40
6.0
 40
6.0
 40
7.0
 40
7.0
 40
7.0
 40
7.0
 10
90.8490627485551
 20
-143.3245849251064
 10
90.8490627485551
 20
-143.3245849251064
 10
90.8490627485551
 20
-142.2204318220838
 10
90.8490627485551
 20
-142.2204318220838
 10
90.8490627485551
 20
-142.2204318220838
 10
90.51902260106816
 20
-142.2204318220838
 10
90.51902260106816
 20
-142.2204318220838
 10
90.51902260106816
 20
-142.2204318220838
 10
90.51902260106816
 20
-142.072292716218
 10
90.51902260106816
 20
-142.072292716218
 10
90.85112980584626
 20
-142.0574788056315
 10
90.89763859489712
 20
-141.8945257891791
 10
90.92726641607027
 20
-141.7801486190689
 10
90.92726641607027
 20
-141.7801486190689
 10
91.07333846464486
 20
-141.7801486190689
 10
91.07333846464486
 20
-141.7801486190689
 10
91.07333846464486
 20
-141.7801486190689
 10
91.07333846464486
 20
-143.3245849251064
 10
91.07333846464486
 20
-143.3245849251064
 10
91.07333846464486
 20
-143.3245849251064
 10
90.8490627485551
 20
-143.3245849251064
 10
90.8490627485551
 20
-143.3245849251064
 97
        0
 97
        0
 75
     2
 76
     1
 98
        0
  0
SPLINE
  5
BC
330
B6
100
AcDbEntity
  8
_U+30EC_U+30A4_U+30E4_U+30FC 1
370
     0
100
AcDbSpline
210
0.0
220
0.0
230
1.0
 70
    11
 71
     3
 72
    32
 73
    28
 74
     0
 42
0.0000000001
 43
0.0000000001
 12
1.0
 22
0.0
 32
0.0
 13
1.0
 23
0.0
 33
0.0
 40
0.0
 40
0.0
 40
0.0
 40
0.0
 40
1.0
 40
1.0
 40
1.0
 40
2.0
 40
2.0
 40
2.0
 40
3.0
 40
3.0
 40
3.0
 40
4.0
 40
4.0
 40
4.0
 40
5.0
 40
5.0
 40
5.0
 40
6.0
 40
6.0
 40
6.0
 40
7.0
 40
7.0
 40
7.0
 40
8.0
 40
8.0
 40
8.0
 40
9.0
 40
9.0
 40
9.0
 40
9.0
 10
92.07878958201503
 20
-143.3752278287395
 30
0.0
 10
91.5627142783246
 20
-143.3752278287395
 30
0.0
 10
91.55444604916
 20
-142.8212564747114
 30
0.0
 10
91.55444604916
 20
-142.6073160450773
 30
0.0
 10
91.55444604916
 20
-142.3768391571141
 30
0.0
 10
91.57339407432887
 20
-141.7295057154357
 30
0.0
 10
92.1170301419013
 20
-141.7295057154357
 30
0.0
 10
92.29031844480937
 20
-141.7295057154357
 30
0.0
 10
92.53595375290769
 20
-141.7994411537863
 30
0.0
 10
92.57384980324544
 20
-142.1315483585643
 30
0.0
 10
92.57384980324544
 20
-142.1315483585643
 30
0.0
 10
92.36025388315994
 20
-142.1315483585643
 30
0.0
 10
92.36025388315994
 20
-142.1315483585643
 30
0.0
 10
92.34957408715566
 20
-142.0743597735092
 30
0.0
 10
92.31787920869137
 20
-141.9262206676435
 30
0.0
 10
92.11496308461015
 20
-141.9262206676435
 30
0.0
 10
91.82281898746096
 20
-141.9262206676435
 30
0.0
 10
91.78285587983207
 20
-142.2541937578392
 30
0.0
 10
91.77010902653664
 20
-142.4591769392116
 30
0.0
 10
91.8631266046384
 20
-142.3809732716964
 30
0.0
 10
91.93099498569781
 20
-142.3217176293501
 30
0.0
 10
92.112896027319
 20
-142.3217176293501
 30
0.0
 10
92.29273001164904
 20
-142.3217176293501
 30
0.0
 10
92.59520939525397
 20
-142.429893627587
 30
0.0
 10
92.59520939525397
 20
-142.8360703852979
 30
0.0
 10
92.59520939525397
 20
-143.1554307367806
 30
0.0
 10
92.39608287620653
 20
-143.3752278287395
 30
0.0
 10
92.07878958201503
 20
-143.3752278287395
 30
0.0
  0
SPLINE
  5
BD
330
B6
100
AcDbEntity
  8
_U+30EC_U+30A4_U+30E4_U+30FC 1
370
     0
100
AcDbSpline
210
0.0
220
0.0
230
1.0
 70
    11
 71
     3
 72
    17
 73
    13
 74
     0
 42
0.0000000001
 43
0.0000000001
 12
1.0
 22
0.0
 32
0.0
 13
1.0
 23
0.0
 33
0.0
 40
0.0
 40
0.0
 40
0.0
 40
0.0
 40
1.0
 40
1.0
 40
1.0
 40
2.0
 40
2.0
 40
2.0
 40
3.0
 40
3.0
 40
3.0
 40
4.0
 40
4.0
 40
4.0
 40
4.0
 10
92.09601505944129
 20
-142.5163655242667
 30
0.0
 10
91.83349878346525
 20
-142.5163655242667
 30
0.0
 10
91.7956027331275
 20
-142.7278943870611
 30
0.0
 10
91.7956027331275
 20
-142.8443386144625
 30
0.0
 10
91.7956027331275
 20
-143.0200384842103
 30
0.0
 10
91.89068736852039
 20
-143.1829915006626
 30
0.0
 10
92.07465546743273
 20
-143.1829915006626
 30
0.0
 10
92.19523380941648
 20
-143.1829915006626
 30
0.0
 10
92.37093367916421
 20
-143.1237358583163
 30
0.0
 10
92.37093367916421
 20
-142.8381374425891
 30
0.0
 10
92.37093367916421
 20
-142.6138617264993
 30
0.0
 10
92.23106280246307
 20
-142.5163655242667
 30
0.0
 10
92.09601505944129
 20
-142.5163655242667
 30
0.0
  0
HATCH
  5
BE
330
B6
100
AcDbEntity
  8
_U+30EC_U+30A4_U+30E4_U+30FC 1
 62
     7
420
 16777215
100
AcDbHatch
 10
0.0
 20
0.0
 30
0.0
210
0.0
220
0.0
230
1.0
  2
SOLID
 70
     1
 71
     0
 91
        2
 92
        1
 93
        1
 72
     4
 94
        3
 73
     0
 74
     1
 95
       32
 96
       28
 40
0.0
 40
0.0
 40
0.0
 40
0.0
 40
1.0
 40
1.0
 40
1.0
 40
2.0
 40
2.0
 40
2.0
 40
3.0
 40
3.0
 40
3.0
 40
4.0
 40
4.0
 40
4.0
 40
5.0
 40
5.0
 40
5.0
 40
6.0
 40
6.0
 40
6.0
 40
7.0
 40
7.0
 40
7.0
 40
8.0
 40
8.0
 40
8.0
 40
9.0
 40
9.0
 40
9.0
 40
9.0
 10
92.07878958201503
 20
-143.3752278287395
 10
91.5627142783246
 20
-143.3752278287395
 10
91.55444604916
 20
-142.8212564747114
 10
91.55444604916
 20
-142.6073160450773
 10
91.55444604916
 20
-142.3768391571141
 10
91.57339407432887
 20
-141.7295057154357
 10
92.1170301419013
 20
-141.7295057154357
 10
92.29031844480937
 20
-141.7295057154357
 10
92.53595375290769
 20
-141.7994411537863
 10
92.57384980324544
 20
-142.1315483585643
 10
92.57384980324544
 20
-142.1315483585643
 10
92.36025388315994
 20
-142.1315483585643
 10
92.36025388315994
 20
-142.1315483585643
 10
92.34957408715566
 20
-142.0743597735092
 10
92.31787920869137
 20
-141.9262206676435
 10
92.11496308461015
 20
-141.9262206676435
 10
91.82281898746096
 20
-141.9262206676435
 10
91.78285587983207
 20
-142.2541937578392
 10
91.77010902653664
 20
-142.4591769392116
 10
91.8631266046384
 20
-142.3809732716964
 10
91.93099498569781
 20
-142.3217176293501
 10
92.112896027319
 20
-142.3217176293501
 10
92.29273001164904
 20
-142.3217176293501
 10
92.59520939525397
 20
-142.429893627587
 10
92.59520939525397
 20
-142.8360703852979
 10
92.59520939525397
 20
-143.1554307367806
 10
92.39608287620653
 20
-143.3752278287395
 10
92.07878958201503
 20
-143.3752278287395
 97
        0
 97
        0
 92
        1
 93
        1
 72
     4
 94
        3
 73
     0
 74
     1
 95
       17
 96
       13
 40
0.0
 40
0.0
 40
0.0
 40
0.0
 40
1.0
 40
1.0
 40
1.0
 40
2.0
 40
2.0
 40
2.0
 40
3.0
 40
3.0
 40
3.0
 40
4.0
 40
4.0
 40
4.0
 40
4.0
 10
92.09601505944129
 20
-142.5163655242667
 10
91.83349878346525
 20
-142.5163655242667
 10
91.7956027331275
 20
-142.7278943870611
 10
91.7956027331275
 20
-142.8443386144625
 10
91.7956027331275
 20
-143.0200384842103
 10
91.89068736852039
 20
-143.1829915006626
 10
92.07465546743273
 20
-143.1829915006626
 10
92.19523380941648
 20
-143.1829915006626
 10
92.37093367916421
 20
-143.1237358583163
 10
92.37093367916421
 20
-142.8381374425891
 10
92.37093367916421
 20
-142.6138617264993
 10
92.23106280246307
 20
-142.5163655242667
 10
92.09601505944129
 20
-142.5163655242667
 97
        0
 97
        0
 75
     2
 76
     1
 98
        0
  0
ENDBLK
  5
B9
330
B6
100
AcDbEntity
  8
0
100
AcDbBlockEnd
  0
ENDSEC
  0
SECTION
  2
ENTITIES
  0
SPLINE
  5
41
330
1F
100
AcDbEntity
  8
_U+30EC_U+30A4_U+30E4_U+30FC 1
 62
     7
420
 16777215
370
    25
100
AcDbSpline
210
0.0
220
0.0
230
1.0
 70
    11
 71
     3
 72
    62
 73
    58
 74
     0
 42
0.0000000001
 43
0.0000000001
 12
1.0
 22
0.0
 32
0.0
 13
1.0
 23
0.0
 33
0.0
 40
0.0
 40
0.0
 40
0.0
 40
0.0
 40
1.0
 40
1.0
 40
1.0
 40
2.0
 40
2.0
 40
2.0
 40
3.0
 40
3.0
 40
3.0
 40
4.0
 40
4.0
 40
4.0
 40
5.0
 40
5.0
 40
5.0
 40
6.0
 40
6.0
 40
6.0
 40
7.0
 40
7.0
 40
7.0
 40
8.0
 40
8.0
 40
8.0
 40
9.0
 40
9.0
 40
9.0
 40
10.0
 40
10.0
 40
10.0
 40
11.0
 40
11.0
 40
11.0
 40
12.0
 40
12.0
 40
12.0
 40
13.0
 40
13.0
 40
13.0
 40
14.0
 40
14.0
 40
14.0
 40
15.0
 40
15.0
 40
15.0
 40
16.0
 40
16.0
 40
16.0
 40
17.0
 40
17.0
 40
17.0
 40
18.0
 40
18.0
 40
18.0
 40
19.0
 40
19.0
 40
19.0
 40
19.0
 10
98.77431803561277
 20
-139.1212327429973
 30
0.0
 10
99.2159958021224
 20
-139.1212327429973
 30
0.0
 10
99.574276904093
 20
-139.479513854019
 30
0.0
 10
99.574276904093
 20
-139.9211916316865
 30
0.0
 10
99.574276904093
 20
-139.9211916316865
 30
0.0
 10
91.77390182531937
 20
-139.9197805205755
 30
0.0
 10
91.77390182531937
 20
-139.9197805205755
 30
0.0
 10
91.77390182531937
 20
-139.9197805205755
 30
0.0
 10
91.57408849708371
 20
-139.7196496872926
 30
0.0
 10
91.57408849708371
 20
-139.7196496872926
 30
0.0
 10
91.57408849708371
 20
-139.7196496872926
 30
0.0
 10
91.37427516884803
 20
-139.9197805205755
 30
0.0
 10
91.37427516884803
 20
-139.9197805205755
 30
0.0
 10
91.37427516884803
 20
-139.9197805205755
 30
0.0
 10
84.77638053436135
 20
-139.9208388539087
 30
0.0
 10
84.77638053436135
 20
-139.9208388539087
 30
0.0
 10
84.77638053436135
 20
-139.9208388539087
 30
0.0
 10
84.57656506449429
 20
-139.7206727428477
 30
0.0
 10
84.57656506449429
 20
-139.7206727428477
 30
0.0
 10
84.57656506449429
 20
-139.7206727428477
 30
0.0
 10
84.37675173625861
 20
-139.9208388539087
 30
0.0
 10
84.37675173625861
 20
-139.9208388539087
 30
0.0
 10
84.37675173625861
 20
-139.9208388539087
 30
0.0
 10
84.37124840306568
 20
-139.9208388539087
 30
0.0
 10
84.37124840306568
 20
-139.9208388539087
 30
0.0
 10
83.91443647027548
 20
-139.8288344094873
 30
0.0
 10
83.5699137012872
 20
-139.4250802429215
 30
0.0
 10
83.5699137012872
 20
-138.9128116319383
 30
0.0
 10
83.5699137012872
 20
-138.9128116319383
 30
0.0
 10
83.5699137012872
 20
-117.9202760816311
 30
0.0
 10
83.5699137012872
 20
-117.9202760816311
 30
0.0
 10
84.12250479830055
 20
-117.9481808038463
 30
0.0
 10
84.47186062272107
 20
-118.3323205259724
 30
0.0
 10
84.56555839810842
 20
-118.846670525844
 30
0.0
 10
84.56555839810842
 20
-118.846670525844
 30
0.0
 10
84.56555839810842
 20
-124.9203749687698
 30
0.0
 10
84.56555839810842
 20
-124.9203749687698
 30
0.0
 10
84.56555839810842
 20
-124.9203749687698
 30
0.0
 10
90.62409324354232
 20
-124.9203749687698
 30
0.0
 10
90.62409324354232
 20
-124.9203749687698
 30
0.0
 10
91.17601406279498
 20
-124.9203749687698
 30
0.0
 10
91.57338294154614
 20
-125.3716835797681
 30
0.0
 10
91.57338294154614
 20
-125.9242746907413
 30
0.0
 10
91.57338294154614
 20
-125.9242746907413
 30
0.0
 10
84.57381339789782
 20
-125.9242746907413
 30
0.0
 10
84.57381339789782
 20
-125.9242746907413
 30
0.0
 10
84.57381339789782
 20
-125.9242746907413
 30
0.0
 10
84.57381339789782
 20
-138.921419409714
 30
0.0
 10
84.57381339789782
 20
-138.921419409714
 30
0.0
 10
84.57381339789782
 20
-138.921419409714
 30
0.0
 10
91.57338294154614
 20
-138.921419409714
 30
0.0
 10
91.57338294154614
 20
-138.921419409714
 30
0.0
 10
91.57338294154614
 20
-138.921419409714
 30
0.0
 10
91.91995182159333
 20
-139.1212327429973
 30
0.0
 10
91.91995182159333
 20
-139.1212327429973
 30
0.0
 10
91.91995182159333
 20
-139.1212327429973
 30
0.0
 10
98.77431803561277
 20
-139.1212327429973
 30
0.0
 10
98.77431803561277
 20
-139.1212327429973
 30
0.0
  0
HATCH
  5
42
330
1F
100
AcDbEntity
  8
_U+30EC_U+30A4_U+30E4_U+30FC 1
 62
   253
420
 11711154
100
AcDbHatch
 10
0.0
 20
0.0
 30
0.0
210
0.0
220
0.0
230
1.0
  2
SOLID
 70
     1
 71
     0
 91
        1
 92
        1
 93
        2
 72
     4
 94
        3
 73
     0
 74
     0
 95
       62
 96
       58
 40
0.0
 40
0.0
 40
0.0
 40
0.0
 40
0.3527777776895833
 40
0.3527777776895833
 40
0.3527777776895833
 40
0.7055555553791667
 40
0.7055555553791667
 40
0.7055555553791667
 40
1.05833333306875
 40
1.05833333306875
 40
1.05833333306875
 40
1.411111110758333
 40
1.411111110758333
 40
1.411111110758333
 40
1.763888888447917
 40
1.763888888447917
 40
1.763888888447917
 40
2.1166666661375
 40
2.1166666661375
 40
2.1166666661375
 40
2.469444443827083
 40
2.469444443827083
 40
2.469444443827083
 40
2.822222221516667
 40
2.822222221516667
 40
2.822222221516667
 40
3.17499999920625
 40
3.17499999920625
 40
3.17499999920625
 40
3.527777776895833
 40
3.527777776895833
 40
3.527777776895833
 40
3.880555554585417
 40
3.880555554585417
 40
3.880555554585417
 40
4.233333332275
 40
4.233333332275
 40
4.233333332275
 40
4.586111109964584
 40
4.586111109964584
 40
4.586111109964584
 40
4.938888887654167
 40
4.938888887654167
 40
4.938888887654167
 40
5.29166666534375
 40
5.29166666534375
 40
5.29166666534375
 40
5.644444443033334
 40
5.644444443033334
 40
5.644444443033334
 40
5.997222220722917
 40
5.997222220722917
 40
5.997222220722917
 40
6.349999998412501
 40
6.349999998412501
 40
6.349999998412501
 40
6.702777776102083
 40
6.702777776102083
 40
6.702777776102083
 40
6.702777776102083
 10
98.77431803561277
 20
-139.1212327429973
 10
99.2159958021224
 20
-139.1212327429973
 10
99.574276904093
 20
-139.479513854019
 10
99.574276904093
 20
-139.9211916316865
 10
99.574276904093
 20
-139.9211916316865
 10
91.77390182531937
 20
-139.9197805205755
 10
91.77390182531937
 20
-139.9197805205755
 10
91.77390182531937
 20
-139.9197805205755
 10
91.57408849708371
 20
-139.7196496872926
 10
91.57408849708371
 20
-139.7196496872926
 10
91.57408849708371
 20
-139.7196496872926
 10
91.37427516884803
 20
-139.9197805205755
 10
91.37427516884803
 20
-139.9197805205755
 10
91.37427516884803
 20
-139.9197805205755
 10
84.77638053436135
 20
-139.9208388539087
 10
84.77638053436135
 20
-139.9208388539087
 10
84.77638053436135
 20
-139.9208388539087
 10
84.57656506449429
 20
-139.7206727428477
 10
84.57656506449429
 20
-139.7206727428477
 10
84.57656506449429
 20
-139.7206727428477
 10
84.37675173625861
 20
-139.9208388539087
 10
84.37675173625861
 20
-139.9208388539087
 10
84.37675173625861
 20
-139.9208388539087
 10
84.37124840306568
 20
-139.9208388539087
 10
84.37124840306568
 20
-139.9208388539087
 10
83.91443647027548
 20
-139.8288344094873
 10
83.5699137012872
 20
-139.4250802429215
 10
83.5699137012872
 20
-138.9128116319383
 10
83.5699137012872
 20
-138.9128116319383
 10
83.5699137012872
 20
-117.9202760816311
 10
83.5699137012872
 20
-117.9202760816311
 10
84.12250479830055
 20
-117.9481808038463
 10
84.47186062272107
 20
-118.3323205259724
 10
84.56555839810842
 20
-118.846670525844
 10
84.56555839810842
 20
-118.846670525844
 10
84.56555839810842
 20
-124.9203749687698
 10
84.56555839810842
 20
-124.9203749687698
 10
84.56555839810842
 20
-124.9203749687698
 10
90.62409324354232
 20
-124.9203749687698
 10
90.62409324354232
 20
-124.9203749687698
 10
91.17601406279498
 20
-124.9203749687698
 10
91.57338294154614
 20
-125.3716835797681
 10
91.57338294154614
 20
-125.9242746907413
 10
91.57338294154614
 20
-125.9242746907413
 10
84.57381339789782
 20
-125.9242746907413
 10
84.57381339789782
 20
-125.9242746907413
 10
84.57381339789782
 20
-125.9242746907413
 10
84.57381339789782
 20
-138.921419409714
 10
84.57381339789782
 20
-138.921419409714
 10
84.57381339789782
 20
-138.921419409714
 10
91.57338294154614
 20
-138.921419409714
 10
91.57338294154614
 20
-138.921419409714
 10
91.57338294154614
 20
-138.921419409714
 10
91.91995182159333
 20
-139.1212327429973
 10
91.91995182159333
 20
-139.1212327429973
 10
91.91995182159333
 20
-139.1212327429973
 10
98.77431803561277
 20
-139.1212327429973
 10
98.77431803561277
 20
-139.1212327429973
 97
        0
 72
     1
 10
98.77431803561277
 20
-139.1212327429973
 11
98.77431803561277
 21
-139.1212327429973
 97
        0
 75
     2
 76
     1
 98
        0
  0
SPLINE
  5
43
330
1F
100
AcDbEntity
  8
_U+30EC_U+30A4_U+30E4_U+30FC 1
 62
     7
420
 16777215
370
    25
100
AcDbSpline
210
0.0
220
0.0
230
1.0
 70
    11
 71
     3
 72
    62
 73
    58
 74
     0
 42
0.0000000001
 43
0.0000000001
 12
1.0
 22
0.0
 32
0.0
 13
1.0
 23
0.0
 33
0.0
 40
0.0
 40
0.0
 40
0.0
 40
0.0
 40
1.0
 40
1.0
 40
1.0
 40
2.0
 40
2.0
 40
2.0
 40
3.0
 40
3.0
 40
3.0
 40
4.0
 40
4.0
 40
4.0
 40
5.0
 40
5.0
 40
5.0
 40
6.0
 40
6.0
 40
6.0
 40
7.0
 40
7.0
 40
7.0
 40
8.0
 40
8.0
 40
8.0
 40
9.0
 40
9.0
 40
9.0
 40
10.0
 40
10.0
 40
10.0
 40
11.0
 40
11.0
 40
11.0
 40
12.0
 40
12.0
 40
12.0
 40
13.0
 40
13.0
 40
13.0
 40
14.0
 40
14.0
 40
14.0
 40
15.0
 40
15.0
 40
15.0
 40
16.0
 40
16.0
 40
16.0
 40
17.0
 40
17.0
 40
17.0
 40
18.0
 40
18.0
 40
18.0
 40
19.0
 40
19.0
 40
19.0
 40
19.0
 10
98.77431803561277
 20
-139.1212327429973
 30
0.0
 10
99.2159958021224
 20
-139.1212327429973
 30
0.0
 10
99.574276904093
 20
-139.479513854019
 30
0.0
 10
99.574276904093
 20
-139.9211916316865
 30
0.0
 10
99.574276904093
 20
-139.9211916316865
 30
0.0
 10
91.77390182531937
 20
-139.9197805205755
 30
0.0
 10
91.77390182531937
 20
-139.9197805205755
 30
0.0
 10
91.77390182531937
 20
-139.9197805205755
 30
0.0
 10
91.57408849708371
 20
-139.7196496872926
 30
0.0
 10
91.57408849708371
 20
-139.7196496872926
 30
0.0
 10
91.57408849708371
 20
-139.7196496872926
 30
0.0
 10
91.37427516884803
 20
-139.9197805205755
 30
0.0
 10
91.37427516884803
 20
-139.9197805205755
 30
0.0
 10
91.37427516884803
 20
-139.9197805205755
 30
0.0
 10
84.77638053436135
 20
-139.9208388539087
 30
0.0
 10
84.77638053436135
 20
-139.9208388539087
 30
0.0
 10
84.77638053436135
 20
-139.9208388539087
 30
0.0
 10
84.57656506449429
 20
-139.7206727428477
 30
0.0
 10
84.57656506449429
 20
-139.7206727428477
 30
0.0
 10
84.57656506449429
 20
-139.7206727428477
 30
0.0
 10
84.37675173625861
 20
-139.9208388539087
 30
0.0
 10
84.37675173625861
 20
-139.9208388539087
 30
0.0
 10
84.37675173625861
 20
-139.9208388539087
 30
0.0
 10
84.37124840306568
 20
-139.9208388539087
 30
0.0
 10
84.37124840306568
 20
-139.9208388539087
 30
0.0
 10
83.91443647027548
 20
-139.8288344094873
 30
0.0
 10
83.5699137012872
 20
-139.4250802429215
 30
0.0
 10
83.5699137012872
 20
-138.9128116319383
 30
0.0
 10
83.5699137012872
 20
-138.9128116319383
 30
0.0
 10
83.5699137012872
 20
-117.9202760816311
 30
0.0
 10
83.5699137012872
 20
-117.9202760816311
 30
0.0
 10
84.12250479830055
 20
-117.9481808038463
 30
0.0
 10
84.47186062272107
 20
-118.3323205259724
 30
0.0
 10
84.56555839810842
 20
-118.846670525844
 30
0.0
 10
84.56555839810842
 20
-118.846670525844
 30
0.0
 10
84.56555839810842
 20
-124.9203749687698
 30
0.0
 10
84.56555839810842
 20
-124.9203749687698
 30
0.0
 10
84.56555839810842
 20
-124.9203749687698
 30
0.0
 10
90.62409324354232
 20
-124.9203749687698
 30
0.0
 10
90.62409324354232
 20
-124.9203749687698
 30
0.0
 10
91.17601406279498
 20
-124.9203749687698
 30
0.0
 10
91.57338294154614
 20
-125.3716835797681
 30
0.0
 10
91.57338294154614
 20
-125.9242746907413
 30
0.0
 10
91.57338294154614
 20
-125.9242746907413
 30
0.0
 10
84.57381339789782
 20
-125.9242746907413
 30
0.0
 10
84.57381339789782
 20
-125.9242746907413
 30
0.0
 10
84.57381339789782
 20
-125.9242746907413
 30
0.0
 10
84.57381339789782
 20
-138.921419409714
 30
0.0
 10
84.57381339789782
 20
-138.921419409714
 30
0.0
 10
84.57381339789782
 20
-138.921419409714
 30
0.0
 10
91.57338294154614
 20
-138.921419409714
 30
0.0
 10
91.57338294154614
 20
-138.921419409714
 30
0.0
 10
91.57338294154614
 20
-138.921419409714
 30
0.0
 10
91.91995182159333
 20
-139.1212327429973
 30
0.0
 10
91.91995182159333
 20
-139.1212327429973
 30
0.0
 10
91.91995182159333
 20
-139.1212327429973
 30
0.0
 10
98.77431803561277
 20
-139.1212327429973
 30
0.0
 10
98.77431803561277
 20
-139.1212327429973
 30
0.0
  0
SPLINE
  5
44
330
1F
100
AcDbEntity
  8
_U+30EC_U+30A4_U+30E4_U+30FC 1
 62
     7
420
 16777215
370
     9
100
AcDbSpline
210
0.0
220
0.0
230
1.0
 70
    11
 71
     3
 72
    17
 73
    13
 74
     0
 42
0.0000000001
 43
0.0000000001
 12
1.0
 22
0.0
 32
0.0
 13
1.0
 23
0.0
 33
0.0
 40
0.0
 40
0.0
 40
0.0
 40
0.0
 40
1.0
 40
1.0
 40
1.0
 40
2.0
 40
2.0
 40
2.0
 40
3.0
 40
3.0
 40
3.0
 40
4.0
 40
4.0
 40
4.0
 40
4.0
 10
91.66295553263994
 20
-114.9995230268057
 30
0.0
 10
91.66295553263994
 20
-114.9444191379304
 30
0.0
 10
91.61818571818091
 20
-114.899616360164
 30
0.0
 10
91.56304655292097
 20
-114.899616360164
 30
0.0
 10
91.50723710990033
 20
-114.899616360164
 30
0.0
 10
91.46246961104245
 20
-114.9444191379304
 30
0.0
 10
91.46246961104245
 20
-114.9995230268057
 30
0.0
 10
91.46246961104245
 20
-115.0546621934584
 30
0.0
 10
91.50723710990033
 20
-115.0994296934473
 30
0.0
 10
91.56304655292097
 20
-115.0994296934473
 30
0.0
 10
91.61818571818091
 20
-115.0994296934473
 30
0.0
 10
91.66295553263994
 20
-115.0546621934584
 30
0.0
 10
91.66295553263994
 20
-114.9995230268057
 30
0.0
  0
SPLINE
  5
45
330
1F
100
AcDbEntity
  8
_U+30EC_U+30A4_U+30E4_U+30FC 1
 62
     7
420
 16777215
370
     9
100
AcDbSpline
210
0.0
220
0.0
230
1.0
 70
    11
 71
     3
 72
    17
 73
    13
 74
     0
 42
0.0000000001
 43
0.0000000001
 12
1.0
 22
0.0
 32
0.0
 13
1.0
 23
0.0
 33
0.0
 40
0.0
 40
0.0
 40
0.0
 40
0.0
 40
1.0
 40
1.0
 40
1.0
 40
2.0
 40
2.0
 40
2.0
 40
3.0
 40
3.0
 40
3.0
 40
4.0
 40
4.0
 40
4.0
 40
4.0
 10
84.66165506232346
 20
-114.9995230268057
 30
0.0
 10
84.66165506232346
 20
-114.9444191379304
 30
0.0
 10
84.61688756346557
 20
-114.899616360164
 30
0.0
 10
84.56174839820562
 20
-114.899616360164
 30
0.0
 10
84.50664451072255
 20
-114.899616360164
 30
0.0
 10
84.46184173408778
 20
-114.9444191379304
 30
0.0
 10
84.46184173408778
 20
-114.9995230268057
 30
0.0
 10
84.46184173408778
 20
-115.0546621934584
 30
0.0
 10
84.50664451072255
 20
-115.0994296934473
 30
0.0
 10
84.56174839820562
 20
-115.0994296934473
 30
0.0
 10
84.61688756346557
 20
-115.0994296934473
 30
0.0
 10
84.66165506232346
 20
-115.0546621934584
 30
0.0
 10
84.66165506232346
 20
-114.9995230268057
 30
0.0
  0
POLYLINE
  5
46
330
1F
100
AcDbEntity
  8
_U+30EC_U+30A4_U+30E4_U+30FC 1
 62
     7
420
 16777215
370
     9
100
AcDb2dPolyline
 66
     1
 10
0.0
 20
0.0
 30
0.0
  0
VERTEX
  5
47
330
46
100
AcDbEntity
  8
_U+30EC_U+30A4_U+30E4_U+30FC 1
 62
     7
420
 16777215
370
     9
100
AcDbVertex
100
AcDb2dVertex
 10
84.56174839820562
 20
-116.4595644153297
 30
0.0
  0
VERTEX
  5
48
330
46
100
AcDbEntity
  8
_U+30EC_U+30A4_U+30E4_U+30FC 1
 62
     7
420
 16777215
370
     9
100
AcDbVertex
100
AcDb2dVertex
 10
84.56174839820562
 20
-113.9997508048335
 30
0.0
  0
SEQEND
  5
49
330
46
100
AcDbEntity
  8
_U+30EC_U+30A4_U+30E4_U+30FC 1
 62
     7
420
 16777215
370
     9
  0
POLYLINE
  5
4A
330
1F
100
AcDbEntity
  8
_U+30EC_U+30A4_U+30E4_U+30FC 1
 62
     7
420
 16777215
370
     9
100
AcDb2dPolyline
 66
     1
 10
0.0
 20
0.0
 30
0.0
  0
VERTEX
  5
4B
330
4A
100
AcDbEntity
  8
_U+30EC_U+30A4_U+30E4_U+30FC 1
 62
     7
420
 16777215
370
     9
100
AcDbVertex
100
AcDb2dVertex
 10
84.56245395374317
 20
-114.9995230268057
 30
0.0
  0
VERTEX
  5
4C
330
4A
100
AcDbEntity
  8
_U+30EC_U+30A4_U+30E4_U+30FC 1
 62
     7
420
 16777215
370
     9
100
AcDbVertex
100
AcDb2dVertex
 10
91.56237627516028
 20
-114.9995230268057
 30
0.0
  0
SEQEND
  5
4D
330
4A
100
AcDbEntity
  8
_U+30EC_U+30A4_U+30E4_U+30FC 1
 62
     7
420
 16777215
370
     9
  0
POLYLINE
  5
4E
330
1F
100
AcDbEntity
  8
_U+30EC_U+30A4_U+30E4_U+30FC 1
 62
     7
420
 16777215
370
     9
100
AcDb2dPolyline
 66
     1
 10
0.0
 20
0.0
 30
0.0
  0
VERTEX
  5
4F
330
4E
100
AcDbEntity
  8
_U+30EC_U+30A4_U+30E4_U+30FC 1
 62
     7
420
 16777215
370
     9
100
AcDbVertex
100
AcDb2dVertex
 10
91.56304655292097
 20
-123.4200463580339
 30
0.0
  0
VERTEX
  5
50
330
4E
100
AcDbEntity
  8
_U+30EC_U+30A4_U+30E4_U+30FC 1
 62
     7
420
 16777215
370
     9
100
AcDbVertex
100
AcDb2dVertex
 10
91.56304655292097
 20
-113.9997508048335
 30
0.0
  0
SEQEND
  5
51
330
4E
100
AcDbEntity
  8
_U+30EC_U+30A4_U+30E4_U+30FC 1
 62
     7
420
 16777215
370
     9
  0
INSERT
  5
53
330
1F
100
AcDbEntity
  8
_U+30EC_U+30A4_U+30E4_U+30FC 1
100
AcDbBlockReference
  2
block 2
 10
0.0
 20
0.0
 30
0.0
  0
SPLINE
  5
58
330
1F
100
AcDbEntity
  8
_U+30EC_U+30A4_U+30E4_U+30FC 1
 62
     7
420
 16777215
370
     9
100
AcDbSpline
210
0.0
220
0.0
230
1.0
 70
    11
 71
     3
 72
    17
 73
    13
 74
     0
 42
0.0000000001
 43
0.0000000001
 12
1.0
 22
0.0
 32
0.0
 13
1.0
 23
0.0
 33
0.0
 40
0.0
 40
0.0
 40
0.0
 40
0.0
 40
1.0
 40
1.0
 40
1.0
 40
2.0
 40
2.0
 40
2.0
 40
3.0
 40
3.0
 40
3.0
 40
4.0
 40
4.0
 40
4.0
 40
4.0
 10
83.6625884211451
 20
-121.9207408028532
 30
0.0
 10
83.6625884211451
 20
-121.8656016362004
 30
0.0
 10
83.61782092228722
 20
-121.8207988584337
 30
0.0
 10
83.56201147926659
 20
-121.8207988584337
 30
0.0
 10
83.50687231400664
 20
-121.8207988584337
 30
0.0
 10
83.46206953737187
 20
-121.8656016362004
 30
0.0
 10
83.46206953737187
 20
-121.9207408028532
 30
0.0
 10
83.46206953737187
 20
-121.9758446917284
 30
0.0
 10
83.50687231400664
 20
-122.0206474694948
 30
0.0
 10
83.56201147926659
 20
-122.0206474694948
 30
0.0
 10
83.61782092228722
 20
-122.0206474694948
 30
0.0
 10
83.6625884211451
 20
-121.9758446917284
 30
0.0
 10
83.6625884211451
 20
-121.9207408028532
 30
0.0
  0
SPLINE
  5
59
330
1F
100
AcDbEntity
  8
_U+30EC_U+30A4_U+30E4_U+30FC 1
 62
     7
420
 16777215
370
     9
100
AcDbSpline
210
0.0
220
0.0
230
1.0
 70
    11
 71
     3
 72
    17
 73
    13
 74
     0
 42
0.0000000001
 43
0.0000000001
 12
1.0
 22
0.0
 32
0.0
 13
1.0
 23
0.0
 33
0.0
 40
0.0
 40
0.0
 40
0.0
 40
0.0
 40
1.0
 40
1.0
 40
1.0
 40
2.0
 40
2.0
 40
2.0
 40
3.0
 40
3.0
 40
3.0
 40
4.0
 40
4.0
 40
4.0
 40
4.0
 10
84.66236061786101
 20
-121.9207408028532
 30
0.0
 10
84.66236061786101
 20
-121.8656016362004
 30
0.0
 10
84.61755784122624
 20
-121.8207988584337
 30
0.0
 10
84.56245395374317
 20
-121.8207988584337
 30
0.0
 10
84.50731478848323
 20
-121.8207988584337
 30
0.0
 10
84.46254728962535
 20
-121.8656016362004
 30
0.0
 10
84.46254728962535
 20
-121.9207408028532
 30
0.0
 10
84.46254728962535
 20
-121.9758446917284
 30
0.0
 10
84.50731478848323
 20
-122.0206474694948
 30
0.0
 10
84.56245395374317
 20
-122.0206474694948
 30
0.0
 10
84.61755784122624
 20
-122.0206474694948
 30
0.0
 10
84.66236061786101
 20
-121.9758446917284
 30
0.0
 10
84.66236061786101
 20
-121.9207408028532
 30
0.0
  0
SPLINE
  5
5A
330
1F
100
AcDbEntity
  8
_U+30EC_U+30A4_U+30E4_U+30FC 1
 62
     7
420
 16777215
370
     9
100
AcDbSpline
210
0.0
220
0.0
230
1.0
 70
    11
 71
     3
 72
    17
 73
    13
 74
     0
 42
0.0000000001
 43
0.0000000001
 12
1.0
 22
0.0
 32
0.0
 13
1.0
 23
0.0
 33
0.0
 40
0.0
 40
0.0
 40
0.0
 40
0.0
 40
1.0
 40
1.0
 40
1.0
 40
2.0
 40
2.0
 40
2.0
 40
3.0
 40
3.0
 40
3.0
 40
4.0
 40
4.0
 40
4.0
 40
4.0
 10
99.66247134628742
 20
-143.9223266306863
 30
0.0
 10
99.66247134628742
 20
-143.8671874640332
 30
0.0
 10
99.61770384742954
 20
-143.8223846862665
 30
0.0
 10
99.56256468216958
 20
-143.8223846862665
 30
0.0
 10
99.50746079468651
 20
-143.8223846862665
 30
0.0
 10
99.46265801805175
 20
-143.8671874640332
 30
0.0
 10
99.46265801805175
 20
-143.9223266306863
 30
0.0
 10
99.46265801805175
 20
-143.9774305195612
 30
0.0
 10
99.50746079468651
 20
-144.0218805195502
 30
0.0
 10
99.56256468216958
 20
-144.0218805195502
 30
0.0
 10
99.61770384742954
 20
-144.0218805195502
 30
0.0
 10
99.66247134628742
 20
-143.9774305195612
 30
0.0
 10
99.66247134628742
 20
-143.9223266306863
 30
0.0
  0
SPLINE
  5
5B
330
1F
100
AcDbEntity
  8
_U+30EC_U+30A4_U+30E4_U+30FC 1
 62
     7
420
 16777215
370
     9
100
AcDbSpline
210
0.0
220
0.0
230
1.0
 70
    11
 71
     3
 72
    17
 73
    13
 74
     0
 42
0.0000000001
 43
0.0000000001
 12
1.0
 22
0.0
 32
0.0
 13
1.0
 23
0.0
 33
0.0
 40
0.0
 40
0.0
 40
0.0
 40
0.0
 40
1.0
 40
1.0
 40
1.0
 40
2.0
 40
2.0
 40
2.0
 40
3.0
 40
3.0
 40
3.0
 40
4.0
 40
4.0
 40
4.0
 40
4.0
 10
83.6625884211451
 20
-143.9223266306863
 30
0.0
 10
83.6625884211451
 20
-143.8671874640332
 30
0.0
 10
83.61782092228722
 20
-143.8223846862665
 30
0.0
 10
83.56201147926659
 20
-143.8223846862665
 30
0.0
 10
83.50687231400664
 20
-143.8223846862665
 30
0.0
 10
83.46206953737187
 20
-143.8671874640332
 30
0.0
 10
83.46206953737187
 20
-143.9223266306863
 30
0.0
 10
83.46206953737187
 20
-143.9774305195612
 30
0.0
 10
83.50687231400664
 20
-144.0218805195502
 30
0.0
 10
83.56201147926659
 20
-144.0218805195502
 30
0.0
 10
83.61782092228722
 20
-144.0218805195502
 30
0.0
 10
83.6625884211451
 20
-143.9774305195612
 30
0.0
 10
83.6625884211451
 20
-143.9223266306863
 30
0.0
  0
SPLINE
  5
5C
330
1F
100
AcDbEntity
  8
_U+30EC_U+30A4_U+30E4_U+30FC 1
 62
     7
420
 16777215
370
     9
100
AcDbSpline
210
0.0
220
0.0
230
1.0
 70
    11
 71
     3
 72
    17
 73
    13
 74
     0
 42
0.0000000001
 43
0.0000000001
 12
1.0
 22
0.0
 32
0.0
 13
1.0
 23
0.0
 33
0.0
 40
0.0
 40
0.0
 40
0.0
 40
0.0
 40
1.0
 40
1.0
 40
1.0
 40
2.0
 40
2.0
 40
2.0
 40
3.0
 40
3.0
 40
3.0
 40
4.0
 40
4.0
 40
4.0
 40
4.0
 10
79.66216109119569
 20
-117.9209816371863
 30
0.0
 10
79.66216109119569
 20
-117.8658424705335
 30
0.0
 10
79.61735831342897
 20
-117.8210749705447
 30
0.0
 10
79.56225241464229
 20
-117.8210749705447
 30
0.0
 10
79.50711324938233
 20
-117.8210749705447
 30
0.0
 10
79.46234575052445
 20
-117.8658424705335
 30
0.0
 10
79.46234575052445
 20
-117.9209816371863
 30
0.0
 10
79.46234575052445
 20
-117.9760855260615
 30
0.0
 10
79.50711324938233
 20
-118.0208883038282
 30
0.0
 10
79.56225241464229
 20
-118.0208883038282
 30
0.0
 10
79.61735831342897
 20
-118.0208883038282
 30
0.0
 10
79.66216109119569
 20
-117.9760855260615
 30
0.0
 10
79.66216109119569
 20
-117.9209816371863
 30
0.0
  0
SPLINE
  5
5D
330
1F
100
AcDbEntity
  8
_U+30EC_U+30A4_U+30E4_U+30FC 1
 62
     7
420
 16777215
370
     9
100
AcDbSpline
210
0.0
220
0.0
230
1.0
 70
    11
 71
     3
 72
    17
 73
    13
 74
     0
 42
0.0000000001
 43
0.0000000001
 12
1.0
 22
0.0
 32
0.0
 13
1.0
 23
0.0
 33
0.0
 40
0.0
 40
0.0
 40
0.0
 40
0.0
 40
1.0
 40
1.0
 40
1.0
 40
2.0
 40
2.0
 40
2.0
 40
3.0
 40
3.0
 40
3.0
 40
4.0
 40
4.0
 40
4.0
 40
4.0
 10
79.66216109119569
 20
-139.9225674650194
 30
0.0
 10
79.66216109119569
 20
-139.8674282983663
 30
0.0
 10
79.61735831342897
 20
-139.8226607983778
 30
0.0
 10
79.56225241464229
 20
-139.8226607983778
 30
0.0
 10
79.50711324938233
 20
-139.8226607983778
 30
0.0
 10
79.46234575052445
 20
-139.8674282983663
 30
0.0
 10
79.46234575052445
 20
-139.9225674650194
 30
0.0
 10
79.46234575052445
 20
-139.9783769094498
 30
0.0
 10
79.50711324938233
 20
-140.0231444094384
 30
0.0
 10
79.56225241464229
 20
-140.0231444094384
 30
0.0
 10
79.61735831342897
 20
-140.0231444094384
 30
0.0
 10
79.66216109119569
 20
-139.9783769094498
 30
0.0
 10
79.66216109119569
 20
-139.9225674650194
 30
0.0
  0
SPLINE
  5
5E
330
1F
100
AcDbEntity
  8
_U+30EC_U+30A4_U+30E4_U+30FC 1
 62
     7
420
 16777215
370
     9
100
AcDbSpline
210
0.0
220
0.0
230
1.0
 70
    11
 71
     3
 72
    17
 73
    13
 74
     0
 42
0.0000000001
 43
0.0000000001
 12
1.0
 22
0.0
 32
0.0
 13
1.0
 23
0.0
 33
0.0
 40
0.0
 40
0.0
 40
0.0
 40
0.0
 40
1.0
 40
1.0
 40
1.0
 40
2.0
 40
2.0
 40
2.0
 40
3.0
 40
3.0
 40
3.0
 40
4.0
 40
4.0
 40
4.0
 40
4.0
 10
103.6622304109117
 20
-117.9209816371863
 30
0.0
 10
103.6622304109117
 20
-117.8658424705335
 30
0.0
 10
103.6174629120538
 20
-117.8210749705447
 30
0.0
 10
103.5623237467939
 20
-117.8210749705447
 30
0.0
 10
103.5072198593108
 20
-117.8210749705447
 30
0.0
 10
103.4624170826761
 20
-117.8658424705335
 30
0.0
 10
103.4624170826761
 20
-117.9209816371863
 30
0.0
 10
103.4624170826761
 20
-117.9760855260615
 30
0.0
 10
103.5072198593108
 20
-118.0208883038282
 30
0.0
 10
103.5623237467939
 20
-118.0208883038282
 30
0.0
 10
103.6174629120538
 20
-118.0208883038282
 30
0.0
 10
103.6622304109117
 20
-117.9760855260615
 30
0.0
 10
103.6622304109117
 20
-117.9209816371863
 30
0.0
  0
SPLINE
  5
5F
330
1F
100
AcDbEntity
  8
_U+30EC_U+30A4_U+30E4_U+30FC 1
 62
     7
420
 16777215
370
     9
100
AcDbSpline
210
0.0
220
0.0
230
1.0
 70
    11
 71
     3
 72
    17
 73
    13
 74
     0
 42
0.0000000001
 43
0.0000000001
 12
1.0
 22
0.0
 32
0.0
 13
1.0
 23
0.0
 33
0.0
 40
0.0
 40
0.0
 40
0.0
 40
0.0
 40
1.0
 40
1.0
 40
1.0
 40
2.0
 40
2.0
 40
2.0
 40
3.0
 40
3.0
 40
3.0
 40
4.0
 40
4.0
 40
4.0
 40
4.0
 10
103.6622304109117
 20
-138.9227952430469
 30
0.0
 10
103.6622304109117
 20
-138.8676560763944
 30
0.0
 10
103.6174629120538
 20
-138.8228885764052
 30
0.0
 10
103.5623237467939
 20
-138.8228885764052
 30
0.0
 10
103.5072198593108
 20
-138.8228885764052
 30
0.0
 10
103.4624170826761
 20
-138.8676560763944
 30
0.0
 10
103.4624170826761
 20
-138.9227952430469
 30
0.0
 10
103.4624170826761
 20
-138.9778991319224
 30
0.0
 10
103.5072198593108
 20
-139.0227019096885
 30
0.0
 10
103.5623237467939
 20
-139.0227019096885
 30
0.0
 10
103.6174629120538
 20
-139.0227019096885
 30
0.0
 10
103.6622304109117
 20
-138.9778991319224
 30
0.0
 10
103.6622304109117
 20
-138.9227952430469
 30
0.0
  0
POLYLINE
  5
60
330
1F
100
AcDbEntity
  8
_U+30EC_U+30A4_U+30E4_U+30FC 1
 62
     7
420
 16777215
370
     9
100
AcDb2dPolyline
 66
     1
 10
0.0
 20
0.0
 30
0.0
  0
VERTEX
  5
61
330
60
100
AcDbEntity
  8
_U+30EC_U+30A4_U+30E4_U+30FC 1
 62
     7
420
 16777215
370
     9
100
AcDbVertex
100
AcDb2dVertex
 10
84.56245395374317
 20
-121.9207408028532
 30
0.0
  0
VERTEX
  5
62
330
60
100
AcDbEntity
  8
_U+30EC_U+30A4_U+30E4_U+30FC 1
 62
     7
420
 16777215
370
     9
100
AcDbVertex
100
AcDb2dVertex
 10
88.33276635755449
 20
-121.9207408028532
 30
0.0
  0
SEQEND
  5
63
330
60
100
AcDbEntity
  8
_U+30EC_U+30A4_U+30E4_U+30FC 1
 62
     7
420
 16777215
370
     9
  0
POLYLINE
  5
64
330
1F
100
AcDbEntity
  8
_U+30EC_U+30A4_U+30E4_U+30FC 1
 62
     7
420
 16777215
370
     9
100
AcDb2dPolyline
 66
     1
 10
0.0
 20
0.0
 30
0.0
  0
VERTEX
  5
65
330
64
100
AcDbEntity
  8
_U+30EC_U+30A4_U+30E4_U+30FC 1
 62
     7
420
 16777215
370
     9
100
AcDbVertex
100
AcDb2dVertex
 10
82.56223928255068
 20
-121.9207408028532
 30
0.0
  0
VERTEX
  5
66
330
64
100
AcDbEntity
  8
_U+30EC_U+30A4_U+30E4_U+30FC 1
 62
     7
420
 16777215
370
     9
100
AcDbVertex
100
AcDb2dVertex
 10
84.56245395374317
 20
-121.9207408028532
 30
0.0
  0
SEQEND
  5
67
330
64
100
AcDbEntity
  8
_U+30EC_U+30A4_U+30E4_U+30FC 1
 62
     7
420
 16777215
370
     9
  0
INSERT
  5
69
330
1F
100
AcDbEntity
  8
_U+30EC_U+30A4_U+30E4_U+30FC 1
100
AcDbBlockReference
  2
block 3
 10
0.0
 20
0.0
 30
0.0
  0
POLYLINE
  5
6E
330
1F
100
AcDbEntity
  8
_U+30EC_U+30A4_U+30E4_U+30FC 1
 62
     7
420
 16777215
370
     9
100
AcDb2dPolyline
 66
     1
 10
0.0
 20
0.0
 30
0.0
  0
VERTEX
  5
6F
330
6E
100
AcDbEntity
  8
_U+30EC_U+30A4_U+30E4_U+30FC 1
 62
     7
420
 16777215
370
     9
100
AcDbVertex
100
AcDb2dVertex
 10
97.10208330905782
 20
-138.9227952430469
 30
0.0
  0
VERTEX
  5
70
330
6E
100
AcDbEntity
  8
_U+30EC_U+30A4_U+30E4_U+30FC 1
 62
     7
420
 16777215
370
     9
100
AcDbVertex
100
AcDb2dVertex
 10
104.5620959435098
 20
-138.9227952430469
 30
0.0
  0
SEQEND
  5
71
330
6E
100
AcDbEntity
  8
_U+30EC_U+30A4_U+30E4_U+30FC 1
 62
     7
420
 16777215
370
     9
  0
SPLINE
  5
72
330
1F
100
AcDbEntity
  8
_U+30EC_U+30A4_U+30E4_U+30FC 1
 62
     7
420
 16777215
370
     9
100
AcDbSpline
210
0.0
220
0.0
230
1.0
 70
    11
 71
     3
 72
    17
 73
    13
 74
     0
 42
0.0000000001
 43
0.0000000001
 12
1.0
 22
0.0
 32
0.0
 13
1.0
 23
0.0
 33
0.0
 40
0.0
 40
0.0
 40
0.0
 40
0.0
 40
1.0
 40
1.0
 40
1.0
 40
2.0
 40
2.0
 40
2.0
 40
3.0
 40
3.0
 40
3.0
 40
4.0
 40
4.0
 40
4.0
 40
4.0
 10
103.6622304109117
 20
-125.9194416351868
 30
0.0
 10
103.6622304109117
 20
-125.8636321907563
 30
0.0
 10
103.6174629120538
 20
-125.8188646907675
 30
0.0
 10
103.5623237467939
 20
-125.8188646907675
 30
0.0
 10
103.5072198593108
 20
-125.8188646907675
 30
0.0
 10
103.4624170826761
 20
-125.8636321907563
 30
0.0
 10
103.4624170826761
 20
-125.9194416351868
 30
0.0
 10
103.4624170826761
 20
-125.9745808018398
 30
0.0
 10
103.5072198593108
 20
-126.0193483018284
 30
0.0
 10
103.5623237467939
 20
-126.0193483018284
 30
0.0
 10
103.6174629120538
 20
-126.0193483018284
 30
0.0
 10
103.6622304109117
 20
-125.9745808018398
 30
0.0
 10
103.6622304109117
 20
-125.9194416351868
 30
0.0
  0
POLYLINE
  5
73
330
1F
100
AcDbEntity
  8
_U+30EC_U+30A4_U+30E4_U+30FC 1
 62
     7
420
 16777215
370
     9
100
AcDb2dPolyline
 66
     1
 10
0.0
 20
0.0
 30
0.0
  0
VERTEX
  5
74
330
73
100
AcDbEntity
  8
_U+30EC_U+30A4_U+30E4_U+30FC 1
 62
     7
420
 16777215
370
     9
100
AcDbVertex
100
AcDb2dVertex
 10
97.10208330905782
 20
-125.9194416351868
 30
0.0
  0
VERTEX
  5
75
330
73
100
AcDbEntity
  8
_U+30EC_U+30A4_U+30E4_U+30FC 1
 62
     7
420
 16777215
370
     9
100
AcDbVertex
100
AcDb2dVertex
 10
104.5620959435098
 20
-125.9194416351868
 30
0.0
  0
SEQEND
  5
76
330
73
100
AcDbEntity
  8
_U+30EC_U+30A4_U+30E4_U+30FC 1
 62
     7
420
 16777215
370
     9
  0
SPLINE
  5
77
330
1F
100
AcDbEntity
  8
_U+30EC_U+30A4_U+30E4_U+30FC 1
 62
     7
420
 16777215
370
     9
100
AcDbSpline
210
0.0
220
0.0
230
1.0
 70
    11
 71
     3
 72
    17
 73
    13
 74
     0
 42
0.0000000001
 43
0.0000000001
 12
1.0
 22
0.0
 32
0.0
 13
1.0
 23
0.0
 33
0.0
 40
0.0
 40
0.0
 40
0.0
 40
0.0
 40
1.0
 40
1.0
 40
1.0
 40
2.0
 40
2.0
 40
2.0
 40
3.0
 40
3.0
 40
3.0
 40
4.0
 40
4.0
 40
4.0
 40
4.0
 10
103.6622304109117
 20
-124.9189991354369
 30
0.0
 10
103.6622304109117
 20
-124.8638599687841
 30
0.0
 10
103.6174629120538
 20
-124.8190924687952
 30
0.0
 10
103.5623237467939
 20
-124.8190924687952
 30
0.0
 10
103.5072198593108
 20
-124.8190924687952
 30
0.0
 10
103.4624170826761
 20
-124.8638599687841
 30
0.0
 10
103.4624170826761
 20
-124.9189991354369
 30
0.0
 10
103.4624170826761
 20
-124.9741030243121
 30
0.0
 10
103.5072198593108
 20
-125.0189058020785
 30
0.0
 10
103.5623237467939
 20
-125.0189058020785
 30
0.0
 10
103.6174629120538
 20
-125.0189058020785
 30
0.0
 10
103.6622304109117
 20
-124.9741030243121
 30
0.0
 10
103.6622304109117
 20
-124.9189991354369
 30
0.0
  0
POLYLINE
  5
78
330
1F
100
AcDbEntity
  8
_U+30EC_U+30A4_U+30E4_U+30FC 1
 62
     7
420
 16777215
370
     9
100
AcDb2dPolyline
 66
     1
 10
0.0
 20
0.0
 30
0.0
  0
VERTEX
  5
79
330
78
100
AcDbEntity
  8
_U+30EC_U+30A4_U+30E4_U+30FC 1
 62
     7
420
 16777215
370
     9
100
AcDbVertex
100
AcDb2dVertex
 10
97.10208330905782
 20
-124.9227738576581
 30
0.0
  0
VERTEX
  5
7A
330
78
100
AcDbEntity
  8
_U+30EC_U+30A4_U+30E4_U+30FC 1
 62
     7
420
 16777215
370
     9
100
AcDbVertex
100
AcDb2dVertex
 10
104.5620959435098
 20
-124.9227738576581
 30
0.0
  0
SEQEND
  5
7B
330
78
100
AcDbEntity
  8
_U+30EC_U+30A4_U+30E4_U+30FC 1
 62
     7
420
 16777215
370
     9
  0
INSERT
  5
7D
330
1F
100
AcDbEntity
  8
_U+30EC_U+30A4_U+30E4_U+30FC 1
100
AcDbBlockReference
  2
block 4
 10
0.0
 20
0.0
 30
0.0
  0
POLYLINE
  5
84
330
1F
100
AcDbEntity
  8
_U+30EC_U+30A4_U+30E4_U+30FC 1
 62
     7
420
 16777215
370
     9
100
AcDb2dPolyline
 66
     1
 10
0.0
 20
0.0
 30
0.0
  0
VERTEX
  5
85
330
84
100
AcDbEntity
  8
_U+30EC_U+30A4_U+30E4_U+30FC 1
 62
     7
420
 16777215
370
     9
100
AcDbVertex
100
AcDb2dVertex
 10
103.5623237467939
 20
-125.9194416351868
 30
0.0
  0
VERTEX
  5
86
330
84
100
AcDbEntity
  8
_U+30EC_U+30A4_U+30E4_U+30FC 1
 62
     7
420
 16777215
370
     9
100
AcDbVertex
100
AcDb2dVertex
 10
103.5623237467939
 20
-124.9193519132146
 30
0.0
  0
SEQEND
  5
87
330
84
100
AcDbEntity
  8
_U+30EC_U+30A4_U+30E4_U+30FC 1
 62
     7
420
 16777215
370
     9
  0
POLYLINE
  5
88
330
1F
100
AcDbEntity
  8
_U+30EC_U+30A4_U+30E4_U+30FC 1
 62
     7
420
 16777215
370
     9
100
AcDb2dPolyline
 66
     1
 10
0.0
 20
0.0
 30
0.0
  0
VERTEX
  5
89
330
88
100
AcDbEntity
  8
_U+30EC_U+30A4_U+30E4_U+30FC 1
 62
     7
420
 16777215
370
     9
100
AcDbVertex
100
AcDb2dVertex
 10
103.5623237467939
 20
-124.9193519132146
 30
0.0
  0
VERTEX
  5
8A
330
88
100
AcDbEntity
  8
_U+30EC_U+30A4_U+30E4_U+30FC 1
 62
     7
420
 16777215
370
     9
100
AcDbVertex
100
AcDb2dVertex
 10
103.5623237467939
 20
-117.9196058038534
 30
0.0
  0
SEQEND
  5
8B
330
88
100
AcDbEntity
  8
_U+30EC_U+30A4_U+30E4_U+30FC 1
 62
     7
420
 16777215
370
     9
  0
POLYLINE
  5
8C
330
1F
100
AcDbEntity
  8
_U+30EC_U+30A4_U+30E4_U+30FC 1
 62
     7
420
 16777215
370
     9
100
AcDb2dPolyline
 66
     1
 10
0.0
 20
0.0
 30
0.0
  0
VERTEX
  5
8D
330
8C
100
AcDbEntity
  8
_U+30EC_U+30A4_U+30E4_U+30FC 1
 62
     7
420
 16777215
370
     9
100
AcDbVertex
100
AcDb2dVertex
 10
86.10239947001145
 20
-117.9209816371863
 30
0.0
  0
VERTEX
  5
8E
330
8C
100
AcDbEntity
  8
_U+30EC_U+30A4_U+30E4_U+30FC 1
 62
     7
420
 16777215
370
     9
100
AcDbVertex
100
AcDb2dVertex
 10
104.5620959435098
 20
-117.9209816371863
 30
0.0
  0
SEQEND
  5
8F
330
8C
100
AcDbEntity
  8
_U+30EC_U+30A4_U+30E4_U+30FC 1
 62
     7
420
 16777215
370
     9
  0
INSERT
  5
91
330
1F
100
AcDbEntity
  8
_U+30EC_U+30A4_U+30E4_U+30FC 1
100
AcDbBlockReference
  2
block 5
 10
0.0
 20
0.0
 30
0.0
  0
POLYLINE
  5
96
330
1F
100
AcDbEntity
  8
_U+30EC_U+30A4_U+30E4_U+30FC 1
 62
     7
420
 16777215
370
     9
100
AcDb2dPolyline
 66
     1
 10
0.0
 20
0.0
 30
0.0
  0
VERTEX
  5
97
330
96
100
AcDbEntity
  8
_U+30EC_U+30A4_U+30E4_U+30FC 1
 62
     7
420
 16777215
370
     9
100
AcDbVertex
100
AcDb2dVertex
 10
79.56225241464229
 20
-139.9222146872416
 30
0.0
  0
VERTEX
  5
98
330
96
100
AcDbEntity
  8
_U+30EC_U+30A4_U+30E4_U+30FC 1
 62
     7
420
 16777215
370
     9
100
AcDbVertex
100
AcDb2dVertex
 10
79.56225241464229
 20
-117.9212991371862
 30
0.0
  0
SEQEND
  5
99
330
96
100
AcDbEntity
  8
_U+30EC_U+30A4_U+30E4_U+30FC 1
 62
     7
420
 16777215
370
     9
  0
POLYLINE
  5
9A
330
1F
100
AcDbEntity
  8
_U+30EC_U+30A4_U+30E4_U+30FC 1
 62
     7
420
 16777215
370
     9
100
AcDb2dPolyline
 66
     1
 10
0.0
 20
0.0
 30
0.0
  0
VERTEX
  5
9B
330
9A
100
AcDbEntity
  8
_U+30EC_U+30A4_U+30E4_U+30FC 1
 62
     7
420
 16777215
370
     9
100
AcDbVertex
100
AcDb2dVertex
 10
82.02203068522144
 20
-139.9225674650194
 30
0.0
  0
VERTEX
  5
9C
330
9A
100
AcDbEntity
  8
_U+30EC_U+30A4_U+30E4_U+30FC 1
 62
     7
420
 16777215
370
     9
100
AcDbVertex
100
AcDb2dVertex
 10
78.56248021792638
 20
-139.9225674650194
 30
0.0
  0
SEQEND
  5
9D
330
9A
100
AcDbEntity
  8
_U+30EC_U+30A4_U+30E4_U+30FC 1
 62
     7
420
 16777215
370
     9
  0
POLYLINE
  5
9E
330
1F
100
AcDbEntity
  8
_U+30EC_U+30A4_U+30E4_U+30FC 1
 62
     7
420
 16777215
370
     9
100
AcDb2dPolyline
 66
     1
 10
0.0
 20
0.0
 30
0.0
  0
VERTEX
  5
9F
330
9E
100
AcDbEntity
  8
_U+30EC_U+30A4_U+30E4_U+30FC 1
 62
     7
420
 16777215
370
     9
100
AcDbVertex
100
AcDb2dVertex
 10
82.02203068522144
 20
-117.9209816371863
 30
0.0
  0
VERTEX
  5
A0
330
9E
100
AcDbEntity
  8
_U+30EC_U+30A4_U+30E4_U+30FC 1
 62
     7
420
 16777215
370
     9
100
AcDbVertex
100
AcDb2dVertex
 10
78.56248021792638
 20
-117.9209816371863
 30
0.0
  0
SEQEND
  5
A1
330
9E
100
AcDbEntity
  8
_U+30EC_U+30A4_U+30E4_U+30FC 1
 62
     7
420
 16777215
370
     9
  0
INSERT
  5
A3
330
1F
100
AcDbEntity
  8
_U+30EC_U+30A4_U+30E4_U+30FC 1
100
AcDbBlockReference
  2
block 6
 10
0.0
 20
0.0
 30
0.0
  0
POLYLINE
  5
AA
330
1F
100
AcDbEntity
  8
_U+30EC_U+30A4_U+30E4_U+30FC 1
 62
     7
420
 16777215
370
     9
100
AcDb2dPolyline
 66
     1
 10
0.0
 20
0.0
 30
0.0
  0
VERTEX
  5
AB
330
AA
100
AcDbEntity
  8
_U+30EC_U+30A4_U+30E4_U+30FC 1
 62
     7
420
 16777215
370
     9
100
AcDbVertex
100
AcDb2dVertex
 10
83.56201147926659
 20
-143.9223266306863
 30
0.0
  0
VERTEX
  5
AC
330
AA
100
AcDbEntity
  8
_U+30EC_U+30A4_U+30E4_U+30FC 1
 62
     7
420
 16777215
370
     9
100
AcDbVertex
100
AcDb2dVertex
 10
99.5618944044089
 20
-143.9223266306863
 30
0.0
  0
SEQEND
  5
AD
330
AA
100
AcDbEntity
  8
_U+30EC_U+30A4_U+30E4_U+30FC 1
 62
     7
420
 16777215
370
     9
  0
POLYLINE
  5
AE
330
1F
100
AcDbEntity
  8
_U+30EC_U+30A4_U+30E4_U+30FC 1
 62
     7
420
 16777215
370
     9
100
AcDb2dPolyline
 66
     1
 10
0.0
 20
0.0
 30
0.0
  0
VERTEX
  5
AF
330
AE
100
AcDbEntity
  8
_U+30EC_U+30A4_U+30E4_U+30FC 1
 62
     7
420
 16777215
370
     9
100
AcDbVertex
100
AcDb2dVertex
 10
83.56201147926659
 20
-141.4621602424123
 30
0.0
  0
VERTEX
  5
B0
330
AE
100
AcDbEntity
  8
_U+30EC_U+30A4_U+30E4_U+30FC 1
 62
     7
420
 16777215
370
     9
100
AcDbVertex
100
AcDb2dVertex
 10
83.56201147926659
 20
-144.9203702415475
 30
0.0
  0
SEQEND
  5
B1
330
AE
100
AcDbEntity
  8
_U+30EC_U+30A4_U+30E4_U+30FC 1
 62
     7
420
 16777215
370
     9
  0
POLYLINE
  5
B2
330
1F
100
AcDbEntity
  8
_U+30EC_U+30A4_U+30E4_U+30FC 1
 62
     7
420
 16777215
370
     9
100
AcDb2dPolyline
 66
     1
 10
0.0
 20
0.0
 30
0.0
  0
VERTEX
  5
B3
330
B2
100
AcDbEntity
  8
_U+30EC_U+30A4_U+30E4_U+30FC 1
 62
     7
420
 16777215
370
     9
100
AcDbVertex
100
AcDb2dVertex
 10
99.56256468216958
 20
-142.4626380199397
 30
0.0
  0
VERTEX
  5
B4
330
B2
100
AcDbEntity
  8
_U+30EC_U+30A4_U+30E4_U+30FC 1
 62
     7
420
 16777215
370
     9
100
AcDbVertex
100
AcDb2dVertex
 10
99.56256468216958
 20
-144.9203702415475
 30
0.0
  0
SEQEND
  5
B5
330
B2
100
AcDbEntity
  8
_U+30EC_U+30A4_U+30E4_U+30FC 1
 62
     7
420
 16777215
370
     9
  0
INSERT
  5
B7
330
1F
100
AcDbEntity
  8
_U+30EC_U+30A4_U+30E4_U+30FC 1
100
AcDbBlockReference
  2
block 7
 10
0.0
 20
0.0
 30
0.0
  0
POLYLINE
  5
BF
330
1F
100
AcDbEntity
  8
_U+30EC_U+30A4_U+30E4_U+30FC 1
 62
     7
420
 16777215
370
     9
100
AcDb2dPolyline
 66
     1
 10
0.0
 20
0.0
 30
0.0
  0
VERTEX
  5
C0
330
BF
100
AcDbEntity
  8
_U+30EC_U+30A4_U+30E4_U+30FC 1
 62
     7
420
 16777215
370
     9
100
AcDbVertex
100
AcDb2dVertex
 10
103.5623237467939
 20
-138.9227952430469
 30
0.0
  0
VERTEX
  5
C1
330
BF
100
AcDbEntity
  8
_U+30EC_U+30A4_U+30E4_U+30FC 1
 62
     7
420
 16777215
370
     9
100
AcDbVertex
100
AcDb2dVertex
 10
103.5623237467939
 20
-125.9218405240751
 30
0.0
  0
SEQEND
  5
C2
330
BF
100
AcDbEntity
  8
_U+30EC_U+30A4_U+30E4_U+30FC 1
 62
     7
420
 16777215
370
     9
  0
POLYLINE
  5
C3
330
1F
100
AcDbEntity
  8
_U+30EC_U+30A4_U+30E4_U+30FC 1
  6
AI-Linetype-1
 62
   251
420
  5855577
370
    25
100
AcDb2dPolyline
 66
     1
 10
0.0
 20
0.0
 30
0.0
  0
VERTEX
  5
C4
330
C3
100
AcDbEntity
  8
_U+30EC_U+30A4_U+30E4_U+30FC 1
  6
AI-Linetype-1
 62
   251
420
  5855577
370
    25
100
AcDbVertex
100
AcDb2dVertex
 10
83.51410425826658
 20
-117.1899202484802
 30
0.0
  0
VERTEX
  5
C5
330
C3
100
AcDbEntity
  8
_U+30EC_U+30A4_U+30E4_U+30FC 1
  6
AI-Linetype-1
 62
   251
420
  5855577
370
    25
100
AcDbVertex
100
AcDb2dVertex
 10
85.30625275645126
 20
-117.1899202484802
 30
0.0
  0
VERTEX
  5
C6
330
C3
100
AcDbEntity
  8
_U+30EC_U+30A4_U+30E4_U+30FC 1
  6
AI-Linetype-1
 62
   251
420
  5855577
370
    25
100
AcDbVertex
100
AcDb2dVertex
 10
85.30625275645126
 20
-124.13798441341
 30
0.0
  0
VERTEX
  5
C7
330
C3
100
AcDbEntity
  8
_U+30EC_U+30A4_U+30E4_U+30FC 1
  6
AI-Linetype-1
 62
   251
420
  5855577
370
    25
100
AcDbVertex
100
AcDb2dVertex
 10
92.38642986524803
 20
-124.13798441341
 30
0.0
  0
VERTEX
  5
C8
330
C3
100
AcDbEntity
  8
_U+30EC_U+30A4_U+30E4_U+30FC 1
  6
AI-Linetype-1
 62
   251
420
  5855577
370
    25
100
AcDbVertex
100
AcDb2dVertex
 10
92.38642986524803
 20
-126.6515260794483
 30
0.0
  0
SEQEND
  5
CA
330
C3
100
AcDbEntity
  8
_U+30EC_U+30A4_U+30E4_U+30FC 1
  6
AI-Linetype-1
 62
   251
420
  5855577
370
    25
  0
ENDSEC
  0
SECTION
  2
OBJECTS
  0
DICTIONARY
  5
C
330
0
100
AcDbDictionary
281
     1
  3
ACAD_GROUP
350
D
  3
ACAD_LAYOUT
350
1A
  3
ACAD_MATERIAL
350
3B
  3
ACAD_MLEADERSTYLE
350
CC
  3
ACAD_MLINESTYLE
350
17
  3
ACAD_PLOTSETTINGS
350
19
  3
ACAD_PLOTSTYLENAME
350
E
  3
ACAD_TABLESTYLE
350
CB
  3
ACAD_VISUALSTYLE
350
2A
  0
SUN
  5
3F
330
29
100
AcDbSun
 90
        1
290
     0
 63
     7
421
 16777215
 40
1.0
291
     1
 91
  2455826
 92
 54000000
292
     0
 70
     2
 71
   256
280
     1
  0
DICTIONARY
  5
D
102
{ACAD_REACTORS
330
C
102
}
330
C
100
AcDbDictionary
281
     1
  0
DICTIONARY
  5
1A
102
{ACAD_REACTORS
330
C
102
}
330
C
100
AcDbDictionary
281
     1
  3
Layout1
350
1E
  3
Layout2
350
26
  3
Model
350
22
  0
DICTIONARY
  5
3B
102
{ACAD_REACTORS
330
C
102
}
330
C
100
AcDbDictionary
281
     1
  3
ByBlock
350
3D
  3
ByLayer
350
3C
  3
Global
350
3E
  0
DICTIONARY
  5
CC
102
{ACAD_REACTORS
330
C
102
}
330
C
100
AcDbDictionary
281
     1
  0
DICTIONARY
  5
17
102
{ACAD_REACTORS
330
C
102
}
330
C
100
AcDbDictionary
281
     1
  3
Standard
350
18
  0
DICTIONARY
  5
19
102
{ACAD_REACTORS
330
C
102
}
330
C
100
AcDbDictionary
281
     1
  0
ACDBDICTIONARYWDFLT
  5
E
102
{ACAD_REACTORS
330
C
102
}
330
C
100
AcDbDictionary
281
     1
  3
Normal
350
F
100
AcDbDictionaryWithDefault
340
F
  0
DICTIONARY
  5
CB
102
{ACAD_REACTORS
330
C
102
}
330
C
100
AcDbDictionary
281
     1
  0
DICTIONARY
  5
2A
102
{ACAD_REACTORS
330
C
102
}
330
C
100
AcDbDictionary
281
     1
  3
2dWireframe
350
2F
  3
3D Hidden
350
31
  3
3dWireframe
350
30
  3
Basic
350
32
  3
Brighten
350
36
  3
ColorChange
350
3A
  3
Conceptual
350
34
  3
Dim
350
35
  3
Facepattern
350
39
  3
Flat
350
2B
  3
FlatWithEdges
350
2C
  3
Gouraud
350
2D
  3
GouraudWithEdges
350
2E
  3
Linepattern
350
38
  3
Realistic
350
33
  3
Thicken
350
37
  0
LAYOUT
  5
1E
102
{ACAD_REACTORS
330
1A
102
}
330
1A
100
AcDbPlotSettings
  1

  2
none_device
  4

  6

 40
0.0
 41
0.0
 42
0.0
 43
0.0
 44
0.0
 45
0.0
 46
0.0
 47
0.0
 48
0.0
 49
0.0
140
0.0
141
0.0
142
1.0
143
1.0
 70
   688
 72
     0
 73
     0
 74
     5
  7

 75
    16
 76
     0
 77
     2
 78
   300
147
1.0
148
0.0
149
0.0
100
AcDbLayout
  1
Layout1
 70
     1
 71
     1
 10
0.0
 20
0.0
 11
12.0
 21
9.0
 12
0.0
 22
0.0
 32
0.0
 14
1.000000000000000E+20
 24
1.000000000000000E+20
 34
1.000000000000000E+20
 15
-1.000000000000000E+20
 25
-1.000000000000000E+20
 35
-1.000000000000000E+20
146
0.0
 13
0.0
 23
0.0
 33
0.0
 16
1.0
 26
0.0
 36
0.0
 17
0.0
 27
1.0
 37
0.0
 76
     0
330
1B
  0
LAYOUT
  5
26
102
{ACAD_REACTORS
330
1A
102
}
330
1A
100
AcDbPlotSettings
  1

  2
none_device
  4

  6

 40
0.0
 41
0.0
 42
0.0
 43
0.0
 44
0.0
 45
0.0
 46
0.0
 47
0.0
 48
0.0
 49
0.0
140
0.0
141
0.0
142
1.0
143
1.0
 70
   688
 72
     0
 73
     0
 74
     5
  7

 75
    16
 76
     0
 77
     2
 78
   300
147
1.0
148
0.0
149
0.0
100
AcDbLayout
  1
Layout2
 70
     1
 71
     2
 10
0.0
 20
0.0
 11
0.0
 21
0.0
 12
0.0
 22
0.0
 32
0.0
 14
0.0
 24
0.0
 34
0.0
 15
0.0
 25
0.0
 35
0.0
146
0.0
 13
0.0
 23
0.0
 33
0.0
 16
1.0
 26
0.0
 36
0.0
 17
0.0
 27
1.0
 37
0.0
 76
     0
330
23
  0
LAYOUT
  5
22
102
{ACAD_REACTORS
330
1A
102
}
330
1A
100
AcDbPlotSettings
  1

  2
none_device
  4

  6

 40
0.0
 41
0.0
 42
0.0
 43
0.0
 44
0.0
 45
0.0
 46
0.0
 47
0.0
 48
0.0
 49
0.0
140
0.0
141
0.0
142
1.0
143
1.0
 70
  1712
 72
     0
 73
     0
 74
     0
  7

 75
     0
 76
     0
 77
     2
 78
   300
147
1.0
148
0.0
149
0.0
100
AcDbLayout
  1
Model
 70
     1
 71
     0
 10
0.0
 20
0.0
 11
12.0
 21
9.0
 12
0.0
 22
0.0
 32
0.0
 14
1.000000000000000E+20
 24
1.000000000000000E+20
 34
1.000000000000000E+20
 15
-1.000000000000000E+20
 25
-1.000000000000000E+20
 35
-1.000000000000000E+20
146
0.0
 13
0.0
 23
0.0
 33
0.0
 16
1.0
 26
0.0
 36
0.0
 17
0.0
 27
1.0
 37
0.0
 76
     0
330
1F
331
29
  0
MATERIAL
  5
3D
102
{ACAD_REACTORS
330
3B
102
}
330
3B
100
AcDbMaterial
  1
ByBlock
 72
     1
 94
      127
  0
MATERIAL
  5
3C
102
{ACAD_REACTORS
330
3B
102
}
330
3B
100
AcDbMaterial
  1
ByLayer
 72
     1
 94
      127
  0
MATERIAL
  5
3E
102
{ACAD_REACTORS
330
3B
102
}
330
3B
100
AcDbMaterial
  1
Global
 72
     1
 94
      127
  0
MLINESTYLE
  5
18
102
{ACAD_REACTORS
330
17
102
}
330
17
100
AcDbMlineStyle
  2
Standard
 70
     0
  3

 62
   256
 51
90.0
 52
90.0
 71
     2
 49
0.5
 62
   256
  6
BYLAYER
 49
-0.5
 62
   256
  6
BYLAYER
  0
ACDBPLACEHOLDER
  5
F
102
{ACAD_REACTORS
330
E
102
}
330
E
  0
VISUALSTYLE
  5
2F
102
{ACAD_REACTORS
330
2A
102
}
330
2A
100
AcDbVisualStyle
  2
2dWireframe
 70
     4
177
     2
291
     0
 71
     0
176
     1
 72
     2
176
     1
 73
     0
176
     1
 90
        0
176
     1
 40
-0.6
176
     1
 41
-30.0
176
     1
 62
     5
 63
     7
421
 16777215
176
     1
 74
     1
176
     1
 91
        4
176
     1
 64
     7
176
     1
 65
   257
176
     1
 75
     1
176
     1
175
     1
176
     1
 42
1.0
176
     1
 92
        0
176
     1
 66
   257
176
     1
 43
1.0
176
     1
 76
     1
176
     1
 77
     6
176
     1
 78
     2
176
     1
 67
     7
176
     1
 79
     5
176
     1
170
     0
176
     1
171
     0
176
     1
290
     0
176
     1
 93
        1
176
     1
 44
0.0
176
     1
173
     0
176
     1
  0
VISUALSTYLE
  5
31
102
{ACAD_REACTORS
330
2A
102
}
330
2A
100
AcDbVisualStyle
  2
3D Hidden
 70
     6
177
     2
291
     0
 71
     1
176
     1
 72
     2
176
     1
 73
     2
176
     1
 90
        0
176
     1
 40
-0.6
176
     1
 41
-30.0
176
     1
 62
     5
 63
     7
421
 16777215
176
     1
 74
     2
176
     1
 91
        2
176
     1
 64
     7
176
     1
 65
   257
176
     1
 75
     2
176
     1
175
     1
176
     1
 42
40.0
176
     1
 92
        0
176
     1
 66
   257
176
     1
 43
1.0
176
     1
 76
     1
176
     1
 77
     6
176
     1
 78
     2
176
     1
 67
     7
176
     1
 79
     3
176
     1
170
     0
176
     1
171
     0
176
     1
290
     0
176
     1
 93
        1
176
     1
 44
0.0
176
     1
173
     0
176
     1
  0
VISUALSTYLE
  5
30
102
{ACAD_REACTORS
330
2A
102
}
330
2A
100
AcDbVisualStyle
  2
3dWireframe
 70
     5
177
     2
291
     0
 71
     0
176
     1
 72
     2
176
     1
 73
     0
176
     1
 90
        0
176
     1
 40
-0.6
176
     1
 41
-30.0
176
     1
 62
     5
 63
     7
421
 16777215
176
     1
 74
     1
176
     1
 91
        4
176
     1
 64
     7
176
     1
 65
   257
176
     1
 75
     1
176
     1
175
     1
176
     1
 42
1.0
176
     1
 92
        0
176
     1
 66
   257
176
     1
 43
1.0
176
     1
 76
     1
176
     1
 77
     6
176
     1
 78
     2
176
     1
 67
     7
176
     1
 79
     5
176
     1
170
     0
176
     1
171
     0
176
     1
290
     0
176
     1
 93
        1
176
     1
 44
0.0
176
     1
173
     0
176
     1
  0
VISUALSTYLE
  5
32
102
{ACAD_REACTORS
330
2A
102
}
330
2A
100
AcDbVisualStyle
  2
Basic
 70
     7
177
     2
291
     1
 71
     1
176
     1
 72
     0
176
     1
 73
     1
176
     1
 90
        0
176
     1
 40
-0.6
176
     1
 41
-30.0
176
     1
 62
     5
 63
     7
421
 16777215
176
     1
 74
     0
176
     1
 91
        4
176
     1
 64
     7
176
     1
 65
   257
176
     1
 75
     1
176
     1
175
     1
176
     1
 42
1.0
176
     1
 92
        8
176
     1
 66
     7
176
     1
 43
1.0
176
     1
 76
     1
176
     1
 77
     6
176
     1
 78
     2
176
     1
 67
     7
176
     1
 79
     5
176
     1
170
     0
176
     1
171
     0
176
     1
290
     0
176
     1
 93
        1
176
     1
 44
0.0
176
     1
173
     0
176
     1
  0
VISUALSTYLE
  5
36
102
{ACAD_REACTORS
330
2A
102
}
330
2A
100
AcDbVisualStyle
  2
Brighten
 70
    12
177
     2
291
     1
 71
     2
176
     1
 72
     2
176
     1
 73
     0
176
     1
 90
        0
176
     1
 40
-0.6
176
     1
 41
-30.0
176
     1
 62
     5
 63
     7
421
 16777215
176
     1
 74
     1
176
     1
 91
        4
176
     1
 64
     7
176
     1
 65
   257
176
     1
 75
     1
176
     1
175
     1
176
     1
 42
1.0
176
     1
 92
        8
176
     1
 66
     7
176
     1
 43
1.0
176
     1
 76
     1
176
     1
 77
     6
176
     1
 78
     2
176
     1
 67
     7
176
     1
 79
     5
176
     1
170
     0
176
     1
171
     0
176
     1
290
     0
176
     1
 93
        1
176
     1
 44
50.0
176
     1
173
     0
176
     1
  0
VISUALSTYLE
  5
3A
102
{ACAD_REACTORS
330
2A
102
}
330
2A
100
AcDbVisualStyle
  2
ColorChange
 70
    16
177
     2
291
     1
 71
     2
176
     1
 72
     2
176
     1
 73
     3
176
     1
 90
        0
176
     1
 40
-0.6
176
     1
 41
-30.0
176
     1
 62
     5
 63
     8
421
  8421504
176
     1
 74
     1
176
     1
 91
        4
176
     1
 64
     7
176
     1
 65
   257
176
     1
 75
     1
176
     1
175
     1
176
     1
 42
1.0
176
     1
 92
        8
176
     1
 66
     8
424
  8421504
176
     1
 43
1.0
176
     1
 76
     1
176
     1
 77
     6
176
     1
 78
     2
176
     1
 67
     7
176
     1
 79
     5
176
     1
170
     0
176
     1
171
     0
176
     1
290
     0
176
     1
 93
        1
176
     1
 44
0.0
176
     1
173
     0
176
     1
  0
VISUALSTYLE
  5
34
102
{ACAD_REACTORS
330
2A
102
}
330
2A
100
AcDbVisualStyle
  2
Conceptual
 70
     9
177
     2
291
     0
 71
     3
176
     1
 72
     2
176
     1
 73
     0
176
     1
 90
        0
176
     1
 40
-0.6
176
     1
 41
-30.0
176
     1
 62
     5
 63
     7
421
 16777215
176
     1
 74
     2
176
     1
 91
        2
176
     1
 64
     7
176
     1
 65
   257
176
     1
 75
     1
176
     1
175
     1
176
     1
 42
40.0
176
     1
 92
        8
176
     1
 66
     7
176
     1
 43
1.0
176
     1
 76
     1
176
     1
 77
     6
176
     1
 78
     2
176
     1
 67
     7
176
     1
 79
     3
176
     1
170
     0
176
     1
171
     0
176
     1
290
     0
176
     1
 93
        1
176
     1
 44
0.0
176
     1
173
     0
176
     1
  0
VISUALSTYLE
  5
35
102
{ACAD_REACTORS
330
2A
102
}
330
2A
100
AcDbVisualStyle
  2
Dim
 70
    11
177
     2
291
     1
 71
     2
176
     1
 72
     2
176
     1
 73
     0
176
     1
 90
        0
176
     1
 40
-0.6
176
     1
 41
-30.0
176
     1
 62
     5
 63
     7
421
 16777215
176
     1
 74
     1
176
     1
 91
        4
176
     1
 64
     7
176
     1
 65
   257
176
     1
 75
     1
176
     1
175
     1
176
     1
 42
1.0
176
     1
 92
        8
176
     1
 66
     7
176
     1
 43
1.0
176
     1
 76
     1
176
     1
 77
     6
176
     1
 78
     2
176
     1
 67
     7
176
     1
 79
     5
176
     1
170
     0
176
     1
171
     0
176
     1
290
     0
176
     1
 93
        1
176
     1
 44
-50.0
176
     1
173
     0
176
     1
  0
VISUALSTYLE
  5
39
102
{ACAD_REACTORS
330
2A
102
}
330
2A
100
AcDbVisualStyle
  2
Facepattern
 70
    15
177
     2
291
     1
 71
     2
176
     1
 72
     2
176
     1
 73
     0
176
     1
 90
        0
176
     1
 40
-0.6
176
     1
 41
-30.0
176
     1
 62
     5
 63
     7
421
 16777215
176
     1
 74
     1
176
     1
 91
        4
176
     1
 64
     7
176
     1
 65
   257
176
     1
 75
     1
176
     1
175
     1
176
     1
 42
1.0
176
     1
 92
        8
176
     1
 66
     7
176
     1
 43
1.0
176
     1
 76
     1
176
     1
 77
     6
176
     1
 78
     2
176
     1
 67
     7
176
     1
 79
     5
176
     1
170
     0
176
     1
171
     0
176
     1
290
     0
176
     1
 93
        1
176
     1
 44
0.0
176
     1
173
     0
176
     1
  0
VISUALSTYLE
  5
2B
102
{ACAD_REACTORS
330
2A
102
}
330
2A
100
AcDbVisualStyle
  2
Flat
 70
     0
177
     2
291
     1
 71
     2
176
     1
 72
     1
176
     1
 73
     1
176
     1
 90
        2
176
     1
 40
-0.6
176
     1
 41
30.0
176
     1
 62
     5
 63
     7
421
 16777215
176
     1
 74
     0
176
     1
 91
        4
176
     1
 64
     7
176
     1
 65
   257
176
     1
 75
     1
176
     1
175
     1
176
     1
 42
1.0
176
     1
 92
        8
176
     1
 66
     7
176
     1
 43
1.0
176
     1
 76
     1
176
     1
 77
     6
176
     1
 78
     2
176
     1
 67
     7
176
     1
 79
     5
176
     1
170
     0
176
     1
171
     0
176
     1
290
     0
176
     1
 93
       13
176
     1
 44
0.0
176
     1
173
     0
176
     1
  0
VISUALSTYLE
  5
2C
102
{ACAD_REACTORS
330
2A
102
}
330
2A
100
AcDbVisualStyle
  2
FlatWithEdges
 70
     1
177
     2
291
     1
 71
     2
176
     1
 72
     1
176
     1
 73
     1
176
     1
 90
        2
176
     1
 40
-0.6
176
     1
 41
30.0
176
     1
 62
     5
 63
     7
421
 16777215
176
     1
 74
     1
176
     1
 91
        4
176
     1
 64
     7
176
     1
 65
   257
176
     1
 75
     1
176
     1
175
     1
176
     1
 42
1.0
176
     1
 92
        0
176
     1
 66
   257
176
     1
 43
1.0
176
     1
 76
     1
176
     1
 77
     6
176
     1
 78
     2
176
     1
 67
     7
176
     1
 79
     5
176
     1
170
     0
176
     1
171
     0
176
     1
290
     0
176
     1
 93
       13
176
     1
 44
0.0
176
     1
173
     0
176
     1
  0
VISUALSTYLE
  5
2D
102
{ACAD_REACTORS
330
2A
102
}
330
2A
100
AcDbVisualStyle
  2
Gouraud
 70
     2
177
     2
291
     1
 71
     2
176
     1
 72
     2
176
     1
 73
     1
176
     1
 90
        2
176
     1
 40
-0.6
176
     1
 41
30.0
176
     1
 62
     5
 63
     7
421
 16777215
176
     1
 74
     0
176
     1
 91
        4
176
     1
 64
     7
176
     1
 65
   257
176
     1
 75
     1
176
     1
175
     1
176
     1
 42
1.0
176
     1
 92
        0
176
     1
 66
     7
176
     1
 43
1.0
176
     1
 76
     1
176
     1
 77
     6
176
     1
 78
     2
176
     1
 67
     7
176
     1
 79
     5
176
     1
170
     0
176
     1
171
     0
176
     1
290
     0
176
     1
 93
       13
176
     1
 44
0.0
176
     1
173
     0
176
     1
  0
VISUALSTYLE
  5
2E
102
{ACAD_REACTORS
330
2A
102
}
330
2A
100
AcDbVisualStyle
  2
GouraudWithEdges
 70
     3
177
     2
291
     1
 71
     2
176
     1
 72
     2
176
     1
 73
     1
176
     1
 90
        2
176
     1
 40
-0.6
176
     1
 41
30.0
176
     1
 62
     5
 63
     7
421
 16777215
176
     1
 74
     1
176
     1
 91
        4
176
     1
 64
     7
176
     1
 65
   257
176
     1
 75
     1
176
     1
175
     1
176
     1
 42
1.0
176
     1
 92
        0
176
     1
 66
   257
176
     1
 43
1.0
176
     1
 76
     1
176
     1
 77
     6
176
     1
 78
     2
176
     1
 67
     7
176
     1
 79
     5
176
     1
170
     0
176
     1
171
     0
176
     1
290
     0
176
     1
 93
       13
176
     1
 44
0.0
176
     1
173
     0
176
     1
  0
VISUALSTYLE
  5
38
102
{ACAD_REACTORS
330
2A
102
}
330
2A
100
AcDbVisualStyle
  2
Linepattern
 70
    14
177
     2
291
     1
 71
     2
176
     1
 72
     2
176
     1
 73
     0
176
     1
 90
        0
176
     1
 40
-0.6
176
     1
 41
-30.0
176
     1
 62
     5
 63
     7
421
 16777215
176
     1
 74
     1
176
     1
 91
        4
176
     1
 64
     7
176
     1
 65
   257
176
     1
 75
     7
176
     1
175
     7
176
     1
 42
1.0
176
     1
 92
        8
176
     1
 66
     7
176
     1
 43
1.0
176
     1
 76
     1
176
     1
 77
     6
176
     1
 78
     2
176
     1
 67
     7
176
     1
 79
     5
176
     1
170
     0
176
     1
171
     0
176
     1
290
     0
176
     1
 93
        1
176
     1
 44
0.0
176
     1
173
     0
176
     1
  0
VISUALSTYLE
  5
33
102
{ACAD_REACTORS
330
2A
102
}
330
2A
100
AcDbVisualStyle
  2
Realistic
 70
     8
177
     2
291
     0
 71
     2
176
     1
 72
     2
176
     1
 73
     0
176
     1
 90
        0
176
     1
 40
-0.6
176
     1
 41
-30.0
176
     1
 62
     5
 63
     7
421
 16777215
176
     1
 74
     1
176
     1
 91
        0
176
     1
 64
     7
176
     1
 65
   257
176
     1
 75
     1
176
     1
175
     1
176
     1
 42
1.0
176
     1
 92
        8
176
     1
 66
     8
424
  7895160
176
     1
 43
1.0
176
     1
 76
     1
176
     1
 77
     6
176
     1
 78
     2
176
     1
 67
     7
176
     1
 79
     5
176
     1
170
     0
176
     1
171
     0
176
     1
290
     0
176
     1
 93
       13
176
     1
 44
0.0
176
     1
173
     0
176
     1
  0
VISUALSTYLE
  5
37
102
{ACAD_REACTORS
330
2A
102
}
330
2A
100
AcDbVisualStyle
  2
Thicken
 70
    13
177
     2
291
     1
 71
     2
176
     1
 72
     2
176
     1
 73
     0
176
     1
 90
        0
176
     1
 40
-0.6
176
     1
 41
-30.0
176
     1
 62
     5
 63
     7
421
 16777215
176
     1
 74
     1
176
     1
 91
        4
176
     1
 64
     7
176
     1
 65
   257
176
     1
 75
     1
176
     1
175
     1
176
     1
 42
1.0
176
     1
 92
       12
176
     1
 66
     7
176
     1
 43
1.0
176
     1
 76
     1
176
     1
 77
     6
176
     1
 78
     2
176
     1
 67
     7
176
     1
 79
     5
176
     1
170
     0
176
     1
171
     0
176
     1
290
     0
176
     1
 93
        1
176
     1
 44
0.0
176
     1
173
     0
176
     1
  0
ENDSEC
  0
EOF
