  0
SECTION
  2
HEADER
  9
$ACADVER
  1
AC1024
  9
$ACADMAINTVER
 70
     6
  9
$DWGCODEPAGE
  3
UNDEFINED
  9
$INSBASE
 10
0.0
 20
0.0
 30
0.0
  9
$EXTMIN
 10
1.000000000000000E+20
 20
1.000000000000000E+20
 30
1.000000000000000E+20
  9
$EXTMAX
 10
-1.000000000000000E+20
 20
-1.000000000000000E+20
 30
-1.000000000000000E+20
  9
$LIMMIN
 10
0.0
 20
0.0
  9
$LIMMAX
 10
12.0
 20
9.0
  9
$ORTHOMODE
 70
     0
  9
$REGENMODE
 70
     1
  9
$FILLMODE
 70
     1
  9
$QTEXTMODE
 70
     0
  9
$MIRRTEXT
 70
     1
  9
$LTSCALE
 40
1.0
  9
$ATTMODE
 70
     1
  9
$TEXTSIZE
 40
0.2
  9
$TRACEWID
 40
0.05
  9
$TEXTSTYLE
  7
Standard
  9
$CLAYER
  8
0
  9
$CELTYPE
  6
ByLayer
  9
$CECOLOR
 62
   256
  9
$CELTSCALE
 40
1.0
  9
$DISPSILH
 70
     0
  9
$DIMSCALE
 40
1.0
  9
$DIMASZ
 40
0.18
  9
$DIMEXO
 40
0.0625
  9
$DIMDLI
 40
0.38
  9
$DIMRND
 40
0.0
  9
$DIMDLE
 40
0.0
  9
$DIMEXE
 40
0.18
  9
$DIMTP
 40
0.0
  9
$DIMTM
 40
0.0
  9
$DIMTXT
 40
0.18
  9
$DIMCEN
 40
0.09
  9
$DIMTSZ
 40
0.0
  9
$DIMTOL
 70
     0
  9
$DIMLIM
 70
     0
  9
$DIMTIH
 70
     1
  9
$DIMTOH
 70
     1
  9
$DIMSE1
 70
     0
  9
$DIMSE2
 70
     0
  9
$DIMTAD
 70
     0
  9
$DIMZIN
 70
     0
  9
$DIMBLK
  1

  9
$DIMASO
 70
     1
  9
$DIMSHO
 70
     1
  9
$DIMPOST
  1

  9
$DIMAPOST
  1

  9
$DIMALT
 70
     0
  9
$DIMALTD
 70
     2
  9
$DIMALTF
 40
25.4
  9
$DIMLFAC
 40
1.0
  9
$DIMTOFL
 70
     0
  9
$DIMTVP
 40
0.0
  9
$DIMTIX
 70
     0
  9
$DIMSOXD
 70
     0
  9
$DIMSAH
 70
     0
  9
$DIMBLK1
  1

  9
$DIMBLK2
  1

  9
$DIMSTYLE
  2
Standard
  9
$DIMCLRD
 70
     0
  9
$DIMCLRE
 70
     0
  9
$DIMCLRT
 70
     0
  9
$DIMTFAC
 40
1.0
  9
$DIMGAP
 40
0.09
  9
$DIMJUST
 70
     0
  9
$DIMSD1
 70
     0
  9
$DIMSD2
 70
     0
  9
$DIMTOLJ
 70
     1
  9
$DIMTZIN
 70
     0
  9
$DIMALTZ
 70
     0
  9
$DIMALTTZ
 70
     0
  9
$DIMUPT
 70
     0
  9
$DIMDEC
 70
     4
  9
$DIMTDEC
 70
     4
  9
$DIMALTU
 70
     2
  9
$DIMALTTD
 70
     2
  9
$DIMTXSTY
  7
Standard
  9
$DIMAUNIT
 70
     0
  9
$DIMADEC
 70
     0
  9
$DIMALTRND
 40
0.0
  9
$DIMAZIN
 70
     0
  9
$DIMDSEP
 70
    46
  9
$DIMATFIT
 70
     3
  9
$DIMFRAC
 70
     0
  9
$DIMLDRBLK
  1

  9
$DIMLUNIT
 70
     2
  9
$DIMLWD
 70
    -2
  9
$DIMLWE
 70
    -2
  9
$DIMTMOVE
 70
     0
  9
$DIMFXL
 40
1.0
  9
$DIMFXLON
 70
     0
  9
$DIMJOGANG
 40
0.7853981633974483
  9
$DIMTFILL
 70
     0
  9
$DIMTFILLCLR
 70
     0
  9
$DIMARCSYM
 70
     0
  9
$DIMLTYPE
  6

  9
$DIMLTEX1
  6

  9
$DIMLTEX2
  6

  9
$DIMTXTDIRECTION
 70
     0
  9
$LUNITS
 70
     2
  9
$LUPREC
 70
     4
  9
$SKETCHINC
 40
0.1
  9
$FILLETRAD
 40
0.5
  9
$AUNITS
 70
     0
  9
$AUPREC
 70
     0
  9
$MENU
  1
.
  9
$ELEVATION
 40
0.0
  9
$PELEVATION
 40
0.0
  9
$THICKNESS
 40
0.0
  9
$LIMCHECK
 70
     0
  9
$CHAMFERA
 40
0.5
  9
$CHAMFERB
 40
0.5
  9
$CHAMFERC
 40
1.0
  9
$CHAMFERD
 40
0.0
  9
$SKPOLY
 70
     0
  9
$TDCREATE
 40
2457917.622511562
  9
$TDUCREATE
 40
2457917.247511574
  9
$TDUPDATE
 40
2457917.622511562
  9
$TDUUPDATE
 40
2457917.247511574
  9
$TDINDWG
 40
0.0000000116
  9
$TDUSRTIMER
 40
0.0000000116
  9
$USRTIMER
 70
     1
  9
$ANGBASE
 50
0.0
  9
$ANGDIR
 70
     0
  9
$PDMODE
 70
     0
  9
$PDSIZE
 40
0.0
  9
$PLINEWID
 40
0.0
  9
$SPLFRAME
 70
     0
  9
$SPLINETYPE
 70
     6
  9
$SPLINESEGS
 70
     8
  9
$HANDSEED
  5
C5
  9
$SURFTAB1
 70
     6
  9
$SURFTAB2
 70
     6
  9
$SURFTYPE
 70
     6
  9
$SURFU
 70
     6
  9
$SURFV
 70
     6
  9
$UCSBASE
  2

  9
$UCSNAME
  2

  9
$UCSORG
 10
0.0
 20
0.0
 30
0.0
  9
$UCSXDIR
 10
1.0
 20
0.0
 30
0.0
  9
$UCSYDIR
 10
0.0
 20
1.0
 30
0.0
  9
$UCSORTHOREF
  2

  9
$UCSORTHOVIEW
 70
     0
  9
$UCSORGTOP
 10
0.0
 20
0.0
 30
0.0
  9
$UCSORGBOTTOM
 10
0.0
 20
0.0
 30
0.0
  9
$UCSORGLEFT
 10
0.0
 20
0.0
 30
0.0
  9
$UCSORGRIGHT
 10
0.0
 20
0.0
 30
0.0
  9
$UCSORGFRONT
 10
0.0
 20
0.0
 30
0.0
  9
$UCSORGBACK
 10
0.0
 20
0.0
 30
0.0
  9
$PUCSBASE
  2

  9
$PUCSNAME
  2

  9
$PUCSORG
 10
0.0
 20
0.0
 30
0.0
  9
$PUCSXDIR
 10
1.0
 20
0.0
 30
0.0
  9
$PUCSYDIR
 10
0.0
 20
1.0
 30
0.0
  9
$PUCSORTHOREF
  2

  9
$PUCSORTHOVIEW
 70
     0
  9
$PUCSORGTOP
 10
0.0
 20
0.0
 30
0.0
  9
$PUCSORGBOTTOM
 10
0.0
 20
0.0
 30
0.0
  9
$PUCSORGLEFT
 10
0.0
 20
0.0
 30
0.0
  9
$PUCSORGRIGHT
 10
0.0
 20
0.0
 30
0.0
  9
$PUCSORGFRONT
 10
0.0
 20
0.0
 30
0.0
  9
$PUCSORGBACK
 10
0.0
 20
0.0
 30
0.0
  9
$USERI1
 70
     0
  9
$USERI2
 70
     0
  9
$USERI3
 70
     0
  9
$USERI4
 70
     0
  9
$USERI5
 70
     0
  9
$USERR1
 40
0.0
  9
$USERR2
 40
0.0
  9
$USERR3
 40
0.0
  9
$USERR4
 40
0.0
  9
$USERR5
 40
0.0
  9
$WORLDVIEW
 70
     1
  9
$SHADEDGE
 70
     3
  9
$SHADEDIF
 70
    70
  9
$TILEMODE
 70
     1
  9
$MAXACTVP
 70
    64
  9
$PINSBASE
 10
0.0
 20
0.0
 30
0.0
  9
$PLIMCHECK
 70
     0
  9
$PEXTMIN
 10
1.000000000000000E+20
 20
1.000000000000000E+20
 30
1.000000000000000E+20
  9
$PEXTMAX
 10
-1.000000000000000E+20
 20
-1.000000000000000E+20
 30
-1.000000000000000E+20
  9
$PLIMMIN
 10
0.0
 20
0.0
  9
$PLIMMAX
 10
12.0
 20
9.0
  9
$UNITMODE
 70
     0
  9
$VISRETAIN
 70
     1
  9
$PLINEGEN
 70
     0
  9
$PSLTSCALE
 70
     1
  9
$TREEDEPTH
 70
  3020
  9
$CMLSTYLE
  2
Standard
  9
$CMLJUST
 70
     0
  9
$CMLSCALE
 40
1.0
  9
$PROXYGRAPHICS
 70
     1
  9
$MEASUREMENT
 70
     0
  9
$CELWEIGHT
370
    -1
  9
$ENDCAPS
280
     0
  9
$JOINSTYLE
280
     0
  9
$LWDISPLAY
290
     1
  9
$INSUNITS
 70
     1
  9
$HYPERLINKBASE
  1

  9
$STYLESHEET
  1

  9
$XEDIT
290
     1
  9
$CEPSNTYPE
380
     0
  9
$PSTYLEMODE
290
     1
  9
$FINGERPRINTGUID
  2
{C6E8BD6E-728D-7F53-4E4C-C8D840139C4B}
  9
$VERSIONGUID
  2
{FAEB1C32-E019-11D5-929B-00C0DF256EC4}
  9
$EXTNAMES
290
     1
  9
$PSVPSCALE
 40
0.0
  9
$OLESTARTUP
290
     0
  9
$SORTENTS
280
   127
  9
$INDEXCTL
280
     0
  9
$HIDETEXT
280
     1
  9
$XCLIPFRAME
280
     2
  9
$HALOGAP
280
     0
  9
$OBSCOLOR
 70
   257
  9
$OBSLTYPE
280
     0
  9
$INTERSECTIONDISPLAY
280
     0
  9
$INTERSECTIONCOLOR
 70
   257
  9
$DIMASSOC
280
     2
  9
$PROJECTNAME
  1

  9
$CAMERADISPLAY
290
     0
  9
$LENSLENGTH
 40
50.0
  9
$CAMERAHEIGHT
 40
0.0
  9
$STEPSPERSEC
 40
2.0
  9
$STEPSIZE
 40
6.0
  9
$3DDWFPREC
 40
2.0
  9
$PSOLWIDTH
 40
0.25
  9
$PSOLHEIGHT
 40
4.0
  9
$LOFTANG1
 40
1.570796326794897
  9
$LOFTANG2
 40
1.570796326794897
  9
$LOFTMAG1
 40
0.0
  9
$LOFTMAG2
 40
0.0
  9
$LOFTPARAM
 70
     7
  9
$LOFTNORMALS
280
     1
  9
$LATITUDE
 40
37.795
  9
$LONGITUDE
 40
-122.394
  9
$NORTHDIRECTION
 40
0.0
  9
$TIMEZONE
 70
 -8000
  9
$LIGHTGLYPHDISPLAY
280
     1
  9
$TILEMODELIGHTSYNCH
280
     1
  9
$CMATERIAL
347
3C
  9
$SOLIDHIST
280
     1
  9
$SHOWHIST
280
     1
  9
$DWFFRAME
280
     2
  9
$DGNFRAME
280
     2
  9
$REALWORLDSCALE
290
     1
  9
$INTERFERECOLOR
 62
   256
  9
$CSHADOW
280
     0
  9
$SHADOWPLANELOCATION
 40
0.0
  0
ENDSEC
  0
SECTION
  2
CLASSES
  0
CLASS
  1
ACDBDICTIONARYWDFLT
  2
AcDbDictionaryWithDefault
  3
ObjectDBX Classes
 90
        0
 91
        4
280
     0
281
     0
  0
CLASS
  1
VISUALSTYLE
  2
AcDbVisualStyle
  3
ObjectDBX Classes
 90
     4095
 91
        4
280
     0
281
     0
  0
CLASS
  1
MATERIAL
  2
AcDbMaterial
  3
ObjectDBX Classes
 90
     1153
 91
        4
280
     0
281
     0
  0
CLASS
  1
SUN
  2
AcDbSun
  3
SCENEOE
 90
     1024
 91
        4
280
     0
281
     0
  0
ENDSEC
  0
SECTION
  2
TABLES
  0
TABLE
  2
VPORT
  5
8
330
0
100
AcDbSymbolTable
 70
     1
  0
VPORT
  5
29
330
8
100
AcDbSymbolTableRecord
100
AcDbViewportTableRecord
  2
*Active
 70
     0
 10
0.0
 20
0.0
 11
1.0
 21
1.0
 12
0.0
 22
0.0
 13
0.0
 23
0.0
 14
0.5
 24
0.5
 15
0.5
 25
0.5
 16
0.0
 26
0.0
 36
1.0
 17
91.00082462281999
 27
-128.4993055234307
 37
0.0
 40
256.9986110468615
 41
0.7081814508812795
 42
50.0
 43
0.0
 44
0.0
 50
0.0
 51
0.0
 71
     0
 72
   100
 73
     1
 74
     3
 75
     0
 76
     0
 77
     0
 78
     0
281
     0
 65
     1
110
0.0
120
0.0
130
0.0
111
1.0
121
0.0
131
0.0
112
0.0
122
1.0
132
0.0
 79
     0
146
0.0
 60
     3
 61
     5
292
     1
282
     1
141
0.0
142
0.0
 63
   250
361
3F
  0
ENDTAB
  0
TABLE
  2
LTYPE
  5
5
330
0
100
AcDbSymbolTable
 70
     1
  0
LTYPE
  5
14
330
5
100
AcDbSymbolTableRecord
100
AcDbLinetypeTableRecord
  2
ByBlock
 70
     0
  3

 72
    65
 73
     0
 40
0.0
  0
LTYPE
  5
15
330
5
100
AcDbSymbolTableRecord
100
AcDbLinetypeTableRecord
  2
ByLayer
 70
     0
  3

 72
    65
 73
     0
 40
0.0
  0
LTYPE
  5
16
330
5
100
AcDbSymbolTableRecord
100
AcDbLinetypeTableRecord
  2
Continuous
 70
     0
  3
Solid line
 72
    65
 73
     0
 40
0.0
  0
ENDTAB
  0
TABLE
  2
LAYER
  5
2
330
0
100
AcDbSymbolTable
 70
     2
  0
LAYER
  5
10
330
2
100
AcDbSymbolTableRecord
100
AcDbLayerTableRecord
  2
0
 70
     0
 62
     7
  6
Continuous
370
    -3
390
F
347
3E
  0
LAYER
  5
40
330
2
100
AcDbSymbolTableRecord
100
AcDbLayerTableRecord
  2
_U+30EC_U+30A4_U+30E4_U+30FC 1
 70
     0
 62
     7
  6
Continuous
370
    -3
390
F
347
3E
  0
ENDTAB
  0
TABLE
  2
STYLE
  5
3
330
0
100
AcDbSymbolTable
 70
     1
  0
STYLE
  5
11
330
3
100
AcDbSymbolTableRecord
100
AcDbTextStyleTableRecord
  2
Standard
 70
     0
 40
0.0
 41
1.0
 50
0.0
 71
     0
 42
0.2
  3
txt
  4

  0
ENDTAB
  0
TABLE
  2
VIEW
  5
6
330
0
100
AcDbSymbolTable
 70
     0
  0
ENDTAB
  0
TABLE
  2
UCS
  5
7
330
0
100
AcDbSymbolTable
 70
     0
  0
ENDTAB
  0
TABLE
  2
APPID
  5
9
330
0
100
AcDbSymbolTable
 70
     1
  0
APPID
  5
12
330
9
100
AcDbSymbolTableRecord
100
AcDbRegAppTableRecord
  2
ACAD
 70
     0
  0
ENDTAB
  0
TABLE
  2
DIMSTYLE
  5
A
330
0
100
AcDbSymbolTable
 70
     1
100
AcDbDimStyleTable
  0
DIMSTYLE
105
27
330
A
100
AcDbSymbolTableRecord
100
AcDbDimStyleTableRecord
  2
Standard
 70
     0
178
     0
340
11
  0
ENDTAB
  0
TABLE
  2
BLOCK_RECORD
  5
1
330
0
100
AcDbSymbolTable
 70
     7
  0
BLOCK_RECORD
  5
1F
330
1
100
AcDbSymbolTableRecord
100
AcDbBlockTableRecord
  2
*Model_Space
340
22
 70
     0
280
     1
281
     0
  0
BLOCK_RECORD
  5
1B
330
1
100
AcDbSymbolTableRecord
100
AcDbBlockTableRecord
  2
*Paper_Space
340
1E
 70
     0
280
     1
281
     0
  0
BLOCK_RECORD
  5
23
330
1
100
AcDbSymbolTableRecord
100
AcDbBlockTableRecord
  2
*Paper_Space0
340
26
 70
     0
280
     1
281
     0
  0
BLOCK_RECORD
  5
52
330
1
100
AcDbSymbolTableRecord
100
AcDbBlockTableRecord
  2
block 2
340
0
102
{BLKREFS
331
53
102
}
 70
     0
280
     1
281
     0
  0
BLOCK_RECORD
  5
68
330
1
100
AcDbSymbolTableRecord
100
AcDbBlockTableRecord
  2
block 3
340
0
102
{BLKREFS
331
69
102
}
 70
     0
280
     1
281
     0
  0
BLOCK_RECORD
  5
7C
330
1
100
AcDbSymbolTableRecord
100
AcDbBlockTableRecord
  2
block 4
340
0
102
{BLKREFS
331
7D
102
}
 70
     0
280
     1
281
     0
  0
BLOCK_RECORD
  5
90
330
1
100
AcDbSymbolTableRecord
100
AcDbBlockTableRecord
  2
block 5
340
0
102
{BLKREFS
331
91
102
}
 70
     0
280
     1
281
     0
  0
BLOCK_RECORD
  5
A2
330
1
100
AcDbSymbolTableRecord
100
AcDbBlockTableRecord
  2
block 6
340
0
102
{BLKREFS
331
A3
102
}
 70
     0
280
     1
281
     0
  0
BLOCK_RECORD
  5
B6
330
1
100
AcDbSymbolTableRecord
100
AcDbBlockTableRecord
  2
block 7
340
0
102
{BLKREFS
331
B7
102
}
 70
     0
280
     1
281
     0
  0
ENDTAB
  0
ENDSEC
  0
SECTION
  2
BLOCKS
  0
BLOCK
  5
20
330
1F
100
AcDbEntity
  8
0
100
AcDbBlockBegin
  2
*Model_Space
 70
     0
 10
0.0
 20
0.0
 30
0.0
  3
*Model_Space
  1

  0
ENDBLK
  5
21
330
1F
100
AcDbEntity
  8
0
100
AcDbBlockEnd
  0
BLOCK
  5
1C
330
1B
100
AcDbEntity
 67
     1
  8
0
100
AcDbBlockBegin
  2
*Paper_Space
 70
     0
 10
0.0
 20
0.0
 30
0.0
  3
*Paper_Space
  1

  0
ENDBLK
  5
1D
330
1B
100
AcDbEntity
 67
     1
  8
0
100
AcDbBlockEnd
  0
BLOCK
  5
24
330
23
100
AcDbEntity
  8
0
100
AcDbBlockBegin
  2
*Paper_Space0
 70
     0
 10
0.0
 20
0.0
 30
0.0
  3
*Paper_Space0
  1

  0
ENDBLK
  5
25
330
23
100
AcDbEntity
  8
0
100
AcDbBlockEnd
  0
BLOCK
  5
54
330
52
100
AcDbEntity
  8
0
100
AcDbBlockBegin
  2
block 2
 70
     0
 10
0.0
 20
0.0
 30
0.0
  3
block 2
  1

  0
SPLINE
  5
56
330
52
100
AcDbEntity
  8
_U+30EC_U+30A4_U+30E4_U+30FC 1
370
     0
100
AcDbSpline
210
0.0
220
0.0
230
1.0
 70
    11
 71
     3
 72
    26
 73
    22
 74
     0
 42
0.0000000001
 43
0.0000000001
 12
1.0
 22
0.0
 32
0.0
 13
1.0
 23
0.0
 33
0.0
 40
0.0
 40
0.0
 40
0.0
 40
0.0
 40
1.0
 40
1.0
 40
1.0
 40
2.0
 40
2.0
 40
2.0
 40
3.0
 40
3.0
 40
3.0
 40
4.0
 40
4.0
 40
4.0
 40
5.0
 40
5.0
 40
5.0
 40
6.0
 40
6.0
 40
6.0
 40
7.0
 40
7.0
 40
7.0
 40
7.0
 10
87.95724959823639
 20
-114.4353922239953
 30
0.0
 10
87.95724959823639
 20
-114.4353922239953
 30
0.0
 10
87.72039928362545
 20
-114.4353922239953
 30
0.0
 10
87.72039928362545
 20
-114.4353922239953
 30
0.0
 10
87.74572073544205
 20
-114.1265394137427
 30
0.0
 10
87.9383015730675
 20
-113.6082247979868
 30
0.0
 10
88.34447833077847
 20
-113.1026570355264
 30
0.0
 10
88.34447833077847
 20
-113.1026570355264
 30
0.0
 10
87.5066311087657
 20
-113.1026570355264
 30
0.0
 10
87.5066311087657
 20
-113.1026570355264
 30
0.0
 10
87.5066311087657
 20
-113.1026570355264
 30
0.0
 10
87.5066311087657
 20
-112.8911281727321
 30
0.0
 10
87.5066311087657
 20
-112.8911281727321
 30
0.0
 10
87.5066311087657
 20
-112.8911281727321
 30
0.0
 10
88.58132864538939
 20
-112.8911281727321
 30
0.0
 10
88.58132864538939
 20
-112.8911281727321
 30
0.0
 10
88.58132864538939
 20
-112.8911281727321
 30
0.0
 10
88.58132864538939
 20
-113.1026570355264
 30
0.0
 10
88.58132864538939
 20
-113.1026570355264
 30
0.0
 10
88.25766192455018
 20
-113.3923895658359
 30
0.0
 10
87.9911837887661
 20
-113.9847737345247
 30
0.0
 10
87.95724959823639
 20
-114.4353922239953
 30
0.0
  0
HATCH
  5
57
330
52
100
AcDbEntity
  8
_U+30EC_U+30A4_U+30E4_U+30FC 1
 62
     7
420
 16777215
100
AcDbHatch
 10
0.0
 20
0.0
 30
0.0
210
0.0
220
0.0
230
1.0
  2
SOLID
 70
     1
 71
     0
 91
        1
 92
        1
 93
        1
 72
     4
 94
        3
 73
     0
 74
     1
 95
       26
 96
       22
 40
0.0
 40
0.0
 40
0.0
 40
0.0
 40
1.0
 40
1.0
 40
1.0
 40
2.0
 40
2.0
 40
2.0
 40
3.0
 40
3.0
 40
3.0
 40
4.0
 40
4.0
 40
4.0
 40
5.0
 40
5.0
 40
5.0
 40
6.0
 40
6.0
 40
6.0
 40
7.0
 40
7.0
 40
7.0
 40
7.0
 10
87.95724959823639
 20
-114.4353922239953
 10
87.95724959823639
 20
-114.4353922239953
 10
87.72039928362545
 20
-114.4353922239953
 10
87.72039928362545
 20
-114.4353922239953
 10
87.74572073544205
 20
-114.1265394137427
 10
87.9383015730675
 20
-113.6082247979868
 10
88.34447833077847
 20
-113.1026570355264
 10
88.34447833077847
 20
-113.1026570355264
 10
87.5066311087657
 20
-113.1026570355264
 10
87.5066311087657
 20
-113.1026570355264
 10
87.5066311087657
 20
-113.1026570355264
 10
87.5066311087657
 20
-112.8911281727321
 10
87.5066311087657
 20
-112.8911281727321
 10
87.5066311087657
 20
-112.8911281727321
 10
88.58132864538939
 20
-112.8911281727321
 10
88.58132864538939
 20
-112.8911281727321
 10
88.58132864538939
 20
-112.8911281727321
 10
88.58132864538939
 20
-113.1026570355264
 10
88.58132864538939
 20
-113.1026570355264
 10
88.25766192455018
 20
-113.3923895658359
 10
87.9911837887661
 20
-113.9847737345247
 10
87.95724959823639
 20
-114.4353922239953
 97
        0
 97
        0
 75
     2
 76
     1
 98
        0
  0
ENDBLK
  5
55
330
52
100
AcDbEntity
  8
0
100
AcDbBlockEnd
  0
BLOCK
  5
6A
330
68
100
AcDbEntity
  8
0
100
AcDbBlockBegin
  2
block 3
 70
     0
 10
0.0
 20
0.0
 30
0.0
  3
block 3
  1

  0
SPLINE
  5
6C
330
68
100
AcDbEntity
  8
_U+30EC_U+30A4_U+30E4_U+30FC 1
370
     0
100
AcDbSpline
210
0.0
220
0.0
230
1.0
 70
    11
 71
     3
 72
    26
 73
    22
 74
     0
 42
0.0000000001
 43
0.0000000001
 12
1.0
 22
0.0
 32
0.0
 13
1.0
 23
0.0
 33
0.0
 40
0.0
 40
0.0
 40
0.0
 40
0.0
 40
1.0
 40
1.0
 40
1.0
 40
2.0
 40
2.0
 40
2.0
 40
3.0
 40
3.0
 40
3.0
 40
4.0
 40
4.0
 40
4.0
 40
5.0
 40
5.0
 40
5.0
 40
6.0
 40
6.0
 40
6.0
 40
7.0
 40
7.0
 40
7.0
 40
7.0
 10
87.51558835702735
 20
-120.7578314585258
 30
0.0
 10
87.51558835702735
 20
-120.7578314585258
 30
0.0
 10
87.51558835702735
 20
-119.653506100729
 30
0.0
 10
87.51558835702735
 20
-119.653506100729
 30
0.0
 10
87.51558835702735
 20
-119.653506100729
 30
0.0
 10
87.18554820954043
 20
-119.653506100729
 30
0.0
 10
87.18554820954043
 20
-119.653506100729
 30
0.0
 10
87.18554820954043
 20
-119.653506100729
 30
0.0
 10
87.18554820954043
 20
-119.5055392496375
 30
0.0
 10
87.18554820954043
 20
-119.5055392496375
 30
0.0
 10
87.51765541431851
 20
-119.4907253390509
 30
0.0
 10
87.56416420336937
 20
-119.3277723225986
 30
0.0
 10
87.59379202454252
 20
-119.2135674072626
 30
0.0
 10
87.59379202454252
 20
-119.2135674072626
 30
0.0
 10
87.73986407311712
 20
-119.2135674072626
 30
0.0
 10
87.73986407311712
 20
-119.2135674072626
 30
0.0
 10
87.73986407311712
 20
-119.2135674072626
 30
0.0
 10
87.73986407311712
 20
-120.7578314585258
 30
0.0
 10
87.73986407311712
 20
-120.7578314585258
 30
0.0
 10
87.73986407311712
 20
-120.7578314585258
 30
0.0
 10
87.51558835702735
 20
-120.7578314585258
 30
0.0
 10
87.51558835702735
 20
-120.7578314585258
 30
0.0
  0
HATCH
  5
6D
330
68
100
AcDbEntity
  8
_U+30EC_U+30A4_U+30E4_U+30FC 1
 62
     7
420
 16777215
100
AcDbHatch
 10
0.0
 20
0.0
 30
0.0
210
0.0
220
0.0
230
1.0
  2
SOLID
 70
     1
 71
     0
 91
        1
 92
        1
 93
        1
 72
     4
 94
        3
 73
     0
 74
     1
 95
       26
 96
       22
 40
0.0
 40
0.0
 40
0.0
 40
0.0
 40
1.0
 40
1.0
 40
1.0
 40
2.0
 40
2.0
 40
2.0
 40
3.0
 40
3.0
 40
3.0
 40
4.0
 40
4.0
 40
4.0
 40
5.0
 40
5.0
 40
5.0
 40
6.0
 40
6.0
 40
6.0
 40
7.0
 40
7.0
 40
7.0
 40
7.0
 10
87.51558835702735
 20
-120.7578314585258
 10
87.51558835702735
 20
-120.7578314585258
 10
87.51558835702735
 20
-119.653506100729
 10
87.51558835702735
 20
-119.653506100729
 10
87.51558835702735
 20
-119.653506100729
 10
87.18554820954043
 20
-119.653506100729
 10
87.18554820954043
 20
-119.653506100729
 10
87.18554820954043
 20
-119.653506100729
 10
87.18554820954043
 20
-119.5055392496375
 10
87.18554820954043
 20
-119.5055392496375
 10
87.51765541431851
 20
-119.4907253390509
 10
87.56416420336937
 20
-119.3277723225986
 10
87.59379202454252
 20
-119.2135674072626
 10
87.59379202454252
 20
-119.2135674072626
 10
87.73986407311712
 20
-119.2135674072626
 10
87.73986407311712
 20
-119.2135674072626
 10
87.73986407311712
 20
-119.2135674072626
 10
87.73986407311712
 20
-120.7578314585258
 10
87.73986407311712
 20
-120.7578314585258
 10
87.73986407311712
 20
-120.7578314585258
 10
87.51558835702735
 20
-120.7578314585258
 10
87.51558835702735
 20
-120.7578314585258
 97
        0
 97
        0
 75
     2
 76
     1
 98
        0
  0
ENDBLK
  5
6B
330
68
100
AcDbEntity
  8
0
100
AcDbBlockEnd
  0
BLOCK
  5
7E
330
7C
100
AcDbEntity
  8
0
100
AcDbBlockBegin
  2
block 4
 70
     0
 10
0.0
 20
0.0
 30
0.0
  3
block 4
  1

  0
SPLINE
  5
80
330
7C
100
AcDbEntity
  8
_U+30EC_U+30A4_U+30E4_U+30FC 1
370
     0
100
AcDbSpline
210
0.0
220
0.0
230
1.0
 70
    11
 71
     3
 72
    26
 73
    22
 74
     0
 42
0.0000000001
 43
0.0000000001
 12
1.0
 22
0.0
 32
0.0
 13
1.0
 23
0.0
 33
0.0
 40
0.0
 40
0.0
 40
0.0
 40
0.0
 40
1.0
 40
1.0
 40
1.0
 40
2.0
 40
2.0
 40
2.0
 40
3.0
 40
3.0
 40
3.0
 40
4.0
 40
4.0
 40
4.0
 40
5.0
 40
5.0
 40
5.0
 40
6.0
 40
6.0
 40
6.0
 40
7.0
 40
7.0
 40
7.0
 40
7.0
 10
102.9804497355396
 20
-132.4181016379024
 30
0.0
 10
102.9804497355396
 20
-132.4181016379024
 30
0.0
 10
101.876296632517
 20
-132.4181016379024
 30
0.0
 10
101.876296632517
 20
-132.4181016379024
 30
0.0
 10
101.876296632517
 20
-132.4181016379024
 30
0.0
 10
101.876296632517
 20
-132.7481417853894
 30
0.0
 10
101.876296632517
 20
-132.7481417853894
 30
0.0
 10
101.876296632517
 20
-132.7481417853894
 30
0.0
 10
101.7281575266513
 20
-132.7481417853894
 30
0.0
 10
101.7281575266513
 20
-132.7481417853894
 30
0.0
 10
101.7133436160647
 20
-132.4160345806113
 30
0.0
 10
101.5503905996124
 20
-132.3695257915604
 30
0.0
 10
101.4360134295021
 20
-132.3398979703873
 30
0.0
 10
101.4360134295021
 20
-132.3398979703873
 30
0.0
 10
101.4360134295021
 20
-132.1938259218127
 30
0.0
 10
101.4360134295021
 20
-132.1938259218127
 30
0.0
 10
101.4360134295021
 20
-132.1938259218127
 30
0.0
 10
102.9804497355396
 20
-132.1938259218127
 30
0.0
 10
102.9804497355396
 20
-132.1938259218127
 30
0.0
 10
102.9804497355396
 20
-132.1938259218127
 30
0.0
 10
102.9804497355396
 20
-132.4181016379024
 30
0.0
 10
102.9804497355396
 20
-132.4181016379024
 30
0.0
  0
HATCH
  5
81
330
7C
100
AcDbEntity
  8
_U+30EC_U+30A4_U+30E4_U+30FC 1
 62
     7
420
 16777215
100
AcDbHatch
 10
0.0
 20
0.0
 30
0.0
210
0.0
220
0.0
230
1.0
  2
SOLID
 70
     1
 71
     0
 91
        1
 92
        1
 93
        1
 72
     4
 94
        3
 73
     0
 74
     1
 95
       26
 96
       22
 40
0.0
 40
0.0
 40
0.0
 40
0.0
 40
1.0
 40
1.0
 40
1.0
 40
2.0
 40
2.0
 40
2.0
 40
3.0
 40
3.0
 40
3.0
 40
4.0
 40
4.0
 40
4.0
 40
5.0
 40
5.0
 40
5.0
 40
6.0
 40
6.0
 40
6.0
 40
7.0
 40
7.0
 40
7.0
 40
7.0
 10
102.9804497355396
 20
-132.4181016379024
 10
102.9804497355396
 20
-132.4181016379024
 10
101.876296632517
 20
-132.4181016379024
 10
101.876296632517
 20
-132.4181016379024
 10
101.876296632517
 20
-132.4181016379024
 10
101.876296632517
 20
-132.7481417853894
 10
101.876296632517
 20
-132.7481417853894
 10
101.876296632517
 20
-132.7481417853894
 10
101.7281575266513
 20
-132.7481417853894
 10
101.7281575266513
 20
-132.7481417853894
 10
101.7133436160647
 20
-132.4160345806113
 10
101.5503905996124
 20
-132.3695257915604
 10
101.4360134295021
 20
-132.3398979703873
 10
101.4360134295021
 20
-132.3398979703873
 10
101.4360134295021
 20
-132.1938259218127
 10
101.4360134295021
 20
-132.1938259218127
 10
101.4360134295021
 20
-132.1938259218127
 10
102.9804497355396
 20
-132.1938259218127
 10
102.9804497355396
 20
-132.1938259218127
 10
102.9804497355396
 20
-132.1938259218127
 10
102.9804497355396
 20
-132.4181016379024
 10
102.9804497355396
 20
-132.4181016379024
 97
        0
 97
        0
 75
     2
 76
     1
 98
        0
  0
SPLINE
  5
82
330
7C
100
AcDbEntity
  8
_U+30EC_U+30A4_U+30E4_U+30FC 1
370
     0
100
AcDbSpline
210
0.0
220
0.0
230
1.0
 70
    11
 71
     3
 72
    62
 73
    58
 74
     0
 42
0.0000000001
 43
0.0000000001
 12
1.0
 22
0.0
 32
0.0
 13
1.0
 23
0.0
 33
0.0
 40
0.0
 40
0.0
 40
0.0
 40
0.0
 40
1.0
 40
1.0
 40
1.0
 40
2.0
 40
2.0
 40
2.0
 40
3.0
 40
3.0
 40
3.0
 40
4.0
 40
4.0
 40
4.0
 40
5.0
 40
5.0
 40
5.0
 40
6.0
 40
6.0
 40
6.0
 40
7.0
 40
7.0
 40
7.0
 40
8.0
 40
8.0
 40
8.0
 40
9.0
 40
9.0
 40
9.0
 40
10.0
 40
10.0
 40
10.0
 40
11.0
 40
11.0
 40
11.0
 40
12.0
 40
12.0
 40
12.0
 40
13.0
 40
13.0
 40
13.0
 40
14.0
 40
14.0
 40
14.0
 40
15.0
 40
15.0
 40
15.0
 40
16.0
 40
16.0
 40
16.0
 40
17.0
 40
17.0
 40
17.0
 40
18.0
 40
18.0
 40
18.0
 40
19.0
 40
19.0
 40
19.0
 40
19.0
 10
103.0310926391728
 20
-131.2009494029637
 30
0.0
 10
103.0310926391728
 20
-131.2963785479051
 30
0.0
 10
103.0100775567128
 20
-131.5141085825729
 30
0.0
 10
102.8240424005093
 20
-131.6391655486874
 30
0.0
 10
102.7117322876901
 20
-131.7132351016203
 30
0.0
 10
102.6125135377149
 20
-131.7173692162026
 30
0.0
 10
102.5277641887778
 20
-131.7215033307849
 30
0.0
 10
102.5277641887778
 20
-131.7215033307849
 30
0.0
 10
102.5277641887778
 20
-131.5013617292774
 30
0.0
 10
102.5277641887778
 20
-131.5013617292774
 30
0.0
 10
102.6018337417107
 20
-131.4992946719863
 30
0.0
 10
102.8364447442562
 20
-131.4889593855305
 30
0.0
 10
102.8364447442562
 20
-131.2054280270945
 30
0.0
 10
102.8364447442562
 20
-131.067968717233
 30
0.0
 10
102.7668538154541
 20
-130.9153509872365
 30
0.0
 10
102.5384439847821
 20
-130.9153509872365
 30
0.0
 10
102.4219997573806
 20
-130.9153509872365
 30
0.0
 10
102.3734239110386
 20
-130.9535915471227
 30
0.0
 10
102.3417290325743
 20
-130.985286425587
 30
0.0
 10
102.2676594796414
 20
-131.0593559785199
 30
0.0
 10
102.254912626346
 20
-131.1758002059213
 30
0.0
 10
102.254912626346
 20
-131.2305772241368
 30
0.0
 10
102.254912626346
 20
-131.2498697588542
 30
0.0
 10
102.2569796836372
 20
-131.2856987519008
 30
0.0
 10
102.2611137982195
 20
-131.3132595157828
 30
0.0
 10
102.2611137982195
 20
-131.3132595157828
 30
0.0
 10
102.0664659033028
 20
-131.3132595157828
 30
0.0
 10
102.0664659033028
 20
-131.3132595157828
 30
0.0
 10
102.0730115847248
 20
-131.2750189558965
 30
0.0
 10
102.075078642016
 20
-131.2329887909765
 30
0.0
 10
102.075078642016
 20
-131.2264431095545
 30
0.0
 10
102.075078642016
 20
-131.1609862953348
 30
0.0
 10
102.0537190500074
 20
-130.9622042858358
 30
0.0
 10
101.8170409901707
 20
-130.9622042858358
 30
0.0
 10
101.6392740631319
 20
-130.9622042858358
 30
0.0
 10
101.5841525353678
 20
-131.0931179142753
 30
0.0
 10
101.5841525353678
 20
-131.2033609698033
 30
0.0
 10
101.5841525353678
 20
-131.467599793522
 30
0.0
 10
101.8170409901707
 20
-131.4762125322351
 30
0.0
 10
101.8886989762639
 20
-131.4803466468174
 30
0.0
 10
101.8886989762639
 20
-131.4803466468174
 30
0.0
 10
101.8886989762639
 20
-131.6836072804471
 30
0.0
 10
101.8886989762639
 20
-131.6836072804471
 30
0.0
 10
101.7639865196979
 20
-131.674994541734
 30
0.0
 10
101.3874375831601
 20
-131.647433777852
 30
0.0
 10
101.3874375831601
 20
-131.1906141165079
 30
0.0
 10
101.3874375831601
 20
-130.9663384004182
 30
0.0
 10
101.5145616065658
 20
-130.7251817164507
 30
0.0
 10
101.8104953087488
 20
-130.7251817164507
 30
0.0
 10
101.9968749745008
 20
-130.7251817164507
 30
0.0
 10
102.0792127565983
 20
-130.8202663518435
 30
0.0
 10
102.1405354562357
 20
-130.9198296113673
 30
0.0
 10
102.1680962201177
 20
-130.8585069117298
 30
0.0
 10
102.248366944924
 20
-130.6766058701086
 30
0.0
 10
102.5256971314866
 20
-130.6766058701086
 30
0.0
 10
102.8640055081382
 20
-130.6766058701086
 30
0.0
 10
103.0310926391728
 20
-130.9239637259496
 30
0.0
 10
103.0310926391728
 20
-131.2009494029637
 30
0.0
  0
HATCH
  5
83
330
7C
100
AcDbEntity
  8
_U+30EC_U+30A4_U+30E4_U+30FC 1
 62
     7
420
 16777215
100
AcDbHatch
 10
0.0
 20
0.0
 30
0.0
210
0.0
220
0.0
230
1.0
  2
SOLID
 70
     1
 71
     0
 91
        1
 92
        1
 93
        1
 72
     4
 94
        3
 73
     0
 74
     1
 95
       62
 96
       58
 40
0.0
 40
0.0
 40
0.0
 40
0.0
 40
1.0
 40
1.0
 40
1.0
 40
2.0
 40
2.0
 40
2.0
 40
3.0
 40
3.0
 40
3.0
 40
4.0
 40
4.0
 40
4.0
 40
5.0
 40
5.0
 40
5.0
 40
6.0
 40
6.0
 40
6.0
 40
7.0
 40
7.0
 40
7.0
 40
8.0
 40
8.0
 40
8.0
 40
9.0
 40
9.0
 40
9.0
 40
10.0
 40
10.0
 40
10.0
 40
11.0
 40
11.0
 40
11.0
 40
12.0
 40
12.0
 40
12.0
 40
13.0
 40
13.0
 40
13.0
 40
14.0
 40
14.0
 40
14.0
 40
15.0
 40
15.0
 40
15.0
 40
16.0
 40
16.0
 40
16.0
 40
17.0
 40
17.0
 40
17.0
 40
18.0
 40
18.0
 40
18.0
 40
19.0
 40
19.0
 40
19.0
 40
19.0
 10
103.0310926391728
 20
-131.2009494029637
 10
103.0310926391728
 20
-131.2963785479051
 10
103.0100775567128
 20
-131.5141085825729
 10
102.8240424005093
 20
-131.6391655486874
 10
102.7117322876901
 20
-131.7132351016203
 10
102.6125135377149
 20
-131.7173692162026
 10
102.5277641887778
 20
-131.7215033307849
 10
102.5277641887778
 20
-131.7215033307849
 10
102.5277641887778
 20
-131.5013617292774
 10
102.5277641887778
 20
-131.5013617292774
 10
102.6018337417107
 20
-131.4992946719863
 10
102.8364447442562
 20
-131.4889593855305
 10
102.8364447442562
 20
-131.2054280270945
 10
102.8364447442562
 20
-131.067968717233
 10
102.7668538154541
 20
-130.9153509872365
 10
102.5384439847821
 20
-130.9153509872365
 10
102.4219997573806
 20
-130.9153509872365
 10
102.3734239110386
 20
-130.9535915471227
 10
102.3417290325743
 20
-130.985286425587
 10
102.2676594796414
 20
-131.0593559785199
 10
102.254912626346
 20
-131.1758002059213
 10
102.254912626346
 20
-131.2305772241368
 10
102.254912626346
 20
-131.2498697588542
 10
102.2569796836372
 20
-131.2856987519008
 10
102.2611137982195
 20
-131.3132595157828
 10
102.2611137982195
 20
-131.3132595157828
 10
102.0664659033028
 20
-131.3132595157828
 10
102.0664659033028
 20
-131.3132595157828
 10
102.0730115847248
 20
-131.2750189558965
 10
102.075078642016
 20
-131.2329887909765
 10
102.075078642016
 20
-131.2264431095545
 10
102.075078642016
 20
-131.1609862953348
 10
102.0537190500074
 20
-130.9622042858358
 10
101.8170409901707
 20
-130.9622042858358
 10
101.6392740631319
 20
-130.9622042858358
 10
101.5841525353678
 20
-131.0931179142753
 10
101.5841525353678
 20
-131.2033609698033
 10
101.5841525353678
 20
-131.467599793522
 10
101.8170409901707
 20
-131.4762125322351
 10
101.8886989762639
 20
-131.4803466468174
 10
101.8886989762639
 20
-131.4803466468174
 10
101.8886989762639
 20
-131.6836072804471
 10
101.8886989762639
 20
-131.6836072804471
 10
101.7639865196979
 20
-131.674994541734
 10
101.3874375831601
 20
-131.647433777852
 10
101.3874375831601
 20
-131.1906141165079
 10
101.3874375831601
 20
-130.9663384004182
 10
101.5145616065658
 20
-130.7251817164507
 10
101.8104953087488
 20
-130.7251817164507
 10
101.9968749745008
 20
-130.7251817164507
 10
102.0792127565983
 20
-130.8202663518435
 10
102.1405354562357
 20
-130.9198296113673
 10
102.1680962201177
 20
-130.8585069117298
 10
102.248366944924
 20
-130.6766058701086
 10
102.5256971314866
 20
-130.6766058701086
 10
102.8640055081382
 20
-130.6766058701086
 10
103.0310926391728
 20
-130.9239637259496
 10
103.0310926391728
 20
-131.2009494029637
 97
        0
 97
        0
 75
     2
 76
     1
 98
        0
  0
ENDBLK
  5
7F
330
7C
100
AcDbEntity
  8
0
100
AcDbBlockEnd
  0
BLOCK
  5
92
330
90
100
AcDbEntity
  8
0
100
AcDbBlockBegin
  2
block 5
 70
     0
 10
0.0
 20
0.0
 30
0.0
  3
block 5
  1

  0
SPLINE
  5
94
330
90
100
AcDbEntity
  8
_U+30EC_U+30A4_U+30E4_U+30FC 1
370
     0
100
AcDbSpline
210
0.0
220
0.0
230
1.0
 70
    11
 71
     3
 72
    26
 73
    22
 74
     0
 42
0.0000000001
 43
0.0000000001
 12
1.0
 22
0.0
 32
0.0
 13
1.0
 23
0.0
 33
0.0
 40
0.0
 40
0.0
 40
0.0
 40
0.0
 40
1.0
 40
1.0
 40
1.0
 40
2.0
 40
2.0
 40
2.0
 40
3.0
 40
3.0
 40
3.0
 40
4.0
 40
4.0
 40
4.0
 40
5.0
 40
5.0
 40
5.0
 40
6.0
 40
6.0
 40
6.0
 40
7.0
 40
7.0
 40
7.0
 40
7.0
 10
102.9663248440501
 20
-120.836035126041
 30
0.0
 10
102.9663248440501
 20
-120.836035126041
 30
0.0
 10
102.9663248440501
 20
-121.0728854406519
 30
0.0
 10
102.9663248440501
 20
-121.0728854406519
 30
0.0
 10
102.6572997790232
 20
-121.0475639888353
 30
0.0
 10
102.1391574180416
 20
-120.8549831512099
 30
0.0
 10
101.6334174008069
 20
-120.4488063934989
 30
0.0
 10
101.6334174008069
 20
-120.4488063934989
 30
0.0
 10
101.6334174008069
 20
-121.2866536155117
 30
0.0
 10
101.6334174008069
 20
-121.2866536155117
 30
0.0
 10
101.6334174008069
 20
-121.2866536155117
 30
0.0
 10
101.4218885380126
 20
-121.2866536155117
 30
0.0
 10
101.4218885380126
 20
-121.2866536155117
 30
0.0
 10
101.4218885380126
 20
-121.2866536155117
 30
0.0
 10
101.4218885380126
 20
-120.211956078888
 30
0.0
 10
101.4218885380126
 20
-120.211956078888
 30
0.0
 10
101.4218885380126
 20
-120.211956078888
 30
0.0
 10
101.6334174008069
 20
-120.211956078888
 30
0.0
 10
101.6334174008069
 20
-120.211956078888
 30
0.0
 10
101.923494440665
 20
-120.5356227997272
 30
0.0
 10
102.5157063545794
 20
-120.8021009355113
 30
0.0
 10
102.9663248440501
 20
-120.836035126041
 30
0.0
  0
HATCH
  5
95
330
90
100
AcDbEntity
  8
_U+30EC_U+30A4_U+30E4_U+30FC 1
 62
     7
420
 16777215
100
AcDbHatch
 10
0.0
 20
0.0
 30
0.0
210
0.0
220
0.0
230
1.0
  2
SOLID
 70
     1
 71
     0
 91
        1
 92
        1
 93
        1
 72
     4
 94
        3
 73
     0
 74
     1
 95
       26
 96
       22
 40
0.0
 40
0.0
 40
0.0
 40
0.0
 40
1.0
 40
1.0
 40
1.0
 40
2.0
 40
2.0
 40
2.0
 40
3.0
 40
3.0
 40
3.0
 40
4.0
 40
4.0
 40
4.0
 40
5.0
 40
5.0
 40
5.0
 40
6.0
 40
6.0
 40
6.0
 40
7.0
 40
7.0
 40
7.0
 40
7.0
 10
102.9663248440501
 20
-120.836035126041
 10
102.9663248440501
 20
-120.836035126041
 10
102.9663248440501
 20
-121.0728854406519
 10
102.9663248440501
 20
-121.0728854406519
 10
102.6572997790232
 20
-121.0475639888353
 10
102.1391574180416
 20
-120.8549831512099
 10
101.6334174008069
 20
-120.4488063934989
 10
101.6334174008069
 20
-120.4488063934989
 10
101.6334174008069
 20
-121.2866536155117
 10
101.6334174008069
 20
-121.2866536155117
 10
101.6334174008069
 20
-121.2866536155117
 10
101.4218885380126
 20
-121.2866536155117
 10
101.4218885380126
 20
-121.2866536155117
 10
101.4218885380126
 20
-121.2866536155117
 10
101.4218885380126
 20
-120.211956078888
 10
101.4218885380126
 20
-120.211956078888
 10
101.4218885380126
 20
-120.211956078888
 10
101.6334174008069
 20
-120.211956078888
 10
101.6334174008069
 20
-120.211956078888
 10
101.923494440665
 20
-120.5356227997272
 10
102.5157063545794
 20
-120.8021009355113
 10
102.9663248440501
 20
-120.836035126041
 97
        0
 97
        0
 75
     2
 76
     1
 98
        0
  0
ENDBLK
  5
93
330
90
100
AcDbEntity
  8
0
100
AcDbBlockEnd
  0
BLOCK
  5
A4
330
A2
100
AcDbEntity
  8
0
100
AcDbBlockBegin
  2
block 6
 70
     0
 10
0.0
 20
0.0
 30
0.0
  3
block 6
  1

  0
SPLINE
  5
A6
330
A2
100
AcDbEntity
  8
_U+30EC_U+30A4_U+30E4_U+30FC 1
370
     0
100
AcDbSpline
210
0.0
220
0.0
230
1.0
 70
    11
 71
     3
 72
    44
 73
    40
 74
     0
 42
0.0000000001
 43
0.0000000001
 12
1.0
 22
0.0
 32
0.0
 13
1.0
 23
0.0
 33
0.0
 40
0.0
 40
0.0
 40
0.0
 40
0.0
 40
1.0
 40
1.0
 40
1.0
 40
2.0
 40
2.0
 40
2.0
 40
3.0
 40
3.0
 40
3.0
 40
4.0
 40
4.0
 40
4.0
 40
5.0
 40
5.0
 40
5.0
 40
6.0
 40
6.0
 40
6.0
 40
7.0
 40
7.0
 40
7.0
 40
8.0
 40
8.0
 40
8.0
 40
9.0
 40
9.0
 40
9.0
 40
10.0
 40
10.0
 40
10.0
 40
11.0
 40
11.0
 40
11.0
 40
12.0
 40
12.0
 40
12.0
 40
13.0
 40
13.0
 40
13.0
 40
13.0
 10
78.38401826382413
 20
-128.7893825632888
 30
0.0
 10
78.5426649109199
 20
-129.0074571075051
 30
0.0
 10
78.61673446385277
 20
-129.1004746856068
 30
0.0
 10
78.76056720036195
 20
-129.1490505319489
 30
0.0
 10
78.76056720036195
 20
-129.1490505319489
 30
0.0
 10
78.76056720036195
 20
-128.3708034618309
 30
0.0
 10
78.76056720036195
 20
-128.3708034618309
 30
0.0
 10
78.76056720036195
 20
-128.3708034618309
 30
0.0
 10
78.96572263650857
 20
-128.3708034618309
 30
0.0
 10
78.96572263650857
 20
-128.3708034618309
 30
0.0
 10
78.96572263650857
 20
-128.3708034618309
 30
0.0
 10
78.96572263650857
 20
-129.3988199546295
 30
0.0
 10
78.96572263650857
 20
-129.3988199546295
 30
0.0
 10
78.60812172513964
 20
-129.3671250761652
 30
0.0
 10
78.52991805762447
 20
-129.3016682619454
 30
0.0
 10
78.23157278860184
 20
-128.9165065866945
 30
0.0
 10
78.03279077910291
 20
-128.6605359921404
 30
0.0
 10
77.96509465281775
 20
-128.5950791779207
 30
0.0
 10
77.82763534295628
 20
-128.5950791779207
 30
0.0
 10
77.7091240582637
 20
-128.5950791779207
 30
0.0
 10
77.57786592027567
 20
-128.6669094187882
 30
0.0
 10
77.57786592027567
 20
-128.8634521162217
 30
0.0
 10
77.57786592027567
 20
-129.1239013349065
 30
0.0
 10
77.80851506301315
 20
-129.1321695640711
 30
0.0
 10
77.92495929041459
 20
-129.1366481882019
 30
0.0
 10
77.92495929041459
 20
-129.1366481882019
 30
0.0
 10
77.92495929041459
 20
-129.3605793947432
 30
0.0
 10
77.92495929041459
 20
-129.3605793947432
 30
0.0
 10
77.79800752178313
 20
-129.3523111655786
 30
0.0
 10
77.68586966373826
 20
-129.3416313695743
 30
0.0
 10
77.56735837904566
 20
-129.261360644768
 30
0.0
 10
77.40664467465876
 20
-129.1514620987885
 30
0.0
 10
77.37271048412904
 20
-128.9650824330365
 30
0.0
 10
77.37271048412904
 20
-128.8486382056351
 30
0.0
 10
77.37271048412904
 20
-128.571652528621
 30
0.0
 10
77.55685083781565
 20
-128.3644300351832
 30
0.0
 10
77.82970240024744
 20
-128.3644300351832
 30
0.0
 10
78.0581122309195
 20
-128.3644300351832
 30
0.0
 10
78.15767549044322
 20
-128.4807020078104
 30
0.0
 10
78.38401826382413
 20
-128.7893825632888
 30
0.0
  0
HATCH
  5
A7
330
A2
100
AcDbEntity
  8
_U+30EC_U+30A4_U+30E4_U+30FC 1
 62
     7
420
 16777215
100
AcDbHatch
 10
0.0
 20
0.0
 30
0.0
210
0.0
220
0.0
230
1.0
  2
SOLID
 70
     1
 71
     0
 91
        1
 92
        1
 93
        1
 72
     4
 94
        3
 73
     0
 74
     1
 95
       44
 96
       40
 40
0.0
 40
0.0
 40
0.0
 40
0.0
 40
1.0
 40
1.0
 40
1.0
 40
2.0
 40
2.0
 40
2.0
 40
3.0
 40
3.0
 40
3.0
 40
4.0
 40
4.0
 40
4.0
 40
5.0
 40
5.0
 40
5.0
 40
6.0
 40
6.0
 40
6.0
 40
7.0
 40
7.0
 40
7.0
 40
8.0
 40
8.0
 40
8.0
 40
9.0
 40
9.0
 40
9.0
 40
10.0
 40
10.0
 40
10.0
 40
11.0
 40
11.0
 40
11.0
 40
12.0
 40
12.0
 40
12.0
 40
13.0
 40
13.0
 40
13.0
 40
13.0
 10
78.38401826382413
 20
-128.7893825632888
 10
78.5426649109199
 20
-129.0074571075051
 10
78.61673446385277
 20
-129.1004746856068
 10
78.76056720036195
 20
-129.1490505319489
 10
78.76056720036195
 20
-129.1490505319489
 10
78.76056720036195
 20
-128.3708034618309
 10
78.76056720036195
 20
-128.3708034618309
 10
78.76056720036195
 20
-128.3708034618309
 10
78.96572263650857
 20
-128.3708034618309
 10
78.96572263650857
 20
-128.3708034618309
 10
78.96572263650857
 20
-128.3708034618309
 10
78.96572263650857
 20
-129.3988199546295
 10
78.96572263650857
 20
-129.3988199546295
 10
78.60812172513964
 20
-129.3671250761652
 10
78.52991805762447
 20
-129.3016682619454
 10
78.23157278860184
 20
-128.9165065866945
 10
78.03279077910291
 20
-128.6605359921404
 10
77.96509465281775
 20
-128.5950791779207
 10
77.82763534295628
 20
-128.5950791779207
 10
77.7091240582637
 20
-128.5950791779207
 10
77.57786592027567
 20
-128.6669094187882
 10
77.57786592027567
 20
-128.8634521162217
 10
77.57786592027567
 20
-129.1239013349065
 10
77.80851506301315
 20
-129.1321695640711
 10
77.92495929041459
 20
-129.1366481882019
 10
77.92495929041459
 20
-129.1366481882019
 10
77.92495929041459
 20
-129.3605793947432
 10
77.92495929041459
 20
-129.3605793947432
 10
77.79800752178313
 20
-129.3523111655786
 10
77.68586966373826
 20
-129.3416313695743
 10
77.56735837904566
 20
-129.261360644768
 10
77.40664467465876
 20
-129.1514620987885
 10
77.37271048412904
 20
-128.9650824330365
 10
77.37271048412904
 20
-128.8486382056351
 10
77.37271048412904
 20
-128.571652528621
 10
77.55685083781565
 20
-128.3644300351832
 10
77.82970240024744
 20
-128.3644300351832
 10
78.0581122309195
 20
-128.3644300351832
 10
78.15767549044322
 20
-128.4807020078104
 10
78.38401826382413
 20
-128.7893825632888
 97
        0
 97
        0
 75
     2
 76
     1
 98
        0
  0
SPLINE
  5
A8
330
A2
100
AcDbEntity
  8
_U+30EC_U+30A4_U+30E4_U+30FC 1
370
     0
100
AcDbSpline
210
0.0
220
0.0
230
1.0
 70
    11
 71
     3
 72
    44
 73
    40
 74
     0
 42
0.0000000001
 43
0.0000000001
 12
1.0
 22
0.0
 32
0.0
 13
1.0
 23
0.0
 33
0.0
 40
0.0
 40
0.0
 40
0.0
 40
0.0
 40
1.0
 40
1.0
 40
1.0
 40
2.0
 40
2.0
 40
2.0
 40
3.0
 40
3.0
 40
3.0
 40
4.0
 40
4.0
 40
4.0
 40
5.0
 40
5.0
 40
5.0
 40
6.0
 40
6.0
 40
6.0
 40
7.0
 40
7.0
 40
7.0
 40
8.0
 40
8.0
 40
8.0
 40
9.0
 40
9.0
 40
9.0
 40
10.0
 40
10.0
 40
10.0
 40
11.0
 40
11.0
 40
11.0
 40
12.0
 40
12.0
 40
12.0
 40
13.0
 40
13.0
 40
13.0
 40
13.0
 10
78.38401826382413
 20
-127.6127102003017
 30
0.0
 10
78.5426649109199
 20
-127.8306124897437
 30
0.0
 10
78.61673446385277
 20
-127.9238023226197
 30
0.0
 10
78.76056720036195
 20
-127.9723781689618
 30
0.0
 10
78.76056720036195
 20
-127.9723781689618
 30
0.0
 10
78.76056720036195
 20
-127.1939588440696
 30
0.0
 10
78.76056720036195
 20
-127.1939588440696
 30
0.0
 10
78.76056720036195
 20
-127.1939588440696
 30
0.0
 10
78.96572263650857
 20
-127.1939588440696
 30
0.0
 10
78.96572263650857
 20
-127.1939588440696
 30
0.0
 10
78.96572263650857
 20
-127.1939588440696
 30
0.0
 10
78.96572263650857
 20
-128.2219753368681
 30
0.0
 10
78.96572263650857
 20
-128.2219753368681
 30
0.0
 10
78.60812172513964
 20
-128.1902804584038
 30
0.0
 10
78.52991805762447
 20
-128.1248236441841
 30
0.0
 10
78.23157278860184
 20
-127.7396619689331
 30
0.0
 10
78.03279077910291
 20
-127.4836913743791
 30
0.0
 10
77.96509465281775
 20
-127.4182345601593
 30
0.0
 10
77.82763534295628
 20
-127.4182345601593
 30
0.0
 10
77.7091240582637
 20
-127.4182345601593
 30
0.0
 10
77.57786592027567
 20
-127.4900648010268
 30
0.0
 10
77.57786592027567
 20
-127.6867797532346
 30
0.0
 10
77.57786592027567
 20
-127.9470567171452
 30
0.0
 10
77.80851506301315
 20
-127.955497201084
 30
0.0
 10
77.92495929041459
 20
-127.9598035704406
 30
0.0
 10
77.92495929041459
 20
-127.9598035704406
 30
0.0
 10
77.92495929041459
 20
-128.1839070317561
 30
0.0
 10
77.92495929041459
 20
-128.1839070317561
 30
0.0
 10
77.79800752178313
 20
-128.1754665478173
 30
0.0
 10
77.68586966373826
 20
-128.1649590065872
 30
0.0
 10
77.56735837904566
 20
-128.0845160270067
 30
0.0
 10
77.40664467465876
 20
-127.9746174810272
 30
0.0
 10
77.37271048412904
 20
-127.7884100700494
 30
0.0
 10
77.37271048412904
 20
-127.671965842648
 30
0.0
 10
77.37271048412904
 20
-127.3948079108596
 30
0.0
 10
77.55685083781565
 20
-127.1875854174219
 30
0.0
 10
77.82970240024744
 20
-127.1875854174219
 30
0.0
 10
78.0581122309195
 20
-127.1875854174219
 30
0.0
 10
78.15767549044322
 20
-127.303857390049
 30
0.0
 10
78.38401826382413
 20
-127.6127102003017
 30
0.0
  0
HATCH
  5
A9
330
A2
100
AcDbEntity
  8
_U+30EC_U+30A4_U+30E4_U+30FC 1
 62
     7
420
 16777215
100
AcDbHatch
 10
0.0
 20
0.0
 30
0.0
210
0.0
220
0.0
230
1.0
  2
SOLID
 70
     1
 71
     0
 91
        1
 92
        1
 93
        1
 72
     4
 94
        3
 73
     0
 74
     1
 95
       44
 96
       40
 40
0.0
 40
0.0
 40
0.0
 40
0.0
 40
1.0
 40
1.0
 40
1.0
 40
2.0
 40
2.0
 40
2.0
 40
3.0
 40
3.0
 40
3.0
 40
4.0
 40
4.0
 40
4.0
 40
5.0
 40
5.0
 40
5.0
 40
6.0
 40
6.0
 40
6.0
 40
7.0
 40
7.0
 40
7.0
 40
8.0
 40
8.0
 40
8.0
 40
9.0
 40
9.0
 40
9.0
 40
10.0
 40
10.0
 40
10.0
 40
11.0
 40
11.0
 40
11.0
 40
12.0
 40
12.0
 40
12.0
 40
13.0
 40
13.0
 40
13.0
 40
13.0
 10
78.38401826382413
 20
-127.6127102003017
 10
78.5426649109199
 20
-127.8306124897437
 10
78.61673446385277
 20
-127.9238023226197
 10
78.76056720036195
 20
-127.9723781689618
 10
78.76056720036195
 20
-127.9723781689618
 10
78.76056720036195
 20
-127.1939588440696
 10
78.76056720036195
 20
-127.1939588440696
 10
78.76056720036195
 20
-127.1939588440696
 10
78.96572263650857
 20
-127.1939588440696
 10
78.96572263650857
 20
-127.1939588440696
 10
78.96572263650857
 20
-127.1939588440696
 10
78.96572263650857
 20
-128.2219753368681
 10
78.96572263650857
 20
-128.2219753368681
 10
78.60812172513964
 20
-128.1902804584038
 10
78.52991805762447
 20
-128.1248236441841
 10
78.23157278860184
 20
-127.7396619689331
 10
78.03279077910291
 20
-127.4836913743791
 10
77.96509465281775
 20
-127.4182345601593
 10
77.82763534295628
 20
-127.4182345601593
 10
77.7091240582637
 20
-127.4182345601593
 10
77.57786592027567
 20
-127.4900648010268
 10
77.57786592027567
 20
-127.6867797532346
 10
77.57786592027567
 20
-127.9470567171452
 10
77.80851506301315
 20
-127.955497201084
 10
77.92495929041459
 20
-127.9598035704406
 10
77.92495929041459
 20
-127.9598035704406
 10
77.92495929041459
 20
-128.1839070317561
 10
77.92495929041459
 20
-128.1839070317561
 10
77.79800752178313
 20
-128.1754665478173
 10
77.68586966373826
 20
-128.1649590065872
 10
77.56735837904566
 20
-128.0845160270067
 10
77.40664467465876
 20
-127.9746174810272
 10
77.37271048412904
 20
-127.7884100700494
 10
77.37271048412904
 20
-127.671965842648
 10
77.37271048412904
 20
-127.3948079108596
 10
77.55685083781565
 20
-127.1875854174219
 10
77.82970240024744
 20
-127.1875854174219
 10
78.0581122309195
 20
-127.1875854174219
 10
78.15767549044322
 20
-127.303857390049
 10
78.38401826382413
 20
-127.6127102003017
 97
        0
 97
        0
 75
     2
 76
     1
 98
        0
  0
ENDBLK
  5
A5
330
A2
100
AcDbEntity
  8
0
100
AcDbBlockEnd
  0
BLOCK
  5
B8
330
B6
100
AcDbEntity
  8
0
100
AcDbBlockBegin
  2
block 7
 70
     0
 10
0.0
 20
0.0
 30
0.0
  3
block 7
  1

  0
SPLINE
  5
BA
330
B6
100
AcDbEntity
  8
_U+30EC_U+30A4_U+30E4_U+30FC 1
370
     0
100
AcDbSpline
210
0.0
220
0.0
230
1.0
 70
    11
 71
     3
 72
    26
 73
    22
 74
     0
 42
0.0000000001
 43
0.0000000001
 12
1.0
 22
0.0
 32
0.0
 13
1.0
 23
0.0
 33
0.0
 40
0.0
 40
0.0
 40
0.0
 40
0.0
 40
1.0
 40
1.0
 40
1.0
 40
2.0
 40
2.0
 40
2.0
 40
3.0
 40
3.0
 40
3.0
 40
4.0
 40
4.0
 40
4.0
 40
5.0
 40
5.0
 40
5.0
 40
6.0
 40
6.0
 40
6.0
 40
7.0
 40
7.0
 40
7.0
 40
7.0
 10
90.8490627485551
 20
-142.6117946692082
 30
0.0
 10
90.8490627485551
 20
-142.6117946692082
 30
0.0
 10
90.8490627485551
 20
-141.5076415661856
 30
0.0
 10
90.8490627485551
 20
-141.5076415661856
 30
0.0
 10
90.8490627485551
 20
-141.5076415661856
 30
0.0
 10
90.51902260106816
 20
-141.5076415661856
 30
0.0
 10
90.51902260106816
 20
-141.5076415661856
 30
0.0
 10
90.51902260106816
 20
-141.5076415661856
 30
0.0
 10
90.51902260106816
 20
-141.3595024603198
 30
0.0
 10
90.51902260106816
 20
-141.3595024603198
 30
0.0
 10
90.85112980584626
 20
-141.3446885497333
 30
0.0
 10
90.89763859489712
 20
-141.181735533281
 30
0.0
 10
90.92726641607027
 20
-141.0673583631707
 30
0.0
 10
90.92726641607027
 20
-141.0673583631707
 30
0.0
 10
91.07333846464486
 20
-141.0673583631707
 30
0.0
 10
91.07333846464486
 20
-141.0673583631707
 30
0.0
 10
91.07333846464486
 20
-141.0673583631707
 30
0.0
 10
91.07333846464486
 20
-142.6117946692082
 30
0.0
 10
91.07333846464486
 20
-142.6117946692082
 30
0.0
 10
91.07333846464486
 20
-142.6117946692082
 30
0.0
 10
90.8490627485551
 20
-142.6117946692082
 30
0.0
 10
90.8490627485551
 20
-142.6117946692082
 30
0.0
  0
HATCH
  5
BB
330
B6
100
AcDbEntity
  8
_U+30EC_U+30A4_U+30E4_U+30FC 1
 62
     7
420
 16777215
100
AcDbHatch
 10
0.0
 20
0.0
 30
0.0
210
0.0
220
0.0
230
1.0
  2
SOLID
 70
     1
 71
     0
 91
        1
 92
        1
 93
        1
 72
     4
 94
        3
 73
     0
 74
     1
 95
       26
 96
       22
 40
0.0
 40
0.0
 40
0.0
 40
0.0
 40
1.0
 40
1.0
 40
1.0
 40
2.0
 40
2.0
 40
2.0
 40
3.0
 40
3.0
 40
3.0
 40
4.0
 40
4.0
 40
4.0
 40
5.0
 40
5.0
 40
5.0
 40
6.0
 40
6.0
 40
6.0
 40
7.0
 40
7.0
 40
7.0
 40
7.0
 10
90.8490627485551
 20
-142.6117946692082
 10
90.8490627485551
 20
-142.6117946692082
 10
90.8490627485551
 20
-141.5076415661856
 10
90.8490627485551
 20
-141.5076415661856
 10
90.8490627485551
 20
-141.5076415661856
 10
90.51902260106816
 20
-141.5076415661856
 10
90.51902260106816
 20
-141.5076415661856
 10
90.51902260106816
 20
-141.5076415661856
 10
90.51902260106816
 20
-141.3595024603198
 10
90.51902260106816
 20
-141.3595024603198
 10
90.85112980584626
 20
-141.3446885497333
 10
90.89763859489712
 20
-141.181735533281
 10
90.92726641607027
 20
-141.0673583631707
 10
90.92726641607027
 20
-141.0673583631707
 10
91.07333846464486
 20
-141.0673583631707
 10
91.07333846464486
 20
-141.0673583631707
 10
91.07333846464486
 20
-141.0673583631707
 10
91.07333846464486
 20
-142.6117946692082
 10
91.07333846464486
 20
-142.6117946692082
 10
91.07333846464486
 20
-142.6117946692082
 10
90.8490627485551
 20
-142.6117946692082
 10
90.8490627485551
 20
-142.6117946692082
 97
        0
 97
        0
 75
     2
 76
     1
 98
        0
  0
SPLINE
  5
BC
330
B6
100
AcDbEntity
  8
_U+30EC_U+30A4_U+30E4_U+30FC 1
370
     0
100
AcDbSpline
210
0.0
220
0.0
230
1.0
 70
    11
 71
     3
 72
    32
 73
    28
 74
     0
 42
0.0000000001
 43
0.0000000001
 12
1.0
 22
0.0
 32
0.0
 13
1.0
 23
0.0
 33
0.0
 40
0.0
 40
0.0
 40
0.0
 40
0.0
 40
1.0
 40
1.0
 40
1.0
 40
2.0
 40
2.0
 40
2.0
 40
3.0
 40
3.0
 40
3.0
 40
4.0
 40
4.0
 40
4.0
 40
5.0
 40
5.0
 40
5.0
 40
6.0
 40
6.0
 40
6.0
 40
7.0
 40
7.0
 40
7.0
 40
8.0
 40
8.0
 40
8.0
 40
9.0
 40
9.0
 40
9.0
 40
9.0
 10
92.07878958201503
 20
-142.6624375728414
 30
0.0
 10
91.5627142783246
 20
-142.6624375728414
 30
0.0
 10
91.55444604916
 20
-142.1084662188132
 30
0.0
 10
91.55444604916
 20
-141.8945257891791
 30
0.0
 10
91.55444604916
 20
-141.6640489012159
 30
0.0
 10
91.57339407432887
 20
-141.0167154595375
 30
0.0
 10
92.1170301419013
 20
-141.0167154595375
 30
0.0
 10
92.29031844480937
 20
-141.0167154595375
 30
0.0
 10
92.53595375290769
 20
-141.0866508978881
 30
0.0
 10
92.57384980324544
 20
-141.4187581026661
 30
0.0
 10
92.57384980324544
 20
-141.4187581026661
 30
0.0
 10
92.36025388315994
 20
-141.4187581026661
 30
0.0
 10
92.36025388315994
 20
-141.4187581026661
 30
0.0
 10
92.34957408715566
 20
-141.361569517611
 30
0.0
 10
92.31787920869137
 20
-141.2134304117453
 30
0.0
 10
92.11496308461015
 20
-141.2134304117453
 30
0.0
 10
91.82281898746096
 20
-141.2134304117453
 30
0.0
 10
91.78285587983207
 20
-141.541403501941
 30
0.0
 10
91.77010902653664
 20
-141.7463866833134
 30
0.0
 10
91.8631266046384
 20
-141.6681830157982
 30
0.0
 10
91.93099498569781
 20
-141.6089273734519
 30
0.0
 10
92.112896027319
 20
-141.6089273734519
 30
0.0
 10
92.29273001164904
 20
-141.6089273734519
 30
0.0
 10
92.59520939525397
 20
-141.7171033716888
 30
0.0
 10
92.59520939525397
 20
-142.1232801293997
 30
0.0
 10
92.59520939525397
 20
-142.4426404808824
 30
0.0
 10
92.39608287620653
 20
-142.6624375728414
 30
0.0
 10
92.07878958201503
 20
-142.6624375728414
 30
0.0
  0
SPLINE
  5
BD
330
B6
100
AcDbEntity
  8
_U+30EC_U+30A4_U+30E4_U+30FC 1
370
     0
100
AcDbSpline
210
0.0
220
0.0
230
1.0
 70
    11
 71
     3
 72
    17
 73
    13
 74
     0
 42
0.0000000001
 43
0.0000000001
 12
1.0
 22
0.0
 32
0.0
 13
1.0
 23
0.0
 33
0.0
 40
0.0
 40
0.0
 40
0.0
 40
0.0
 40
1.0
 40
1.0
 40
1.0
 40
2.0
 40
2.0
 40
2.0
 40
3.0
 40
3.0
 40
3.0
 40
4.0
 40
4.0
 40
4.0
 40
4.0
 10
92.09601505944129
 20
-141.8035752683685
 30
0.0
 10
91.83349878346525
 20
-141.8035752683685
 30
0.0
 10
91.7956027331275
 20
-142.0151041311629
 30
0.0
 10
91.7956027331275
 20
-142.1315483585643
 30
0.0
 10
91.7956027331275
 20
-142.3072482283121
 30
0.0
 10
91.89068736852039
 20
-142.4702012447644
 30
0.0
 10
92.07465546743273
 20
-142.4702012447644
 30
0.0
 10
92.19523380941648
 20
-142.4702012447644
 30
0.0
 10
92.37093367916421
 20
-142.4109456024181
 30
0.0
 10
92.37093367916421
 20
-142.1253471866909
 30
0.0
 10
92.37093367916421
 20
-141.9010714706011
 30
0.0
 10
92.23106280246307
 20
-141.8035752683685
 30
0.0
 10
92.09601505944129
 20
-141.8035752683685
 30
0.0
  0
HATCH
  5
BE
330
B6
100
AcDbEntity
  8
_U+30EC_U+30A4_U+30E4_U+30FC 1
 62
     7
420
 16777215
100
AcDbHatch
 10
0.0
 20
0.0
 30
0.0
210
0.0
220
0.0
230
1.0
  2
SOLID
 70
     1
 71
     0
 91
        2
 92
        1
 93
        1
 72
     4
 94
        3
 73
     0
 74
     1
 95
       32
 96
       28
 40
0.0
 40
0.0
 40
0.0
 40
0.0
 40
1.0
 40
1.0
 40
1.0
 40
2.0
 40
2.0
 40
2.0
 40
3.0
 40
3.0
 40
3.0
 40
4.0
 40
4.0
 40
4.0
 40
5.0
 40
5.0
 40
5.0
 40
6.0
 40
6.0
 40
6.0
 40
7.0
 40
7.0
 40
7.0
 40
8.0
 40
8.0
 40
8.0
 40
9.0
 40
9.0
 40
9.0
 40
9.0
 10
92.07878958201503
 20
-142.6624375728414
 10
91.5627142783246
 20
-142.6624375728414
 10
91.55444604916
 20
-142.1084662188132
 10
91.55444604916
 20
-141.8945257891791
 10
91.55444604916
 20
-141.6640489012159
 10
91.57339407432887
 20
-141.0167154595375
 10
92.1170301419013
 20
-141.0167154595375
 10
92.29031844480937
 20
-141.0167154595375
 10
92.53595375290769
 20
-141.0866508978881
 10
92.57384980324544
 20
-141.4187581026661
 10
92.57384980324544
 20
-141.4187581026661
 10
92.36025388315994
 20
-141.4187581026661
 10
92.36025388315994
 20
-141.4187581026661
 10
92.34957408715566
 20
-141.361569517611
 10
92.31787920869137
 20
-141.2134304117453
 10
92.11496308461015
 20
-141.2134304117453
 10
91.82281898746096
 20
-141.2134304117453
 10
91.78285587983207
 20
-141.541403501941
 10
91.77010902653664
 20
-141.7463866833134
 10
91.8631266046384
 20
-141.6681830157982
 10
91.93099498569781
 20
-141.6089273734519
 10
92.112896027319
 20
-141.6089273734519
 10
92.29273001164904
 20
-141.6089273734519
 10
92.59520939525397
 20
-141.7171033716888
 10
92.59520939525397
 20
-142.1232801293997
 10
92.59520939525397
 20
-142.4426404808824
 10
92.39608287620653
 20
-142.6624375728414
 10
92.07878958201503
 20
-142.6624375728414
 97
        0
 97
        0
 92
        1
 93
        1
 72
     4
 94
        3
 73
     0
 74
     1
 95
       17
 96
       13
 40
0.0
 40
0.0
 40
0.0
 40
0.0
 40
1.0
 40
1.0
 40
1.0
 40
2.0
 40
2.0
 40
2.0
 40
3.0
 40
3.0
 40
3.0
 40
4.0
 40
4.0
 40
4.0
 40
4.0
 10
92.09601505944129
 20
-141.8035752683685
 10
91.83349878346525
 20
-141.8035752683685
 10
91.7956027331275
 20
-142.0151041311629
 10
91.7956027331275
 20
-142.1315483585643
 10
91.7956027331275
 20
-142.3072482283121
 10
91.89068736852039
 20
-142.4702012447644
 10
92.07465546743273
 20
-142.4702012447644
 10
92.19523380941648
 20
-142.4702012447644
 10
92.37093367916421
 20
-142.4109456024181
 10
92.37093367916421
 20
-142.1253471866909
 10
92.37093367916421
 20
-141.9010714706011
 10
92.23106280246307
 20
-141.8035752683685
 10
92.09601505944129
 20
-141.8035752683685
 97
        0
 97
        0
 75
     2
 76
     1
 98
        0
  0
ENDBLK
  5
B9
330
B6
100
AcDbEntity
  8
0
100
AcDbBlockEnd
  0
ENDSEC
  0
SECTION
  2
ENTITIES
  0
SPLINE
  5
41
330
1F
100
AcDbEntity
  8
_U+30EC_U+30A4_U+30E4_U+30FC 1
 62
     7
420
 16777215
370
    25
100
AcDbSpline
210
0.0
220
0.0
230
1.0
 70
    11
 71
     3
 72
    62
 73
    58
 74
     0
 42
0.0000000001
 43
0.0000000001
 12
1.0
 22
0.0
 32
0.0
 13
1.0
 23
0.0
 33
0.0
 40
0.0
 40
0.0
 40
0.0
 40
0.0
 40
1.0
 40
1.0
 40
1.0
 40
2.0
 40
2.0
 40
2.0
 40
3.0
 40
3.0
 40
3.0
 40
4.0
 40
4.0
 40
4.0
 40
5.0
 40
5.0
 40
5.0
 40
6.0
 40
6.0
 40
6.0
 40
7.0
 40
7.0
 40
7.0
 40
8.0
 40
8.0
 40
8.0
 40
9.0
 40
9.0
 40
9.0
 40
10.0
 40
10.0
 40
10.0
 40
11.0
 40
11.0
 40
11.0
 40
12.0
 40
12.0
 40
12.0
 40
13.0
 40
13.0
 40
13.0
 40
14.0
 40
14.0
 40
14.0
 40
15.0
 40
15.0
 40
15.0
 40
16.0
 40
16.0
 40
16.0
 40
17.0
 40
17.0
 40
17.0
 40
18.0
 40
18.0
 40
18.0
 40
19.0
 40
19.0
 40
19.0
 40
19.0
 10
98.77431803561277
 20
-138.4067166320653
 30
0.0
 10
99.2159958021224
 20
-138.4067166320653
 30
0.0
 10
99.574276904093
 20
-138.7649977430864
 30
0.0
 10
99.574276904093
 20
-139.2066755207539
 30
0.0
 10
99.574276904093
 20
-139.2066755207539
 30
0.0
 10
91.77390182531937
 20
-139.205299687421
 30
0.0
 10
91.77390182531937
 20
-139.205299687421
 30
0.0
 10
91.77390182531937
 20
-139.205299687421
 30
0.0
 10
91.57408849708371
 20
-139.00513357636
 30
0.0
 10
91.57408849708371
 20
-139.00513357636
 30
0.0
 10
91.57408849708371
 20
-139.00513357636
 30
0.0
 10
91.37427516884803
 20
-139.205299687421
 30
0.0
 10
91.37427516884803
 20
-139.205299687421
 30
0.0
 10
91.37427516884803
 20
-139.205299687421
 30
0.0
 10
84.77638053436135
 20
-139.2063227429761
 30
0.0
 10
84.77638053436135
 20
-139.2063227429761
 30
0.0
 10
84.77638053436135
 20
-139.2063227429761
 30
0.0
 10
84.57656506449429
 20
-139.0061566319151
 30
0.0
 10
84.57656506449429
 20
-139.0061566319151
 30
0.0
 10
84.57656506449429
 20
-139.0061566319151
 30
0.0
 10
84.37675173625861
 20
-139.2063227429761
 30
0.0
 10
84.37675173625861
 20
-139.2063227429761
 30
0.0
 10
84.37675173625861
 20
-139.2063227429761
 30
0.0
 10
84.37124840306568
 20
-139.2063227429761
 30
0.0
 10
84.37124840306568
 20
-139.2063227429761
 30
0.0
 10
83.91443647027548
 20
-139.1143182985547
 30
0.0
 10
83.5699137012872
 20
-138.7105641319888
 30
0.0
 10
83.5699137012872
 20
-138.1982955210063
 30
0.0
 10
83.5699137012872
 20
-138.1982955210063
 30
0.0
 10
83.5699137012872
 20
-117.2066419151429
 30
0.0
 10
83.5699137012872
 20
-117.2066419151429
 30
0.0
 10
84.12250479830055
 20
-117.2345466373581
 30
0.0
 10
84.47186062272107
 20
-117.6186510817063
 30
0.0
 10
84.56555839810842
 20
-118.1330010815779
 30
0.0
 10
84.56555839810842
 20
-118.1330010815779
 30
0.0
 10
84.56555839810842
 20
-124.206705524504
 30
0.0
 10
84.56555839810842
 20
-124.206705524504
 30
0.0
 10
84.56555839810842
 20
-124.206705524504
 30
0.0
 10
90.62409324354232
 20
-124.206705524504
 30
0.0
 10
90.62409324354232
 20
-124.206705524504
 30
0.0
 10
91.17601406279498
 20
-124.206705524504
 30
0.0
 10
91.57338294154614
 20
-124.6580141355023
 30
0.0
 10
91.57338294154614
 20
-125.2106052464752
 30
0.0
 10
91.57338294154614
 20
-125.2106052464752
 30
0.0
 10
84.57381339789782
 20
-125.2106052464752
 30
0.0
 10
84.57381339789782
 20
-125.2106052464752
 30
0.0
 10
84.57381339789782
 20
-125.2106052464752
 30
0.0
 10
84.57381339789782
 20
-138.2069032987813
 30
0.0
 10
84.57381339789782
 20
-138.2069032987813
 30
0.0
 10
84.57381339789782
 20
-138.2069032987813
 30
0.0
 10
91.57338294154614
 20
-138.2069032987813
 30
0.0
 10
91.57338294154614
 20
-138.2069032987813
 30
0.0
 10
91.57338294154614
 20
-138.2069032987813
 30
0.0
 10
91.91995182159333
 20
-138.4067166320653
 30
0.0
 10
91.91995182159333
 20
-138.4067166320653
 30
0.0
 10
91.91995182159333
 20
-138.4067166320653
 30
0.0
 10
98.77431803561277
 20
-138.4067166320653
 30
0.0
 10
98.77431803561277
 20
-138.4067166320653
 30
0.0
  0
HATCH
  5
42
330
1F
100
AcDbEntity
  8
_U+30EC_U+30A4_U+30E4_U+30FC 1
 62
   253
420
 11711154
100
AcDbHatch
 10
0.0
 20
0.0
 30
0.0
210
0.0
220
0.0
230
1.0
  2
SOLID
 70
     1
 71
     0
 91
        1
 92
        1
 93
        2
 72
     4
 94
        3
 73
     0
 74
     0
 95
       62
 96
       58
 40
0.0
 40
0.0
 40
0.0
 40
0.0
 40
0.3527777776895833
 40
0.3527777776895833
 40
0.3527777776895833
 40
0.7055555553791667
 40
0.7055555553791667
 40
0.7055555553791667
 40
1.05833333306875
 40
1.05833333306875
 40
1.05833333306875
 40
1.411111110758333
 40
1.411111110758333
 40
1.411111110758333
 40
1.763888888447917
 40
1.763888888447917
 40
1.763888888447917
 40
2.1166666661375
 40
2.1166666661375
 40
2.1166666661375
 40
2.469444443827083
 40
2.469444443827083
 40
2.469444443827083
 40
2.822222221516667
 40
2.822222221516667
 40
2.822222221516667
 40
3.17499999920625
 40
3.17499999920625
 40
3.17499999920625
 40
3.527777776895833
 40
3.527777776895833
 40
3.527777776895833
 40
3.880555554585417
 40
3.880555554585417
 40
3.880555554585417
 40
4.233333332275
 40
4.233333332275
 40
4.233333332275
 40
4.586111109964584
 40
4.586111109964584
 40
4.586111109964584
 40
4.938888887654167
 40
4.938888887654167
 40
4.938888887654167
 40
5.29166666534375
 40
5.29166666534375
 40
5.29166666534375
 40
5.644444443033334
 40
5.644444443033334
 40
5.644444443033334
 40
5.997222220722917
 40
5.997222220722917
 40
5.997222220722917
 40
6.349999998412501
 40
6.349999998412501
 40
6.349999998412501
 40
6.702777776102083
 40
6.702777776102083
 40
6.702777776102083
 40
6.702777776102083
 10
98.77431803561277
 20
-138.4067166320653
 10
99.2159958021224
 20
-138.4067166320653
 10
99.574276904093
 20
-138.7649977430864
 10
99.574276904093
 20
-139.2066755207539
 10
99.574276904093
 20
-139.2066755207539
 10
91.77390182531937
 20
-139.205299687421
 10
91.77390182531937
 20
-139.205299687421
 10
91.77390182531937
 20
-139.205299687421
 10
91.57408849708371
 20
-139.00513357636
 10
91.57408849708371
 20
-139.00513357636
 10
91.57408849708371
 20
-139.00513357636
 10
91.37427516884803
 20
-139.205299687421
 10
91.37427516884803
 20
-139.205299687421
 10
91.37427516884803
 20
-139.205299687421
 10
84.77638053436135
 20
-139.2063227429761
 10
84.77638053436135
 20
-139.2063227429761
 10
84.77638053436135
 20
-139.2063227429761
 10
84.57656506449429
 20
-139.0061566319151
 10
84.57656506449429
 20
-139.0061566319151
 10
84.57656506449429
 20
-139.0061566319151
 10
84.37675173625861
 20
-139.2063227429761
 10
84.37675173625861
 20
-139.2063227429761
 10
84.37675173625861
 20
-139.2063227429761
 10
84.37124840306568
 20
-139.2063227429761
 10
84.37124840306568
 20
-139.2063227429761
 10
83.91443647027548
 20
-139.1143182985547
 10
83.5699137012872
 20
-138.7105641319888
 10
83.5699137012872
 20
-138.1982955210063
 10
83.5699137012872
 20
-138.1982955210063
 10
83.5699137012872
 20
-117.2066419151429
 10
83.5699137012872
 20
-117.2066419151429
 10
84.12250479830055
 20
-117.2345466373581
 10
84.47186062272107
 20
-117.6186510817063
 10
84.56555839810842
 20
-118.1330010815779
 10
84.56555839810842
 20
-118.1330010815779
 10
84.56555839810842
 20
-124.206705524504
 10
84.56555839810842
 20
-124.206705524504
 10
84.56555839810842
 20
-124.206705524504
 10
90.62409324354232
 20
-124.206705524504
 10
90.62409324354232
 20
-124.206705524504
 10
91.17601406279498
 20
-124.206705524504
 10
91.57338294154614
 20
-124.6580141355023
 10
91.57338294154614
 20
-125.2106052464752
 10
91.57338294154614
 20
-125.2106052464752
 10
84.57381339789782
 20
-125.2106052464752
 10
84.57381339789782
 20
-125.2106052464752
 10
84.57381339789782
 20
-125.2106052464752
 10
84.57381339789782
 20
-138.2069032987813
 10
84.57381339789782
 20
-138.2069032987813
 10
84.57381339789782
 20
-138.2069032987813
 10
91.57338294154614
 20
-138.2069032987813
 10
91.57338294154614
 20
-138.2069032987813
 10
91.57338294154614
 20
-138.2069032987813
 10
91.91995182159333
 20
-138.4067166320653
 10
91.91995182159333
 20
-138.4067166320653
 10
91.91995182159333
 20
-138.4067166320653
 10
98.77431803561277
 20
-138.4067166320653
 10
98.77431803561277
 20
-138.4067166320653
 97
        0
 72
     1
 10
98.77431803561277
 20
-138.4067166320653
 11
98.77431803561277
 21
-138.4067166320653
 97
        0
 75
     2
 76
     1
 98
        0
  0
SPLINE
  5
43
330
1F
100
AcDbEntity
  8
_U+30EC_U+30A4_U+30E4_U+30FC 1
 62
     7
420
 16777215
370
    25
100
AcDbSpline
210
0.0
220
0.0
230
1.0
 70
    11
 71
     3
 72
    62
 73
    58
 74
     0
 42
0.0000000001
 43
0.0000000001
 12
1.0
 22
0.0
 32
0.0
 13
1.0
 23
0.0
 33
0.0
 40
0.0
 40
0.0
 40
0.0
 40
0.0
 40
1.0
 40
1.0
 40
1.0
 40
2.0
 40
2.0
 40
2.0
 40
3.0
 40
3.0
 40
3.0
 40
4.0
 40
4.0
 40
4.0
 40
5.0
 40
5.0
 40
5.0
 40
6.0
 40
6.0
 40
6.0
 40
7.0
 40
7.0
 40
7.0
 40
8.0
 40
8.0
 40
8.0
 40
9.0
 40
9.0
 40
9.0
 40
10.0
 40
10.0
 40
10.0
 40
11.0
 40
11.0
 40
11.0
 40
12.0
 40
12.0
 40
12.0
 40
13.0
 40
13.0
 40
13.0
 40
14.0
 40
14.0
 40
14.0
 40
15.0
 40
15.0
 40
15.0
 40
16.0
 40
16.0
 40
16.0
 40
17.0
 40
17.0
 40
17.0
 40
18.0
 40
18.0
 40
18.0
 40
19.0
 40
19.0
 40
19.0
 40
19.0
 10
98.77431803561277
 20
-138.4067166320653
 30
0.0
 10
99.2159958021224
 20
-138.4067166320653
 30
0.0
 10
99.574276904093
 20
-138.7649977430864
 30
0.0
 10
99.574276904093
 20
-139.2066755207539
 30
0.0
 10
99.574276904093
 20
-139.2066755207539
 30
0.0
 10
91.77390182531937
 20
-139.205299687421
 30
0.0
 10
91.77390182531937
 20
-139.205299687421
 30
0.0
 10
91.77390182531937
 20
-139.205299687421
 30
0.0
 10
91.57408849708371
 20
-139.00513357636
 30
0.0
 10
91.57408849708371
 20
-139.00513357636
 30
0.0
 10
91.57408849708371
 20
-139.00513357636
 30
0.0
 10
91.37427516884803
 20
-139.205299687421
 30
0.0
 10
91.37427516884803
 20
-139.205299687421
 30
0.0
 10
91.37427516884803
 20
-139.205299687421
 30
0.0
 10
84.77638053436135
 20
-139.2063227429761
 30
0.0
 10
84.77638053436135
 20
-139.2063227429761
 30
0.0
 10
84.77638053436135
 20
-139.2063227429761
 30
0.0
 10
84.57656506449429
 20
-139.0061566319151
 30
0.0
 10
84.57656506449429
 20
-139.0061566319151
 30
0.0
 10
84.57656506449429
 20
-139.0061566319151
 30
0.0
 10
84.37675173625861
 20
-139.2063227429761
 30
0.0
 10
84.37675173625861
 20
-139.2063227429761
 30
0.0
 10
84.37675173625861
 20
-139.2063227429761
 30
0.0
 10
84.37124840306568
 20
-139.2063227429761
 30
0.0
 10
84.37124840306568
 20
-139.2063227429761
 30
0.0
 10
83.91443647027548
 20
-139.1143182985547
 30
0.0
 10
83.5699137012872
 20
-138.7105641319888
 30
0.0
 10
83.5699137012872
 20
-138.1982955210063
 30
0.0
 10
83.5699137012872
 20
-138.1982955210063
 30
0.0
 10
83.5699137012872
 20
-117.2066419151429
 30
0.0
 10
83.5699137012872
 20
-117.2066419151429
 30
0.0
 10
84.12250479830055
 20
-117.2345466373581
 30
0.0
 10
84.47186062272107
 20
-117.6186510817063
 30
0.0
 10
84.56555839810842
 20
-118.1330010815779
 30
0.0
 10
84.56555839810842
 20
-118.1330010815779
 30
0.0
 10
84.56555839810842
 20
-124.206705524504
 30
0.0
 10
84.56555839810842
 20
-124.206705524504
 30
0.0
 10
84.56555839810842
 20
-124.206705524504
 30
0.0
 10
90.62409324354232
 20
-124.206705524504
 30
0.0
 10
90.62409324354232
 20
-124.206705524504
 30
0.0
 10
91.17601406279498
 20
-124.206705524504
 30
0.0
 10
91.57338294154614
 20
-124.6580141355023
 30
0.0
 10
91.57338294154614
 20
-125.2106052464752
 30
0.0
 10
91.57338294154614
 20
-125.2106052464752
 30
0.0
 10
84.57381339789782
 20
-125.2106052464752
 30
0.0
 10
84.57381339789782
 20
-125.2106052464752
 30
0.0
 10
84.57381339789782
 20
-125.2106052464752
 30
0.0
 10
84.57381339789782
 20
-138.2069032987813
 30
0.0
 10
84.57381339789782
 20
-138.2069032987813
 30
0.0
 10
84.57381339789782
 20
-138.2069032987813
 30
0.0
 10
91.57338294154614
 20
-138.2069032987813
 30
0.0
 10
91.57338294154614
 20
-138.2069032987813
 30
0.0
 10
91.57338294154614
 20
-138.2069032987813
 30
0.0
 10
91.91995182159333
 20
-138.4067166320653
 30
0.0
 10
91.91995182159333
 20
-138.4067166320653
 30
0.0
 10
91.91995182159333
 20
-138.4067166320653
 30
0.0
 10
98.77431803561277
 20
-138.4067166320653
 30
0.0
 10
98.77431803561277
 20
-138.4067166320653
 30
0.0
  0
SPLINE
  5
44
330
1F
100
AcDbEntity
  8
_U+30EC_U+30A4_U+30E4_U+30FC 1
 62
     7
420
 16777215
370
     9
100
AcDbSpline
210
0.0
220
0.0
230
1.0
 70
    11
 71
     3
 72
    17
 73
    13
 74
     0
 42
0.0000000001
 43
0.0000000001
 12
1.0
 22
0.0
 32
0.0
 13
1.0
 23
0.0
 33
0.0
 40
0.0
 40
0.0
 40
0.0
 40
0.0
 40
1.0
 40
1.0
 40
1.0
 40
2.0
 40
2.0
 40
2.0
 40
3.0
 40
3.0
 40
3.0
 40
4.0
 40
4.0
 40
4.0
 40
4.0
 10
91.66295553263994
 20
-115.031378860131
 30
0.0
 10
91.66295553263994
 20
-114.9762749712561
 30
0.0
 10
91.61818571818091
 20
-114.9314721934893
 30
0.0
 10
91.56304655292097
 20
-114.9314721934893
 30
0.0
 10
91.50723710990033
 20
-114.9314721934893
 30
0.0
 10
91.46246961104245
 20
-114.9762749712561
 30
0.0
 10
91.46246961104245
 20
-115.031378860131
 30
0.0
 10
91.46246961104245
 20
-115.0865180267841
 30
0.0
 10
91.50723710990033
 20
-115.1312855267726
 30
0.0
 10
91.56304655292097
 20
-115.1312855267726
 30
0.0
 10
91.61818571818091
 20
-115.1312855267726
 30
0.0
 10
91.66295553263994
 20
-115.0865180267841
 30
0.0
 10
91.66295553263994
 20
-115.031378860131
 30
0.0
  0
SPLINE
  5
45
330
1F
100
AcDbEntity
  8
_U+30EC_U+30A4_U+30E4_U+30FC 1
 62
     7
420
 16777215
370
     9
100
AcDbSpline
210
0.0
220
0.0
230
1.0
 70
    11
 71
     3
 72
    17
 73
    13
 74
     0
 42
0.0000000001
 43
0.0000000001
 12
1.0
 22
0.0
 32
0.0
 13
1.0
 23
0.0
 33
0.0
 40
0.0
 40
0.0
 40
0.0
 40
0.0
 40
1.0
 40
1.0
 40
1.0
 40
2.0
 40
2.0
 40
2.0
 40
3.0
 40
3.0
 40
3.0
 40
4.0
 40
4.0
 40
4.0
 40
4.0
 10
84.66165506232346
 20
-115.031378860131
 30
0.0
 10
84.66165506232346
 20
-114.9762749712561
 30
0.0
 10
84.61688756346557
 20
-114.9314721934893
 30
0.0
 10
84.56174839820562
 20
-114.9314721934893
 30
0.0
 10
84.50664451072255
 20
-114.9314721934893
 30
0.0
 10
84.46184173408778
 20
-114.9762749712561
 30
0.0
 10
84.46184173408778
 20
-115.031378860131
 30
0.0
 10
84.46184173408778
 20
-115.0865180267841
 30
0.0
 10
84.50664451072255
 20
-115.1312855267726
 30
0.0
 10
84.56174839820562
 20
-115.1312855267726
 30
0.0
 10
84.61688756346557
 20
-115.1312855267726
 30
0.0
 10
84.66165506232346
 20
-115.0865180267841
 30
0.0
 10
84.66165506232346
 20
-115.031378860131
 30
0.0
  0
POLYLINE
  5
46
330
1F
100
AcDbEntity
  8
_U+30EC_U+30A4_U+30E4_U+30FC 1
 62
     7
420
 16777215
370
     9
100
AcDb2dPolyline
 66
     1
 10
0.0
 20
0.0
 30
0.0
  0
VERTEX
  5
47
330
46
100
AcDbEntity
  8
_U+30EC_U+30A4_U+30E4_U+30FC 1
 62
     7
420
 16777215
370
     9
100
AcDbVertex
100
AcDb2dVertex
 10
84.56174839820562
 20
-116.491420248655
 30
0.0
  0
VERTEX
  5
48
330
46
100
AcDbEntity
  8
_U+30EC_U+30A4_U+30E4_U+30FC 1
 62
     7
420
 16777215
370
     9
100
AcDbVertex
100
AcDb2dVertex
 10
84.56174839820562
 20
-114.0316419159366
 30
0.0
  0
SEQEND
  5
49
330
46
100
AcDbEntity
  8
_U+30EC_U+30A4_U+30E4_U+30FC 1
 62
     7
420
 16777215
370
     9
  0
POLYLINE
  5
4A
330
1F
100
AcDbEntity
  8
_U+30EC_U+30A4_U+30E4_U+30FC 1
 62
     7
420
 16777215
370
     9
100
AcDb2dPolyline
 66
     1
 10
0.0
 20
0.0
 30
0.0
  0
VERTEX
  5
4B
330
4A
100
AcDbEntity
  8
_U+30EC_U+30A4_U+30E4_U+30FC 1
 62
     7
420
 16777215
370
     9
100
AcDbVertex
100
AcDb2dVertex
 10
84.56245395374317
 20
-115.031378860131
 30
0.0
  0
VERTEX
  5
4C
330
4A
100
AcDbEntity
  8
_U+30EC_U+30A4_U+30E4_U+30FC 1
 62
     7
420
 16777215
370
     9
100
AcDbVertex
100
AcDb2dVertex
 10
91.56237627516028
 20
-115.031378860131
 30
0.0
  0
SEQEND
  5
4D
330
4A
100
AcDbEntity
  8
_U+30EC_U+30A4_U+30E4_U+30FC 1
 62
     7
420
 16777215
370
     9
  0
POLYLINE
  5
4E
330
1F
100
AcDbEntity
  8
_U+30EC_U+30A4_U+30E4_U+30FC 1
 62
     7
420
 16777215
370
     9
100
AcDb2dPolyline
 66
     1
 10
0.0
 20
0.0
 30
0.0
  0
VERTEX
  5
4F
330
4E
100
AcDbEntity
  8
_U+30EC_U+30A4_U+30E4_U+30FC 1
 62
     7
420
 16777215
370
     9
100
AcDbVertex
100
AcDb2dVertex
 10
91.56304655292097
 20
-122.7063769137678
 30
0.0
  0
VERTEX
  5
50
330
4E
100
AcDbEntity
  8
_U+30EC_U+30A4_U+30E4_U+30FC 1
 62
     7
420
 16777215
370
     9
100
AcDbVertex
100
AcDb2dVertex
 10
91.56304655292097
 20
-114.0316419159366
 30
0.0
  0
SEQEND
  5
51
330
4E
100
AcDbEntity
  8
_U+30EC_U+30A4_U+30E4_U+30FC 1
 62
     7
420
 16777215
370
     9
  0
INSERT
  5
53
330
1F
100
AcDbEntity
  8
_U+30EC_U+30A4_U+30E4_U+30FC 1
100
AcDbBlockReference
  2
block 2
 10
0.0
 20
0.0
 30
0.0
  0
SPLINE
  5
58
330
1F
100
AcDbEntity
  8
_U+30EC_U+30A4_U+30E4_U+30FC 1
 62
     7
420
 16777215
370
     9
100
AcDbSpline
210
0.0
220
0.0
230
1.0
 70
    11
 71
     3
 72
    17
 73
    13
 74
     0
 42
0.0000000001
 43
0.0000000001
 12
1.0
 22
0.0
 32
0.0
 13
1.0
 23
0.0
 33
0.0
 40
0.0
 40
0.0
 40
0.0
 40
0.0
 40
1.0
 40
1.0
 40
1.0
 40
2.0
 40
2.0
 40
2.0
 40
3.0
 40
3.0
 40
3.0
 40
4.0
 40
4.0
 40
4.0
 40
4.0
 10
83.6625884211451
 20
-121.2070713585871
 30
0.0
 10
83.6625884211451
 20
-121.1519674697119
 30
0.0
 10
83.61782092228722
 20
-121.1071646919455
 30
0.0
 10
83.56201147926659
 20
-121.1071646919455
 30
0.0
 10
83.50687231400664
 20
-121.1071646919455
 30
0.0
 10
83.46206953737187
 20
-121.1519674697119
 30
0.0
 10
83.46206953737187
 20
-121.2070713585871
 30
0.0
 10
83.46206953737187
 20
-121.2622105252399
 30
0.0
 10
83.50687231400664
 20
-121.3069780252287
 30
0.0
 10
83.56201147926659
 20
-121.3069780252287
 30
0.0
 10
83.61782092228722
 20
-121.3069780252287
 30
0.0
 10
83.6625884211451
 20
-121.2622105252399
 30
0.0
 10
83.6625884211451
 20
-121.2070713585871
 30
0.0
  0
SPLINE
  5
59
330
1F
100
AcDbEntity
  8
_U+30EC_U+30A4_U+30E4_U+30FC 1
 62
     7
420
 16777215
370
     9
100
AcDbSpline
210
0.0
220
0.0
230
1.0
 70
    11
 71
     3
 72
    17
 73
    13
 74
     0
 42
0.0000000001
 43
0.0000000001
 12
1.0
 22
0.0
 32
0.0
 13
1.0
 23
0.0
 33
0.0
 40
0.0
 40
0.0
 40
0.0
 40
0.0
 40
1.0
 40
1.0
 40
1.0
 40
2.0
 40
2.0
 40
2.0
 40
3.0
 40
3.0
 40
3.0
 40
4.0
 40
4.0
 40
4.0
 40
4.0
 10
84.66236061786101
 20
-121.2070713585871
 30
0.0
 10
84.66236061786101
 20
-121.1519674697119
 30
0.0
 10
84.61755784122624
 20
-121.1071646919455
 30
0.0
 10
84.56245395374317
 20
-121.1071646919455
 30
0.0
 10
84.50731478848323
 20
-121.1071646919455
 30
0.0
 10
84.46254728962535
 20
-121.1519674697119
 30
0.0
 10
84.46254728962535
 20
-121.2070713585871
 30
0.0
 10
84.46254728962535
 20
-121.2622105252399
 30
0.0
 10
84.50731478848323
 20
-121.3069780252287
 30
0.0
 10
84.56245395374317
 20
-121.3069780252287
 30
0.0
 10
84.61755784122624
 20
-121.3069780252287
 30
0.0
 10
84.66236061786101
 20
-121.2622105252399
 30
0.0
 10
84.66236061786101
 20
-121.2070713585871
 30
0.0
  0
SPLINE
  5
5A
330
1F
100
AcDbEntity
  8
_U+30EC_U+30A4_U+30E4_U+30FC 1
 62
     7
420
 16777215
370
     9
100
AcDbSpline
210
0.0
220
0.0
230
1.0
 70
    11
 71
     3
 72
    17
 73
    13
 74
     0
 42
0.0000000001
 43
0.0000000001
 12
1.0
 22
0.0
 32
0.0
 13
1.0
 23
0.0
 33
0.0
 40
0.0
 40
0.0
 40
0.0
 40
0.0
 40
1.0
 40
1.0
 40
1.0
 40
2.0
 40
2.0
 40
2.0
 40
3.0
 40
3.0
 40
3.0
 40
4.0
 40
4.0
 40
4.0
 40
4.0
 10
99.66247134628742
 20
-143.2081280197532
 30
0.0
 10
99.66247134628742
 20
-143.1530241308783
 30
0.0
 10
99.61770384742954
 20
-143.1082213531116
 30
0.0
 10
99.56256468216958
 20
-143.1082213531116
 30
0.0
 10
99.50746079468651
 20
-143.1082213531116
 30
0.0
 10
99.46265801805175
 20
-143.1530241308783
 30
0.0
 10
99.46265801805175
 20
-143.2081280197532
 30
0.0
 10
99.46265801805175
 20
-143.2632671864063
 30
0.0
 10
99.50746079468651
 20
-143.3080346863955
 30
0.0
 10
99.56256468216958
 20
-143.3080346863955
 30
0.0
 10
99.61770384742954
 20
-143.3080346863955
 30
0.0
 10
99.66247134628742
 20
-143.2632671864063
 30
0.0
 10
99.66247134628742
 20
-143.2081280197532
 30
0.0
  0
SPLINE
  5
5B
330
1F
100
AcDbEntity
  8
_U+30EC_U+30A4_U+30E4_U+30FC 1
 62
     7
420
 16777215
370
     9
100
AcDbSpline
210
0.0
220
0.0
230
1.0
 70
    11
 71
     3
 72
    17
 73
    13
 74
     0
 42
0.0000000001
 43
0.0000000001
 12
1.0
 22
0.0
 32
0.0
 13
1.0
 23
0.0
 33
0.0
 40
0.0
 40
0.0
 40
0.0
 40
0.0
 40
1.0
 40
1.0
 40
1.0
 40
2.0
 40
2.0
 40
2.0
 40
3.0
 40
3.0
 40
3.0
 40
4.0
 40
4.0
 40
4.0
 40
4.0
 10
83.6625884211451
 20
-143.2081280197532
 30
0.0
 10
83.6625884211451
 20
-143.1530241308783
 30
0.0
 10
83.61782092228722
 20
-143.1082213531116
 30
0.0
 10
83.56201147926659
 20
-143.1082213531116
 30
0.0
 10
83.50687231400664
 20
-143.1082213531116
 30
0.0
 10
83.46206953737187
 20
-143.1530241308783
 30
0.0
 10
83.46206953737187
 20
-143.2081280197532
 30
0.0
 10
83.46206953737187
 20
-143.2632671864063
 30
0.0
 10
83.50687231400664
 20
-143.3080346863955
 30
0.0
 10
83.56201147926659
 20
-143.3080346863955
 30
0.0
 10
83.61782092228722
 20
-143.3080346863955
 30
0.0
 10
83.6625884211451
 20
-143.2632671864063
 30
0.0
 10
83.6625884211451
 20
-143.2081280197532
 30
0.0
  0
SPLINE
  5
5C
330
1F
100
AcDbEntity
  8
_U+30EC_U+30A4_U+30E4_U+30FC 1
 62
     7
420
 16777215
370
     9
100
AcDbSpline
210
0.0
220
0.0
230
1.0
 70
    11
 71
     3
 72
    17
 73
    13
 74
     0
 42
0.0000000001
 43
0.0000000001
 12
1.0
 22
0.0
 32
0.0
 13
1.0
 23
0.0
 33
0.0
 40
0.0
 40
0.0
 40
0.0
 40
0.0
 40
1.0
 40
1.0
 40
1.0
 40
2.0
 40
2.0
 40
2.0
 40
3.0
 40
3.0
 40
3.0
 40
4.0
 40
4.0
 40
4.0
 40
4.0
 10
79.66216109119569
 20
-117.2073121929205
 30
0.0
 10
79.66216109119569
 20
-117.1522083040453
 30
0.0
 10
79.61735831342897
 20
-117.1074055262786
 30
0.0
 10
79.56225241464229
 20
-117.1074055262786
 30
0.0
 10
79.50711324938233
 20
-117.1074055262786
 30
0.0
 10
79.46234575052445
 20
-117.1522083040453
 30
0.0
 10
79.46234575052445
 20
-117.2073121929205
 30
0.0
 10
79.46234575052445
 20
-117.2624513595733
 30
0.0
 10
79.50711324938233
 20
-117.3072188595622
 30
0.0
 10
79.56225241464229
 20
-117.3072188595622
 30
0.0
 10
79.61735831342897
 20
-117.3072188595622
 30
0.0
 10
79.66216109119569
 20
-117.2624513595733
 30
0.0
 10
79.66216109119569
 20
-117.2073121929205
 30
0.0
  0
SPLINE
  5
5D
330
1F
100
AcDbEntity
  8
_U+30EC_U+30A4_U+30E4_U+30FC 1
 62
     7
420
 16777215
370
     9
100
AcDbSpline
210
0.0
220
0.0
230
1.0
 70
    11
 71
     3
 72
    17
 73
    13
 74
     0
 42
0.0000000001
 43
0.0000000001
 12
1.0
 22
0.0
 32
0.0
 13
1.0
 23
0.0
 33
0.0
 40
0.0
 40
0.0
 40
0.0
 40
0.0
 40
1.0
 40
1.0
 40
1.0
 40
2.0
 40
2.0
 40
2.0
 40
3.0
 40
3.0
 40
3.0
 40
4.0
 40
4.0
 40
4.0
 40
4.0
 10
79.66216109119569
 20
-139.2080513540868
 30
0.0
 10
79.66216109119569
 20
-139.1529121874337
 30
0.0
 10
79.61735831342897
 20
-139.1081446874451
 30
0.0
 10
79.56225241464229
 20
-139.1081446874451
 30
0.0
 10
79.50711324938233
 20
-139.1081446874451
 30
0.0
 10
79.46234575052445
 20
-139.1529121874337
 30
0.0
 10
79.46234575052445
 20
-139.2080513540868
 30
0.0
 10
79.46234575052445
 20
-139.2638607985172
 30
0.0
 10
79.50711324938233
 20
-139.3086282985064
 30
0.0
 10
79.56225241464229
 20
-139.3086282985064
 30
0.0
 10
79.61735831342897
 20
-139.3086282985064
 30
0.0
 10
79.66216109119569
 20
-139.2638607985172
 30
0.0
 10
79.66216109119569
 20
-139.2080513540868
 30
0.0
  0
SPLINE
  5
5E
330
1F
100
AcDbEntity
  8
_U+30EC_U+30A4_U+30E4_U+30FC 1
 62
     7
420
 16777215
370
     9
100
AcDbSpline
210
0.0
220
0.0
230
1.0
 70
    11
 71
     3
 72
    17
 73
    13
 74
     0
 42
0.0000000001
 43
0.0000000001
 12
1.0
 22
0.0
 32
0.0
 13
1.0
 23
0.0
 33
0.0
 40
0.0
 40
0.0
 40
0.0
 40
0.0
 40
1.0
 40
1.0
 40
1.0
 40
2.0
 40
2.0
 40
2.0
 40
3.0
 40
3.0
 40
3.0
 40
4.0
 40
4.0
 40
4.0
 40
4.0
 10
103.6622304109117
 20
-117.2073121929205
 30
0.0
 10
103.6622304109117
 20
-117.1522083040453
 30
0.0
 10
103.6174629120538
 20
-117.1074055262786
 30
0.0
 10
103.5623237467939
 20
-117.1074055262786
 30
0.0
 10
103.5072198593108
 20
-117.1074055262786
 30
0.0
 10
103.4624170826761
 20
-117.1522083040453
 30
0.0
 10
103.4624170826761
 20
-117.2073121929205
 30
0.0
 10
103.4624170826761
 20
-117.2624513595733
 30
0.0
 10
103.5072198593108
 20
-117.3072188595622
 30
0.0
 10
103.5623237467939
 20
-117.3072188595622
 30
0.0
 10
103.6174629120538
 20
-117.3072188595622
 30
0.0
 10
103.6622304109117
 20
-117.2624513595733
 30
0.0
 10
103.6622304109117
 20
-117.2073121929205
 30
0.0
  0
SPLINE
  5
5F
330
1F
100
AcDbEntity
  8
_U+30EC_U+30A4_U+30E4_U+30FC 1
 62
     7
420
 16777215
370
     9
100
AcDbSpline
210
0.0
220
0.0
230
1.0
 70
    11
 71
     3
 72
    17
 73
    13
 74
     0
 42
0.0000000001
 43
0.0000000001
 12
1.0
 22
0.0
 32
0.0
 13
1.0
 23
0.0
 33
0.0
 40
0.0
 40
0.0
 40
0.0
 40
0.0
 40
1.0
 40
1.0
 40
1.0
 40
2.0
 40
2.0
 40
2.0
 40
3.0
 40
3.0
 40
3.0
 40
4.0
 40
4.0
 40
4.0
 40
4.0
 10
103.6622304109117
 20
-138.2082791321149
 30
0.0
 10
103.6622304109117
 20
-138.1531399654618
 30
0.0
 10
103.6174629120538
 20
-138.1083724654732
 30
0.0
 10
103.5623237467939
 20
-138.1083724654732
 30
0.0
 10
103.5072198593108
 20
-138.1083724654732
 30
0.0
 10
103.4624170826761
 20
-138.1531399654618
 30
0.0
 10
103.4624170826761
 20
-138.2082791321149
 30
0.0
 10
103.4624170826761
 20
-138.2633830209898
 30
0.0
 10
103.5072198593108
 20
-138.3081857987565
 30
0.0
 10
103.5623237467939
 20
-138.3081857987565
 30
0.0
 10
103.6174629120538
 20
-138.3081857987565
 30
0.0
 10
103.6622304109117
 20
-138.2633830209898
 30
0.0
 10
103.6622304109117
 20
-138.2082791321149
 30
0.0
  0
POLYLINE
  5
60
330
1F
100
AcDbEntity
  8
_U+30EC_U+30A4_U+30E4_U+30FC 1
 62
     7
420
 16777215
370
     9
100
AcDb2dPolyline
 66
     1
 10
0.0
 20
0.0
 30
0.0
  0
VERTEX
  5
61
330
60
100
AcDbEntity
  8
_U+30EC_U+30A4_U+30E4_U+30FC 1
 62
     7
420
 16777215
370
     9
100
AcDbVertex
100
AcDb2dVertex
 10
84.56245395374317
 20
-121.2070713585871
 30
0.0
  0
VERTEX
  5
62
330
60
100
AcDbEntity
  8
_U+30EC_U+30A4_U+30E4_U+30FC 1
 62
     7
420
 16777215
370
     9
100
AcDbVertex
100
AcDb2dVertex
 10
88.33276635755449
 20
-121.2070713585871
 30
0.0
  0
SEQEND
  5
63
330
60
100
AcDbEntity
  8
_U+30EC_U+30A4_U+30E4_U+30FC 1
 62
     7
420
 16777215
370
     9
  0
POLYLINE
  5
64
330
1F
100
AcDbEntity
  8
_U+30EC_U+30A4_U+30E4_U+30FC 1
 62
     7
420
 16777215
370
     9
100
AcDb2dPolyline
 66
     1
 10
0.0
 20
0.0
 30
0.0
  0
VERTEX
  5
65
330
64
100
AcDbEntity
  8
_U+30EC_U+30A4_U+30E4_U+30FC 1
 62
     7
420
 16777215
370
     9
100
AcDbVertex
100
AcDb2dVertex
 10
82.56223928255068
 20
-121.2070713585871
 30
0.0
  0
VERTEX
  5
66
330
64
100
AcDbEntity
  8
_U+30EC_U+30A4_U+30E4_U+30FC 1
 62
     7
420
 16777215
370
     9
100
AcDbVertex
100
AcDb2dVertex
 10
84.56245395374317
 20
-121.2070713585871
 30
0.0
  0
SEQEND
  5
67
330
64
100
AcDbEntity
  8
_U+30EC_U+30A4_U+30E4_U+30FC 1
 62
     7
420
 16777215
370
     9
  0
INSERT
  5
69
330
1F
100
AcDbEntity
  8
_U+30EC_U+30A4_U+30E4_U+30FC 1
100
AcDbBlockReference
  2
block 3
 10
0.0
 20
0.0
 30
0.0
  0
POLYLINE
  5
6E
330
1F
100
AcDbEntity
  8
_U+30EC_U+30A4_U+30E4_U+30FC 1
 62
     7
420
 16777215
370
     9
100
AcDb2dPolyline
 66
     1
 10
0.0
 20
0.0
 30
0.0
  0
VERTEX
  5
6F
330
6E
100
AcDbEntity
  8
_U+30EC_U+30A4_U+30E4_U+30FC 1
 62
     7
420
 16777215
370
     9
100
AcDbVertex
100
AcDb2dVertex
 10
97.10208330905782
 20
-138.2082791321149
 30
0.0
  0
VERTEX
  5
70
330
6E
100
AcDbEntity
  8
_U+30EC_U+30A4_U+30E4_U+30FC 1
 62
     7
420
 16777215
370
     9
100
AcDbVertex
100
AcDb2dVertex
 10
104.5620959435098
 20
-138.2082791321149
 30
0.0
  0
SEQEND
  5
71
330
6E
100
AcDbEntity
  8
_U+30EC_U+30A4_U+30E4_U+30FC 1
 62
     7
420
 16777215
370
     9
  0
SPLINE
  5
72
330
1F
100
AcDbEntity
  8
_U+30EC_U+30A4_U+30E4_U+30FC 1
 62
     7
420
 16777215
370
     9
100
AcDbSpline
210
0.0
220
0.0
230
1.0
 70
    11
 71
     3
 72
    17
 73
    13
 74
     0
 42
0.0000000001
 43
0.0000000001
 12
1.0
 22
0.0
 32
0.0
 13
1.0
 23
0.0
 33
0.0
 40
0.0
 40
0.0
 40
0.0
 40
0.0
 40
1.0
 40
1.0
 40
1.0
 40
2.0
 40
2.0
 40
2.0
 40
3.0
 40
3.0
 40
3.0
 40
4.0
 40
4.0
 40
4.0
 40
4.0
 10
103.6622304109117
 20
-125.2058074686985
 30
0.0
 10
103.6622304109117
 20
-125.1499980242681
 30
0.0
 10
103.6174629120538
 20
-125.1051952465014
 30
0.0
 10
103.5623237467939
 20
-125.1051952465014
 30
0.0
 10
103.5072198593108
 20
-125.1051952465014
 30
0.0
 10
103.4624170826761
 20
-125.1499980242681
 30
0.0
 10
103.4624170826761
 20
-125.2058074686985
 30
0.0
 10
103.4624170826761
 20
-125.2609113575738
 30
0.0
 10
103.5072198593108
 20
-125.3057141353402
 30
0.0
 10
103.5623237467939
 20
-125.3057141353402
 30
0.0
 10
103.6174629120538
 20
-125.3057141353402
 30
0.0
 10
103.6622304109117
 20
-125.2609113575738
 30
0.0
 10
103.6622304109117
 20
-125.2058074686985
 30
0.0
  0
POLYLINE
  5
73
330
1F
100
AcDbEntity
  8
_U+30EC_U+30A4_U+30E4_U+30FC 1
 62
     7
420
 16777215
370
     9
100
AcDb2dPolyline
 66
     1
 10
0.0
 20
0.0
 30
0.0
  0
VERTEX
  5
74
330
73
100
AcDbEntity
  8
_U+30EC_U+30A4_U+30E4_U+30FC 1
 62
     7
420
 16777215
370
     9
100
AcDbVertex
100
AcDb2dVertex
 10
97.10208330905782
 20
-125.2058074686985
 30
0.0
  0
VERTEX
  5
75
330
73
100
AcDbEntity
  8
_U+30EC_U+30A4_U+30E4_U+30FC 1
 62
     7
420
 16777215
370
     9
100
AcDbVertex
100
AcDb2dVertex
 10
104.5620959435098
 20
-125.2058074686985
 30
0.0
  0
SEQEND
  5
76
330
73
100
AcDbEntity
  8
_U+30EC_U+30A4_U+30E4_U+30FC 1
 62
     7
420
 16777215
370
     9
  0
SPLINE
  5
77
330
1F
100
AcDbEntity
  8
_U+30EC_U+30A4_U+30E4_U+30FC 1
 62
     7
420
 16777215
370
     9
100
AcDbSpline
210
0.0
220
0.0
230
1.0
 70
    11
 71
     3
 72
    17
 73
    13
 74
     0
 42
0.0000000001
 43
0.0000000001
 12
1.0
 22
0.0
 32
0.0
 13
1.0
 23
0.0
 33
0.0
 40
0.0
 40
0.0
 40
0.0
 40
0.0
 40
1.0
 40
1.0
 40
1.0
 40
2.0
 40
2.0
 40
2.0
 40
3.0
 40
3.0
 40
3.0
 40
4.0
 40
4.0
 40
4.0
 40
4.0
 10
103.6622304109117
 20
-124.2053296911708
 30
0.0
 10
103.6622304109117
 20
-124.1502258022959
 30
0.0
 10
103.6174629120538
 20
-124.1054230245292
 30
0.0
 10
103.5623237467939
 20
-124.1054230245292
 30
0.0
 10
103.5072198593108
 20
-124.1054230245292
 30
0.0
 10
103.4624170826761
 20
-124.1502258022959
 30
0.0
 10
103.4624170826761
 20
-124.2053296911708
 30
0.0
 10
103.4624170826761
 20
-124.2604688578239
 30
0.0
 10
103.5072198593108
 20
-124.3052363578128
 30
0.0
 10
103.5623237467939
 20
-124.3052363578128
 30
0.0
 10
103.6174629120538
 20
-124.3052363578128
 30
0.0
 10
103.6622304109117
 20
-124.2604688578239
 30
0.0
 10
103.6622304109117
 20
-124.2053296911708
 30
0.0
  0
POLYLINE
  5
78
330
1F
100
AcDbEntity
  8
_U+30EC_U+30A4_U+30E4_U+30FC 1
 62
     7
420
 16777215
370
     9
100
AcDb2dPolyline
 66
     1
 10
0.0
 20
0.0
 30
0.0
  0
VERTEX
  5
79
330
78
100
AcDbEntity
  8
_U+30EC_U+30A4_U+30E4_U+30FC 1
 62
     7
420
 16777215
370
     9
100
AcDbVertex
100
AcDb2dVertex
 10
97.10208330905782
 20
-124.2091396911699
 30
0.0
  0
VERTEX
  5
7A
330
78
100
AcDbEntity
  8
_U+30EC_U+30A4_U+30E4_U+30FC 1
 62
     7
420
 16777215
370
     9
100
AcDbVertex
100
AcDb2dVertex
 10
104.5620959435098
 20
-124.2091396911699
 30
0.0
  0
SEQEND
  5
7B
330
78
100
AcDbEntity
  8
_U+30EC_U+30A4_U+30E4_U+30FC 1
 62
     7
420
 16777215
370
     9
  0
INSERT
  5
7D
330
1F
100
AcDbEntity
  8
_U+30EC_U+30A4_U+30E4_U+30FC 1
100
AcDbBlockReference
  2
block 4
 10
0.0
 20
0.0
 30
0.0
  0
POLYLINE
  5
84
330
1F
100
AcDbEntity
  8
_U+30EC_U+30A4_U+30E4_U+30FC 1
 62
     7
420
 16777215
370
     9
100
AcDb2dPolyline
 66
     1
 10
0.0
 20
0.0
 30
0.0
  0
VERTEX
  5
85
330
84
100
AcDbEntity
  8
_U+30EC_U+30A4_U+30E4_U+30FC 1
 62
     7
420
 16777215
370
     9
100
AcDbVertex
100
AcDb2dVertex
 10
103.5623237467939
 20
-125.2058074686985
 30
0.0
  0
VERTEX
  5
86
330
84
100
AcDbEntity
  8
_U+30EC_U+30A4_U+30E4_U+30FC 1
 62
     7
420
 16777215
370
     9
100
AcDbVertex
100
AcDb2dVertex
 10
103.5623237467939
 20
-124.2056824689486
 30
0.0
  0
SEQEND
  5
87
330
84
100
AcDbEntity
  8
_U+30EC_U+30A4_U+30E4_U+30FC 1
 62
     7
420
 16777215
370
     9
  0
POLYLINE
  5
88
330
1F
100
AcDbEntity
  8
_U+30EC_U+30A4_U+30E4_U+30FC 1
 62
     7
420
 16777215
370
     9
100
AcDb2dPolyline
 66
     1
 10
0.0
 20
0.0
 30
0.0
  0
VERTEX
  5
89
330
88
100
AcDbEntity
  8
_U+30EC_U+30A4_U+30E4_U+30FC 1
 62
     7
420
 16777215
370
     9
100
AcDbVertex
100
AcDb2dVertex
 10
103.5623237467939
 20
-124.2056824689486
 30
0.0
  0
VERTEX
  5
8A
330
88
100
AcDbEntity
  8
_U+30EC_U+30A4_U+30E4_U+30FC 1
 62
     7
420
 16777215
370
     9
100
AcDbVertex
100
AcDb2dVertex
 10
103.5623237467939
 20
-117.2059363595873
 30
0.0
  0
SEQEND
  5
8B
330
88
100
AcDbEntity
  8
_U+30EC_U+30A4_U+30E4_U+30FC 1
 62
     7
420
 16777215
370
     9
  0
POLYLINE
  5
8C
330
1F
100
AcDbEntity
  8
_U+30EC_U+30A4_U+30E4_U+30FC 1
 62
     7
420
 16777215
370
     9
100
AcDb2dPolyline
 66
     1
 10
0.0
 20
0.0
 30
0.0
  0
VERTEX
  5
8D
330
8C
100
AcDbEntity
  8
_U+30EC_U+30A4_U+30E4_U+30FC 1
 62
     7
420
 16777215
370
     9
100
AcDbVertex
100
AcDb2dVertex
 10
86.10239947001145
 20
-117.2073121929205
 30
0.0
  0
VERTEX
  5
8E
330
8C
100
AcDbEntity
  8
_U+30EC_U+30A4_U+30E4_U+30FC 1
 62
     7
420
 16777215
370
     9
100
AcDbVertex
100
AcDb2dVertex
 10
104.5620959435098
 20
-117.2073121929205
 30
0.0
  0
SEQEND
  5
8F
330
8C
100
AcDbEntity
  8
_U+30EC_U+30A4_U+30E4_U+30FC 1
 62
     7
420
 16777215
370
     9
  0
INSERT
  5
91
330
1F
100
AcDbEntity
  8
_U+30EC_U+30A4_U+30E4_U+30FC 1
100
AcDbBlockReference
  2
block 5
 10
0.0
 20
0.0
 30
0.0
  0
POLYLINE
  5
96
330
1F
100
AcDbEntity
  8
_U+30EC_U+30A4_U+30E4_U+30FC 1
 62
     7
420
 16777215
370
     9
100
AcDb2dPolyline
 66
     1
 10
0.0
 20
0.0
 30
0.0
  0
VERTEX
  5
97
330
96
100
AcDbEntity
  8
_U+30EC_U+30A4_U+30E4_U+30FC 1
 62
     7
420
 16777215
370
     9
100
AcDbVertex
100
AcDb2dVertex
 10
79.56225241464229
 20
-139.207698576309
 30
0.0
  0
VERTEX
  5
98
330
96
100
AcDbEntity
  8
_U+30EC_U+30A4_U+30E4_U+30FC 1
 62
     7
420
 16777215
370
     9
100
AcDbVertex
100
AcDb2dVertex
 10
79.56225241464229
 20
-117.207664970698
 30
0.0
  0
SEQEND
  5
99
330
96
100
AcDbEntity
  8
_U+30EC_U+30A4_U+30E4_U+30FC 1
 62
     7
420
 16777215
370
     9
  0
POLYLINE
  5
9A
330
1F
100
AcDbEntity
  8
_U+30EC_U+30A4_U+30E4_U+30FC 1
 62
     7
420
 16777215
370
     9
100
AcDb2dPolyline
 66
     1
 10
0.0
 20
0.0
 30
0.0
  0
VERTEX
  5
9B
330
9A
100
AcDbEntity
  8
_U+30EC_U+30A4_U+30E4_U+30FC 1
 62
     7
420
 16777215
370
     9
100
AcDbVertex
100
AcDb2dVertex
 10
82.02203068522144
 20
-139.2080513540868
 30
0.0
  0
VERTEX
  5
9C
330
9A
100
AcDbEntity
  8
_U+30EC_U+30A4_U+30E4_U+30FC 1
 62
     7
420
 16777215
370
     9
100
AcDbVertex
100
AcDb2dVertex
 10
78.56248021792638
 20
-139.2080513540868
 30
0.0
  0
SEQEND
  5
9D
330
9A
100
AcDbEntity
  8
_U+30EC_U+30A4_U+30E4_U+30FC 1
 62
     7
420
 16777215
370
     9
  0
POLYLINE
  5
9E
330
1F
100
AcDbEntity
  8
_U+30EC_U+30A4_U+30E4_U+30FC 1
 62
     7
420
 16777215
370
     9
100
AcDb2dPolyline
 66
     1
 10
0.0
 20
0.0
 30
0.0
  0
VERTEX
  5
9F
330
9E
100
AcDbEntity
  8
_U+30EC_U+30A4_U+30E4_U+30FC 1
 62
     7
420
 16777215
370
     9
100
AcDbVertex
100
AcDb2dVertex
 10
82.02203068522144
 20
-117.2073121929205
 30
0.0
  0
VERTEX
  5
A0
330
9E
100
AcDbEntity
  8
_U+30EC_U+30A4_U+30E4_U+30FC 1
 62
     7
420
 16777215
370
     9
100
AcDbVertex
100
AcDb2dVertex
 10
78.56248021792638
 20
-117.2073121929205
 30
0.0
  0
SEQEND
  5
A1
330
9E
100
AcDbEntity
  8
_U+30EC_U+30A4_U+30E4_U+30FC 1
 62
     7
420
 16777215
370
     9
  0
INSERT
  5
A3
330
1F
100
AcDbEntity
  8
_U+30EC_U+30A4_U+30E4_U+30FC 1
100
AcDbBlockReference
  2
block 6
 10
0.0
 20
0.0
 30
0.0
  0
POLYLINE
  5
AA
330
1F
100
AcDbEntity
  8
_U+30EC_U+30A4_U+30E4_U+30FC 1
 62
     7
420
 16777215
370
     9
100
AcDb2dPolyline
 66
     1
 10
0.0
 20
0.0
 30
0.0
  0
VERTEX
  5
AB
330
AA
100
AcDbEntity
  8
_U+30EC_U+30A4_U+30E4_U+30FC 1
 62
     7
420
 16777215
370
     9
100
AcDbVertex
100
AcDb2dVertex
 10
83.56201147926659
 20
-143.2081280197532
 30
0.0
  0
VERTEX
  5
AC
330
AA
100
AcDbEntity
  8
_U+30EC_U+30A4_U+30E4_U+30FC 1
 62
     7
420
 16777215
370
     9
100
AcDbVertex
100
AcDb2dVertex
 10
99.5618944044089
 20
-143.2081280197532
 30
0.0
  0
SEQEND
  5
AD
330
AA
100
AcDbEntity
  8
_U+30EC_U+30A4_U+30E4_U+30FC 1
 62
     7
420
 16777215
370
     9
  0
POLYLINE
  5
AE
330
1F
100
AcDbEntity
  8
_U+30EC_U+30A4_U+30E4_U+30FC 1
 62
     7
420
 16777215
370
     9
100
AcDb2dPolyline
 66
     1
 10
0.0
 20
0.0
 30
0.0
  0
VERTEX
  5
AF
330
AE
100
AcDbEntity
  8
_U+30EC_U+30A4_U+30E4_U+30FC 1
 62
     7
420
 16777215
370
     9
100
AcDbVertex
100
AcDb2dVertex
 10
83.56201147926659
 20
-140.7476441314796
 30
0.0
  0
VERTEX
  5
B0
330
AE
100
AcDbEntity
  8
_U+30EC_U+30A4_U+30E4_U+30FC 1
 62
     7
420
 16777215
370
     9
100
AcDbVertex
100
AcDb2dVertex
 10
83.56201147926659
 20
-144.2079002417258
 30
0.0
  0
SEQEND
  5
B1
330
AE
100
AcDbEntity
  8
_U+30EC_U+30A4_U+30E4_U+30FC 1
 62
     7
420
 16777215
370
     9
  0
POLYLINE
  5
B2
330
1F
100
AcDbEntity
  8
_U+30EC_U+30A4_U+30E4_U+30FC 1
 62
     7
420
 16777215
370
     9
100
AcDb2dPolyline
 66
     1
 10
0.0
 20
0.0
 30
0.0
  0
VERTEX
  5
B3
330
B2
100
AcDbEntity
  8
_U+30EC_U+30A4_U+30E4_U+30FC 1
 62
     7
420
 16777215
370
     9
100
AcDbVertex
100
AcDb2dVertex
 10
99.56256468216958
 20
-141.7481219090077
 30
0.0
  0
VERTEX
  5
B4
330
B2
100
AcDbEntity
  8
_U+30EC_U+30A4_U+30E4_U+30FC 1
 62
     7
420
 16777215
370
     9
100
AcDbVertex
100
AcDb2dVertex
 10
99.56256468216958
 20
-144.2079002417258
 30
0.0
  0
SEQEND
  5
B5
330
B2
100
AcDbEntity
  8
_U+30EC_U+30A4_U+30E4_U+30FC 1
 62
     7
420
 16777215
370
     9
  0
INSERT
  5
B7
330
1F
100
AcDbEntity
  8
_U+30EC_U+30A4_U+30E4_U+30FC 1
100
AcDbBlockReference
  2
block 7
 10
0.0
 20
0.0
 30
0.0
  0
POLYLINE
  5
BF
330
1F
100
AcDbEntity
  8
_U+30EC_U+30A4_U+30E4_U+30FC 1
 62
     7
420
 16777215
370
     9
100
AcDb2dPolyline
 66
     1
 10
0.0
 20
0.0
 30
0.0
  0
VERTEX
  5
C0
330
BF
100
AcDbEntity
  8
_U+30EC_U+30A4_U+30E4_U+30FC 1
 62
     7
420
 16777215
370
     9
100
AcDbVertex
100
AcDb2dVertex
 10
103.5623237467939
 20
-138.2082791321149
 30
0.0
  0
VERTEX
  5
C1
330
BF
100
AcDbEntity
  8
_U+30EC_U+30A4_U+30E4_U+30FC 1
 62
     7
420
 16777215
370
     9
100
AcDbVertex
100
AcDb2dVertex
 10
103.5623237467939
 20
-125.2082063575869
 30
0.0
  0
SEQEND
  5
C2
330
BF
100
AcDbEntity
  8
_U+30EC_U+30A4_U+30E4_U+30FC 1
 62
     7
420
 16777215
370
     9
  0
ENDSEC
  0
SECTION
  2
OBJECTS
  0
DICTIONARY
  5
C
330
0
100
AcDbDictionary
281
     1
  3
ACAD_GROUP
350
D
  3
ACAD_LAYOUT
350
1A
  3
ACAD_MATERIAL
350
3B
  3
ACAD_MLEADERSTYLE
350
C4
  3
ACAD_MLINESTYLE
350
17
  3
ACAD_PLOTSETTINGS
350
19
  3
ACAD_PLOTSTYLENAME
350
E
  3
ACAD_TABLESTYLE
350
C3
  3
ACAD_VISUALSTYLE
350
2A
  0
SUN
  5
3F
330
29
100
AcDbSun
 90
        1
290
     0
 63
     7
421
 16777215
 40
1.0
291
     1
 91
  2455826
 92
 54000000
292
     0
 70
     2
 71
   256
280
     1
  0
DICTIONARY
  5
D
102
{ACAD_REACTORS
330
C
102
}
330
C
100
AcDbDictionary
281
     1
  0
DICTIONARY
  5
1A
102
{ACAD_REACTORS
330
C
102
}
330
C
100
AcDbDictionary
281
     1
  3
Layout1
350
1E
  3
Layout2
350
26
  3
Model
350
22
  0
DICTIONARY
  5
3B
102
{ACAD_REACTORS
330
C
102
}
330
C
100
AcDbDictionary
281
     1
  3
ByBlock
350
3D
  3
ByLayer
350
3C
  3
Global
350
3E
  0
DICTIONARY
  5
C4
102
{ACAD_REACTORS
330
C
102
}
330
C
100
AcDbDictionary
281
     1
  0
DICTIONARY
  5
17
102
{ACAD_REACTORS
330
C
102
}
330
C
100
AcDbDictionary
281
     1
  3
Standard
350
18
  0
DICTIONARY
  5
19
102
{ACAD_REACTORS
330
C
102
}
330
C
100
AcDbDictionary
281
     1
  0
ACDBDICTIONARYWDFLT
  5
E
102
{ACAD_REACTORS
330
C
102
}
330
C
100
AcDbDictionary
281
     1
  3
Normal
350
F
100
AcDbDictionaryWithDefault
340
F
  0
DICTIONARY
  5
C3
102
{ACAD_REACTORS
330
C
102
}
330
C
100
AcDbDictionary
281
     1
  0
DICTIONARY
  5
2A
102
{ACAD_REACTORS
330
C
102
}
330
C
100
AcDbDictionary
281
     1
  3
2dWireframe
350
2F
  3
3D Hidden
350
31
  3
3dWireframe
350
30
  3
Basic
350
32
  3
Brighten
350
36
  3
ColorChange
350
3A
  3
Conceptual
350
34
  3
Dim
350
35
  3
Facepattern
350
39
  3
Flat
350
2B
  3
FlatWithEdges
350
2C
  3
Gouraud
350
2D
  3
GouraudWithEdges
350
2E
  3
Linepattern
350
38
  3
Realistic
350
33
  3
Thicken
350
37
  0
LAYOUT
  5
1E
102
{ACAD_REACTORS
330
1A
102
}
330
1A
100
AcDbPlotSettings
  1

  2
none_device
  4

  6

 40
0.0
 41
0.0
 42
0.0
 43
0.0
 44
0.0
 45
0.0
 46
0.0
 47
0.0
 48
0.0
 49
0.0
140
0.0
141
0.0
142
1.0
143
1.0
 70
   688
 72
     0
 73
     0
 74
     5
  7

 75
    16
 76
     0
 77
     2
 78
   300
147
1.0
148
0.0
149
0.0
100
AcDbLayout
  1
Layout1
 70
     1
 71
     1
 10
0.0
 20
0.0
 11
12.0
 21
9.0
 12
0.0
 22
0.0
 32
0.0
 14
1.000000000000000E+20
 24
1.000000000000000E+20
 34
1.000000000000000E+20
 15
-1.000000000000000E+20
 25
-1.000000000000000E+20
 35
-1.000000000000000E+20
146
0.0
 13
0.0
 23
0.0
 33
0.0
 16
1.0
 26
0.0
 36
0.0
 17
0.0
 27
1.0
 37
0.0
 76
     0
330
1B
  0
LAYOUT
  5
26
102
{ACAD_REACTORS
330
1A
102
}
330
1A
100
AcDbPlotSettings
  1

  2
none_device
  4

  6

 40
0.0
 41
0.0
 42
0.0
 43
0.0
 44
0.0
 45
0.0
 46
0.0
 47
0.0
 48
0.0
 49
0.0
140
0.0
141
0.0
142
1.0
143
1.0
 70
   688
 72
     0
 73
     0
 74
     5
  7

 75
    16
 76
     0
 77
     2
 78
   300
147
1.0
148
0.0
149
0.0
100
AcDbLayout
  1
Layout2
 70
     1
 71
     2
 10
0.0
 20
0.0
 11
0.0
 21
0.0
 12
0.0
 22
0.0
 32
0.0
 14
0.0
 24
0.0
 34
0.0
 15
0.0
 25
0.0
 35
0.0
146
0.0
 13
0.0
 23
0.0
 33
0.0
 16
1.0
 26
0.0
 36
0.0
 17
0.0
 27
1.0
 37
0.0
 76
     0
330
23
  0
LAYOUT
  5
22
102
{ACAD_REACTORS
330
1A
102
}
330
1A
100
AcDbPlotSettings
  1

  2
none_device
  4

  6

 40
0.0
 41
0.0
 42
0.0
 43
0.0
 44
0.0
 45
0.0
 46
0.0
 47
0.0
 48
0.0
 49
0.0
140
0.0
141
0.0
142
1.0
143
1.0
 70
  1712
 72
     0
 73
     0
 74
     0
  7

 75
     0
 76
     0
 77
     2
 78
   300
147
1.0
148
0.0
149
0.0
100
AcDbLayout
  1
Model
 70
     1
 71
     0
 10
0.0
 20
0.0
 11
12.0
 21
9.0
 12
0.0
 22
0.0
 32
0.0
 14
1.000000000000000E+20
 24
1.000000000000000E+20
 34
1.000000000000000E+20
 15
-1.000000000000000E+20
 25
-1.000000000000000E+20
 35
-1.000000000000000E+20
146
0.0
 13
0.0
 23
0.0
 33
0.0
 16
1.0
 26
0.0
 36
0.0
 17
0.0
 27
1.0
 37
0.0
 76
     0
330
1F
331
29
  0
MATERIAL
  5
3D
102
{ACAD_REACTORS
330
3B
102
}
330
3B
100
AcDbMaterial
  1
ByBlock
 72
     1
 94
      127
  0
MATERIAL
  5
3C
102
{ACAD_REACTORS
330
3B
102
}
330
3B
100
AcDbMaterial
  1
ByLayer
 72
     1
 94
      127
  0
MATERIAL
  5
3E
102
{ACAD_REACTORS
330
3B
102
}
330
3B
100
AcDbMaterial
  1
Global
 72
     1
 94
      127
  0
MLINESTYLE
  5
18
102
{ACAD_REACTORS
330
17
102
}
330
17
100
AcDbMlineStyle
  2
Standard
 70
     0
  3

 62
   256
 51
90.0
 52
90.0
 71
     2
 49
0.5
 62
   256
  6
BYLAYER
 49
-0.5
 62
   256
  6
BYLAYER
  0
ACDBPLACEHOLDER
  5
F
102
{ACAD_REACTORS
330
E
102
}
330
E
  0
VISUALSTYLE
  5
2F
102
{ACAD_REACTORS
330
2A
102
}
330
2A
100
AcDbVisualStyle
  2
2dWireframe
 70
     4
177
     2
291
     0
 71
     0
176
     1
 72
     2
176
     1
 73
     0
176
     1
 90
        0
176
     1
 40
-0.6
176
     1
 41
-30.0
176
     1
 62
     5
 63
     7
421
 16777215
176
     1
 74
     1
176
     1
 91
        4
176
     1
 64
     7
176
     1
 65
   257
176
     1
 75
     1
176
     1
175
     1
176
     1
 42
1.0
176
     1
 92
        0
176
     1
 66
   257
176
     1
 43
1.0
176
     1
 76
     1
176
     1
 77
     6
176
     1
 78
     2
176
     1
 67
     7
176
     1
 79
     5
176
     1
170
     0
176
     1
171
     0
176
     1
290
     0
176
     1
 93
        1
176
     1
 44
0.0
176
     1
173
     0
176
     1
  0
VISUALSTYLE
  5
31
102
{ACAD_REACTORS
330
2A
102
}
330
2A
100
AcDbVisualStyle
  2
3D Hidden
 70
     6
177
     2
291
     0
 71
     1
176
     1
 72
     2
176
     1
 73
     2
176
     1
 90
        0
176
     1
 40
-0.6
176
     1
 41
-30.0
176
     1
 62
     5
 63
     7
421
 16777215
176
     1
 74
     2
176
     1
 91
        2
176
     1
 64
     7
176
     1
 65
   257
176
     1
 75
     2
176
     1
175
     1
176
     1
 42
40.0
176
     1
 92
        0
176
     1
 66
   257
176
     1
 43
1.0
176
     1
 76
     1
176
     1
 77
     6
176
     1
 78
     2
176
     1
 67
     7
176
     1
 79
     3
176
     1
170
     0
176
     1
171
     0
176
     1
290
     0
176
     1
 93
        1
176
     1
 44
0.0
176
     1
173
     0
176
     1
  0
VISUALSTYLE
  5
30
102
{ACAD_REACTORS
330
2A
102
}
330
2A
100
AcDbVisualStyle
  2
3dWireframe
 70
     5
177
     2
291
     0
 71
     0
176
     1
 72
     2
176
     1
 73
     0
176
     1
 90
        0
176
     1
 40
-0.6
176
     1
 41
-30.0
176
     1
 62
     5
 63
     7
421
 16777215
176
     1
 74
     1
176
     1
 91
        4
176
     1
 64
     7
176
     1
 65
   257
176
     1
 75
     1
176
     1
175
     1
176
     1
 42
1.0
176
     1
 92
        0
176
     1
 66
   257
176
     1
 43
1.0
176
     1
 76
     1
176
     1
 77
     6
176
     1
 78
     2
176
     1
 67
     7
176
     1
 79
     5
176
     1
170
     0
176
     1
171
     0
176
     1
290
     0
176
     1
 93
        1
176
     1
 44
0.0
176
     1
173
     0
176
     1
  0
VISUALSTYLE
  5
32
102
{ACAD_REACTORS
330
2A
102
}
330
2A
100
AcDbVisualStyle
  2
Basic
 70
     7
177
     2
291
     1
 71
     1
176
     1
 72
     0
176
     1
 73
     1
176
     1
 90
        0
176
     1
 40
-0.6
176
     1
 41
-30.0
176
     1
 62
     5
 63
     7
421
 16777215
176
     1
 74
     0
176
     1
 91
        4
176
     1
 64
     7
176
     1
 65
   257
176
     1
 75
     1
176
     1
175
     1
176
     1
 42
1.0
176
     1
 92
        8
176
     1
 66
     7
176
     1
 43
1.0
176
     1
 76
     1
176
     1
 77
     6
176
     1
 78
     2
176
     1
 67
     7
176
     1
 79
     5
176
     1
170
     0
176
     1
171
     0
176
     1
290
     0
176
     1
 93
        1
176
     1
 44
0.0
176
     1
173
     0
176
     1
  0
VISUALSTYLE
  5
36
102
{ACAD_REACTORS
330
2A
102
}
330
2A
100
AcDbVisualStyle
  2
Brighten
 70
    12
177
     2
291
     1
 71
     2
176
     1
 72
     2
176
     1
 73
     0
176
     1
 90
        0
176
     1
 40
-0.6
176
     1
 41
-30.0
176
     1
 62
     5
 63
     7
421
 16777215
176
     1
 74
     1
176
     1
 91
        4
176
     1
 64
     7
176
     1
 65
   257
176
     1
 75
     1
176
     1
175
     1
176
     1
 42
1.0
176
     1
 92
        8
176
     1
 66
     7
176
     1
 43
1.0
176
     1
 76
     1
176
     1
 77
     6
176
     1
 78
     2
176
     1
 67
     7
176
     1
 79
     5
176
     1
170
     0
176
     1
171
     0
176
     1
290
     0
176
     1
 93
        1
176
     1
 44
50.0
176
     1
173
     0
176
     1
  0
VISUALSTYLE
  5
3A
102
{ACAD_REACTORS
330
2A
102
}
330
2A
100
AcDbVisualStyle
  2
ColorChange
 70
    16
177
     2
291
     1
 71
     2
176
     1
 72
     2
176
     1
 73
     3
176
     1
 90
        0
176
     1
 40
-0.6
176
     1
 41
-30.0
176
     1
 62
     5
 63
     8
421
  8421504
176
     1
 74
     1
176
     1
 91
        4
176
     1
 64
     7
176
     1
 65
   257
176
     1
 75
     1
176
     1
175
     1
176
     1
 42
1.0
176
     1
 92
        8
176
     1
 66
     8
424
  8421504
176
     1
 43
1.0
176
     1
 76
     1
176
     1
 77
     6
176
     1
 78
     2
176
     1
 67
     7
176
     1
 79
     5
176
     1
170
     0
176
     1
171
     0
176
     1
290
     0
176
     1
 93
        1
176
     1
 44
0.0
176
     1
173
     0
176
     1
  0
VISUALSTYLE
  5
34
102
{ACAD_REACTORS
330
2A
102
}
330
2A
100
AcDbVisualStyle
  2
Conceptual
 70
     9
177
     2
291
     0
 71
     3
176
     1
 72
     2
176
     1
 73
     0
176
     1
 90
        0
176
     1
 40
-0.6
176
     1
 41
-30.0
176
     1
 62
     5
 63
     7
421
 16777215
176
     1
 74
     2
176
     1
 91
        2
176
     1
 64
     7
176
     1
 65
   257
176
     1
 75
     1
176
     1
175
     1
176
     1
 42
40.0
176
     1
 92
        8
176
     1
 66
     7
176
     1
 43
1.0
176
     1
 76
     1
176
     1
 77
     6
176
     1
 78
     2
176
     1
 67
     7
176
     1
 79
     3
176
     1
170
     0
176
     1
171
     0
176
     1
290
     0
176
     1
 93
        1
176
     1
 44
0.0
176
     1
173
     0
176
     1
  0
VISUALSTYLE
  5
35
102
{ACAD_REACTORS
330
2A
102
}
330
2A
100
AcDbVisualStyle
  2
Dim
 70
    11
177
     2
291
     1
 71
     2
176
     1
 72
     2
176
     1
 73
     0
176
     1
 90
        0
176
     1
 40
-0.6
176
     1
 41
-30.0
176
     1
 62
     5
 63
     7
421
 16777215
176
     1
 74
     1
176
     1
 91
        4
176
     1
 64
     7
176
     1
 65
   257
176
     1
 75
     1
176
     1
175
     1
176
     1
 42
1.0
176
     1
 92
        8
176
     1
 66
     7
176
     1
 43
1.0
176
     1
 76
     1
176
     1
 77
     6
176
     1
 78
     2
176
     1
 67
     7
176
     1
 79
     5
176
     1
170
     0
176
     1
171
     0
176
     1
290
     0
176
     1
 93
        1
176
     1
 44
-50.0
176
     1
173
     0
176
     1
  0
VISUALSTYLE
  5
39
102
{ACAD_REACTORS
330
2A
102
}
330
2A
100
AcDbVisualStyle
  2
Facepattern
 70
    15
177
     2
291
     1
 71
     2
176
     1
 72
     2
176
     1
 73
     0
176
     1
 90
        0
176
     1
 40
-0.6
176
     1
 41
-30.0
176
     1
 62
     5
 63
     7
421
 16777215
176
     1
 74
     1
176
     1
 91
        4
176
     1
 64
     7
176
     1
 65
   257
176
     1
 75
     1
176
     1
175
     1
176
     1
 42
1.0
176
     1
 92
        8
176
     1
 66
     7
176
     1
 43
1.0
176
     1
 76
     1
176
     1
 77
     6
176
     1
 78
     2
176
     1
 67
     7
176
     1
 79
     5
176
     1
170
     0
176
     1
171
     0
176
     1
290
     0
176
     1
 93
        1
176
     1
 44
0.0
176
     1
173
     0
176
     1
  0
VISUALSTYLE
  5
2B
102
{ACAD_REACTORS
330
2A
102
}
330
2A
100
AcDbVisualStyle
  2
Flat
 70
     0
177
     2
291
     1
 71
     2
176
     1
 72
     1
176
     1
 73
     1
176
     1
 90
        2
176
     1
 40
-0.6
176
     1
 41
30.0
176
     1
 62
     5
 63
     7
421
 16777215
176
     1
 74
     0
176
     1
 91
        4
176
     1
 64
     7
176
     1
 65
   257
176
     1
 75
     1
176
     1
175
     1
176
     1
 42
1.0
176
     1
 92
        8
176
     1
 66
     7
176
     1
 43
1.0
176
     1
 76
     1
176
     1
 77
     6
176
     1
 78
     2
176
     1
 67
     7
176
     1
 79
     5
176
     1
170
     0
176
     1
171
     0
176
     1
290
     0
176
     1
 93
       13
176
     1
 44
0.0
176
     1
173
     0
176
     1
  0
VISUALSTYLE
  5
2C
102
{ACAD_REACTORS
330
2A
102
}
330
2A
100
AcDbVisualStyle
  2
FlatWithEdges
 70
     1
177
     2
291
     1
 71
     2
176
     1
 72
     1
176
     1
 73
     1
176
     1
 90
        2
176
     1
 40
-0.6
176
     1
 41
30.0
176
     1
 62
     5
 63
     7
421
 16777215
176
     1
 74
     1
176
     1
 91
        4
176
     1
 64
     7
176
     1
 65
   257
176
     1
 75
     1
176
     1
175
     1
176
     1
 42
1.0
176
     1
 92
        0
176
     1
 66
   257
176
     1
 43
1.0
176
     1
 76
     1
176
     1
 77
     6
176
     1
 78
     2
176
     1
 67
     7
176
     1
 79
     5
176
     1
170
     0
176
     1
171
     0
176
     1
290
     0
176
     1
 93
       13
176
     1
 44
0.0
176
     1
173
     0
176
     1
  0
VISUALSTYLE
  5
2D
102
{ACAD_REACTORS
330
2A
102
}
330
2A
100
AcDbVisualStyle
  2
Gouraud
 70
     2
177
     2
291
     1
 71
     2
176
     1
 72
     2
176
     1
 73
     1
176
     1
 90
        2
176
     1
 40
-0.6
176
     1
 41
30.0
176
     1
 62
     5
 63
     7
421
 16777215
176
     1
 74
     0
176
     1
 91
        4
176
     1
 64
     7
176
     1
 65
   257
176
     1
 75
     1
176
     1
175
     1
176
     1
 42
1.0
176
     1
 92
        0
176
     1
 66
     7
176
     1
 43
1.0
176
     1
 76
     1
176
     1
 77
     6
176
     1
 78
     2
176
     1
 67
     7
176
     1
 79
     5
176
     1
170
     0
176
     1
171
     0
176
     1
290
     0
176
     1
 93
       13
176
     1
 44
0.0
176
     1
173
     0
176
     1
  0
VISUALSTYLE
  5
2E
102
{ACAD_REACTORS
330
2A
102
}
330
2A
100
AcDbVisualStyle
  2
GouraudWithEdges
 70
     3
177
     2
291
     1
 71
     2
176
     1
 72
     2
176
     1
 73
     1
176
     1
 90
        2
176
     1
 40
-0.6
176
     1
 41
30.0
176
     1
 62
     5
 63
     7
421
 16777215
176
     1
 74
     1
176
     1
 91
        4
176
     1
 64
     7
176
     1
 65
   257
176
     1
 75
     1
176
     1
175
     1
176
     1
 42
1.0
176
     1
 92
        0
176
     1
 66
   257
176
     1
 43
1.0
176
     1
 76
     1
176
     1
 77
     6
176
     1
 78
     2
176
     1
 67
     7
176
     1
 79
     5
176
     1
170
     0
176
     1
171
     0
176
     1
290
     0
176
     1
 93
       13
176
     1
 44
0.0
176
     1
173
     0
176
     1
  0
VISUALSTYLE
  5
38
102
{ACAD_REACTORS
330
2A
102
}
330
2A
100
AcDbVisualStyle
  2
Linepattern
 70
    14
177
     2
291
     1
 71
     2
176
     1
 72
     2
176
     1
 73
     0
176
     1
 90
        0
176
     1
 40
-0.6
176
     1
 41
-30.0
176
     1
 62
     5
 63
     7
421
 16777215
176
     1
 74
     1
176
     1
 91
        4
176
     1
 64
     7
176
     1
 65
   257
176
     1
 75
     7
176
     1
175
     7
176
     1
 42
1.0
176
     1
 92
        8
176
     1
 66
     7
176
     1
 43
1.0
176
     1
 76
     1
176
     1
 77
     6
176
     1
 78
     2
176
     1
 67
     7
176
     1
 79
     5
176
     1
170
     0
176
     1
171
     0
176
     1
290
     0
176
     1
 93
        1
176
     1
 44
0.0
176
     1
173
     0
176
     1
  0
VISUALSTYLE
  5
33
102
{ACAD_REACTORS
330
2A
102
}
330
2A
100
AcDbVisualStyle
  2
Realistic
 70
     8
177
     2
291
     0
 71
     2
176
     1
 72
     2
176
     1
 73
     0
176
     1
 90
        0
176
     1
 40
-0.6
176
     1
 41
-30.0
176
     1
 62
     5
 63
     7
421
 16777215
176
     1
 74
     1
176
     1
 91
        0
176
     1
 64
     7
176
     1
 65
   257
176
     1
 75
     1
176
     1
175
     1
176
     1
 42
1.0
176
     1
 92
        8
176
     1
 66
     8
424
  7895160
176
     1
 43
1.0
176
     1
 76
     1
176
     1
 77
     6
176
     1
 78
     2
176
     1
 67
     7
176
     1
 79
     5
176
     1
170
     0
176
     1
171
     0
176
     1
290
     0
176
     1
 93
       13
176
     1
 44
0.0
176
     1
173
     0
176
     1
  0
VISUALSTYLE
  5
37
102
{ACAD_REACTORS
330
2A
102
}
330
2A
100
AcDbVisualStyle
  2
Thicken
 70
    13
177
     2
291
     1
 71
     2
176
     1
 72
     2
176
     1
 73
     0
176
     1
 90
        0
176
     1
 40
-0.6
176
     1
 41
-30.0
176
     1
 62
     5
 63
     7
421
 16777215
176
     1
 74
     1
176
     1
 91
        4
176
     1
 64
     7
176
     1
 65
   257
176
     1
 75
     1
176
     1
175
     1
176
     1
 42
1.0
176
     1
 92
       12
176
     1
 66
     7
176
     1
 43
1.0
176
     1
 76
     1
176
     1
 77
     6
176
     1
 78
     2
176
     1
 67
     7
176
     1
 79
     5
176
     1
170
     0
176
     1
171
     0
176
     1
290
     0
176
     1
 93
        1
176
     1
 44
0.0
176
     1
173
     0
176
     1
  0
ENDSEC
  0
EOF
