  0
SECTION
  2
HEADER
  9
$ACADVER
  1
AC1024
  9
$ACADMAINTVER
 70
     6
  9
$DWGCODEPAGE
  3
UNDEFINED
  9
$INSBASE
 10
0.0
 20
0.0
 30
0.0
  9
$EXTMIN
 10
1.000000000000000E+20
 20
1.000000000000000E+20
 30
1.000000000000000E+20
  9
$EXTMAX
 10
-1.000000000000000E+20
 20
-1.000000000000000E+20
 30
-1.000000000000000E+20
  9
$LIMMIN
 10
0.0
 20
0.0
  9
$LIMMAX
 10
12.0
 20
9.0
  9
$ORTHOMODE
 70
     0
  9
$REGENMODE
 70
     1
  9
$FILLMODE
 70
     1
  9
$QTEXTMODE
 70
     0
  9
$MIRRTEXT
 70
     1
  9
$LTSCALE
 40
1.0
  9
$ATTMODE
 70
     1
  9
$TEXTSIZE
 40
0.2
  9
$TRACEWID
 40
0.05
  9
$TEXTSTYLE
  7
Standard
  9
$CLAYER
  8
0
  9
$CELTYPE
  6
ByLayer
  9
$CECOLOR
 62
   256
  9
$CELTSCALE
 40
1.0
  9
$DISPSILH
 70
     0
  9
$DIMSCALE
 40
1.0
  9
$DIMASZ
 40
0.18
  9
$DIMEXO
 40
0.0625
  9
$DIMDLI
 40
0.38
  9
$DIMRND
 40
0.0
  9
$DIMDLE
 40
0.0
  9
$DIMEXE
 40
0.18
  9
$DIMTP
 40
0.0
  9
$DIMTM
 40
0.0
  9
$DIMTXT
 40
0.18
  9
$DIMCEN
 40
0.09
  9
$DIMTSZ
 40
0.0
  9
$DIMTOL
 70
     0
  9
$DIMLIM
 70
     0
  9
$DIMTIH
 70
     1
  9
$DIMTOH
 70
     1
  9
$DIMSE1
 70
     0
  9
$DIMSE2
 70
     0
  9
$DIMTAD
 70
     0
  9
$DIMZIN
 70
     0
  9
$DIMBLK
  1

  9
$DIMASO
 70
     1
  9
$DIMSHO
 70
     1
  9
$DIMPOST
  1

  9
$DIMAPOST
  1

  9
$DIMALT
 70
     0
  9
$DIMALTD
 70
     2
  9
$DIMALTF
 40
25.4
  9
$DIMLFAC
 40
1.0
  9
$DIMTOFL
 70
     0
  9
$DIMTVP
 40
0.0
  9
$DIMTIX
 70
     0
  9
$DIMSOXD
 70
     0
  9
$DIMSAH
 70
     0
  9
$DIMBLK1
  1

  9
$DIMBLK2
  1

  9
$DIMSTYLE
  2
Standard
  9
$DIMCLRD
 70
     0
  9
$DIMCLRE
 70
     0
  9
$DIMCLRT
 70
     0
  9
$DIMTFAC
 40
1.0
  9
$DIMGAP
 40
0.09
  9
$DIMJUST
 70
     0
  9
$DIMSD1
 70
     0
  9
$DIMSD2
 70
     0
  9
$DIMTOLJ
 70
     1
  9
$DIMTZIN
 70
     0
  9
$DIMALTZ
 70
     0
  9
$DIMALTTZ
 70
     0
  9
$DIMUPT
 70
     0
  9
$DIMDEC
 70
     4
  9
$DIMTDEC
 70
     4
  9
$DIMALTU
 70
     2
  9
$DIMALTTD
 70
     2
  9
$DIMTXSTY
  7
Standard
  9
$DIMAUNIT
 70
     0
  9
$DIMADEC
 70
     0
  9
$DIMALTRND
 40
0.0
  9
$DIMAZIN
 70
     0
  9
$DIMDSEP
 70
    46
  9
$DIMATFIT
 70
     3
  9
$DIMFRAC
 70
     0
  9
$DIMLDRBLK
  1

  9
$DIMLUNIT
 70
     2
  9
$DIMLWD
 70
    -2
  9
$DIMLWE
 70
    -2
  9
$DIMTMOVE
 70
     0
  9
$DIMFXL
 40
1.0
  9
$DIMFXLON
 70
     0
  9
$DIMJOGANG
 40
0.7853981633974483
  9
$DIMTFILL
 70
     0
  9
$DIMTFILLCLR
 70
     0
  9
$DIMARCSYM
 70
     0
  9
$DIMLTYPE
  6

  9
$DIMLTEX1
  6

  9
$DIMLTEX2
  6

  9
$DIMTXTDIRECTION
 70
     0
  9
$LUNITS
 70
     2
  9
$LUPREC
 70
     4
  9
$SKETCHINC
 40
0.1
  9
$FILLETRAD
 40
0.5
  9
$AUNITS
 70
     0
  9
$AUPREC
 70
     0
  9
$MENU
  1
.
  9
$ELEVATION
 40
0.0
  9
$PELEVATION
 40
0.0
  9
$THICKNESS
 40
0.0
  9
$LIMCHECK
 70
     0
  9
$CHAMFERA
 40
0.5
  9
$CHAMFERB
 40
0.5
  9
$CHAMFERC
 40
1.0
  9
$CHAMFERD
 40
0.0
  9
$SKPOLY
 70
     0
  9
$TDCREATE
 40
2458263.583171296
  9
$TDUCREATE
 40
2458263.208171296
  9
$TDUPDATE
 40
2458263.583171296
  9
$TDUUPDATE
 40
2458263.208171296
  9
$TDINDWG
 40
0.0000000116
  9
$TDUSRTIMER
 40
0.0000000116
  9
$USRTIMER
 70
     1
  9
$ANGBASE
 50
0.0
  9
$ANGDIR
 70
     0
  9
$PDMODE
 70
     0
  9
$PDSIZE
 40
0.0
  9
$PLINEWID
 40
0.0
  9
$SPLFRAME
 70
     0
  9
$SPLINETYPE
 70
     6
  9
$SPLINESEGS
 70
     8
  9
$HANDSEED
  5
D0
  9
$SURFTAB1
 70
     6
  9
$SURFTAB2
 70
     6
  9
$SURFTYPE
 70
     6
  9
$SURFU
 70
     6
  9
$SURFV
 70
     6
  9
$UCSBASE
  2

  9
$UCSNAME
  2

  9
$UCSORG
 10
0.0
 20
0.0
 30
0.0
  9
$UCSXDIR
 10
1.0
 20
0.0
 30
0.0
  9
$UCSYDIR
 10
0.0
 20
1.0
 30
0.0
  9
$UCSORTHOREF
  2

  9
$UCSORTHOVIEW
 70
     0
  9
$UCSORGTOP
 10
0.0
 20
0.0
 30
0.0
  9
$UCSORGBOTTOM
 10
0.0
 20
0.0
 30
0.0
  9
$UCSORGLEFT
 10
0.0
 20
0.0
 30
0.0
  9
$UCSORGRIGHT
 10
0.0
 20
0.0
 30
0.0
  9
$UCSORGFRONT
 10
0.0
 20
0.0
 30
0.0
  9
$UCSORGBACK
 10
0.0
 20
0.0
 30
0.0
  9
$PUCSBASE
  2

  9
$PUCSNAME
  2

  9
$PUCSORG
 10
0.0
 20
0.0
 30
0.0
  9
$PUCSXDIR
 10
1.0
 20
0.0
 30
0.0
  9
$PUCSYDIR
 10
0.0
 20
1.0
 30
0.0
  9
$PUCSORTHOREF
  2

  9
$PUCSORTHOVIEW
 70
     0
  9
$PUCSORGTOP
 10
0.0
 20
0.0
 30
0.0
  9
$PUCSORGBOTTOM
 10
0.0
 20
0.0
 30
0.0
  9
$PUCSORGLEFT
 10
0.0
 20
0.0
 30
0.0
  9
$PUCSORGRIGHT
 10
0.0
 20
0.0
 30
0.0
  9
$PUCSORGFRONT
 10
0.0
 20
0.0
 30
0.0
  9
$PUCSORGBACK
 10
0.0
 20
0.0
 30
0.0
  9
$USERI1
 70
     0
  9
$USERI2
 70
     0
  9
$USERI3
 70
     0
  9
$USERI4
 70
     0
  9
$USERI5
 70
     0
  9
$USERR1
 40
0.0
  9
$USERR2
 40
0.0
  9
$USERR3
 40
0.0
  9
$USERR4
 40
0.0
  9
$USERR5
 40
0.0
  9
$WORLDVIEW
 70
     1
  9
$SHADEDGE
 70
     3
  9
$SHADEDIF
 70
    70
  9
$TILEMODE
 70
     1
  9
$MAXACTVP
 70
    64
  9
$PINSBASE
 10
0.0
 20
0.0
 30
0.0
  9
$PLIMCHECK
 70
     0
  9
$PEXTMIN
 10
1.000000000000000E+20
 20
1.000000000000000E+20
 30
1.000000000000000E+20
  9
$PEXTMAX
 10
-1.000000000000000E+20
 20
-1.000000000000000E+20
 30
-1.000000000000000E+20
  9
$PLIMMIN
 10
0.0
 20
0.0
  9
$PLIMMAX
 10
12.0
 20
9.0
  9
$UNITMODE
 70
     0
  9
$VISRETAIN
 70
     1
  9
$PLINEGEN
 70
     0
  9
$PSLTSCALE
 70
     1
  9
$TREEDEPTH
 70
  3020
  9
$CMLSTYLE
  2
Standard
  9
$CMLJUST
 70
     0
  9
$CMLSCALE
 40
1.0
  9
$PROXYGRAPHICS
 70
     1
  9
$MEASUREMENT
 70
     0
  9
$CELWEIGHT
370
    -1
  9
$ENDCAPS
280
     0
  9
$JOINSTYLE
280
     0
  9
$LWDISPLAY
290
     1
  9
$INSUNITS
 70
     1
  9
$HYPERLINKBASE
  1

  9
$STYLESHEET
  1

  9
$XEDIT
290
     1
  9
$CEPSNTYPE
380
     0
  9
$PSTYLEMODE
290
     1
  9
$FINGERPRINTGUID
  2
{624289F1-8172-8384-E7EC-3801F4831C64}
  9
$VERSIONGUID
  2
{FAEB1C32-E019-11D5-929B-00C0DF256EC4}
  9
$EXTNAMES
290
     1
  9
$PSVPSCALE
 40
0.0
  9
$OLESTARTUP
290
     0
  9
$SORTENTS
280
   127
  9
$INDEXCTL
280
     0
  9
$HIDETEXT
280
     1
  9
$XCLIPFRAME
280
     2
  9
$HALOGAP
280
     0
  9
$OBSCOLOR
 70
   257
  9
$OBSLTYPE
280
     0
  9
$INTERSECTIONDISPLAY
280
     0
  9
$INTERSECTIONCOLOR
 70
   257
  9
$DIMASSOC
280
     2
  9
$PROJECTNAME
  1

  9
$CAMERADISPLAY
290
     0
  9
$LENSLENGTH
 40
50.0
  9
$CAMERAHEIGHT
 40
0.0
  9
$STEPSPERSEC
 40
2.0
  9
$STEPSIZE
 40
6.0
  9
$3DDWFPREC
 40
2.0
  9
$PSOLWIDTH
 40
0.25
  9
$PSOLHEIGHT
 40
4.0
  9
$LOFTANG1
 40
1.570796326794897
  9
$LOFTANG2
 40
1.570796326794897
  9
$LOFTMAG1
 40
0.0
  9
$LOFTMAG2
 40
0.0
  9
$LOFTPARAM
 70
     7
  9
$LOFTNORMALS
280
     1
  9
$LATITUDE
 40
37.795
  9
$LONGITUDE
 40
-122.394
  9
$NORTHDIRECTION
 40
0.0
  9
$TIMEZONE
 70
 -8000
  9
$LIGHTGLYPHDISPLAY
280
     1
  9
$TILEMODELIGHTSYNCH
280
     1
  9
$CMATERIAL
347
3C
  9
$SOLIDHIST
280
     1
  9
$SHOWHIST
280
     1
  9
$DWFFRAME
280
     2
  9
$DGNFRAME
280
     2
  9
$REALWORLDSCALE
290
     1
  9
$INTERFERECOLOR
 62
   256
  9
$CSHADOW
280
     0
  9
$SHADOWPLANELOCATION
 40
0.0
  0
ENDSEC
  0
SECTION
  2
CLASSES
  0
CLASS
  1
ACDBDICTIONARYWDFLT
  2
AcDbDictionaryWithDefault
  3
ObjectDBX Classes
 90
        0
 91
        4
280
     0
281
     0
  0
CLASS
  1
VISUALSTYLE
  2
AcDbVisualStyle
  3
ObjectDBX Classes
 90
     4095
 91
        4
280
     0
281
     0
  0
CLASS
  1
MATERIAL
  2
AcDbMaterial
  3
ObjectDBX Classes
 90
     1153
 91
        4
280
     0
281
     0
  0
CLASS
  1
SUN
  2
AcDbSun
  3
SCENEOE
 90
     1024
 91
        4
280
     0
281
     0
  0
ENDSEC
  0
SECTION
  2
TABLES
  0
TABLE
  2
VPORT
  5
8
330
0
100
AcDbSymbolTable
 70
     1
  0
VPORT
  5
29
330
8
100
AcDbSymbolTableRecord
100
AcDbViewportTableRecord
  2
*Active
 70
     0
 10
0.0
 20
0.0
 11
1.0
 21
1.0
 12
0.0
 22
0.0
 13
0.0
 23
0.0
 14
0.5
 24
0.5
 15
0.5
 25
0.5
 16
0.0
 26
0.0
 36
1.0
 17
105.0007777515277
 27
-148.5000416295416
 37
0.0
 40
297.0000832590831
 41
0.7070757462376333
 42
50.0
 43
0.0
 44
0.0
 50
0.0
 51
0.0
 71
     0
 72
   100
 73
     1
 74
     3
 75
     0
 76
     0
 77
     0
 78
     0
281
     0
 65
     1
110
0.0
120
0.0
130
0.0
111
1.0
121
0.0
131
0.0
112
0.0
122
1.0
132
0.0
 79
     0
146
0.0
 60
     3
 61
     5
292
     1
282
     1
141
0.0
142
0.0
 63
   250
361
3F
  0
ENDTAB
  0
TABLE
  2
LTYPE
  5
5
330
0
100
AcDbSymbolTable
 70
     2
  0
LTYPE
  5
14
330
5
100
AcDbSymbolTableRecord
100
AcDbLinetypeTableRecord
  2
ByBlock
 70
     0
  3

 72
    65
 73
     0
 40
0.0
  0
LTYPE
  5
15
330
5
100
AcDbSymbolTableRecord
100
AcDbLinetypeTableRecord
  2
ByLayer
 70
     0
  3

 72
    65
 73
     0
 40
0.0
  0
LTYPE
  5
16
330
5
100
AcDbSymbolTableRecord
100
AcDbLinetypeTableRecord
  2
Continuous
 70
     0
  3
Solid line
 72
    65
 73
     0
 40
0.0
  0
LTYPE
  5
CC
330
5
100
AcDbSymbolTableRecord
100
AcDbLinetypeTableRecord
  2
AI-Linetype-1
 70
     0
  3
Adobe Illustrator Linetype No. 1
 72
    65
 73
     2
 40
1.411111110758333
 49
0.7055555553791667
 74
     0
 49
-0.7055555553791667
 74
     0
  0
ENDTAB
  0
TABLE
  2
LAYER
  5
2
330
0
100
AcDbSymbolTable
 70
     2
  0
LAYER
  5
10
330
2
100
AcDbSymbolTableRecord
100
AcDbLayerTableRecord
  2
0
 70
     0
 62
     7
  6
Continuous
370
    -3
390
F
347
3E
  0
LAYER
  5
40
330
2
100
AcDbSymbolTableRecord
100
AcDbLayerTableRecord
  2
_U+30EC_U+30A4_U+30E4_U+30FC 1
 70
     0
 62
     7
  6
Continuous
370
    -3
390
F
347
3E
  0
ENDTAB
  0
TABLE
  2
STYLE
  5
3
330
0
100
AcDbSymbolTable
 70
     1
  0
STYLE
  5
11
330
3
100
AcDbSymbolTableRecord
100
AcDbTextStyleTableRecord
  2
Standard
 70
     0
 40
0.0
 41
1.0
 50
0.0
 71
     0
 42
0.2
  3
txt
  4

  0
ENDTAB
  0
TABLE
  2
VIEW
  5
6
330
0
100
AcDbSymbolTable
 70
     0
  0
ENDTAB
  0
TABLE
  2
UCS
  5
7
330
0
100
AcDbSymbolTable
 70
     0
  0
ENDTAB
  0
TABLE
  2
APPID
  5
9
330
0
100
AcDbSymbolTable
 70
     1
  0
APPID
  5
12
330
9
100
AcDbSymbolTableRecord
100
AcDbRegAppTableRecord
  2
ACAD
 70
     0
  0
ENDTAB
  0
TABLE
  2
DIMSTYLE
  5
A
330
0
100
AcDbSymbolTable
 70
     1
100
AcDbDimStyleTable
  0
DIMSTYLE
105
27
330
A
100
AcDbSymbolTableRecord
100
AcDbDimStyleTableRecord
  2
Standard
 70
     0
178
     0
340
11
  0
ENDTAB
  0
TABLE
  2
BLOCK_RECORD
  5
1
330
0
100
AcDbSymbolTable
 70
     7
  0
BLOCK_RECORD
  5
1F
330
1
100
AcDbSymbolTableRecord
100
AcDbBlockTableRecord
  2
*Model_Space
340
22
 70
     0
280
     1
281
     0
  0
BLOCK_RECORD
  5
1B
330
1
100
AcDbSymbolTableRecord
100
AcDbBlockTableRecord
  2
*Paper_Space
340
1E
 70
     0
280
     1
281
     0
  0
BLOCK_RECORD
  5
23
330
1
100
AcDbSymbolTableRecord
100
AcDbBlockTableRecord
  2
*Paper_Space0
340
26
 70
     0
280
     1
281
     0
  0
BLOCK_RECORD
  5
53
330
1
100
AcDbSymbolTableRecord
100
AcDbBlockTableRecord
  2
block 2
340
0
102
{BLKREFS
331
54
102
}
 70
     0
280
     1
281
     0
  0
BLOCK_RECORD
  5
69
330
1
100
AcDbSymbolTableRecord
100
AcDbBlockTableRecord
  2
block 3
340
0
102
{BLKREFS
331
6A
102
}
 70
     0
280
     1
281
     0
  0
BLOCK_RECORD
  5
7D
330
1
100
AcDbSymbolTableRecord
100
AcDbBlockTableRecord
  2
block 4
340
0
102
{BLKREFS
331
7E
102
}
 70
     0
280
     1
281
     0
  0
BLOCK_RECORD
  5
92
330
1
100
AcDbSymbolTableRecord
100
AcDbBlockTableRecord
  2
block 5
340
0
102
{BLKREFS
331
93
102
}
 70
     0
280
     1
281
     0
  0
BLOCK_RECORD
  5
A4
330
1
100
AcDbSymbolTableRecord
100
AcDbBlockTableRecord
  2
block 6
340
0
102
{BLKREFS
331
A5
102
}
 70
     0
280
     1
281
     0
  0
BLOCK_RECORD
  5
B9
330
1
100
AcDbSymbolTableRecord
100
AcDbBlockTableRecord
  2
block 7
340
0
102
{BLKREFS
331
BA
102
}
 70
     0
280
     1
281
     0
  0
ENDTAB
  0
ENDSEC
  0
SECTION
  2
BLOCKS
  0
BLOCK
  5
20
330
1F
100
AcDbEntity
  8
0
100
AcDbBlockBegin
  2
*Model_Space
 70
     0
 10
0.0
 20
0.0
 30
0.0
  3
*Model_Space
  1

  0
ENDBLK
  5
21
330
1F
100
AcDbEntity
  8
0
100
AcDbBlockEnd
  0
BLOCK
  5
1C
330
1B
100
AcDbEntity
 67
     1
  8
0
100
AcDbBlockBegin
  2
*Paper_Space
 70
     0
 10
0.0
 20
0.0
 30
0.0
  3
*Paper_Space
  1

  0
ENDBLK
  5
1D
330
1B
100
AcDbEntity
 67
     1
  8
0
100
AcDbBlockEnd
  0
BLOCK
  5
24
330
23
100
AcDbEntity
  8
0
100
AcDbBlockBegin
  2
*Paper_Space0
 70
     0
 10
0.0
 20
0.0
 30
0.0
  3
*Paper_Space0
  1

  0
ENDBLK
  5
25
330
23
100
AcDbEntity
  8
0
100
AcDbBlockEnd
  0
BLOCK
  5
55
330
53
100
AcDbEntity
  8
0
100
AcDbBlockBegin
  2
block 2
 70
     0
 10
0.0
 20
0.0
 30
0.0
  3
block 2
  1

  0
SPLINE
  5
57
330
53
100
AcDbEntity
  8
_U+30EC_U+30A4_U+30E4_U+30FC 1
370
     0
100
AcDbSpline
210
0.0
220
0.0
230
1.0
 70
    11
 71
     3
 72
    26
 73
    22
 74
     0
 42
0.0000000001
 43
0.0000000001
 12
1.0
 22
0.0
 32
0.0
 13
1.0
 23
0.0
 33
0.0
 40
0.0
 40
0.0
 40
0.0
 40
0.0
 40
1.0
 40
1.0
 40
1.0
 40
2.0
 40
2.0
 40
2.0
 40
3.0
 40
3.0
 40
3.0
 40
4.0
 40
4.0
 40
4.0
 40
5.0
 40
5.0
 40
5.0
 40
6.0
 40
6.0
 40
6.0
 40
7.0
 40
7.0
 40
7.0
 40
7.0
 10
102.371701363296
 20
-135.9649996947414
 30
0.0
 10
102.371701363296
 20
-135.9649996947414
 30
0.0
 10
102.1346787939108
 20
-135.9649996947414
 30
0.0
 10
102.1346787939108
 20
-135.9649996947414
 30
0.0
 10
102.1601725005016
 20
-135.6559746297145
 30
0.0
 10
102.3527533381271
 20
-135.1378322687329
 30
0.0
 10
102.7589300958381
 20
-134.6320922514982
 30
0.0
 10
102.7589300958381
 20
-134.6320922514982
 30
0.0
 10
101.9210828738253
 20
-134.6320922514982
 30
0.0
 10
101.9210828738253
 20
-134.6320922514982
 30
0.0
 10
101.9210828738253
 20
-134.6320922514982
 30
0.0
 10
101.9210828738253
 20
-134.4205633887039
 30
0.0
 10
101.9210828738253
 20
-134.4205633887039
 30
0.0
 10
101.9210828738253
 20
-134.4205633887039
 30
0.0
 10
102.9959526652232
 20
-134.4205633887039
 30
0.0
 10
102.9959526652232
 20
-134.4205633887039
 30
0.0
 10
102.9959526652232
 20
-134.4205633887039
 30
0.0
 10
102.9959526652232
 20
-134.6320922514982
 30
0.0
 10
102.9959526652232
 20
-134.6320922514982
 30
0.0
 10
102.6721136896098
 20
-134.9221692913563
 30
0.0
 10
102.4054632990514
 20
-135.5143812052707
 30
0.0
 10
102.371701363296
 20
-135.9649996947414
 30
0.0
  0
HATCH
  5
58
330
53
100
AcDbEntity
  8
_U+30EC_U+30A4_U+30E4_U+30FC 1
 62
   179
420
  2234388
100
AcDbHatch
 10
0.0
 20
0.0
 30
0.0
210
0.0
220
0.0
230
1.0
  2
SOLID
 70
     1
 71
     0
 91
        1
 92
        1
 93
        1
 72
     4
 94
        3
 73
     0
 74
     1
 95
       26
 96
       22
 40
0.0
 40
0.0
 40
0.0
 40
0.0
 40
1.0
 40
1.0
 40
1.0
 40
2.0
 40
2.0
 40
2.0
 40
3.0
 40
3.0
 40
3.0
 40
4.0
 40
4.0
 40
4.0
 40
5.0
 40
5.0
 40
5.0
 40
6.0
 40
6.0
 40
6.0
 40
7.0
 40
7.0
 40
7.0
 40
7.0
 10
102.371701363296
 20
-135.9649996947414
 10
102.371701363296
 20
-135.9649996947414
 10
102.1346787939108
 20
-135.9649996947414
 10
102.1346787939108
 20
-135.9649996947414
 10
102.1601725005016
 20
-135.6559746297145
 10
102.3527533381271
 20
-135.1378322687329
 10
102.7589300958381
 20
-134.6320922514982
 10
102.7589300958381
 20
-134.6320922514982
 10
101.9210828738253
 20
-134.6320922514982
 10
101.9210828738253
 20
-134.6320922514982
 10
101.9210828738253
 20
-134.6320922514982
 10
101.9210828738253
 20
-134.4205633887039
 10
101.9210828738253
 20
-134.4205633887039
 10
101.9210828738253
 20
-134.4205633887039
 10
102.9959526652232
 20
-134.4205633887039
 10
102.9959526652232
 20
-134.4205633887039
 10
102.9959526652232
 20
-134.4205633887039
 10
102.9959526652232
 20
-134.6320922514982
 10
102.9959526652232
 20
-134.6320922514982
 10
102.6721136896098
 20
-134.9221692913563
 10
102.4054632990514
 20
-135.5143812052707
 10
102.371701363296
 20
-135.9649996947414
 97
        0
 97
        0
 75
     2
 76
     1
 98
        0
  0
ENDBLK
  5
56
330
53
100
AcDbEntity
  8
0
100
AcDbBlockEnd
  0
BLOCK
  5
6B
330
69
100
AcDbEntity
  8
0
100
AcDbBlockBegin
  2
block 3
 70
     0
 10
0.0
 20
0.0
 30
0.0
  3
block 3
  1

  0
SPLINE
  5
6D
330
69
100
AcDbEntity
  8
_U+30EC_U+30A4_U+30E4_U+30FC 1
370
     0
100
AcDbSpline
210
0.0
220
0.0
230
1.0
 70
    11
 71
     3
 72
    26
 73
    22
 74
     0
 42
0.0000000001
 43
0.0000000001
 12
1.0
 22
0.0
 32
0.0
 13
1.0
 23
0.0
 33
0.0
 40
0.0
 40
0.0
 40
0.0
 40
0.0
 40
1.0
 40
1.0
 40
1.0
 40
2.0
 40
2.0
 40
2.0
 40
3.0
 40
3.0
 40
3.0
 40
4.0
 40
4.0
 40
4.0
 40
5.0
 40
5.0
 40
5.0
 40
6.0
 40
6.0
 40
6.0
 40
7.0
 40
7.0
 40
7.0
 40
7.0
 10
101.9303846316355
 20
-143.1752400358208
 30
0.0
 10
101.9303846316355
 20
-143.1752400358208
 30
0.0
 10
101.9303846316355
 20
-142.0710869327982
 30
0.0
 10
101.9303846316355
 20
-142.0710869327982
 30
0.0
 10
101.9303846316355
 20
-142.0710869327982
 30
0.0
 10
101.6003444841485
 20
-142.0710869327982
 30
0.0
 10
101.6003444841485
 20
-142.0710869327982
 30
0.0
 10
101.6003444841485
 20
-142.0710869327982
 30
0.0
 10
101.6003444841485
 20
-141.9229478269325
 30
0.0
 10
101.6003444841485
 20
-141.9229478269325
 30
0.0
 10
101.9324516889266
 20
-141.9081339163459
 30
0.0
 10
101.9789604779775
 20
-141.7451808998936
 30
0.0
 10
102.0085882991506
 20
-141.6308037297833
 30
0.0
 10
102.0085882991506
 20
-141.6308037297833
 30
0.0
 10
102.1546603477252
 20
-141.6308037297833
 30
0.0
 10
102.1546603477252
 20
-141.6308037297833
 30
0.0
 10
102.1546603477252
 20
-141.6308037297833
 30
0.0
 10
102.1546603477252
 20
-143.1752400358208
 30
0.0
 10
102.1546603477252
 20
-143.1752400358208
 30
0.0
 10
102.1546603477252
 20
-143.1752400358208
 30
0.0
 10
101.9303846316355
 20
-143.1752400358208
 30
0.0
 10
101.9303846316355
 20
-143.1752400358208
 30
0.0
  0
HATCH
  5
6E
330
69
100
AcDbEntity
  8
_U+30EC_U+30A4_U+30E4_U+30FC 1
 62
   179
420
  2234388
100
AcDbHatch
 10
0.0
 20
0.0
 30
0.0
210
0.0
220
0.0
230
1.0
  2
SOLID
 70
     1
 71
     0
 91
        1
 92
        1
 93
        1
 72
     4
 94
        3
 73
     0
 74
     1
 95
       26
 96
       22
 40
0.0
 40
0.0
 40
0.0
 40
0.0
 40
1.0
 40
1.0
 40
1.0
 40
2.0
 40
2.0
 40
2.0
 40
3.0
 40
3.0
 40
3.0
 40
4.0
 40
4.0
 40
4.0
 40
5.0
 40
5.0
 40
5.0
 40
6.0
 40
6.0
 40
6.0
 40
7.0
 40
7.0
 40
7.0
 40
7.0
 10
101.9303846316355
 20
-143.1752400358208
 10
101.9303846316355
 20
-143.1752400358208
 10
101.9303846316355
 20
-142.0710869327982
 10
101.9303846316355
 20
-142.0710869327982
 10
101.9303846316355
 20
-142.0710869327982
 10
101.6003444841485
 20
-142.0710869327982
 10
101.6003444841485
 20
-142.0710869327982
 10
101.6003444841485
 20
-142.0710869327982
 10
101.6003444841485
 20
-141.9229478269325
 10
101.6003444841485
 20
-141.9229478269325
 10
101.9324516889266
 20
-141.9081339163459
 10
101.9789604779775
 20
-141.7451808998936
 10
102.0085882991506
 20
-141.6308037297833
 10
102.0085882991506
 20
-141.6308037297833
 10
102.1546603477252
 20
-141.6308037297833
 10
102.1546603477252
 20
-141.6308037297833
 10
102.1546603477252
 20
-141.6308037297833
 10
102.1546603477252
 20
-143.1752400358208
 10
102.1546603477252
 20
-143.1752400358208
 10
102.1546603477252
 20
-143.1752400358208
 10
101.9303846316355
 20
-143.1752400358208
 10
101.9303846316355
 20
-143.1752400358208
 97
        0
 97
        0
 75
     2
 76
     1
 98
        0
  0
ENDBLK
  5
6C
330
69
100
AcDbEntity
  8
0
100
AcDbBlockEnd
  0
BLOCK
  5
7F
330
7D
100
AcDbEntity
  8
0
100
AcDbBlockBegin
  2
block 4
 70
     0
 10
0.0
 20
0.0
 30
0.0
  3
block 4
  1

  0
SPLINE
  5
81
330
7D
100
AcDbEntity
  8
_U+30EC_U+30A4_U+30E4_U+30FC 1
370
     0
100
AcDbSpline
210
0.0
220
0.0
230
1.0
 70
    11
 71
     3
 72
    26
 73
    22
 74
     0
 42
0.0000000001
 43
0.0000000001
 12
1.0
 22
0.0
 32
0.0
 13
1.0
 23
0.0
 33
0.0
 40
0.0
 40
0.0
 40
0.0
 40
0.0
 40
1.0
 40
1.0
 40
1.0
 40
2.0
 40
2.0
 40
2.0
 40
3.0
 40
3.0
 40
3.0
 40
4.0
 40
4.0
 40
4.0
 40
5.0
 40
5.0
 40
5.0
 40
6.0
 40
6.0
 40
6.0
 40
7.0
 40
7.0
 40
7.0
 40
7.0
 10
117.3509765331623
 20
-153.3191514373647
 30
0.0
 10
117.3509765331623
 20
-153.3191514373647
 30
0.0
 10
116.2468234301397
 20
-153.3191514373647
 30
0.0
 10
116.2468234301397
 20
-153.3191514373647
 30
0.0
 10
116.2468234301397
 20
-153.3191514373647
 30
0.0
 10
116.2468234301397
 20
-153.6491915848516
 30
0.0
 10
116.2468234301397
 20
-153.6491915848516
 30
0.0
 10
116.2468234301397
 20
-153.6491915848516
 30
0.0
 10
116.0986843242739
 20
-153.6491915848516
 30
0.0
 10
116.0986843242739
 20
-153.6491915848516
 30
0.0
 10
116.0838704136874
 20
-153.3170843800735
 30
0.0
 10
115.9209173972351
 20
-153.2705755910226
 30
0.0
 10
115.8065402271248
 20
-153.2409477698495
 30
0.0
 10
115.8065402271248
 20
-153.2409477698495
 30
0.0
 10
115.8065402271248
 20
-153.0948757212749
 30
0.0
 10
115.8065402271248
 20
-153.0948757212749
 30
0.0
 10
115.8065402271248
 20
-153.0948757212749
 30
0.0
 10
117.3509765331623
 20
-153.0948757212749
 30
0.0
 10
117.3509765331623
 20
-153.0948757212749
 30
0.0
 10
117.3509765331623
 20
-153.0948757212749
 30
0.0
 10
117.3509765331623
 20
-153.3191514373647
 30
0.0
 10
117.3509765331623
 20
-153.3191514373647
 30
0.0
  0
HATCH
  5
82
330
7D
100
AcDbEntity
  8
_U+30EC_U+30A4_U+30E4_U+30FC 1
 62
   179
420
  2234388
100
AcDbHatch
 10
0.0
 20
0.0
 30
0.0
210
0.0
220
0.0
230
1.0
  2
SOLID
 70
     1
 71
     0
 91
        1
 92
        1
 93
        1
 72
     4
 94
        3
 73
     0
 74
     1
 95
       26
 96
       22
 40
0.0
 40
0.0
 40
0.0
 40
0.0
 40
1.0
 40
1.0
 40
1.0
 40
2.0
 40
2.0
 40
2.0
 40
3.0
 40
3.0
 40
3.0
 40
4.0
 40
4.0
 40
4.0
 40
5.0
 40
5.0
 40
5.0
 40
6.0
 40
6.0
 40
6.0
 40
7.0
 40
7.0
 40
7.0
 40
7.0
 10
117.3509765331623
 20
-153.3191514373647
 10
117.3509765331623
 20
-153.3191514373647
 10
116.2468234301397
 20
-153.3191514373647
 10
116.2468234301397
 20
-153.3191514373647
 10
116.2468234301397
 20
-153.3191514373647
 10
116.2468234301397
 20
-153.6491915848516
 10
116.2468234301397
 20
-153.6491915848516
 10
116.2468234301397
 20
-153.6491915848516
 10
116.0986843242739
 20
-153.6491915848516
 10
116.0986843242739
 20
-153.6491915848516
 10
116.0838704136874
 20
-153.3170843800735
 10
115.9209173972351
 20
-153.2705755910226
 10
115.8065402271248
 20
-153.2409477698495
 10
115.8065402271248
 20
-153.2409477698495
 10
115.8065402271248
 20
-153.0948757212749
 10
115.8065402271248
 20
-153.0948757212749
 10
115.8065402271248
 20
-153.0948757212749
 10
117.3509765331623
 20
-153.0948757212749
 10
117.3509765331623
 20
-153.0948757212749
 10
117.3509765331623
 20
-153.0948757212749
 10
117.3509765331623
 20
-153.3191514373647
 10
117.3509765331623
 20
-153.3191514373647
 97
        0
 97
        0
 75
     2
 76
     1
 98
        0
  0
SPLINE
  5
83
330
7D
100
AcDbEntity
  8
_U+30EC_U+30A4_U+30E4_U+30FC 1
370
     0
100
AcDbSpline
210
0.0
220
0.0
230
1.0
 70
    11
 71
     3
 72
    29
 73
    25
 74
     0
 42
0.0000000001
 43
0.0000000001
 12
1.0
 22
0.0
 32
0.0
 13
1.0
 23
0.0
 33
0.0
 40
0.0
 40
0.0
 40
0.0
 40
0.0
 40
1.0
 40
1.0
 40
1.0
 40
2.0
 40
2.0
 40
2.0
 40
3.0
 40
3.0
 40
3.0
 40
4.0
 40
4.0
 40
4.0
 40
5.0
 40
5.0
 40
5.0
 40
6.0
 40
6.0
 40
6.0
 40
7.0
 40
7.0
 40
7.0
 40
8.0
 40
8.0
 40
8.0
 40
8.0
 10
117.1732096061234
 20
-151.6958224447149
 30
0.0
 10
117.3826714116266
 20
-151.8039984429518
 30
0.0
 10
117.4016194367954
 20
-151.9772867458599
 30
0.0
 10
117.4016194367954
 20
-152.0937309732613
 30
0.0
 10
117.4016194367954
 20
-152.2546169324225
 30
0.0
 10
117.3551106477446
 20
-152.3962103568662
 30
0.0
 10
117.1732096061234
 20
-152.4912949922591
 30
0.0
 10
116.9785617112068
 20
-152.5949923663651
 30
0.0
 10
116.7415391418216
 20
-152.6142849010826
 30
0.0
 10
116.5789306349178
 20
-152.6142849010826
 30
0.0
 10
116.4349256436343
 20
-152.6142849010826
 30
0.0
 10
116.1830891636626
 20
-152.5970594236563
 30
0.0
 10
115.9843071541636
 20
-152.4912949922591
 30
0.0
 10
115.7813910300824
 20
-152.3834635035708
 30
0.0
 10
115.7579643807827
 20
-152.2225775444096
 30
0.0
 10
115.7579643807827
 20
-152.0937309732613
 30
0.0
 10
115.7579643807827
 20
-151.9349120713913
 30
0.0
 10
115.8024061125425
 20
-151.7912515896564
 30
0.0
 10
115.9843071541636
 20
-151.6958224447149
 30
0.0
 10
116.1768879917891
 20
-151.5966036947397
 30
0.0
 10
116.4052978224612
 20
-151.57317704544
 30
0.0
 10
116.5789306349178
 20
-151.57317704544
 30
0.0
 10
116.7501518805347
 20
-151.57317704544
 30
0.0
 10
116.9806287684979
 20
-151.5945366374486
 30
0.0
 10
117.1732096061234
 20
-151.6958224447149
 30
0.0
  0
SPLINE
  5
84
330
7D
100
AcDbEntity
  8
_U+30EC_U+30A4_U+30E4_U+30FC 1
370
     0
100
AcDbSpline
210
0.0
220
0.0
230
1.0
 70
    11
 71
     3
 72
    17
 73
    13
 74
     0
 42
0.0000000001
 43
0.0000000001
 12
1.0
 22
0.0
 32
0.0
 13
1.0
 23
0.0
 33
0.0
 40
0.0
 40
0.0
 40
0.0
 40
0.0
 40
1.0
 40
1.0
 40
1.0
 40
2.0
 40
2.0
 40
2.0
 40
3.0
 40
3.0
 40
3.0
 40
4.0
 40
4.0
 40
4.0
 40
4.0
 10
115.9505452184082
 20
-152.0937309732613
 30
0.0
 10
115.9505452184082
 20
-152.3435003959419
 30
0.0
 10
116.2340765768443
 20
-152.3900091849928
 30
0.0
 10
116.5789306349178
 20
-152.3900091849928
 30
0.0
 10
116.8982909864004
 20
-152.3900091849928
 30
0.0
 10
117.2069715418788
 20
-152.3538356823977
 30
0.0
 10
117.2069715418788
 20
-152.0937309732613
 30
0.0
 10
117.2069715418788
 20
-151.8460286078718
 30
0.0
 10
116.9258517502824
 20
-151.7974527615298
 30
0.0
 10
116.5789306349178
 20
-151.7974527615298
 30
0.0
 10
116.2592257738866
 20
-151.7974527615298
 30
0.0
 10
115.9505452184082
 20
-151.8356933214161
 30
0.0
 10
115.9505452184082
 20
-152.0937309732613
 30
0.0
  0
HATCH
  5
85
330
7D
100
AcDbEntity
  8
_U+30EC_U+30A4_U+30E4_U+30FC 1
 62
   179
420
  2234388
100
AcDbHatch
 10
0.0
 20
0.0
 30
0.0
210
0.0
220
0.0
230
1.0
  2
SOLID
 70
     1
 71
     0
 91
        2
 92
        1
 93
        1
 72
     4
 94
        3
 73
     0
 74
     1
 95
       29
 96
       25
 40
0.0
 40
0.0
 40
0.0
 40
0.0
 40
1.0
 40
1.0
 40
1.0
 40
2.0
 40
2.0
 40
2.0
 40
3.0
 40
3.0
 40
3.0
 40
4.0
 40
4.0
 40
4.0
 40
5.0
 40
5.0
 40
5.0
 40
6.0
 40
6.0
 40
6.0
 40
7.0
 40
7.0
 40
7.0
 40
8.0
 40
8.0
 40
8.0
 40
8.0
 10
117.1732096061234
 20
-151.6958224447149
 10
117.3826714116266
 20
-151.8039984429518
 10
117.4016194367954
 20
-151.9772867458599
 10
117.4016194367954
 20
-152.0937309732613
 10
117.4016194367954
 20
-152.2546169324225
 10
117.3551106477446
 20
-152.3962103568662
 10
117.1732096061234
 20
-152.4912949922591
 10
116.9785617112068
 20
-152.5949923663651
 10
116.7415391418216
 20
-152.6142849010826
 10
116.5789306349178
 20
-152.6142849010826
 10
116.4349256436343
 20
-152.6142849010826
 10
116.1830891636626
 20
-152.5970594236563
 10
115.9843071541636
 20
-152.4912949922591
 10
115.7813910300824
 20
-152.3834635035708
 10
115.7579643807827
 20
-152.2225775444096
 10
115.7579643807827
 20
-152.0937309732613
 10
115.7579643807827
 20
-151.9349120713913
 10
115.8024061125425
 20
-151.7912515896564
 10
115.9843071541636
 20
-151.6958224447149
 10
116.1768879917891
 20
-151.5966036947397
 10
116.4052978224612
 20
-151.57317704544
 10
116.5789306349178
 20
-151.57317704544
 10
116.7501518805347
 20
-151.57317704544
 10
116.9806287684979
 20
-151.5945366374486
 10
117.1732096061234
 20
-151.6958224447149
 97
        0
 97
        0
 92
        1
 93
        1
 72
     4
 94
        3
 73
     0
 74
     1
 95
       17
 96
       13
 40
0.0
 40
0.0
 40
0.0
 40
0.0
 40
1.0
 40
1.0
 40
1.0
 40
2.0
 40
2.0
 40
2.0
 40
3.0
 40
3.0
 40
3.0
 40
4.0
 40
4.0
 40
4.0
 40
4.0
 10
115.9505452184082
 20
-152.0937309732613
 10
115.9505452184082
 20
-152.3435003959419
 10
116.2340765768443
 20
-152.3900091849928
 10
116.5789306349178
 20
-152.3900091849928
 10
116.8982909864004
 20
-152.3900091849928
 10
117.2069715418788
 20
-152.3538356823977
 10
117.2069715418788
 20
-152.0937309732613
 10
117.2069715418788
 20
-151.8460286078718
 10
116.9258517502824
 20
-151.7974527615298
 10
116.5789306349178
 20
-151.7974527615298
 10
116.2592257738866
 20
-151.7974527615298
 10
115.9505452184082
 20
-151.8356933214161
 10
115.9505452184082
 20
-152.0937309732613
 97
        0
 97
        0
 75
     2
 76
     1
 98
        0
  0
ENDBLK
  5
80
330
7D
100
AcDbEntity
  8
0
100
AcDbBlockEnd
  0
BLOCK
  5
94
330
92
100
AcDbEntity
  8
0
100
AcDbBlockBegin
  2
block 5
 70
     0
 10
0.0
 20
0.0
 30
0.0
  3
block 5
  1

  0
SPLINE
  5
96
330
92
100
AcDbEntity
  8
_U+30EC_U+30A4_U+30E4_U+30FC 1
370
     0
100
AcDbSpline
210
0.0
220
0.0
230
1.0
 70
    11
 71
     3
 72
    26
 73
    22
 74
     0
 42
0.0000000001
 43
0.0000000001
 12
1.0
 22
0.0
 32
0.0
 13
1.0
 23
0.0
 33
0.0
 40
0.0
 40
0.0
 40
0.0
 40
0.0
 40
1.0
 40
1.0
 40
1.0
 40
2.0
 40
2.0
 40
2.0
 40
3.0
 40
3.0
 40
3.0
 40
4.0
 40
4.0
 40
4.0
 40
5.0
 40
5.0
 40
5.0
 40
6.0
 40
6.0
 40
6.0
 40
7.0
 40
7.0
 40
7.0
 40
7.0
 10
117.3812933734325
 20
-143.2536159581102
 30
0.0
 10
117.3812933734325
 20
-143.2536159581102
 30
0.0
 10
117.3812933734325
 20
-143.4906385274954
 30
0.0
 10
117.3812933734325
 20
-143.4906385274954
 30
0.0
 10
117.0722683084056
 20
-143.4651448209046
 30
0.0
 10
116.554125947424
 20
-143.2725639832791
 30
0.0
 10
116.0483859301893
 20
-142.8663872255681
 30
0.0
 10
116.0483859301893
 20
-142.8663872255681
 30
0.0
 10
116.0483859301893
 20
-143.7042344475809
 30
0.0
 10
116.0483859301893
 20
-143.7042344475809
 30
0.0
 10
116.0483859301893
 20
-143.7042344475809
 30
0.0
 10
115.836857067395
 20
-143.7042344475809
 30
0.0
 10
115.836857067395
 20
-143.7042344475809
 30
0.0
 10
115.836857067395
 20
-143.7042344475809
 30
0.0
 10
115.836857067395
 20
-142.6293646561829
 30
0.0
 10
115.836857067395
 20
-142.6293646561829
 30
0.0
 10
115.836857067395
 20
-142.6293646561829
 30
0.0
 10
116.0483859301893
 20
-142.6293646561829
 30
0.0
 10
116.0483859301893
 20
-142.6293646561829
 30
0.0
 10
116.3384629700473
 20
-142.9532036317964
 30
0.0
 10
116.9306748839618
 20
-143.2198540223548
 30
0.0
 10
117.3812933734325
 20
-143.2536159581102
 30
0.0
  0
HATCH
  5
97
330
92
100
AcDbEntity
  8
_U+30EC_U+30A4_U+30E4_U+30FC 1
 62
   179
420
  2234388
100
AcDbHatch
 10
0.0
 20
0.0
 30
0.0
210
0.0
220
0.0
230
1.0
  2
SOLID
 70
     1
 71
     0
 91
        1
 92
        1
 93
        1
 72
     4
 94
        3
 73
     0
 74
     1
 95
       26
 96
       22
 40
0.0
 40
0.0
 40
0.0
 40
0.0
 40
1.0
 40
1.0
 40
1.0
 40
2.0
 40
2.0
 40
2.0
 40
3.0
 40
3.0
 40
3.0
 40
4.0
 40
4.0
 40
4.0
 40
5.0
 40
5.0
 40
5.0
 40
6.0
 40
6.0
 40
6.0
 40
7.0
 40
7.0
 40
7.0
 40
7.0
 10
117.3812933734325
 20
-143.2536159581102
 10
117.3812933734325
 20
-143.2536159581102
 10
117.3812933734325
 20
-143.4906385274954
 10
117.3812933734325
 20
-143.4906385274954
 10
117.0722683084056
 20
-143.4651448209046
 10
116.554125947424
 20
-143.2725639832791
 10
116.0483859301893
 20
-142.8663872255681
 10
116.0483859301893
 20
-142.8663872255681
 10
116.0483859301893
 20
-143.7042344475809
 10
116.0483859301893
 20
-143.7042344475809
 10
116.0483859301893
 20
-143.7042344475809
 10
115.836857067395
 20
-143.7042344475809
 10
115.836857067395
 20
-143.7042344475809
 10
115.836857067395
 20
-143.7042344475809
 10
115.836857067395
 20
-142.6293646561829
 10
115.836857067395
 20
-142.6293646561829
 10
115.836857067395
 20
-142.6293646561829
 10
116.0483859301893
 20
-142.6293646561829
 10
116.0483859301893
 20
-142.6293646561829
 10
116.3384629700473
 20
-142.9532036317964
 10
116.9306748839618
 20
-143.2198540223548
 10
117.3812933734325
 20
-143.2536159581102
 97
        0
 97
        0
 75
     2
 76
     1
 98
        0
  0
ENDBLK
  5
95
330
92
100
AcDbEntity
  8
0
100
AcDbBlockEnd
  0
BLOCK
  5
A6
330
A4
100
AcDbEntity
  8
0
100
AcDbBlockBegin
  2
block 6
 70
     0
 10
0.0
 20
0.0
 30
0.0
  3
block 6
  1

  0
SPLINE
  5
A8
330
A4
100
AcDbEntity
  8
_U+30EC_U+30A4_U+30E4_U+30FC 1
370
     0
100
AcDbSpline
210
0.0
220
0.0
230
1.0
 70
    11
 71
     3
 72
    26
 73
    22
 74
     0
 42
0.0000000001
 43
0.0000000001
 12
1.0
 22
0.0
 32
0.0
 13
1.0
 23
0.0
 33
0.0
 40
0.0
 40
0.0
 40
0.0
 40
0.0
 40
1.0
 40
1.0
 40
1.0
 40
2.0
 40
2.0
 40
2.0
 40
3.0
 40
3.0
 40
3.0
 40
4.0
 40
4.0
 40
4.0
 40
5.0
 40
5.0
 40
5.0
 40
6.0
 40
6.0
 40
6.0
 40
7.0
 40
7.0
 40
7.0
 40
7.0
 10
93.38017440156815
 20
-149.8588975319797
 30
0.0
 10
93.38017440156815
 20
-149.8588975319797
 30
0.0
 10
92.27602129854559
 20
-149.8588975319797
 30
0.0
 10
92.27602129854559
 20
-149.8588975319797
 30
0.0
 10
92.27602129854559
 20
-149.8588975319797
 30
0.0
 10
92.27602129854559
 20
-150.1889376794666
 30
0.0
 10
92.27602129854559
 20
-150.1889376794666
 30
0.0
 10
92.27602129854559
 20
-150.1889376794666
 30
0.0
 10
92.12788219267983
 20
-150.1889376794666
 30
0.0
 10
92.12788219267983
 20
-150.1889376794666
 30
0.0
 10
92.11306828209327
 20
-149.8568304746886
 30
0.0
 10
91.95011526564095
 20
-149.8103216856377
 30
0.0
 10
91.83573809553066
 20
-149.7806938644646
 30
0.0
 10
91.83573809553066
 20
-149.7806938644646
 30
0.0
 10
91.83573809553066
 20
-149.63462181589
 30
0.0
 10
91.83573809553066
 20
-149.63462181589
 30
0.0
 10
91.83573809553066
 20
-149.63462181589
 30
0.0
 10
93.38017440156815
 20
-149.63462181589
 30
0.0
 10
93.38017440156815
 20
-149.63462181589
 30
0.0
 10
93.38017440156815
 20
-149.63462181589
 30
0.0
 10
93.38017440156815
 20
-149.8588975319797
 30
0.0
 10
93.38017440156815
 20
-149.8588975319797
 30
0.0
  0
HATCH
  5
A9
330
A4
100
AcDbEntity
  8
_U+30EC_U+30A4_U+30E4_U+30FC 1
 62
   179
420
  2234388
100
AcDbHatch
 10
0.0
 20
0.0
 30
0.0
210
0.0
220
0.0
230
1.0
  2
SOLID
 70
     1
 71
     0
 91
        1
 92
        1
 93
        1
 72
     4
 94
        3
 73
     0
 74
     1
 95
       26
 96
       22
 40
0.0
 40
0.0
 40
0.0
 40
0.0
 40
1.0
 40
1.0
 40
1.0
 40
2.0
 40
2.0
 40
2.0
 40
3.0
 40
3.0
 40
3.0
 40
4.0
 40
4.0
 40
4.0
 40
5.0
 40
5.0
 40
5.0
 40
6.0
 40
6.0
 40
6.0
 40
7.0
 40
7.0
 40
7.0
 40
7.0
 10
93.38017440156815
 20
-149.8588975319797
 10
93.38017440156815
 20
-149.8588975319797
 10
92.27602129854559
 20
-149.8588975319797
 10
92.27602129854559
 20
-149.8588975319797
 10
92.27602129854559
 20
-149.8588975319797
 10
92.27602129854559
 20
-150.1889376794666
 10
92.27602129854559
 20
-150.1889376794666
 10
92.27602129854559
 20
-150.1889376794666
 10
92.12788219267983
 20
-150.1889376794666
 10
92.12788219267983
 20
-150.1889376794666
 10
92.11306828209327
 20
-149.8568304746886
 10
91.95011526564095
 20
-149.8103216856377
 10
91.83573809553066
 20
-149.7806938644646
 10
91.83573809553066
 20
-149.7806938644646
 10
91.83573809553066
 20
-149.63462181589
 10
91.83573809553066
 20
-149.63462181589
 10
91.83573809553066
 20
-149.63462181589
 10
93.38017440156815
 20
-149.63462181589
 10
93.38017440156815
 20
-149.63462181589
 10
93.38017440156815
 20
-149.63462181589
 10
93.38017440156815
 20
-149.8588975319797
 10
93.38017440156815
 20
-149.8588975319797
 97
        0
 97
        0
 75
     2
 76
     1
 98
        0
  0
SPLINE
  5
AA
330
A4
100
AcDbEntity
  8
_U+30EC_U+30A4_U+30E4_U+30FC 1
370
     0
100
AcDbSpline
210
0.0
220
0.0
230
1.0
 70
    11
 71
     3
 72
    32
 73
    28
 74
     0
 42
0.0000000001
 43
0.0000000001
 12
1.0
 22
0.0
 32
0.0
 13
1.0
 23
0.0
 33
0.0
 40
0.0
 40
0.0
 40
0.0
 40
0.0
 40
1.0
 40
1.0
 40
1.0
 40
2.0
 40
2.0
 40
2.0
 40
3.0
 40
3.0
 40
3.0
 40
4.0
 40
4.0
 40
4.0
 40
5.0
 40
5.0
 40
5.0
 40
6.0
 40
6.0
 40
6.0
 40
7.0
 40
7.0
 40
7.0
 40
8.0
 40
8.0
 40
8.0
 40
9.0
 40
9.0
 40
9.0
 40
9.0
 10
93.43081730520133
 20
-148.6758517423449
 30
0.0
 10
93.43081730520133
 20
-148.849140045253
 30
0.0
 10
93.36122637639929
 20
-149.0947753533513
 30
0.0
 10
93.02911917162119
 20
-149.1326714036891
 30
0.0
 10
93.02911917162119
 20
-149.1326714036891
 30
0.0
 10
93.02911917162119
 20
-148.9190754836036
 30
0.0
 10
93.02911917162119
 20
-148.9190754836036
 30
0.0
 10
93.08837481396749
 20
-148.9083956875993
 30
0.0
 10
93.23616941028472
 20
-148.876700809135
 30
0.0
 10
93.23616941028472
 20
-148.6737846850538
 30
0.0
 10
93.23616941028472
 20
-148.3816405879046
 30
0.0
 10
92.90612926279778
 20
-148.3437445375668
 30
0.0
 10
92.7011460814254
 20
-148.3309976842714
 30
0.0
 10
92.78141680623173
 20
-148.421948205082
 30
0.0
 10
92.83860539128688
 20
-148.4894720765929
 30
0.0
 10
92.83860539128688
 20
-148.6713731182141
 30
0.0
 10
92.83860539128688
 20
-148.8512071025442
 30
0.0
 10
92.73284095988971
 20
-149.1540309956976
 30
0.0
 10
92.32666420217876
 20
-149.1540309956976
 30
0.0
 10
92.00730385069609
 20
-149.1540309956976
 30
0.0
 10
91.78716224918863
 20
-148.9549044766502
 30
0.0
 10
91.78716224918863
 20
-148.6376111824587
 30
0.0
 10
91.78716224918863
 20
-148.1236029360594
 30
0.0
 10
92.34147811276533
 20
-148.1129231400551
 30
0.0
 10
92.55507403285083
 20
-148.1129231400551
 30
0.0
 10
92.78555092081403
 20
-148.1129231400551
 30
0.0
 10
93.43081730520133
 20
-148.1322156747725
 30
0.0
 10
93.43081730520133
 20
-148.6758517423449
 30
0.0
  0
SPLINE
  5
AB
330
A4
100
AcDbEntity
  8
_U+30EC_U+30A4_U+30E4_U+30FC 1
370
     0
100
AcDbSpline
210
0.0
220
0.0
230
1.0
 70
    11
 71
     3
 72
    17
 73
    13
 74
     0
 42
0.0000000001
 43
0.0000000001
 12
1.0
 22
0.0
 32
0.0
 13
1.0
 23
0.0
 33
0.0
 40
0.0
 40
0.0
 40
0.0
 40
0.0
 40
1.0
 40
1.0
 40
1.0
 40
2.0
 40
2.0
 40
2.0
 40
3.0
 40
3.0
 40
3.0
 40
4.0
 40
4.0
 40
4.0
 40
4.0
 10
91.9797430868141
 20
-148.6355441251675
 30
0.0
 10
91.9797430868141
 20
-148.7540554098601
 30
0.0
 10
92.03693167186924
 20
-148.9297552796078
 30
0.0
 10
92.32253008759646
 20
-148.9297552796078
 30
0.0
 10
92.54887286097737
 20
-148.9297552796078
 30
0.0
 10
92.64395749637026
 20
-148.7898844029067
 30
0.0
 10
92.64395749637026
 20
-148.6544921503364
 30
0.0
 10
92.64395749637026
 20
-148.3923203839089
 30
0.0
 10
92.43449569086708
 20
-148.3540798240226
 30
0.0
 10
92.31805146346564
 20
-148.3540798240226
 30
0.0
 10
92.14269610326642
 20
-148.3540798240226
 30
0.0
 10
91.9797430868141
 20
-148.449508968964
 30
0.0
 10
91.9797430868141
 20
-148.6355441251675
 30
0.0
  0
HATCH
  5
AC
330
A4
100
AcDbEntity
  8
_U+30EC_U+30A4_U+30E4_U+30FC 1
 62
   179
420
  2234388
100
AcDbHatch
 10
0.0
 20
0.0
 30
0.0
210
0.0
220
0.0
230
1.0
  2
SOLID
 70
     1
 71
     0
 91
        2
 92
        1
 93
        1
 72
     4
 94
        3
 73
     0
 74
     1
 95
       32
 96
       28
 40
0.0
 40
0.0
 40
0.0
 40
0.0
 40
1.0
 40
1.0
 40
1.0
 40
2.0
 40
2.0
 40
2.0
 40
3.0
 40
3.0
 40
3.0
 40
4.0
 40
4.0
 40
4.0
 40
5.0
 40
5.0
 40
5.0
 40
6.0
 40
6.0
 40
6.0
 40
7.0
 40
7.0
 40
7.0
 40
8.0
 40
8.0
 40
8.0
 40
9.0
 40
9.0
 40
9.0
 40
9.0
 10
93.43081730520133
 20
-148.6758517423449
 10
93.43081730520133
 20
-148.849140045253
 10
93.36122637639929
 20
-149.0947753533513
 10
93.02911917162119
 20
-149.1326714036891
 10
93.02911917162119
 20
-149.1326714036891
 10
93.02911917162119
 20
-148.9190754836036
 10
93.02911917162119
 20
-148.9190754836036
 10
93.08837481396749
 20
-148.9083956875993
 10
93.23616941028472
 20
-148.876700809135
 10
93.23616941028472
 20
-148.6737846850538
 10
93.23616941028472
 20
-148.3816405879046
 10
92.90612926279778
 20
-148.3437445375668
 10
92.7011460814254
 20
-148.3309976842714
 10
92.78141680623173
 20
-148.421948205082
 10
92.83860539128688
 20
-148.4894720765929
 10
92.83860539128688
 20
-148.6713731182141
 10
92.83860539128688
 20
-148.8512071025442
 10
92.73284095988971
 20
-149.1540309956976
 10
92.32666420217876
 20
-149.1540309956976
 10
92.00730385069609
 20
-149.1540309956976
 10
91.78716224918863
 20
-148.9549044766502
 10
91.78716224918863
 20
-148.6376111824587
 10
91.78716224918863
 20
-148.1236029360594
 10
92.34147811276533
 20
-148.1129231400551
 10
92.55507403285083
 20
-148.1129231400551
 10
92.78555092081403
 20
-148.1129231400551
 10
93.43081730520133
 20
-148.1322156747725
 10
93.43081730520133
 20
-148.6758517423449
 97
        0
 97
        0
 92
        1
 93
        1
 72
     4
 94
        3
 73
     0
 74
     1
 95
       17
 96
       13
 40
0.0
 40
0.0
 40
0.0
 40
0.0
 40
1.0
 40
1.0
 40
1.0
 40
2.0
 40
2.0
 40
2.0
 40
3.0
 40
3.0
 40
3.0
 40
4.0
 40
4.0
 40
4.0
 40
4.0
 10
91.9797430868141
 20
-148.6355441251675
 10
91.9797430868141
 20
-148.7540554098601
 10
92.03693167186924
 20
-148.9297552796078
 10
92.32253008759646
 20
-148.9297552796078
 10
92.54887286097737
 20
-148.9297552796078
 10
92.64395749637026
 20
-148.7898844029067
 10
92.64395749637026
 20
-148.6544921503364
 10
92.64395749637026
 20
-148.3923203839089
 10
92.43449569086708
 20
-148.3540798240226
 10
92.31805146346564
 20
-148.3540798240226
 10
92.14269610326642
 20
-148.3540798240226
 10
91.9797430868141
 20
-148.449508968964
 10
91.9797430868141
 20
-148.6355441251675
 97
        0
 97
        0
 75
     2
 76
     1
 98
        0
  0
ENDBLK
  5
A7
330
A4
100
AcDbEntity
  8
0
100
AcDbBlockEnd
  0
BLOCK
  5
BB
330
B9
100
AcDbEntity
  8
0
100
AcDbBlockBegin
  2
block 7
 70
     0
 10
0.0
 20
0.0
 30
0.0
  3
block 7
  1

  0
SPLINE
  5
BD
330
B9
100
AcDbEntity
  8
_U+30EC_U+30A4_U+30E4_U+30FC 1
370
     0
100
AcDbSpline
210
0.0
220
0.0
230
1.0
 70
    11
 71
     3
 72
    26
 73
    22
 74
     0
 42
0.0000000001
 43
0.0000000001
 12
1.0
 22
0.0
 32
0.0
 13
1.0
 23
0.0
 33
0.0
 40
0.0
 40
0.0
 40
0.0
 40
0.0
 40
1.0
 40
1.0
 40
1.0
 40
2.0
 40
2.0
 40
2.0
 40
3.0
 40
3.0
 40
3.0
 40
4.0
 40
4.0
 40
4.0
 40
5.0
 40
5.0
 40
5.0
 40
6.0
 40
6.0
 40
6.0
 40
7.0
 40
7.0
 40
7.0
 40
7.0
 10
105.2635145136147
 20
-162.0290418431733
 30
0.0
 10
105.2635145136147
 20
-162.0290418431733
 30
0.0
 10
105.2635145136147
 20
-160.9248887401507
 30
0.0
 10
105.2635145136147
 20
-160.9248887401507
 30
0.0
 10
105.2635145136147
 20
-160.9248887401507
 30
0.0
 10
104.9334743661278
 20
-160.9248887401507
 30
0.0
 10
104.9334743661278
 20
-160.9248887401507
 30
0.0
 10
104.9334743661278
 20
-160.9248887401507
 30
0.0
 10
104.9334743661278
 20
-160.776749634285
 30
0.0
 10
104.9334743661278
 20
-160.776749634285
 30
0.0
 10
105.2655815709058
 20
-160.7619357236984
 30
0.0
 10
105.3120903599567
 20
-160.5989827072461
 30
0.0
 10
105.3417181811298
 20
-160.4846055371358
 30
0.0
 10
105.3417181811298
 20
-160.4846055371358
 30
0.0
 10
105.4877902297044
 20
-160.4846055371358
 30
0.0
 10
105.4877902297044
 20
-160.4846055371358
 30
0.0
 10
105.4877902297044
 20
-160.4846055371358
 30
0.0
 10
105.4877902297044
 20
-162.0290418431733
 30
0.0
 10
105.4877902297044
 20
-162.0290418431733
 30
0.0
 10
105.4877902297044
 20
-162.0290418431733
 30
0.0
 10
105.2635145136147
 20
-162.0290418431733
 30
0.0
 10
105.2635145136147
 20
-162.0290418431733
 30
0.0
  0
HATCH
  5
BE
330
B9
100
AcDbEntity
  8
_U+30EC_U+30A4_U+30E4_U+30FC 1
 62
   179
420
  2234388
100
AcDbHatch
 10
0.0
 20
0.0
 30
0.0
210
0.0
220
0.0
230
1.0
  2
SOLID
 70
     1
 71
     0
 91
        1
 92
        1
 93
        1
 72
     4
 94
        3
 73
     0
 74
     1
 95
       26
 96
       22
 40
0.0
 40
0.0
 40
0.0
 40
0.0
 40
1.0
 40
1.0
 40
1.0
 40
2.0
 40
2.0
 40
2.0
 40
3.0
 40
3.0
 40
3.0
 40
4.0
 40
4.0
 40
4.0
 40
5.0
 40
5.0
 40
5.0
 40
6.0
 40
6.0
 40
6.0
 40
7.0
 40
7.0
 40
7.0
 40
7.0
 10
105.2635145136147
 20
-162.0290418431733
 10
105.2635145136147
 20
-162.0290418431733
 10
105.2635145136147
 20
-160.9248887401507
 10
105.2635145136147
 20
-160.9248887401507
 10
105.2635145136147
 20
-160.9248887401507
 10
104.9334743661278
 20
-160.9248887401507
 10
104.9334743661278
 20
-160.9248887401507
 10
104.9334743661278
 20
-160.9248887401507
 10
104.9334743661278
 20
-160.776749634285
 10
104.9334743661278
 20
-160.776749634285
 10
105.2655815709058
 20
-160.7619357236984
 10
105.3120903599567
 20
-160.5989827072461
 10
105.3417181811298
 20
-160.4846055371358
 10
105.3417181811298
 20
-160.4846055371358
 10
105.4877902297044
 20
-160.4846055371358
 10
105.4877902297044
 20
-160.4846055371358
 10
105.4877902297044
 20
-160.4846055371358
 10
105.4877902297044
 20
-162.0290418431733
 10
105.4877902297044
 20
-162.0290418431733
 10
105.4877902297044
 20
-162.0290418431733
 10
105.2635145136147
 20
-162.0290418431733
 10
105.2635145136147
 20
-162.0290418431733
 97
        0
 97
        0
 75
     2
 76
     1
 98
        0
  0
SPLINE
  5
BF
330
B9
100
AcDbEntity
  8
_U+30EC_U+30A4_U+30E4_U+30FC 1
370
     0
100
AcDbSpline
210
0.0
220
0.0
230
1.0
 70
    11
 71
     3
 72
    32
 73
    28
 74
     0
 42
0.0000000001
 43
0.0000000001
 12
1.0
 22
0.0
 32
0.0
 13
1.0
 23
0.0
 33
0.0
 40
0.0
 40
0.0
 40
0.0
 40
0.0
 40
1.0
 40
1.0
 40
1.0
 40
2.0
 40
2.0
 40
2.0
 40
3.0
 40
3.0
 40
3.0
 40
4.0
 40
4.0
 40
4.0
 40
5.0
 40
5.0
 40
5.0
 40
6.0
 40
6.0
 40
6.0
 40
7.0
 40
7.0
 40
7.0
 40
8.0
 40
8.0
 40
8.0
 40
9.0
 40
9.0
 40
9.0
 40
9.0
 10
106.4930690923003
 20
-162.0796847468065
 30
0.0
 10
105.9769937886099
 20
-162.0796847468065
 30
0.0
 10
105.9683810498968
 20
-161.5257133927783
 30
0.0
 10
105.9683810498968
 20
-161.3117729631443
 30
0.0
 10
105.9683810498968
 20
-161.0812960751811
 30
0.0
 10
105.9876735846142
 20
-160.4339626335026
 30
0.0
 10
106.5313096521866
 20
-160.4339626335026
 30
0.0
 10
106.7045979550947
 20
-160.4339626335026
 30
0.0
 10
106.950233263193
 20
-160.5038980718532
 30
0.0
 10
106.9881293135307
 20
-160.8360052766313
 30
0.0
 10
106.9881293135307
 20
-160.8360052766313
 30
0.0
 10
106.7745333934453
 20
-160.8360052766313
 30
0.0
 10
106.7745333934453
 20
-160.8360052766313
 30
0.0
 10
106.763853597441
 20
-160.7788166915761
 30
0.0
 10
106.7321587189767
 20
-160.6306775857104
 30
0.0
 10
106.5292425948955
 20
-160.6306775857104
 30
0.0
 10
106.2370984977463
 20
-160.6306775857104
 30
0.0
 10
106.1971353901174
 20
-160.9586506759062
 30
0.0
 10
106.184388536822
 20
-161.1636338572785
 30
0.0
 10
106.2774061149237
 20
-161.0854301897634
 30
0.0
 10
106.3452744959831
 20
-161.0261745474171
 30
0.0
 10
106.5271755376043
 20
-161.0261745474171
 30
0.0
 10
106.7070095219344
 20
-161.0261745474171
 30
0.0
 10
107.0094889055393
 20
-161.1343505456539
 30
0.0
 10
107.0094889055393
 20
-161.5405273033649
 30
0.0
 10
107.0094889055393
 20
-161.8598876548475
 30
0.0
 10
106.8103623864919
 20
-162.0796847468065
 30
0.0
 10
106.4930690923003
 20
-162.0796847468065
 30
0.0
  0
SPLINE
  5
C0
330
B9
100
AcDbEntity
  8
_U+30EC_U+30A4_U+30E4_U+30FC 1
370
     0
100
AcDbSpline
210
0.0
220
0.0
230
1.0
 70
    11
 71
     3
 72
    17
 73
    13
 74
     0
 42
0.0000000001
 43
0.0000000001
 12
1.0
 22
0.0
 32
0.0
 13
1.0
 23
0.0
 33
0.0
 40
0.0
 40
0.0
 40
0.0
 40
0.0
 40
1.0
 40
1.0
 40
1.0
 40
2.0
 40
2.0
 40
2.0
 40
3.0
 40
3.0
 40
3.0
 40
4.0
 40
4.0
 40
4.0
 40
4.0
 10
106.5099500601781
 20
-161.2208224423337
 30
0.0
 10
106.2477782937506
 20
-161.2208224423337
 30
0.0
 10
106.2098822434128
 20
-161.432351305128
 30
0.0
 10
106.2098822434128
 20
-161.5487955325295
 30
0.0
 10
106.2098822434128
 20
-161.7244954022772
 30
0.0
 10
106.3049668788057
 20
-161.8874484187295
 30
0.0
 10
106.488934977718
 20
-161.8874484187295
 30
0.0
 10
106.6095133197018
 20
-161.8874484187295
 30
0.0
 10
106.7852131894495
 20
-161.8281927763832
 30
0.0
 10
106.7852131894495
 20
-161.542594360656
 30
0.0
 10
106.7852131894495
 20
-161.3183186445663
 30
0.0
 10
106.6456868222969
 20
-161.2208224423337
 30
0.0
 10
106.5099500601781
 20
-161.2208224423337
 30
0.0
  0
HATCH
  5
C1
330
B9
100
AcDbEntity
  8
_U+30EC_U+30A4_U+30E4_U+30FC 1
 62
   179
420
  2234388
100
AcDbHatch
 10
0.0
 20
0.0
 30
0.0
210
0.0
220
0.0
230
1.0
  2
SOLID
 70
     1
 71
     0
 91
        2
 92
        1
 93
        1
 72
     4
 94
        3
 73
     0
 74
     1
 95
       32
 96
       28
 40
0.0
 40
0.0
 40
0.0
 40
0.0
 40
1.0
 40
1.0
 40
1.0
 40
2.0
 40
2.0
 40
2.0
 40
3.0
 40
3.0
 40
3.0
 40
4.0
 40
4.0
 40
4.0
 40
5.0
 40
5.0
 40
5.0
 40
6.0
 40
6.0
 40
6.0
 40
7.0
 40
7.0
 40
7.0
 40
8.0
 40
8.0
 40
8.0
 40
9.0
 40
9.0
 40
9.0
 40
9.0
 10
106.4930690923003
 20
-162.0796847468065
 10
105.9769937886099
 20
-162.0796847468065
 10
105.9683810498968
 20
-161.5257133927783
 10
105.9683810498968
 20
-161.3117729631443
 10
105.9683810498968
 20
-161.0812960751811
 10
105.9876735846142
 20
-160.4339626335026
 10
106.5313096521866
 20
-160.4339626335026
 10
106.7045979550947
 20
-160.4339626335026
 10
106.950233263193
 20
-160.5038980718532
 10
106.9881293135307
 20
-160.8360052766313
 10
106.9881293135307
 20
-160.8360052766313
 10
106.7745333934453
 20
-160.8360052766313
 10
106.7745333934453
 20
-160.8360052766313
 10
106.763853597441
 20
-160.7788166915761
 10
106.7321587189767
 20
-160.6306775857104
 10
106.5292425948955
 20
-160.6306775857104
 10
106.2370984977463
 20
-160.6306775857104
 10
106.1971353901174
 20
-160.9586506759062
 10
106.184388536822
 20
-161.1636338572785
 10
106.2774061149237
 20
-161.0854301897634
 10
106.3452744959831
 20
-161.0261745474171
 10
106.5271755376043
 20
-161.0261745474171
 10
106.7070095219344
 20
-161.0261745474171
 10
107.0094889055393
 20
-161.1343505456539
 10
107.0094889055393
 20
-161.5405273033649
 10
107.0094889055393
 20
-161.8598876548475
 10
106.8103623864919
 20
-162.0796847468065
 10
106.4930690923003
 20
-162.0796847468065
 97
        0
 97
        0
 92
        1
 93
        1
 72
     4
 94
        3
 73
     0
 74
     1
 95
       17
 96
       13
 40
0.0
 40
0.0
 40
0.0
 40
0.0
 40
1.0
 40
1.0
 40
1.0
 40
2.0
 40
2.0
 40
2.0
 40
3.0
 40
3.0
 40
3.0
 40
4.0
 40
4.0
 40
4.0
 40
4.0
 10
106.5099500601781
 20
-161.2208224423337
 10
106.2477782937506
 20
-161.2208224423337
 10
106.2098822434128
 20
-161.432351305128
 10
106.2098822434128
 20
-161.5487955325295
 10
106.2098822434128
 20
-161.7244954022772
 10
106.3049668788057
 20
-161.8874484187295
 10
106.488934977718
 20
-161.8874484187295
 10
106.6095133197018
 20
-161.8874484187295
 10
106.7852131894495
 20
-161.8281927763832
 10
106.7852131894495
 20
-161.542594360656
 10
106.7852131894495
 20
-161.3183186445663
 10
106.6456868222969
 20
-161.2208224423337
 10
106.5099500601781
 20
-161.2208224423337
 97
        0
 97
        0
 75
     2
 76
     1
 98
        0
  0
ENDBLK
  5
BC
330
B9
100
AcDbEntity
  8
0
100
AcDbBlockEnd
  0
ENDSEC
  0
SECTION
  2
ENTITIES
  0
SPLINE
  5
41
330
1F
100
AcDbEntity
  8
_U+30EC_U+30A4_U+30E4_U+30FC 1
370
     0
100
AcDbSpline
210
0.0
220
0.0
230
1.0
 70
    11
 71
     3
 72
    62
 73
    58
 74
     0
 42
0.0000000001
 43
0.0000000001
 12
1.0
 22
0.0
 32
0.0
 13
1.0
 23
0.0
 33
0.0
 40
0.0
 40
0.0
 40
0.0
 40
0.0
 40
1.0
 40
1.0
 40
1.0
 40
2.0
 40
2.0
 40
2.0
 40
3.0
 40
3.0
 40
3.0
 40
4.0
 40
4.0
 40
4.0
 40
5.0
 40
5.0
 40
5.0
 40
6.0
 40
6.0
 40
6.0
 40
7.0
 40
7.0
 40
7.0
 40
8.0
 40
8.0
 40
8.0
 40
9.0
 40
9.0
 40
9.0
 40
10.0
 40
10.0
 40
10.0
 40
11.0
 40
11.0
 40
11.0
 40
12.0
 40
12.0
 40
12.0
 40
13.0
 40
13.0
 40
13.0
 40
14.0
 40
14.0
 40
14.0
 40
15.0
 40
15.0
 40
15.0
 40
16.0
 40
16.0
 40
16.0
 40
17.0
 40
17.0
 40
17.0
 40
18.0
 40
18.0
 40
18.0
 40
19.0
 40
19.0
 40
19.0
 40
19.0
 10
113.1777062874879
 20
-157.8250994817568
 30
0.0
 10
113.6193782946203
 20
-157.8250994817568
 30
0.0
 10
113.977797416167
 20
-158.1835293692269
 30
0.0
 10
113.977797416167
 20
-158.6252013763593
 30
0.0
 10
113.977797416167
 20
-158.6252013763593
 30
0.0
 10
106.1778859190936
 20
-158.623791040395
 30
0.0
 10
106.1778859190936
 20
-158.623791040395
 30
0.0
 10
106.1778859190936
 20
-158.623791040395
 30
0.0
 10
105.9782103379532
 20
-158.4237709497061
 30
0.0
 10
105.9782103379532
 20
-158.4237709497061
 30
0.0
 10
105.9782103379532
 20
-158.4237709497061
 30
0.0
 10
105.7781902472642
 20
-158.623791040395
 30
0.0
 10
105.7781902472642
 20
-158.623791040395
 30
0.0
 10
105.7781902472642
 20
-158.623791040395
 30
0.0
 10
99.17983116213539
 20
-158.6252013763593
 30
0.0
 10
99.17983116213539
 20
-158.6252013763593
 30
0.0
 10
99.17983116213539
 20
-158.6252013763593
 30
0.0
 10
98.97981107144646
 20
-158.4244707347266
 30
0.0
 10
98.97981107144646
 20
-158.4244707347266
 30
0.0
 10
98.97981107144646
 20
-158.4244707347266
 30
0.0
 10
98.77978021483413
 20
-158.6252013763593
 30
0.0
 10
98.77978021483413
 20
-158.6252013763593
 30
0.0
 10
98.77978021483413
 20
-158.6252013763593
 30
0.0
 10
98.77483865599748
 20
-158.6252013763593
 30
0.0
 10
98.77483865599748
 20
-158.6252013763593
 30
0.0
 10
98.31799746280657
 20
-158.5327759240441
 30
0.0
 10
97.9733371913541
 20
-158.128849244322
 30
0.0
 10
97.9733371913541
 20
-157.6169618848308
 30
0.0
 10
97.9733371913541
 20
-157.6169618848308
 30
0.0
 10
97.9733371913541
 20
-139.6260057736059
 30
0.0
 10
97.9733371913541
 20
-139.6260057736059
 30
0.0
 10
98.52613505973262
 20
-139.6535234737943
 30
0.0
 10
98.87538161454982
 20
-140.0380499595651
 30
0.0
 10
98.96887289328079
 20
-140.552047440041
 30
0.0
 10
98.96887289328079
 20
-140.552047440041
 30
0.0
 10
98.96887289328079
 20
-146.6229947041483
 30
0.0
 10
98.96887289328079
 20
-146.6229947041483
 30
0.0
 10
98.96887289328079
 20
-146.6229947041483
 30
0.0
 10
105.0278269187304
 20
-146.6229947041483
 30
0.0
 10
105.0278269187304
 20
-146.6229947041483
 30
0.0
 10
105.5799250020881
 20
-146.6229947041483
 30
0.0
 10
105.9775105529327
 20
-147.0742053194055
 30
0.0
 10
105.9775105529327
 20
-147.627003187784
 30
0.0
 10
105.9775105529327
 20
-147.627003187784
 30
0.0
 10
98.97733490906643
 20
-147.627003187784
 30
0.0
 10
98.97733490906643
 20
-147.627003187784
 30
0.0
 10
98.97733490906643
 20
-147.627003187784
 30
0.0
 10
98.97733490906643
 20
-157.6254346665398
 30
0.0
 10
98.97733490906643
 20
-157.6254346665398
 30
0.0
 10
98.97733490906643
 20
-157.6254346665398
 30
0.0
 10
105.9775105529327
 20
-157.6254346665398
 30
0.0
 10
105.9775105529327
 20
-157.6254346665398
 30
0.0
 10
105.9775105529327
 20
-157.6254346665398
 30
0.0
 10
106.3239364358214
 20
-157.8250994817568
 30
0.0
 10
106.3239364358214
 20
-157.8250994817568
 30
0.0
 10
106.3239364358214
 20
-157.8250994817568
 30
0.0
 10
113.1777062874879
 20
-157.8250994817568
 30
0.0
 10
113.1777062874879
 20
-157.8250994817568
 30
0.0
  0
HATCH
  5
42
330
1F
100
AcDbEntity
  8
_U+30EC_U+30A4_U+30E4_U+30FC 1
 62
     9
420
 13224394
100
AcDbHatch
 10
0.0
 20
0.0
 30
0.0
210
0.0
220
0.0
230
1.0
  2
SOLID
 70
     1
 71
     0
 91
        1
 92
        1
 93
        2
 72
     4
 94
        3
 73
     0
 74
     0
 95
       62
 96
       58
 40
0.0
 40
0.0
 40
0.0
 40
0.0
 40
0.3527777776895833
 40
0.3527777776895833
 40
0.3527777776895833
 40
0.7055555553791667
 40
0.7055555553791667
 40
0.7055555553791667
 40
1.05833333306875
 40
1.05833333306875
 40
1.05833333306875
 40
1.411111110758333
 40
1.411111110758333
 40
1.411111110758333
 40
1.763888888447917
 40
1.763888888447917
 40
1.763888888447917
 40
2.1166666661375
 40
2.1166666661375
 40
2.1166666661375
 40
2.469444443827083
 40
2.469444443827083
 40
2.469444443827083
 40
2.822222221516667
 40
2.822222221516667
 40
2.822222221516667
 40
3.17499999920625
 40
3.17499999920625
 40
3.17499999920625
 40
3.527777776895833
 40
3.527777776895833
 40
3.527777776895833
 40
3.880555554585417
 40
3.880555554585417
 40
3.880555554585417
 40
4.233333332275
 40
4.233333332275
 40
4.233333332275
 40
4.586111109964584
 40
4.586111109964584
 40
4.586111109964584
 40
4.938888887654167
 40
4.938888887654167
 40
4.938888887654167
 40
5.29166666534375
 40
5.29166666534375
 40
5.29166666534375
 40
5.644444443033334
 40
5.644444443033334
 40
5.644444443033334
 40
5.997222220722917
 40
5.997222220722917
 40
5.997222220722917
 40
6.349999998412501
 40
6.349999998412501
 40
6.349999998412501
 40
6.702777776102083
 40
6.702777776102083
 40
6.702777776102083
 40
6.702777776102083
 10
113.1777062874879
 20
-157.8250994817568
 10
113.6193782946203
 20
-157.8250994817568
 10
113.977797416167
 20
-158.1835293692269
 10
113.977797416167
 20
-158.6252013763593
 10
113.977797416167
 20
-158.6252013763593
 10
106.1778859190936
 20
-158.623791040395
 10
106.1778859190936
 20
-158.623791040395
 10
106.1778859190936
 20
-158.623791040395
 10
105.9782103379532
 20
-158.4237709497061
 10
105.9782103379532
 20
-158.4237709497061
 10
105.9782103379532
 20
-158.4237709497061
 10
105.7781902472642
 20
-158.623791040395
 10
105.7781902472642
 20
-158.623791040395
 10
105.7781902472642
 20
-158.623791040395
 10
99.17983116213539
 20
-158.6252013763593
 10
99.17983116213539
 20
-158.6252013763593
 10
99.17983116213539
 20
-158.6252013763593
 10
98.97981107144646
 20
-158.4244707347266
 10
98.97981107144646
 20
-158.4244707347266
 10
98.97981107144646
 20
-158.4244707347266
 10
98.77978021483413
 20
-158.6252013763593
 10
98.77978021483413
 20
-158.6252013763593
 10
98.77978021483413
 20
-158.6252013763593
 10
98.77483865599748
 20
-158.6252013763593
 10
98.77483865599748
 20
-158.6252013763593
 10
98.31799746280657
 20
-158.5327759240441
 10
97.9733371913541
 20
-158.128849244322
 10
97.9733371913541
 20
-157.6169618848308
 10
97.9733371913541
 20
-157.6169618848308
 10
97.9733371913541
 20
-139.6260057736059
 10
97.9733371913541
 20
-139.6260057736059
 10
98.52613505973262
 20
-139.6535234737943
 10
98.87538161454982
 20
-140.0380499595651
 10
98.96887289328079
 20
-140.552047440041
 10
98.96887289328079
 20
-140.552047440041
 10
98.96887289328079
 20
-146.6229947041483
 10
98.96887289328079
 20
-146.6229947041483
 10
98.96887289328079
 20
-146.6229947041483
 10
105.0278269187304
 20
-146.6229947041483
 10
105.0278269187304
 20
-146.6229947041483
 10
105.5799250020881
 20
-146.6229947041483
 10
105.9775105529327
 20
-147.0742053194055
 10
105.9775105529327
 20
-147.627003187784
 10
105.9775105529327
 20
-147.627003187784
 10
98.97733490906643
 20
-147.627003187784
 10
98.97733490906643
 20
-147.627003187784
 10
98.97733490906643
 20
-147.627003187784
 10
98.97733490906643
 20
-157.6254346665398
 10
98.97733490906643
 20
-157.6254346665398
 10
98.97733490906643
 20
-157.6254346665398
 10
105.9775105529327
 20
-157.6254346665398
 10
105.9775105529327
 20
-157.6254346665398
 10
105.9775105529327
 20
-157.6254346665398
 10
106.3239364358214
 20
-157.8250994817568
 10
106.3239364358214
 20
-157.8250994817568
 10
106.3239364358214
 20
-157.8250994817568
 10
113.1777062874879
 20
-157.8250994817568
 10
113.1777062874879
 20
-157.8250994817568
 97
        0
 72
     1
 10
113.1777062874879
 20
-157.8250994817568
 11
113.1777062874879
 21
-157.8250994817568
 97
        0
 75
     2
 76
     1
 98
        0
  0
SPLINE
  5
43
330
1F
100
AcDbEntity
  8
_U+30EC_U+30A4_U+30E4_U+30FC 1
 62
   179
420
  2234388
370
    25
100
AcDbSpline
210
0.0
220
0.0
230
1.0
 70
    11
 71
     3
 72
    62
 73
    58
 74
     0
 42
0.0000000001
 43
0.0000000001
 12
1.0
 22
0.0
 32
0.0
 13
1.0
 23
0.0
 33
0.0
 40
0.0
 40
0.0
 40
0.0
 40
0.0
 40
1.0
 40
1.0
 40
1.0
 40
2.0
 40
2.0
 40
2.0
 40
3.0
 40
3.0
 40
3.0
 40
4.0
 40
4.0
 40
4.0
 40
5.0
 40
5.0
 40
5.0
 40
6.0
 40
6.0
 40
6.0
 40
7.0
 40
7.0
 40
7.0
 40
8.0
 40
8.0
 40
8.0
 40
9.0
 40
9.0
 40
9.0
 40
10.0
 40
10.0
 40
10.0
 40
11.0
 40
11.0
 40
11.0
 40
12.0
 40
12.0
 40
12.0
 40
13.0
 40
13.0
 40
13.0
 40
14.0
 40
14.0
 40
14.0
 40
15.0
 40
15.0
 40
15.0
 40
16.0
 40
16.0
 40
16.0
 40
17.0
 40
17.0
 40
17.0
 40
18.0
 40
18.0
 40
18.0
 40
19.0
 40
19.0
 40
19.0
 40
19.0
 10
113.1777062874879
 20
-157.8250994817568
 30
0.0
 10
113.6193782946203
 20
-157.8250994817568
 30
0.0
 10
113.977797416167
 20
-158.1835293692269
 30
0.0
 10
113.977797416167
 20
-158.6252013763593
 30
0.0
 10
113.977797416167
 20
-158.6252013763593
 30
0.0
 10
106.1778859190936
 20
-158.623791040395
 30
0.0
 10
106.1778859190936
 20
-158.623791040395
 30
0.0
 10
106.1778859190936
 20
-158.623791040395
 30
0.0
 10
105.9782103379532
 20
-158.4237709497061
 30
0.0
 10
105.9782103379532
 20
-158.4237709497061
 30
0.0
 10
105.9782103379532
 20
-158.4237709497061
 30
0.0
 10
105.7781902472642
 20
-158.623791040395
 30
0.0
 10
105.7781902472642
 20
-158.623791040395
 30
0.0
 10
105.7781902472642
 20
-158.623791040395
 30
0.0
 10
99.17983116213539
 20
-158.6252013763593
 30
0.0
 10
99.17983116213539
 20
-158.6252013763593
 30
0.0
 10
99.17983116213539
 20
-158.6252013763593
 30
0.0
 10
98.97981107144646
 20
-158.4244707347266
 30
0.0
 10
98.97981107144646
 20
-158.4244707347266
 30
0.0
 10
98.97981107144646
 20
-158.4244707347266
 30
0.0
 10
98.77978021483413
 20
-158.6252013763593
 30
0.0
 10
98.77978021483413
 20
-158.6252013763593
 30
0.0
 10
98.77978021483413
 20
-158.6252013763593
 30
0.0
 10
98.77483865599748
 20
-158.6252013763593
 30
0.0
 10
98.77483865599748
 20
-158.6252013763593
 30
0.0
 10
98.31799746280657
 20
-158.5327759240441
 30
0.0
 10
97.9733371913541
 20
-158.128849244322
 30
0.0
 10
97.9733371913541
 20
-157.6169618848308
 30
0.0
 10
97.9733371913541
 20
-157.6169618848308
 30
0.0
 10
97.9733371913541
 20
-139.6260057736059
 30
0.0
 10
97.9733371913541
 20
-139.6260057736059
 30
0.0
 10
98.52613505973262
 20
-139.6535234737943
 30
0.0
 10
98.87538161454982
 20
-140.0380499595651
 30
0.0
 10
98.96887289328079
 20
-140.552047440041
 30
0.0
 10
98.96887289328079
 20
-140.552047440041
 30
0.0
 10
98.96887289328079
 20
-146.6229947041483
 30
0.0
 10
98.96887289328079
 20
-146.6229947041483
 30
0.0
 10
98.96887289328079
 20
-146.6229947041483
 30
0.0
 10
105.0278269187304
 20
-146.6229947041483
 30
0.0
 10
105.0278269187304
 20
-146.6229947041483
 30
0.0
 10
105.5799250020881
 20
-146.6229947041483
 30
0.0
 10
105.9775105529327
 20
-147.0742053194055
 30
0.0
 10
105.9775105529327
 20
-147.627003187784
 30
0.0
 10
105.9775105529327
 20
-147.627003187784
 30
0.0
 10
98.97733490906643
 20
-147.627003187784
 30
0.0
 10
98.97733490906643
 20
-147.627003187784
 30
0.0
 10
98.97733490906643
 20
-147.627003187784
 30
0.0
 10
98.97733490906643
 20
-157.6254346665398
 30
0.0
 10
98.97733490906643
 20
-157.6254346665398
 30
0.0
 10
98.97733490906643
 20
-157.6254346665398
 30
0.0
 10
105.9775105529327
 20
-157.6254346665398
 30
0.0
 10
105.9775105529327
 20
-157.6254346665398
 30
0.0
 10
105.9775105529327
 20
-157.6254346665398
 30
0.0
 10
106.3239364358214
 20
-157.8250994817568
 30
0.0
 10
106.3239364358214
 20
-157.8250994817568
 30
0.0
 10
106.3239364358214
 20
-157.8250994817568
 30
0.0
 10
113.1777062874879
 20
-157.8250994817568
 30
0.0
 10
113.1777062874879
 20
-157.8250994817568
 30
0.0
  0
SPLINE
  5
44
330
1F
100
AcDbEntity
  8
_U+30EC_U+30A4_U+30E4_U+30FC 1
 62
   179
420
  2234388
370
    25
100
AcDbSpline
210
0.0
220
0.0
230
1.0
 70
    11
 71
     3
 72
    62
 73
    58
 74
     0
 42
0.0000000001
 43
0.0000000001
 12
1.0
 22
0.0
 32
0.0
 13
1.0
 23
0.0
 33
0.0
 40
0.0
 40
0.0
 40
0.0
 40
0.0
 40
1.0
 40
1.0
 40
1.0
 40
2.0
 40
2.0
 40
2.0
 40
3.0
 40
3.0
 40
3.0
 40
4.0
 40
4.0
 40
4.0
 40
5.0
 40
5.0
 40
5.0
 40
6.0
 40
6.0
 40
6.0
 40
7.0
 40
7.0
 40
7.0
 40
8.0
 40
8.0
 40
8.0
 40
9.0
 40
9.0
 40
9.0
 40
10.0
 40
10.0
 40
10.0
 40
11.0
 40
11.0
 40
11.0
 40
12.0
 40
12.0
 40
12.0
 40
13.0
 40
13.0
 40
13.0
 40
14.0
 40
14.0
 40
14.0
 40
15.0
 40
15.0
 40
15.0
 40
16.0
 40
16.0
 40
16.0
 40
17.0
 40
17.0
 40
17.0
 40
18.0
 40
18.0
 40
18.0
 40
19.0
 40
19.0
 40
19.0
 40
19.0
 10
113.1777062874879
 20
-157.8250994817568
 30
0.0
 10
113.6193782946203
 20
-157.8250994817568
 30
0.0
 10
113.977797416167
 20
-158.1835293692269
 30
0.0
 10
113.977797416167
 20
-158.6252013763593
 30
0.0
 10
113.977797416167
 20
-158.6252013763593
 30
0.0
 10
106.1778859190936
 20
-158.623791040395
 30
0.0
 10
106.1778859190936
 20
-158.623791040395
 30
0.0
 10
106.1778859190936
 20
-158.623791040395
 30
0.0
 10
105.9782103379532
 20
-158.4237709497061
 30
0.0
 10
105.9782103379532
 20
-158.4237709497061
 30
0.0
 10
105.9782103379532
 20
-158.4237709497061
 30
0.0
 10
105.7781902472642
 20
-158.623791040395
 30
0.0
 10
105.7781902472642
 20
-158.623791040395
 30
0.0
 10
105.7781902472642
 20
-158.623791040395
 30
0.0
 10
99.17983116213539
 20
-158.6252013763593
 30
0.0
 10
99.17983116213539
 20
-158.6252013763593
 30
0.0
 10
99.17983116213539
 20
-158.6252013763593
 30
0.0
 10
98.97981107144646
 20
-158.4244707347266
 30
0.0
 10
98.97981107144646
 20
-158.4244707347266
 30
0.0
 10
98.97981107144646
 20
-158.4244707347266
 30
0.0
 10
98.77978021483413
 20
-158.6252013763593
 30
0.0
 10
98.77978021483413
 20
-158.6252013763593
 30
0.0
 10
98.77978021483413
 20
-158.6252013763593
 30
0.0
 10
98.77483865599748
 20
-158.6252013763593
 30
0.0
 10
98.77483865599748
 20
-158.6252013763593
 30
0.0
 10
98.31799746280657
 20
-158.5327759240441
 30
0.0
 10
97.9733371913541
 20
-158.128849244322
 30
0.0
 10
97.9733371913541
 20
-157.6169618848308
 30
0.0
 10
97.9733371913541
 20
-157.6169618848308
 30
0.0
 10
97.9733371913541
 20
-139.6260057736059
 30
0.0
 10
97.9733371913541
 20
-139.6260057736059
 30
0.0
 10
98.52613505973262
 20
-139.6535234737943
 30
0.0
 10
98.87538161454982
 20
-140.0380499595651
 30
0.0
 10
98.96887289328079
 20
-140.552047440041
 30
0.0
 10
98.96887289328079
 20
-140.552047440041
 30
0.0
 10
98.96887289328079
 20
-146.6229947041483
 30
0.0
 10
98.96887289328079
 20
-146.6229947041483
 30
0.0
 10
98.96887289328079
 20
-146.6229947041483
 30
0.0
 10
105.0278269187304
 20
-146.6229947041483
 30
0.0
 10
105.0278269187304
 20
-146.6229947041483
 30
0.0
 10
105.5799250020881
 20
-146.6229947041483
 30
0.0
 10
105.9775105529327
 20
-147.0742053194055
 30
0.0
 10
105.9775105529327
 20
-147.627003187784
 30
0.0
 10
105.9775105529327
 20
-147.627003187784
 30
0.0
 10
98.97733490906643
 20
-147.627003187784
 30
0.0
 10
98.97733490906643
 20
-147.627003187784
 30
0.0
 10
98.97733490906643
 20
-147.627003187784
 30
0.0
 10
98.97733490906643
 20
-157.6254346665398
 30
0.0
 10
98.97733490906643
 20
-157.6254346665398
 30
0.0
 10
98.97733490906643
 20
-157.6254346665398
 30
0.0
 10
105.9775105529327
 20
-157.6254346665398
 30
0.0
 10
105.9775105529327
 20
-157.6254346665398
 30
0.0
 10
105.9775105529327
 20
-157.6254346665398
 30
0.0
 10
106.3239364358214
 20
-157.8250994817568
 30
0.0
 10
106.3239364358214
 20
-157.8250994817568
 30
0.0
 10
106.3239364358214
 20
-157.8250994817568
 30
0.0
 10
113.1777062874879
 20
-157.8250994817568
 30
0.0
 10
113.1777062874879
 20
-157.8250994817568
 30
0.0
  0
SPLINE
  5
45
330
1F
100
AcDbEntity
  8
_U+30EC_U+30A4_U+30E4_U+30FC 1
 62
   179
420
  2234388
370
     9
100
AcDbSpline
210
0.0
220
0.0
230
1.0
 70
    11
 71
     3
 72
    17
 73
    13
 74
     0
 42
0.0000000001
 43
0.0000000001
 12
1.0
 22
0.0
 32
0.0
 13
1.0
 23
0.0
 33
0.0
 40
0.0
 40
0.0
 40
0.0
 40
0.0
 40
1.0
 40
1.0
 40
1.0
 40
2.0
 40
2.0
 40
2.0
 40
3.0
 40
3.0
 40
3.0
 40
4.0
 40
4.0
 40
4.0
 40
4.0
 10
106.0780535114851
 20
-136.5619809127182
 30
0.0
 10
106.0780535114851
 20
-136.5069562782651
 30
0.0
 10
106.03324573833
 20
-136.4621485051097
 30
0.0
 10
105.9782103379532
 20
-136.4621485051097
 30
0.0
 10
105.9224751525558
 20
-136.4621485051097
 30
0.0
 10
105.8776673794008
 20
-136.5069562782651
 30
0.0
 10
105.8776673794008
 20
-136.5619809127182
 30
0.0
 10
105.8776673794008
 20
-136.6170163130951
 30
0.0
 10
105.9224751525558
 20
-136.6618240862501
 30
0.0
 10
105.9782103379532
 20
-136.6618240862501
 30
0.0
 10
106.03324573833
 20
-136.6618240862501
 30
0.0
 10
106.0780535114851
 20
-136.6170163130951
 30
0.0
 10
106.0780535114851
 20
-136.5619809127182
 30
0.0
  0
SPLINE
  5
46
330
1F
100
AcDbEntity
  8
_U+30EC_U+30A4_U+30E4_U+30FC 1
 62
   179
420
  2234388
370
     9
100
AcDbSpline
210
0.0
220
0.0
230
1.0
 70
    11
 71
     3
 72
    17
 73
    13
 74
     0
 42
0.0000000001
 43
0.0000000001
 12
1.0
 22
0.0
 32
0.0
 13
1.0
 23
0.0
 33
0.0
 40
0.0
 40
0.0
 40
0.0
 40
0.0
 40
1.0
 40
1.0
 40
1.0
 40
2.0
 40
2.0
 40
2.0
 40
3.0
 40
3.0
 40
3.0
 40
4.0
 40
4.0
 40
4.0
 40
4.0
 10
99.07661825458197
 20
-136.5619809127182
 30
0.0
 10
99.07661825458197
 20
-136.5069562782651
 30
0.0
 10
99.03181048142727
 20
-136.4621485051097
 30
0.0
 10
98.9767750810504
 20
-136.4621485051097
 30
0.0
 10
98.92173968067354
 20
-136.4621485051097
 30
0.0
 10
98.87694267344158
 20
-136.5069562782651
 30
0.0
 10
98.87694267344158
 20
-136.5619809127182
 30
0.0
 10
98.87694267344158
 20
-136.6170163130951
 30
0.0
 10
98.92173968067354
 20
-136.6618240862501
 30
0.0
 10
98.9767750810504
 20
-136.6618240862501
 30
0.0
 10
99.03181048142727
 20
-136.6618240862501
 30
0.0
 10
99.07661825458197
 20
-136.6170163130951
 30
0.0
 10
99.07661825458197
 20
-136.5619809127182
 30
0.0
  0
POLYLINE
  5
47
330
1F
100
AcDbEntity
  8
_U+30EC_U+30A4_U+30E4_U+30FC 1
 62
   179
420
  2234388
370
     9
100
AcDb2dPolyline
 66
     1
 10
0.0
 20
0.0
 30
0.0
  0
VERTEX
  5
48
330
47
100
AcDbEntity
  8
_U+30EC_U+30A4_U+30E4_U+30FC 1
 62
   179
420
  2234388
370
     9
100
AcDbVertex
100
AcDb2dVertex
 10
98.97671048550973
 20
-138.1646178006097
 30
0.0
  0
VERTEX
  5
49
330
47
100
AcDbEntity
  8
_U+30EC_U+30A4_U+30E4_U+30FC 1
 62
   179
420
  2234388
370
     9
100
AcDbVertex
100
AcDb2dVertex
 10
98.97671048550973
 20
-135.5621819051286
 30
0.0
  0
SEQEND
  5
4A
330
47
100
AcDbEntity
  8
_U+30EC_U+30A4_U+30E4_U+30FC 1
 62
   179
420
  2234388
370
     9
  0
POLYLINE
  5
4B
330
1F
100
AcDbEntity
  8
_U+30EC_U+30A4_U+30E4_U+30FC 1
 62
   179
420
  2234388
370
     9
100
AcDb2dPolyline
 66
     1
 10
0.0
 20
0.0
 30
0.0
  0
VERTEX
  5
4C
330
4B
100
AcDbEntity
  8
_U+30EC_U+30A4_U+30E4_U+30FC 1
 62
   179
420
  2234388
370
     9
100
AcDbVertex
100
AcDb2dVertex
 10
98.97737797276032
 20
-136.5619809127182
 30
0.0
  0
VERTEX
  5
4D
330
4B
100
AcDbEntity
  8
_U+30EC_U+30A4_U+30E4_U+30FC 1
 62
   179
420
  2234388
370
     9
100
AcDbVertex
100
AcDb2dVertex
 10
105.9775428507029
 20
-136.5619809127182
 30
0.0
  0
SEQEND
  5
4E
330
4B
100
AcDbEntity
  8
_U+30EC_U+30A4_U+30E4_U+30FC 1
 62
   179
420
  2234388
370
     9
  0
POLYLINE
  5
4F
330
1F
100
AcDbEntity
  8
_U+30EC_U+30A4_U+30E4_U+30FC 1
 62
   179
420
  2234388
370
     9
100
AcDb2dPolyline
 66
     1
 10
0.0
 20
0.0
 30
0.0
  0
VERTEX
  5
50
330
4F
100
AcDbEntity
  8
_U+30EC_U+30A4_U+30E4_U+30FC 1
 62
   179
420
  2234388
370
     9
100
AcDbVertex
100
AcDb2dVertex
 10
105.9781457424128
 20
-145.1257669721821
 30
0.0
  0
VERTEX
  5
51
330
4F
100
AcDbEntity
  8
_U+30EC_U+30A4_U+30E4_U+30FC 1
 62
   179
420
  2234388
370
     9
100
AcDbVertex
100
AcDb2dVertex
 10
105.9781457424128
 20
-135.5623218621326
 30
0.0
  0
SEQEND
  5
52
330
4F
100
AcDbEntity
  8
_U+30EC_U+30A4_U+30E4_U+30FC 1
 62
   179
420
  2234388
370
     9
  0
INSERT
  5
54
330
1F
100
AcDbEntity
  8
_U+30EC_U+30A4_U+30E4_U+30FC 1
100
AcDbBlockReference
  2
block 2
 10
0.0
 20
0.0
 30
0.0
  0
SPLINE
  5
59
330
1F
100
AcDbEntity
  8
_U+30EC_U+30A4_U+30E4_U+30FC 1
 62
   179
420
  2234388
370
     9
100
AcDbSpline
210
0.0
220
0.0
230
1.0
 70
    11
 71
     3
 72
    17
 73
    13
 74
     0
 42
0.0000000001
 43
0.0000000001
 12
1.0
 22
0.0
 32
0.0
 13
1.0
 23
0.0
 33
0.0
 40
0.0
 40
0.0
 40
0.0
 40
0.0
 40
1.0
 40
1.0
 40
1.0
 40
2.0
 40
2.0
 40
2.0
 40
3.0
 40
3.0
 40
3.0
 40
4.0
 40
4.0
 40
4.0
 40
4.0
 10
98.07751903201306
 20
-143.624415891557
 30
0.0
 10
98.07751903201306
 20
-143.5693912571035
 30
0.0
 10
98.03271125885772
 20
-143.5245834839485
 30
0.0
 10
97.9769760734604
 20
-143.5245834839485
 30
0.0
 10
97.92194067308354
 20
-143.5245834839485
 30
0.0
 10
97.87713289992851
 20
-143.5693912571035
 30
0.0
 10
97.87713289992851
 20
-143.624415891557
 30
0.0
 10
97.87713289992851
 20
-143.6794512919339
 30
0.0
 10
97.92194067308354
 20
-143.7242590650892
 30
0.0
 10
97.9769760734604
 20
-143.7242590650892
 30
0.0
 10
98.03271125885772
 20
-143.7242590650892
 30
0.0
 10
98.07751903201306
 20
-143.6794512919339
 30
0.0
 10
98.07751903201306
 20
-143.624415891557
 30
0.0
  0
SPLINE
  5
5A
330
1F
100
AcDbEntity
  8
_U+30EC_U+30A4_U+30E4_U+30FC 1
 62
   179
420
  2234388
370
     9
100
AcDbSpline
210
0.0
220
0.0
230
1.0
 70
    11
 71
     3
 72
    17
 73
    13
 74
     0
 42
0.0000000001
 43
0.0000000001
 12
1.0
 22
0.0
 32
0.0
 13
1.0
 23
0.0
 33
0.0
 40
0.0
 40
0.0
 40
0.0
 40
0.0
 40
1.0
 40
1.0
 40
1.0
 40
2.0
 40
2.0
 40
2.0
 40
3.0
 40
3.0
 40
3.0
 40
4.0
 40
4.0
 40
4.0
 40
4.0
 10
99.07728574183257
 20
-143.624415891557
 30
0.0
 10
99.07728574183257
 20
-143.5693912571035
 30
0.0
 10
99.03247796867721
 20
-143.5245834839485
 30
0.0
 10
98.97744256830035
 20
-143.5245834839485
 30
0.0
 10
98.92240716792348
 20
-143.5245834839485
 30
0.0
 10
98.87761016069184
 20
-143.5693912571035
 30
0.0
 10
98.87761016069184
 20
-143.624415891557
 30
0.0
 10
98.87761016069184
 20
-143.6794512919339
 30
0.0
 10
98.92240716792348
 20
-143.7242590650892
 30
0.0
 10
98.97744256830035
 20
-143.7242590650892
 30
0.0
 10
99.03247796867721
 20
-143.7242590650892
 30
0.0
 10
99.07728574183257
 20
-143.6794512919339
 30
0.0
 10
99.07728574183257
 20
-143.624415891557
 30
0.0
  0
SPLINE
  5
5B
330
1F
100
AcDbEntity
  8
_U+30EC_U+30A4_U+30E4_U+30FC 1
 62
   179
420
  2234388
370
     9
100
AcDbSpline
210
0.0
220
0.0
230
1.0
 70
    11
 71
     3
 72
    17
 73
    13
 74
     0
 42
0.0000000001
 43
0.0000000001
 12
1.0
 22
0.0
 32
0.0
 13
1.0
 23
0.0
 33
0.0
 40
0.0
 40
0.0
 40
0.0
 40
0.0
 40
1.0
 40
1.0
 40
1.0
 40
2.0
 40
2.0
 40
2.0
 40
3.0
 40
3.0
 40
3.0
 40
4.0
 40
4.0
 40
4.0
 40
4.0
 10
114.0775759941586
 20
-162.626184550001
 30
0.0
 10
114.0775759941586
 20
-162.5711599155475
 30
0.0
 10
114.0327682210035
 20
-162.5263521423925
 30
0.0
 10
113.9777328206267
 20
-162.5263521423925
 30
0.0
 10
113.9226974202498
 20
-162.5263521423925
 30
0.0
 10
113.8779004130182
 20
-162.5711599155475
 30
0.0
 10
113.8779004130182
 20
-162.626184550001
 30
0.0
 10
113.8779004130182
 20
-162.6812199503779
 30
0.0
 10
113.9226974202498
 20
-162.7260277235329
 30
0.0
 10
113.9777328206267
 20
-162.7260277235329
 30
0.0
 10
114.0327682210035
 20
-162.7260277235329
 30
0.0
 10
114.0775759941586
 20
-162.6812199503779
 30
0.0
 10
114.0775759941586
 20
-162.626184550001
 30
0.0
  0
SPLINE
  5
5C
330
1F
100
AcDbEntity
  8
_U+30EC_U+30A4_U+30E4_U+30FC 1
 62
   179
420
  2234388
370
     9
100
AcDbSpline
210
0.0
220
0.0
230
1.0
 70
    11
 71
     3
 72
    17
 73
    13
 74
     0
 42
0.0000000001
 43
0.0000000001
 12
1.0
 22
0.0
 32
0.0
 13
1.0
 23
0.0
 33
0.0
 40
0.0
 40
0.0
 40
0.0
 40
0.0
 40
1.0
 40
1.0
 40
1.0
 40
2.0
 40
2.0
 40
2.0
 40
3.0
 40
3.0
 40
3.0
 40
4.0
 40
4.0
 40
4.0
 40
4.0
 10
98.07751903201306
 20
-162.626184550001
 30
0.0
 10
98.07751903201306
 20
-162.5711599155475
 30
0.0
 10
98.03271125885772
 20
-162.5263521423925
 30
0.0
 10
97.9769760734604
 20
-162.5263521423925
 30
0.0
 10
97.92194067308354
 20
-162.5263521423925
 30
0.0
 10
97.87713289992851
 20
-162.5711599155475
 30
0.0
 10
97.87713289992851
 20
-162.626184550001
 30
0.0
 10
97.87713289992851
 20
-162.6812199503779
 30
0.0
 10
97.92194067308354
 20
-162.7260277235329
 30
0.0
 10
97.9769760734604
 20
-162.7260277235329
 30
0.0
 10
98.03271125885772
 20
-162.7260277235329
 30
0.0
 10
98.07751903201306
 20
-162.6812199503779
 30
0.0
 10
98.07751903201306
 20
-162.626184550001
 30
0.0
  0
SPLINE
  5
5D
330
1F
100
AcDbEntity
  8
_U+30EC_U+30A4_U+30E4_U+30FC 1
 62
   179
420
  2234388
370
     9
100
AcDbSpline
210
0.0
220
0.0
230
1.0
 70
    11
 71
     3
 72
    17
 73
    13
 74
     0
 42
0.0000000001
 43
0.0000000001
 12
1.0
 22
0.0
 32
0.0
 13
1.0
 23
0.0
 33
0.0
 40
0.0
 40
0.0
 40
0.0
 40
0.0
 40
1.0
 40
1.0
 40
1.0
 40
2.0
 40
2.0
 40
2.0
 40
3.0
 40
3.0
 40
3.0
 40
4.0
 40
4.0
 40
4.0
 40
4.0
 10
94.07708492046402
 20
-139.6246492672585
 30
0.0
 10
94.07708492046402
 20
-139.5696246328051
 30
0.0
 10
94.03227714730899
 20
-139.5248168596501
 30
0.0
 10
93.97724174693212
 20
-139.5248168596501
 30
0.0
 10
93.92220634655526
 20
-139.5248168596501
 30
0.0
 10
93.87740933932362
 20
-139.5696246328051
 30
0.0
 10
93.87740933932362
 20
-139.6246492672585
 30
0.0
 10
93.87740933932362
 20
-139.6796846676354
 30
0.0
 10
93.92220634655526
 20
-139.7244924407904
 30
0.0
 10
93.97724174693212
 20
-139.7244924407904
 30
0.0
 10
94.03227714730899
 20
-139.7244924407904
 30
0.0
 10
94.07708492046402
 20
-139.6796846676354
 30
0.0
 10
94.07708492046402
 20
-139.6246492672585
 30
0.0
  0
SPLINE
  5
5E
330
1F
100
AcDbEntity
  8
_U+30EC_U+30A4_U+30E4_U+30FC 1
 62
   179
420
  2234388
370
     9
100
AcDbSpline
210
0.0
220
0.0
230
1.0
 70
    11
 71
     3
 72
    17
 73
    13
 74
     0
 42
0.0000000001
 43
0.0000000001
 12
1.0
 22
0.0
 32
0.0
 13
1.0
 23
0.0
 33
0.0
 40
0.0
 40
0.0
 40
0.0
 40
0.0
 40
1.0
 40
1.0
 40
1.0
 40
2.0
 40
2.0
 40
2.0
 40
3.0
 40
3.0
 40
3.0
 40
4.0
 40
4.0
 40
4.0
 40
4.0
 10
94.07708492046402
 20
-158.626428691626
 30
0.0
 10
94.07708492046402
 20
-158.5714040571725
 30
0.0
 10
94.03227714730899
 20
-158.5265962840174
 30
0.0
 10
93.97724174693212
 20
-158.5265962840174
 30
0.0
 10
93.92220634655526
 20
-158.5265962840174
 30
0.0
 10
93.87740933932362
 20
-158.5714040571725
 30
0.0
 10
93.87740933932362
 20
-158.626428691626
 30
0.0
 10
93.87740933932362
 20
-158.6821746429466
 30
0.0
 10
93.92220634655526
 20
-158.7269716501783
 30
0.0
 10
93.97724174693212
 20
-158.7269716501783
 30
0.0
 10
94.03227714730899
 20
-158.7269716501783
 30
0.0
 10
94.07708492046402
 20
-158.6821746429466
 30
0.0
 10
94.07708492046402
 20
-158.626428691626
 30
0.0
  0
SPLINE
  5
5F
330
1F
100
AcDbEntity
  8
_U+30EC_U+30A4_U+30E4_U+30FC 1
 62
   179
420
  2234388
370
     9
100
AcDbSpline
210
0.0
220
0.0
230
1.0
 70
    11
 71
     3
 72
    17
 73
    13
 74
     0
 42
0.0000000001
 43
0.0000000001
 12
1.0
 22
0.0
 32
0.0
 13
1.0
 23
0.0
 33
0.0
 40
0.0
 40
0.0
 40
0.0
 40
0.0
 40
1.0
 40
1.0
 40
1.0
 40
2.0
 40
2.0
 40
2.0
 40
3.0
 40
3.0
 40
3.0
 40
4.0
 40
4.0
 40
4.0
 40
4.0
 10
118.0773318525336
 20
-139.6246492672585
 30
0.0
 10
118.0773318525336
 20
-139.5696246328051
 30
0.0
 10
118.0325240793786
 20
-139.5248168596501
 30
0.0
 10
117.9774886790017
 20
-139.5248168596501
 30
0.0
 10
117.9224532786249
 20
-139.5248168596501
 30
0.0
 10
117.8776562713932
 20
-139.5696246328051
 30
0.0
 10
117.8776562713932
 20
-139.6246492672585
 30
0.0
 10
117.8776562713932
 20
-139.6796846676354
 30
0.0
 10
117.9224532786249
 20
-139.7244924407904
 30
0.0
 10
117.9774886790017
 20
-139.7244924407904
 30
0.0
 10
118.0325240793786
 20
-139.7244924407904
 30
0.0
 10
118.0773318525336
 20
-139.6796846676354
 30
0.0
 10
118.0773318525336
 20
-139.6246492672585
 30
0.0
  0
SPLINE
  5
60
330
1F
100
AcDbEntity
  8
_U+30EC_U+30A4_U+30E4_U+30FC 1
 62
   179
420
  2234388
370
     9
100
AcDbSpline
210
0.0
220
0.0
230
1.0
 70
    11
 71
     3
 72
    17
 73
    13
 74
     0
 42
0.0000000001
 43
0.0000000001
 12
1.0
 22
0.0
 32
0.0
 13
1.0
 23
0.0
 33
0.0
 40
0.0
 40
0.0
 40
0.0
 40
0.0
 40
1.0
 40
1.0
 40
1.0
 40
2.0
 40
2.0
 40
2.0
 40
3.0
 40
3.0
 40
3.0
 40
4.0
 40
4.0
 40
4.0
 40
4.0
 10
118.0773318525336
 20
-157.6266619818064
 30
0.0
 10
118.0773318525336
 20
-157.571637347353
 30
0.0
 10
118.0325240793786
 20
-157.5268295741979
 30
0.0
 10
117.9774886790017
 20
-157.5268295741979
 30
0.0
 10
117.9224532786249
 20
-157.5268295741979
 30
0.0
 10
117.8776562713932
 20
-157.571637347353
 30
0.0
 10
117.8776562713932
 20
-157.6266619818064
 30
0.0
 10
117.8776562713932
 20
-157.6816973821833
 30
0.0
 10
117.9224532786249
 20
-157.7265051553383
 30
0.0
 10
117.9774886790017
 20
-157.7265051553383
 30
0.0
 10
118.0325240793786
 20
-157.7265051553383
 30
0.0
 10
118.0773318525336
 20
-157.6816973821833
 30
0.0
 10
118.0773318525336
 20
-157.6266619818064
 30
0.0
  0
POLYLINE
  5
61
330
1F
100
AcDbEntity
  8
_U+30EC_U+30A4_U+30E4_U+30FC 1
 62
   179
420
  2234388
370
     9
100
AcDb2dPolyline
 66
     1
 10
0.0
 20
0.0
 30
0.0
  0
VERTEX
  5
62
330
61
100
AcDbEntity
  8
_U+30EC_U+30A4_U+30E4_U+30FC 1
 62
   179
420
  2234388
370
     9
100
AcDbVertex
100
AcDb2dVertex
 10
98.97737797276032
 20
-143.624415891557
 30
0.0
  0
VERTEX
  5
63
330
61
100
AcDbEntity
  8
_U+30EC_U+30A4_U+30E4_U+30FC 1
 62
   179
420
  2234388
370
     9
100
AcDbVertex
100
AcDb2dVertex
 10
102.747862726592
 20
-143.624415891557
 30
0.0
  0
SEQEND
  5
64
330
61
100
AcDbEntity
  8
_U+30EC_U+30A4_U+30E4_U+30FC 1
 62
   179
420
  2234388
370
     9
  0
POLYLINE
  5
65
330
1F
100
AcDbEntity
  8
_U+30EC_U+30A4_U+30E4_U+30FC 1
 62
   179
420
  2234388
370
     9
100
AcDb2dPolyline
 66
     1
 10
0.0
 20
0.0
 30
0.0
  0
VERTEX
  5
66
330
65
100
AcDbEntity
  8
_U+30EC_U+30A4_U+30E4_U+30FC 1
 62
   179
420
  2234388
370
     9
100
AcDbVertex
100
AcDb2dVertex
 10
96.97716629994734
 20
-143.624415891557
 30
0.0
  0
VERTEX
  5
67
330
65
100
AcDbEntity
  8
_U+30EC_U+30A4_U+30E4_U+30FC 1
 62
   179
420
  2234388
370
     9
100
AcDbVertex
100
AcDb2dVertex
 10
98.97741027053017
 20
-143.624415891557
 30
0.0
  0
SEQEND
  5
68
330
65
100
AcDbEntity
  8
_U+30EC_U+30A4_U+30E4_U+30FC 1
 62
   179
420
  2234388
370
     9
  0
INSERT
  5
6A
330
1F
100
AcDbEntity
  8
_U+30EC_U+30A4_U+30E4_U+30FC 1
100
AcDbBlockReference
  2
block 3
 10
0.0
 20
0.0
 30
0.0
  0
POLYLINE
  5
6F
330
1F
100
AcDbEntity
  8
_U+30EC_U+30A4_U+30E4_U+30FC 1
 62
   179
420
  2234388
370
     9
100
AcDb2dPolyline
 66
     1
 10
0.0
 20
0.0
 30
0.0
  0
VERTEX
  5
70
330
6F
100
AcDbEntity
  8
_U+30EC_U+30A4_U+30E4_U+30FC 1
 62
   179
420
  2234388
370
     9
100
AcDbVertex
100
AcDb2dVertex
 10
111.5171810295209
 20
-157.6266619818064
 30
0.0
  0
VERTEX
  5
71
330
6F
100
AcDbEntity
  8
_U+30EC_U+30A4_U+30E4_U+30FC 1
 62
   179
420
  2234388
370
     9
100
AcDbVertex
100
AcDb2dVertex
 10
118.9770185385066
 20
-157.6266619818064
 30
0.0
  0
SEQEND
  5
72
330
6F
100
AcDbEntity
  8
_U+30EC_U+30A4_U+30E4_U+30FC 1
 62
   179
420
  2234388
370
     9
  0
SPLINE
  5
73
330
1F
100
AcDbEntity
  8
_U+30EC_U+30A4_U+30E4_U+30FC 1
 62
   179
420
  2234388
370
     9
100
AcDbSpline
210
0.0
220
0.0
230
1.0
 70
    11
 71
     3
 72
    17
 73
    13
 74
     0
 42
0.0000000001
 43
0.0000000001
 12
1.0
 22
0.0
 32
0.0
 13
1.0
 23
0.0
 33
0.0
 40
0.0
 40
0.0
 40
0.0
 40
0.0
 40
1.0
 40
1.0
 40
1.0
 40
2.0
 40
2.0
 40
2.0
 40
3.0
 40
3.0
 40
3.0
 40
4.0
 40
4.0
 40
4.0
 40
4.0
 10
118.0773318525336
 20
-147.6234719649116
 30
0.0
 10
118.0773318525336
 20
-147.5677367795143
 30
0.0
 10
118.0325240793786
 20
-147.5229397722827
 30
0.0
 10
117.9774886790017
 20
-147.5229397722827
 30
0.0
 10
117.9224532786249
 20
-147.5229397722827
 30
0.0
 10
117.8776562713932
 20
-147.5677367795143
 30
0.0
 10
117.8776562713932
 20
-147.6234719649116
 30
0.0
 10
117.8776562713932
 20
-147.6785073652885
 30
0.0
 10
117.9224532786249
 20
-147.7233151384435
 30
0.0
 10
117.9774886790017
 20
-147.7233151384435
 30
0.0
 10
118.0325240793786
 20
-147.7233151384435
 30
0.0
 10
118.0773318525336
 20
-147.6785073652885
 30
0.0
 10
118.0773318525336
 20
-147.6234719649116
 30
0.0
  0
POLYLINE
  5
74
330
1F
100
AcDbEntity
  8
_U+30EC_U+30A4_U+30E4_U+30FC 1
 62
   179
420
  2234388
370
     9
100
AcDb2dPolyline
 66
     1
 10
0.0
 20
0.0
 30
0.0
  0
VERTEX
  5
75
330
74
100
AcDbEntity
  8
_U+30EC_U+30A4_U+30E4_U+30FC 1
 62
   179
420
  2234388
370
     9
100
AcDbVertex
100
AcDb2dVertex
 10
111.5151355040765
 20
-147.6234719649116
 30
0.0
  0
VERTEX
  5
76
330
74
100
AcDbEntity
  8
_U+30EC_U+30A4_U+30E4_U+30FC 1
 62
   179
420
  2234388
370
     9
100
AcDbVertex
100
AcDb2dVertex
 10
118.977083134047
 20
-147.6234719649116
 30
0.0
  0
SEQEND
  5
77
330
74
100
AcDbEntity
  8
_U+30EC_U+30A4_U+30E4_U+30FC 1
 62
   179
420
  2234388
370
     9
  0
SPLINE
  5
78
330
1F
100
AcDbEntity
  8
_U+30EC_U+30A4_U+30E4_U+30FC 1
 62
   179
420
  2234388
370
     9
100
AcDbSpline
210
0.0
220
0.0
230
1.0
 70
    11
 71
     3
 72
    17
 73
    13
 74
     0
 42
0.0000000001
 43
0.0000000001
 12
1.0
 22
0.0
 32
0.0
 13
1.0
 23
0.0
 33
0.0
 40
0.0
 40
0.0
 40
0.0
 40
0.0
 40
1.0
 40
1.0
 40
1.0
 40
2.0
 40
2.0
 40
2.0
 40
3.0
 40
3.0
 40
3.0
 40
4.0
 40
4.0
 40
4.0
 40
4.0
 10
118.0773318525336
 20
-146.6230270019185
 30
0.0
 10
118.0773318525336
 20
-146.568002367465
 30
0.0
 10
118.0325240793786
 20
-146.52319459431
 30
0.0
 10
117.9774886790017
 20
-146.52319459431
 30
0.0
 10
117.9224532786249
 20
-146.52319459431
 30
0.0
 10
117.8776562713932
 20
-146.568002367465
 30
0.0
 10
117.8776562713932
 20
-146.6230270019185
 30
0.0
 10
117.8776562713932
 20
-146.6780624022953
 30
0.0
 10
117.9224532786249
 20
-146.7228701754507
 30
0.0
 10
117.9774886790017
 20
-146.7228701754507
 30
0.0
 10
118.0325240793786
 20
-146.7228701754507
 30
0.0
 10
118.0773318525336
 20
-146.6780624022953
 30
0.0
 10
118.0773318525336
 20
-146.6230270019185
 30
0.0
  0
POLYLINE
  5
79
330
1F
100
AcDbEntity
  8
_U+30EC_U+30A4_U+30E4_U+30FC 1
 62
   179
420
  2234388
370
     9
100
AcDb2dPolyline
 66
     1
 10
0.0
 20
0.0
 30
0.0
  0
VERTEX
  5
7A
330
79
100
AcDbEntity
  8
_U+30EC_U+30A4_U+30E4_U+30FC 1
 62
   179
420
  2234388
370
     9
100
AcDbVertex
100
AcDb2dVertex
 10
111.5151355040765
 20
-146.6264075018637
 30
0.0
  0
VERTEX
  5
7B
330
79
100
AcDbEntity
  8
_U+30EC_U+30A4_U+30E4_U+30FC 1
 62
   179
420
  2234388
370
     9
100
AcDbVertex
100
AcDb2dVertex
 10
118.977083134047
 20
-146.6264075018637
 30
0.0
  0
SEQEND
  5
7C
330
79
100
AcDbEntity
  8
_U+30EC_U+30A4_U+30E4_U+30FC 1
 62
   179
420
  2234388
370
     9
  0
INSERT
  5
7E
330
1F
100
AcDbEntity
  8
_U+30EC_U+30A4_U+30E4_U+30FC 1
100
AcDbBlockReference
  2
block 4
 10
0.0
 20
0.0
 30
0.0
  0
POLYLINE
  5
86
330
1F
100
AcDbEntity
  8
_U+30EC_U+30A4_U+30E4_U+30FC 1
 62
   179
420
  2234388
370
     9
100
AcDb2dPolyline
 66
     1
 10
0.0
 20
0.0
 30
0.0
  0
VERTEX
  5
87
330
86
100
AcDbEntity
  8
_U+30EC_U+30A4_U+30E4_U+30FC 1
 62
   179
420
  2234388
370
     9
100
AcDbVertex
100
AcDb2dVertex
 10
117.9774240834614
 20
-147.6234719649116
 30
0.0
  0
VERTEX
  5
88
330
86
100
AcDbEntity
  8
_U+30EC_U+30A4_U+30E4_U+30FC 1
 62
   179
420
  2234388
370
     9
100
AcDbVertex
100
AcDb2dVertex
 10
117.9774240834614
 20
-146.6237052550921
 30
0.0
  0
SEQEND
  5
89
330
86
100
AcDbEntity
  8
_U+30EC_U+30A4_U+30E4_U+30FC 1
 62
   179
420
  2234388
370
     9
  0
POLYLINE
  5
8A
330
1F
100
AcDbEntity
  8
_U+30EC_U+30A4_U+30E4_U+30FC 1
 62
   179
420
  2234388
370
     9
100
AcDb2dPolyline
 66
     1
 10
0.0
 20
0.0
 30
0.0
  0
VERTEX
  5
8B
330
8A
100
AcDbEntity
  8
_U+30EC_U+30A4_U+30E4_U+30FC 1
 62
   179
420
  2234388
370
     9
100
AcDbVertex
100
AcDb2dVertex
 10
117.9774240834614
 20
-146.6236944891687
 30
0.0
  0
VERTEX
  5
8C
330
8A
100
AcDbEntity
  8
_U+30EC_U+30A4_U+30E4_U+30FC 1
 62
   179
420
  2234388
370
     9
100
AcDbVertex
100
AcDb2dVertex
 10
117.9774240834614
 20
-139.6231743357539
 30
0.0
  0
SEQEND
  5
8D
330
8A
100
AcDbEntity
  8
_U+30EC_U+30A4_U+30E4_U+30FC 1
 62
   179
420
  2234388
370
     9
  0
POLYLINE
  5
8E
330
1F
100
AcDbEntity
  8
_U+30EC_U+30A4_U+30E4_U+30FC 1
 62
   179
420
  2234388
370
     9
100
AcDb2dPolyline
 66
     1
 10
0.0
 20
0.0
 30
0.0
  0
VERTEX
  5
8F
330
8E
100
AcDbEntity
  8
_U+30EC_U+30A4_U+30E4_U+30FC 1
 62
   179
420
  2234388
370
     9
100
AcDbVertex
100
AcDb2dVertex
 10
100.5173248887433
 20
-139.6246492672585
 30
0.0
  0
VERTEX
  5
90
330
8E
100
AcDbEntity
  8
_U+30EC_U+30A4_U+30E4_U+30FC 1
 62
   179
420
  2234388
370
     9
100
AcDbVertex
100
AcDb2dVertex
 10
118.9771261977405
 20
-139.6246492672585
 30
0.0
  0
SEQEND
  5
91
330
8E
100
AcDbEntity
  8
_U+30EC_U+30A4_U+30E4_U+30FC 1
 62
   179
420
  2234388
370
     9
  0
INSERT
  5
93
330
1F
100
AcDbEntity
  8
_U+30EC_U+30A4_U+30E4_U+30FC 1
100
AcDbBlockReference
  2
block 5
 10
0.0
 20
0.0
 30
0.0
  0
POLYLINE
  5
98
330
1F
100
AcDbEntity
  8
_U+30EC_U+30A4_U+30E4_U+30FC 1
 62
   179
420
  2234388
370
     9
100
AcDb2dPolyline
 66
     1
 10
0.0
 20
0.0
 30
0.0
  0
VERTEX
  5
99
330
98
100
AcDbEntity
  8
_U+30EC_U+30A4_U+30E4_U+30FC 1
 62
   179
420
  2234388
370
     9
100
AcDbVertex
100
AcDb2dVertex
 10
93.97717715139177
 20
-158.6257289066055
 30
0.0
  0
VERTEX
  5
9A
330
98
100
AcDbEntity
  8
_U+30EC_U+30A4_U+30E4_U+30FC 1
 62
   179
420
  2234388
370
     9
100
AcDbVertex
100
AcDb2dVertex
 10
93.97717715139177
 20
-139.6261780283801
 30
0.0
  0
SEQEND
  5
9B
330
98
100
AcDbEntity
  8
_U+30EC_U+30A4_U+30E4_U+30FC 1
 62
   179
420
  2234388
370
     9
  0
POLYLINE
  5
9C
330
1F
100
AcDbEntity
  8
_U+30EC_U+30A4_U+30E4_U+30FC 1
 62
   179
420
  2234388
370
     9
100
AcDb2dPolyline
 66
     1
 10
0.0
 20
0.0
 30
0.0
  0
VERTEX
  5
9D
330
9C
100
AcDbEntity
  8
_U+30EC_U+30A4_U+30E4_U+30FC 1
 62
   179
420
  2234388
370
     9
100
AcDbVertex
100
AcDb2dVertex
 10
96.43695379601338
 20
-158.626428691626
 30
0.0
  0
VERTEX
  5
9E
330
9C
100
AcDbEntity
  8
_U+30EC_U+30A4_U+30E4_U+30FC 1
 62
   179
420
  2234388
370
     9
100
AcDbVertex
100
AcDb2dVertex
 10
92.97725971864479
 20
-158.626428691626
 30
0.0
  0
SEQEND
  5
9F
330
9C
100
AcDbEntity
  8
_U+30EC_U+30A4_U+30E4_U+30FC 1
 62
   179
420
  2234388
370
     9
  0
POLYLINE
  5
A0
330
1F
100
AcDbEntity
  8
_U+30EC_U+30A4_U+30E4_U+30FC 1
 62
   179
420
  2234388
370
     9
100
AcDb2dPolyline
 66
     1
 10
0.0
 20
0.0
 30
0.0
  0
VERTEX
  5
A1
330
A0
100
AcDbEntity
  8
_U+30EC_U+30A4_U+30E4_U+30FC 1
 62
   179
420
  2234388
370
     9
100
AcDbVertex
100
AcDb2dVertex
 10
96.43695379601338
 20
-139.6246492672585
 30
0.0
  0
VERTEX
  5
A2
330
A0
100
AcDbEntity
  8
_U+30EC_U+30A4_U+30E4_U+30FC 1
 62
   179
420
  2234388
370
     9
100
AcDbVertex
100
AcDb2dVertex
 10
92.97725971864479
 20
-139.6246492672585
 30
0.0
  0
SEQEND
  5
A3
330
A0
100
AcDbEntity
  8
_U+30EC_U+30A4_U+30E4_U+30FC 1
 62
   179
420
  2234388
370
     9
  0
INSERT
  5
A5
330
1F
100
AcDbEntity
  8
_U+30EC_U+30A4_U+30E4_U+30FC 1
100
AcDbBlockReference
  2
block 6
 10
0.0
 20
0.0
 30
0.0
  0
POLYLINE
  5
AD
330
1F
100
AcDbEntity
  8
_U+30EC_U+30A4_U+30E4_U+30FC 1
 62
   179
420
  2234388
370
     9
100
AcDb2dPolyline
 66
     1
 10
0.0
 20
0.0
 30
0.0
  0
VERTEX
  5
AE
330
AD
100
AcDbEntity
  8
_U+30EC_U+30A4_U+30E4_U+30FC 1
 62
   179
420
  2234388
370
     9
100
AcDbVertex
100
AcDb2dVertex
 10
97.97693300976684
 20
-162.626184550001
 30
0.0
  0
VERTEX
  5
AF
330
AD
100
AcDbEntity
  8
_U+30EC_U+30A4_U+30E4_U+30FC 1
 62
   179
420
  2234388
370
     9
100
AcDbVertex
100
AcDb2dVertex
 10
113.976806951215
 20
-162.626184550001
 30
0.0
  0
SEQEND
  5
B0
330
AD
100
AcDbEntity
  8
_U+30EC_U+30A4_U+30E4_U+30FC 1
 62
   179
420
  2234388
370
     9
  0
POLYLINE
  5
B1
330
1F
100
AcDbEntity
  8
_U+30EC_U+30A4_U+30E4_U+30FC 1
 62
   179
420
  2234388
370
     9
100
AcDb2dPolyline
 66
     1
 10
0.0
 20
0.0
 30
0.0
  0
VERTEX
  5
B2
330
B1
100
AcDbEntity
  8
_U+30EC_U+30A4_U+30E4_U+30FC 1
 62
   179
420
  2234388
370
     9
100
AcDbVertex
100
AcDb2dVertex
 10
97.97693300976684
 20
-160.1656650566654
 30
0.0
  0
VERTEX
  5
B3
330
B1
100
AcDbEntity
  8
_U+30EC_U+30A4_U+30E4_U+30FC 1
 62
   179
420
  2234388
370
     9
100
AcDbVertex
100
AcDb2dVertex
 10
97.97693300976684
 20
-163.6260696849778
 30
0.0
  0
SEQEND
  5
B4
330
B1
100
AcDbEntity
  8
_U+30EC_U+30A4_U+30E4_U+30FC 1
 62
   179
420
  2234388
370
     9
  0
POLYLINE
  5
B5
330
1F
100
AcDbEntity
  8
_U+30EC_U+30A4_U+30E4_U+30FC 1
 62
   179
420
  2234388
370
     9
100
AcDb2dPolyline
 66
     1
 10
0.0
 20
0.0
 30
0.0
  0
VERTEX
  5
B6
330
B5
100
AcDbEntity
  8
_U+30EC_U+30A4_U+30E4_U+30FC 1
 62
   179
420
  2234388
370
     9
100
AcDbVertex
100
AcDb2dVertex
 10
113.9776682250863
 20
-161.1661423174288
 30
0.0
  0
VERTEX
  5
B7
330
B5
100
AcDbEntity
  8
_U+30EC_U+30A4_U+30E4_U+30FC 1
 62
   179
420
  2234388
370
     9
100
AcDbVertex
100
AcDb2dVertex
 10
113.9776682250863
 20
-163.6260696849778
 30
0.0
  0
SEQEND
  5
B8
330
B5
100
AcDbEntity
  8
_U+30EC_U+30A4_U+30E4_U+30FC 1
 62
   179
420
  2234388
370
     9
  0
INSERT
  5
BA
330
1F
100
AcDbEntity
  8
_U+30EC_U+30A4_U+30E4_U+30FC 1
100
AcDbBlockReference
  2
block 7
 10
0.0
 20
0.0
 30
0.0
  0
POLYLINE
  5
C2
330
1F
100
AcDbEntity
  8
_U+30EC_U+30A4_U+30E4_U+30FC 1
 62
   179
420
  2234388
370
     9
100
AcDb2dPolyline
 66
     1
 10
0.0
 20
0.0
 30
0.0
  0
VERTEX
  5
C3
330
C2
100
AcDbEntity
  8
_U+30EC_U+30A4_U+30E4_U+30FC 1
 62
   179
420
  2234388
370
     9
100
AcDbVertex
100
AcDb2dVertex
 10
117.9774240834614
 20
-157.6266619818064
 30
0.0
  0
VERTEX
  5
C4
330
C2
100
AcDbEntity
  8
_U+30EC_U+30A4_U+30E4_U+30FC 1
 62
   179
420
  2234388
370
     9
100
AcDbVertex
100
AcDb2dVertex
 10
117.9774240834614
 20
-147.6261203820659
 30
0.0
  0
SEQEND
  5
C5
330
C2
100
AcDbEntity
  8
_U+30EC_U+30A4_U+30E4_U+30FC 1
 62
   179
420
  2234388
370
     9
  0
POLYLINE
  5
C6
330
1F
100
AcDbEntity
  8
_U+30EC_U+30A4_U+30E4_U+30FC 1
  6
AI-Linetype-1
 62
     8
420
  8223869
370
    25
100
AcDb2dPolyline
 66
     1
 10
0.0
 20
0.0
 30
0.0
  0
VERTEX
  5
C7
330
C6
100
AcDbEntity
  8
_U+30EC_U+30A4_U+30E4_U+30FC 1
  6
AI-Linetype-1
 62
     8
420
  8223869
370
    25
100
AcDbVertex
100
AcDb2dVertex
 10
97.88599325487964
 20
-138.8763745278623
 30
0.0
  0
VERTEX
  5
C8
330
C6
100
AcDbEntity
  8
_U+30EC_U+30A4_U+30E4_U+30FC 1
  6
AI-Linetype-1
 62
     8
420
  8223869
370
    25
100
AcDbVertex
100
AcDb2dVertex
 10
99.78781515381824
 20
-138.8763745278623
 30
0.0
  0
VERTEX
  5
C9
330
C6
100
AcDbEntity
  8
_U+30EC_U+30A4_U+30E4_U+30FC 1
  6
AI-Linetype-1
 62
     8
420
  8223869
370
    25
100
AcDbVertex
100
AcDb2dVertex
 10
99.78781515381824
 20
-145.8243354432803
 30
0.0
  0
VERTEX
  5
CA
330
C6
100
AcDbEntity
  8
_U+30EC_U+30A4_U+30E4_U+30FC 1
  6
AI-Linetype-1
 62
     8
420
  8223869
370
    25
100
AcDbVertex
100
AcDb2dVertex
 10
106.8684122454183
 20
-145.8250459942241
 30
0.0
  0
VERTEX
  5
CB
330
C6
100
AcDbEntity
  8
_U+30EC_U+30A4_U+30E4_U+30FC 1
  6
AI-Linetype-1
 62
     8
420
  8223869
370
    25
100
AcDbVertex
100
AcDb2dVertex
 10
106.8684122454183
 20
-147.7473339135298
 30
0.0
  0
SEQEND
  5
CD
330
C6
100
AcDbEntity
  8
_U+30EC_U+30A4_U+30E4_U+30FC 1
  6
AI-Linetype-1
 62
     8
420
  8223869
370
    25
  0
ENDSEC
  0
SECTION
  2
OBJECTS
  0
DICTIONARY
  5
C
330
0
100
AcDbDictionary
281
     1
  3
ACAD_GROUP
350
D
  3
ACAD_LAYOUT
350
1A
  3
ACAD_MATERIAL
350
3B
  3
ACAD_MLEADERSTYLE
350
CF
  3
ACAD_MLINESTYLE
350
17
  3
ACAD_PLOTSETTINGS
350
19
  3
ACAD_PLOTSTYLENAME
350
E
  3
ACAD_TABLESTYLE
350
CE
  3
ACAD_VISUALSTYLE
350
2A
  0
SUN
  5
3F
330
29
100
AcDbSun
 90
        1
290
     0
 63
     7
421
 16777215
 40
1.0
291
     1
 91
  2455826
 92
 54000000
292
     0
 70
     2
 71
   256
280
     1
  0
DICTIONARY
  5
D
102
{ACAD_REACTORS
330
C
102
}
330
C
100
AcDbDictionary
281
     1
  0
DICTIONARY
  5
1A
102
{ACAD_REACTORS
330
C
102
}
330
C
100
AcDbDictionary
281
     1
  3
Layout1
350
1E
  3
Layout2
350
26
  3
Model
350
22
  0
DICTIONARY
  5
3B
102
{ACAD_REACTORS
330
C
102
}
330
C
100
AcDbDictionary
281
     1
  3
ByBlock
350
3D
  3
ByLayer
350
3C
  3
Global
350
3E
  0
DICTIONARY
  5
CF
102
{ACAD_REACTORS
330
C
102
}
330
C
100
AcDbDictionary
281
     1
  0
DICTIONARY
  5
17
102
{ACAD_REACTORS
330
C
102
}
330
C
100
AcDbDictionary
281
     1
  3
Standard
350
18
  0
DICTIONARY
  5
19
102
{ACAD_REACTORS
330
C
102
}
330
C
100
AcDbDictionary
281
     1
  0
ACDBDICTIONARYWDFLT
  5
E
102
{ACAD_REACTORS
330
C
102
}
330
C
100
AcDbDictionary
281
     1
  3
Normal
350
F
100
AcDbDictionaryWithDefault
340
F
  0
DICTIONARY
  5
CE
102
{ACAD_REACTORS
330
C
102
}
330
C
100
AcDbDictionary
281
     1
  0
DICTIONARY
  5
2A
102
{ACAD_REACTORS
330
C
102
}
330
C
100
AcDbDictionary
281
     1
  3
2dWireframe
350
2F
  3
3D Hidden
350
31
  3
3dWireframe
350
30
  3
Basic
350
32
  3
Brighten
350
36
  3
ColorChange
350
3A
  3
Conceptual
350
34
  3
Dim
350
35
  3
Facepattern
350
39
  3
Flat
350
2B
  3
FlatWithEdges
350
2C
  3
Gouraud
350
2D
  3
GouraudWithEdges
350
2E
  3
Linepattern
350
38
  3
Realistic
350
33
  3
Thicken
350
37
  0
LAYOUT
  5
1E
102
{ACAD_REACTORS
330
1A
102
}
330
1A
100
AcDbPlotSettings
  1

  2
none_device
  4

  6

 40
0.0
 41
0.0
 42
0.0
 43
0.0
 44
0.0
 45
0.0
 46
0.0
 47
0.0
 48
0.0
 49
0.0
140
0.0
141
0.0
142
1.0
143
1.0
 70
   688
 72
     0
 73
     0
 74
     5
  7

 75
    16
 76
     0
 77
     2
 78
   300
147
1.0
148
0.0
149
0.0
100
AcDbLayout
  1
Layout1
 70
     1
 71
     1
 10
0.0
 20
0.0
 11
12.0
 21
9.0
 12
0.0
 22
0.0
 32
0.0
 14
1.000000000000000E+20
 24
1.000000000000000E+20
 34
1.000000000000000E+20
 15
-1.000000000000000E+20
 25
-1.000000000000000E+20
 35
-1.000000000000000E+20
146
0.0
 13
0.0
 23
0.0
 33
0.0
 16
1.0
 26
0.0
 36
0.0
 17
0.0
 27
1.0
 37
0.0
 76
     0
330
1B
  0
LAYOUT
  5
26
102
{ACAD_REACTORS
330
1A
102
}
330
1A
100
AcDbPlotSettings
  1

  2
none_device
  4

  6

 40
0.0
 41
0.0
 42
0.0
 43
0.0
 44
0.0
 45
0.0
 46
0.0
 47
0.0
 48
0.0
 49
0.0
140
0.0
141
0.0
142
1.0
143
1.0
 70
   688
 72
     0
 73
     0
 74
     5
  7

 75
    16
 76
     0
 77
     2
 78
   300
147
1.0
148
0.0
149
0.0
100
AcDbLayout
  1
Layout2
 70
     1
 71
     2
 10
0.0
 20
0.0
 11
0.0
 21
0.0
 12
0.0
 22
0.0
 32
0.0
 14
0.0
 24
0.0
 34
0.0
 15
0.0
 25
0.0
 35
0.0
146
0.0
 13
0.0
 23
0.0
 33
0.0
 16
1.0
 26
0.0
 36
0.0
 17
0.0
 27
1.0
 37
0.0
 76
     0
330
23
  0
LAYOUT
  5
22
102
{ACAD_REACTORS
330
1A
102
}
330
1A
100
AcDbPlotSettings
  1

  2
none_device
  4

  6

 40
0.0
 41
0.0
 42
0.0
 43
0.0
 44
0.0
 45
0.0
 46
0.0
 47
0.0
 48
0.0
 49
0.0
140
0.0
141
0.0
142
1.0
143
1.0
 70
  1712
 72
     0
 73
     0
 74
     0
  7

 75
     0
 76
     0
 77
     2
 78
   300
147
1.0
148
0.0
149
0.0
100
AcDbLayout
  1
Model
 70
     1
 71
     0
 10
0.0
 20
0.0
 11
12.0
 21
9.0
 12
0.0
 22
0.0
 32
0.0
 14
1.000000000000000E+20
 24
1.000000000000000E+20
 34
1.000000000000000E+20
 15
-1.000000000000000E+20
 25
-1.000000000000000E+20
 35
-1.000000000000000E+20
146
0.0
 13
0.0
 23
0.0
 33
0.0
 16
1.0
 26
0.0
 36
0.0
 17
0.0
 27
1.0
 37
0.0
 76
     0
330
1F
331
29
  0
MATERIAL
  5
3D
102
{ACAD_REACTORS
330
3B
102
}
330
3B
100
AcDbMaterial
  1
ByBlock
 72
     1
 94
      127
  0
MATERIAL
  5
3C
102
{ACAD_REACTORS
330
3B
102
}
330
3B
100
AcDbMaterial
  1
ByLayer
 72
     1
 94
      127
  0
MATERIAL
  5
3E
102
{ACAD_REACTORS
330
3B
102
}
330
3B
100
AcDbMaterial
  1
Global
 72
     1
 94
      127
  0
MLINESTYLE
  5
18
102
{ACAD_REACTORS
330
17
102
}
330
17
100
AcDbMlineStyle
  2
Standard
 70
     0
  3

 62
   256
 51
90.0
 52
90.0
 71
     2
 49
0.5
 62
   256
  6
BYLAYER
 49
-0.5
 62
   256
  6
BYLAYER
  0
ACDBPLACEHOLDER
  5
F
102
{ACAD_REACTORS
330
E
102
}
330
E
  0
VISUALSTYLE
  5
2F
102
{ACAD_REACTORS
330
2A
102
}
330
2A
100
AcDbVisualStyle
  2
2dWireframe
 70
     4
177
     2
291
     0
 71
     0
176
     1
 72
     2
176
     1
 73
     0
176
     1
 90
        0
176
     1
 40
-0.6
176
     1
 41
-30.0
176
     1
 62
     5
 63
     7
421
 16777215
176
     1
 74
     1
176
     1
 91
        4
176
     1
 64
     7
176
     1
 65
   257
176
     1
 75
     1
176
     1
175
     1
176
     1
 42
1.0
176
     1
 92
        0
176
     1
 66
   257
176
     1
 43
1.0
176
     1
 76
     1
176
     1
 77
     6
176
     1
 78
     2
176
     1
 67
     7
176
     1
 79
     5
176
     1
170
     0
176
     1
171
     0
176
     1
290
     0
176
     1
 93
        1
176
     1
 44
0.0
176
     1
173
     0
176
     1
  0
VISUALSTYLE
  5
31
102
{ACAD_REACTORS
330
2A
102
}
330
2A
100
AcDbVisualStyle
  2
3D Hidden
 70
     6
177
     2
291
     0
 71
     1
176
     1
 72
     2
176
     1
 73
     2
176
     1
 90
        0
176
     1
 40
-0.6
176
     1
 41
-30.0
176
     1
 62
     5
 63
     7
421
 16777215
176
     1
 74
     2
176
     1
 91
        2
176
     1
 64
     7
176
     1
 65
   257
176
     1
 75
     2
176
     1
175
     1
176
     1
 42
40.0
176
     1
 92
        0
176
     1
 66
   257
176
     1
 43
1.0
176
     1
 76
     1
176
     1
 77
     6
176
     1
 78
     2
176
     1
 67
     7
176
     1
 79
     3
176
     1
170
     0
176
     1
171
     0
176
     1
290
     0
176
     1
 93
        1
176
     1
 44
0.0
176
     1
173
     0
176
     1
  0
VISUALSTYLE
  5
30
102
{ACAD_REACTORS
330
2A
102
}
330
2A
100
AcDbVisualStyle
  2
3dWireframe
 70
     5
177
     2
291
     0
 71
     0
176
     1
 72
     2
176
     1
 73
     0
176
     1
 90
        0
176
     1
 40
-0.6
176
     1
 41
-30.0
176
     1
 62
     5
 63
     7
421
 16777215
176
     1
 74
     1
176
     1
 91
        4
176
     1
 64
     7
176
     1
 65
   257
176
     1
 75
     1
176
     1
175
     1
176
     1
 42
1.0
176
     1
 92
        0
176
     1
 66
   257
176
     1
 43
1.0
176
     1
 76
     1
176
     1
 77
     6
176
     1
 78
     2
176
     1
 67
     7
176
     1
 79
     5
176
     1
170
     0
176
     1
171
     0
176
     1
290
     0
176
     1
 93
        1
176
     1
 44
0.0
176
     1
173
     0
176
     1
  0
VISUALSTYLE
  5
32
102
{ACAD_REACTORS
330
2A
102
}
330
2A
100
AcDbVisualStyle
  2
Basic
 70
     7
177
     2
291
     1
 71
     1
176
     1
 72
     0
176
     1
 73
     1
176
     1
 90
        0
176
     1
 40
-0.6
176
     1
 41
-30.0
176
     1
 62
     5
 63
     7
421
 16777215
176
     1
 74
     0
176
     1
 91
        4
176
     1
 64
     7
176
     1
 65
   257
176
     1
 75
     1
176
     1
175
     1
176
     1
 42
1.0
176
     1
 92
        8
176
     1
 66
     7
176
     1
 43
1.0
176
     1
 76
     1
176
     1
 77
     6
176
     1
 78
     2
176
     1
 67
     7
176
     1
 79
     5
176
     1
170
     0
176
     1
171
     0
176
     1
290
     0
176
     1
 93
        1
176
     1
 44
0.0
176
     1
173
     0
176
     1
  0
VISUALSTYLE
  5
36
102
{ACAD_REACTORS
330
2A
102
}
330
2A
100
AcDbVisualStyle
  2
Brighten
 70
    12
177
     2
291
     1
 71
     2
176
     1
 72
     2
176
     1
 73
     0
176
     1
 90
        0
176
     1
 40
-0.6
176
     1
 41
-30.0
176
     1
 62
     5
 63
     7
421
 16777215
176
     1
 74
     1
176
     1
 91
        4
176
     1
 64
     7
176
     1
 65
   257
176
     1
 75
     1
176
     1
175
     1
176
     1
 42
1.0
176
     1
 92
        8
176
     1
 66
     7
176
     1
 43
1.0
176
     1
 76
     1
176
     1
 77
     6
176
     1
 78
     2
176
     1
 67
     7
176
     1
 79
     5
176
     1
170
     0
176
     1
171
     0
176
     1
290
     0
176
     1
 93
        1
176
     1
 44
50.0
176
     1
173
     0
176
     1
  0
VISUALSTYLE
  5
3A
102
{ACAD_REACTORS
330
2A
102
}
330
2A
100
AcDbVisualStyle
  2
ColorChange
 70
    16
177
     2
291
     1
 71
     2
176
     1
 72
     2
176
     1
 73
     3
176
     1
 90
        0
176
     1
 40
-0.6
176
     1
 41
-30.0
176
     1
 62
     5
 63
     8
421
  8421504
176
     1
 74
     1
176
     1
 91
        4
176
     1
 64
     7
176
     1
 65
   257
176
     1
 75
     1
176
     1
175
     1
176
     1
 42
1.0
176
     1
 92
        8
176
     1
 66
     8
424
  8421504
176
     1
 43
1.0
176
     1
 76
     1
176
     1
 77
     6
176
     1
 78
     2
176
     1
 67
     7
176
     1
 79
     5
176
     1
170
     0
176
     1
171
     0
176
     1
290
     0
176
     1
 93
        1
176
     1
 44
0.0
176
     1
173
     0
176
     1
  0
VISUALSTYLE
  5
34
102
{ACAD_REACTORS
330
2A
102
}
330
2A
100
AcDbVisualStyle
  2
Conceptual
 70
     9
177
     2
291
     0
 71
     3
176
     1
 72
     2
176
     1
 73
     0
176
     1
 90
        0
176
     1
 40
-0.6
176
     1
 41
-30.0
176
     1
 62
     5
 63
     7
421
 16777215
176
     1
 74
     2
176
     1
 91
        2
176
     1
 64
     7
176
     1
 65
   257
176
     1
 75
     1
176
     1
175
     1
176
     1
 42
40.0
176
     1
 92
        8
176
     1
 66
     7
176
     1
 43
1.0
176
     1
 76
     1
176
     1
 77
     6
176
     1
 78
     2
176
     1
 67
     7
176
     1
 79
     3
176
     1
170
     0
176
     1
171
     0
176
     1
290
     0
176
     1
 93
        1
176
     1
 44
0.0
176
     1
173
     0
176
     1
  0
VISUALSTYLE
  5
35
102
{ACAD_REACTORS
330
2A
102
}
330
2A
100
AcDbVisualStyle
  2
Dim
 70
    11
177
     2
291
     1
 71
     2
176
     1
 72
     2
176
     1
 73
     0
176
     1
 90
        0
176
     1
 40
-0.6
176
     1
 41
-30.0
176
     1
 62
     5
 63
     7
421
 16777215
176
     1
 74
     1
176
     1
 91
        4
176
     1
 64
     7
176
     1
 65
   257
176
     1
 75
     1
176
     1
175
     1
176
     1
 42
1.0
176
     1
 92
        8
176
     1
 66
     7
176
     1
 43
1.0
176
     1
 76
     1
176
     1
 77
     6
176
     1
 78
     2
176
     1
 67
     7
176
     1
 79
     5
176
     1
170
     0
176
     1
171
     0
176
     1
290
     0
176
     1
 93
        1
176
     1
 44
-50.0
176
     1
173
     0
176
     1
  0
VISUALSTYLE
  5
39
102
{ACAD_REACTORS
330
2A
102
}
330
2A
100
AcDbVisualStyle
  2
Facepattern
 70
    15
177
     2
291
     1
 71
     2
176
     1
 72
     2
176
     1
 73
     0
176
     1
 90
        0
176
     1
 40
-0.6
176
     1
 41
-30.0
176
     1
 62
     5
 63
     7
421
 16777215
176
     1
 74
     1
176
     1
 91
        4
176
     1
 64
     7
176
     1
 65
   257
176
     1
 75
     1
176
     1
175
     1
176
     1
 42
1.0
176
     1
 92
        8
176
     1
 66
     7
176
     1
 43
1.0
176
     1
 76
     1
176
     1
 77
     6
176
     1
 78
     2
176
     1
 67
     7
176
     1
 79
     5
176
     1
170
     0
176
     1
171
     0
176
     1
290
     0
176
     1
 93
        1
176
     1
 44
0.0
176
     1
173
     0
176
     1
  0
VISUALSTYLE
  5
2B
102
{ACAD_REACTORS
330
2A
102
}
330
2A
100
AcDbVisualStyle
  2
Flat
 70
     0
177
     2
291
     1
 71
     2
176
     1
 72
     1
176
     1
 73
     1
176
     1
 90
        2
176
     1
 40
-0.6
176
     1
 41
30.0
176
     1
 62
     5
 63
     7
421
 16777215
176
     1
 74
     0
176
     1
 91
        4
176
     1
 64
     7
176
     1
 65
   257
176
     1
 75
     1
176
     1
175
     1
176
     1
 42
1.0
176
     1
 92
        8
176
     1
 66
     7
176
     1
 43
1.0
176
     1
 76
     1
176
     1
 77
     6
176
     1
 78
     2
176
     1
 67
     7
176
     1
 79
     5
176
     1
170
     0
176
     1
171
     0
176
     1
290
     0
176
     1
 93
       13
176
     1
 44
0.0
176
     1
173
     0
176
     1
  0
VISUALSTYLE
  5
2C
102
{ACAD_REACTORS
330
2A
102
}
330
2A
100
AcDbVisualStyle
  2
FlatWithEdges
 70
     1
177
     2
291
     1
 71
     2
176
     1
 72
     1
176
     1
 73
     1
176
     1
 90
        2
176
     1
 40
-0.6
176
     1
 41
30.0
176
     1
 62
     5
 63
     7
421
 16777215
176
     1
 74
     1
176
     1
 91
        4
176
     1
 64
     7
176
     1
 65
   257
176
     1
 75
     1
176
     1
175
     1
176
     1
 42
1.0
176
     1
 92
        0
176
     1
 66
   257
176
     1
 43
1.0
176
     1
 76
     1
176
     1
 77
     6
176
     1
 78
     2
176
     1
 67
     7
176
     1
 79
     5
176
     1
170
     0
176
     1
171
     0
176
     1
290
     0
176
     1
 93
       13
176
     1
 44
0.0
176
     1
173
     0
176
     1
  0
VISUALSTYLE
  5
2D
102
{ACAD_REACTORS
330
2A
102
}
330
2A
100
AcDbVisualStyle
  2
Gouraud
 70
     2
177
     2
291
     1
 71
     2
176
     1
 72
     2
176
     1
 73
     1
176
     1
 90
        2
176
     1
 40
-0.6
176
     1
 41
30.0
176
     1
 62
     5
 63
     7
421
 16777215
176
     1
 74
     0
176
     1
 91
        4
176
     1
 64
     7
176
     1
 65
   257
176
     1
 75
     1
176
     1
175
     1
176
     1
 42
1.0
176
     1
 92
        0
176
     1
 66
     7
176
     1
 43
1.0
176
     1
 76
     1
176
     1
 77
     6
176
     1
 78
     2
176
     1
 67
     7
176
     1
 79
     5
176
     1
170
     0
176
     1
171
     0
176
     1
290
     0
176
     1
 93
       13
176
     1
 44
0.0
176
     1
173
     0
176
     1
  0
VISUALSTYLE
  5
2E
102
{ACAD_REACTORS
330
2A
102
}
330
2A
100
AcDbVisualStyle
  2
GouraudWithEdges
 70
     3
177
     2
291
     1
 71
     2
176
     1
 72
     2
176
     1
 73
     1
176
     1
 90
        2
176
     1
 40
-0.6
176
     1
 41
30.0
176
     1
 62
     5
 63
     7
421
 16777215
176
     1
 74
     1
176
     1
 91
        4
176
     1
 64
     7
176
     1
 65
   257
176
     1
 75
     1
176
     1
175
     1
176
     1
 42
1.0
176
     1
 92
        0
176
     1
 66
   257
176
     1
 43
1.0
176
     1
 76
     1
176
     1
 77
     6
176
     1
 78
     2
176
     1
 67
     7
176
     1
 79
     5
176
     1
170
     0
176
     1
171
     0
176
     1
290
     0
176
     1
 93
       13
176
     1
 44
0.0
176
     1
173
     0
176
     1
  0
VISUALSTYLE
  5
38
102
{ACAD_REACTORS
330
2A
102
}
330
2A
100
AcDbVisualStyle
  2
Linepattern
 70
    14
177
     2
291
     1
 71
     2
176
     1
 72
     2
176
     1
 73
     0
176
     1
 90
        0
176
     1
 40
-0.6
176
     1
 41
-30.0
176
     1
 62
     5
 63
     7
421
 16777215
176
     1
 74
     1
176
     1
 91
        4
176
     1
 64
     7
176
     1
 65
   257
176
     1
 75
     7
176
     1
175
     7
176
     1
 42
1.0
176
     1
 92
        8
176
     1
 66
     7
176
     1
 43
1.0
176
     1
 76
     1
176
     1
 77
     6
176
     1
 78
     2
176
     1
 67
     7
176
     1
 79
     5
176
     1
170
     0
176
     1
171
     0
176
     1
290
     0
176
     1
 93
        1
176
     1
 44
0.0
176
     1
173
     0
176
     1
  0
VISUALSTYLE
  5
33
102
{ACAD_REACTORS
330
2A
102
}
330
2A
100
AcDbVisualStyle
  2
Realistic
 70
     8
177
     2
291
     0
 71
     2
176
     1
 72
     2
176
     1
 73
     0
176
     1
 90
        0
176
     1
 40
-0.6
176
     1
 41
-30.0
176
     1
 62
     5
 63
     7
421
 16777215
176
     1
 74
     1
176
     1
 91
        0
176
     1
 64
     7
176
     1
 65
   257
176
     1
 75
     1
176
     1
175
     1
176
     1
 42
1.0
176
     1
 92
        8
176
     1
 66
     8
424
  7895160
176
     1
 43
1.0
176
     1
 76
     1
176
     1
 77
     6
176
     1
 78
     2
176
     1
 67
     7
176
     1
 79
     5
176
     1
170
     0
176
     1
171
     0
176
     1
290
     0
176
     1
 93
       13
176
     1
 44
0.0
176
     1
173
     0
176
     1
  0
VISUALSTYLE
  5
37
102
{ACAD_REACTORS
330
2A
102
}
330
2A
100
AcDbVisualStyle
  2
Thicken
 70
    13
177
     2
291
     1
 71
     2
176
     1
 72
     2
176
     1
 73
     0
176
     1
 90
        0
176
     1
 40
-0.6
176
     1
 41
-30.0
176
     1
 62
     5
 63
     7
421
 16777215
176
     1
 74
     1
176
     1
 91
        4
176
     1
 64
     7
176
     1
 65
   257
176
     1
 75
     1
176
     1
175
     1
176
     1
 42
1.0
176
     1
 92
       12
176
     1
 66
     7
176
     1
 43
1.0
176
     1
 76
     1
176
     1
 77
     6
176
     1
 78
     2
176
     1
 67
     7
176
     1
 79
     5
176
     1
170
     0
176
     1
171
     0
176
     1
290
     0
176
     1
 93
        1
176
     1
 44
0.0
176
     1
173
     0
176
     1
  0
ENDSEC
  0
EOF
