  0
SECTION
  2
HEADER
  9
$ACADVER
  1
AC1024
  9
$ACADMAINTVER
 70
     6
  9
$DWGCODEPAGE
  3
UNDEFINED
  9
$INSBASE
 10
0.0
 20
0.0
 30
0.0
  9
$EXTMIN
 10
1.000000000000000E+20
 20
1.000000000000000E+20
 30
1.000000000000000E+20
  9
$EXTMAX
 10
-1.000000000000000E+20
 20
-1.000000000000000E+20
 30
-1.000000000000000E+20
  9
$LIMMIN
 10
0.0
 20
0.0
  9
$LIMMAX
 10
12.0
 20
9.0
  9
$ORTHOMODE
 70
     0
  9
$REGENMODE
 70
     1
  9
$FILLMODE
 70
     1
  9
$QTEXTMODE
 70
     0
  9
$MIRRTEXT
 70
     1
  9
$LTSCALE
 40
1.0
  9
$ATTMODE
 70
     1
  9
$TEXTSIZE
 40
0.2
  9
$TRACEWID
 40
0.05
  9
$TEXTSTYLE
  7
Standard
  9
$CLAYER
  8
0
  9
$CELTYPE
  6
ByLayer
  9
$CECOLOR
 62
   256
  9
$CELTSCALE
 40
1.0
  9
$DISPSILH
 70
     0
  9
$DIMSCALE
 40
1.0
  9
$DIMASZ
 40
0.18
  9
$DIMEXO
 40
0.0625
  9
$DIMDLI
 40
0.38
  9
$DIMRND
 40
0.0
  9
$DIMDLE
 40
0.0
  9
$DIMEXE
 40
0.18
  9
$DIMTP
 40
0.0
  9
$DIMTM
 40
0.0
  9
$DIMTXT
 40
0.18
  9
$DIMCEN
 40
0.09
  9
$DIMTSZ
 40
0.0
  9
$DIMTOL
 70
     0
  9
$DIMLIM
 70
     0
  9
$DIMTIH
 70
     1
  9
$DIMTOH
 70
     1
  9
$DIMSE1
 70
     0
  9
$DIMSE2
 70
     0
  9
$DIMTAD
 70
     0
  9
$DIMZIN
 70
     0
  9
$DIMBLK
  1

  9
$DIMASO
 70
     1
  9
$DIMSHO
 70
     1
  9
$DIMPOST
  1

  9
$DIMAPOST
  1

  9
$DIMALT
 70
     0
  9
$DIMALTD
 70
     2
  9
$DIMALTF
 40
25.4
  9
$DIMLFAC
 40
1.0
  9
$DIMTOFL
 70
     0
  9
$DIMTVP
 40
0.0
  9
$DIMTIX
 70
     0
  9
$DIMSOXD
 70
     0
  9
$DIMSAH
 70
     0
  9
$DIMBLK1
  1

  9
$DIMBLK2
  1

  9
$DIMSTYLE
  2
Standard
  9
$DIMCLRD
 70
     0
  9
$DIMCLRE
 70
     0
  9
$DIMCLRT
 70
     0
  9
$DIMTFAC
 40
1.0
  9
$DIMGAP
 40
0.09
  9
$DIMJUST
 70
     0
  9
$DIMSD1
 70
     0
  9
$DIMSD2
 70
     0
  9
$DIMTOLJ
 70
     1
  9
$DIMTZIN
 70
     0
  9
$DIMALTZ
 70
     0
  9
$DIMALTTZ
 70
     0
  9
$DIMUPT
 70
     0
  9
$DIMDEC
 70
     4
  9
$DIMTDEC
 70
     4
  9
$DIMALTU
 70
     2
  9
$DIMALTTD
 70
     2
  9
$DIMTXSTY
  7
Standard
  9
$DIMAUNIT
 70
     0
  9
$DIMADEC
 70
     0
  9
$DIMALTRND
 40
0.0
  9
$DIMAZIN
 70
     0
  9
$DIMDSEP
 70
    46
  9
$DIMATFIT
 70
     3
  9
$DIMFRAC
 70
     0
  9
$DIMLDRBLK
  1

  9
$DIMLUNIT
 70
     2
  9
$DIMLWD
 70
    -2
  9
$DIMLWE
 70
    -2
  9
$DIMTMOVE
 70
     0
  9
$DIMFXL
 40
1.0
  9
$DIMFXLON
 70
     0
  9
$DIMJOGANG
 40
0.7853981633974483
  9
$DIMTFILL
 70
     0
  9
$DIMTFILLCLR
 70
     0
  9
$DIMARCSYM
 70
     0
  9
$DIMLTYPE
  6

  9
$DIMLTEX1
  6

  9
$DIMLTEX2
  6

  9
$DIMTXTDIRECTION
 70
     0
  9
$LUNITS
 70
     2
  9
$LUPREC
 70
     4
  9
$SKETCHINC
 40
0.1
  9
$FILLETRAD
 40
0.5
  9
$AUNITS
 70
     0
  9
$AUPREC
 70
     0
  9
$MENU
  1
.
  9
$ELEVATION
 40
0.0
  9
$PELEVATION
 40
0.0
  9
$THICKNESS
 40
0.0
  9
$LIMCHECK
 70
     0
  9
$CHAMFERA
 40
0.5
  9
$CHAMFERB
 40
0.5
  9
$CHAMFERC
 40
1.0
  9
$CHAMFERD
 40
0.0
  9
$SKPOLY
 70
     0
  9
$TDCREATE
 40
2457917.622476852
  9
$TDUCREATE
 40
2457917.247476852
  9
$TDUPDATE
 40
2457917.622476852
  9
$TDUUPDATE
 40
2457917.247476852
  9
$TDINDWG
 40
0.0000000116
  9
$TDUSRTIMER
 40
0.0000000116
  9
$USRTIMER
 70
     1
  9
$ANGBASE
 50
0.0
  9
$ANGDIR
 70
     0
  9
$PDMODE
 70
     0
  9
$PDSIZE
 40
0.0
  9
$PLINEWID
 40
0.0
  9
$SPLFRAME
 70
     0
  9
$SPLINETYPE
 70
     6
  9
$SPLINESEGS
 70
     8
  9
$HANDSEED
  5
C7
  9
$SURFTAB1
 70
     6
  9
$SURFTAB2
 70
     6
  9
$SURFTYPE
 70
     6
  9
$SURFU
 70
     6
  9
$SURFV
 70
     6
  9
$UCSBASE
  2

  9
$UCSNAME
  2

  9
$UCSORG
 10
0.0
 20
0.0
 30
0.0
  9
$UCSXDIR
 10
1.0
 20
0.0
 30
0.0
  9
$UCSYDIR
 10
0.0
 20
1.0
 30
0.0
  9
$UCSORTHOREF
  2

  9
$UCSORTHOVIEW
 70
     0
  9
$UCSORGTOP
 10
0.0
 20
0.0
 30
0.0
  9
$UCSORGBOTTOM
 10
0.0
 20
0.0
 30
0.0
  9
$UCSORGLEFT
 10
0.0
 20
0.0
 30
0.0
  9
$UCSORGRIGHT
 10
0.0
 20
0.0
 30
0.0
  9
$UCSORGFRONT
 10
0.0
 20
0.0
 30
0.0
  9
$UCSORGBACK
 10
0.0
 20
0.0
 30
0.0
  9
$PUCSBASE
  2

  9
$PUCSNAME
  2

  9
$PUCSORG
 10
0.0
 20
0.0
 30
0.0
  9
$PUCSXDIR
 10
1.0
 20
0.0
 30
0.0
  9
$PUCSYDIR
 10
0.0
 20
1.0
 30
0.0
  9
$PUCSORTHOREF
  2

  9
$PUCSORTHOVIEW
 70
     0
  9
$PUCSORGTOP
 10
0.0
 20
0.0
 30
0.0
  9
$PUCSORGBOTTOM
 10
0.0
 20
0.0
 30
0.0
  9
$PUCSORGLEFT
 10
0.0
 20
0.0
 30
0.0
  9
$PUCSORGRIGHT
 10
0.0
 20
0.0
 30
0.0
  9
$PUCSORGFRONT
 10
0.0
 20
0.0
 30
0.0
  9
$PUCSORGBACK
 10
0.0
 20
0.0
 30
0.0
  9
$USERI1
 70
     0
  9
$USERI2
 70
     0
  9
$USERI3
 70
     0
  9
$USERI4
 70
     0
  9
$USERI5
 70
     0
  9
$USERR1
 40
0.0
  9
$USERR2
 40
0.0
  9
$USERR3
 40
0.0
  9
$USERR4
 40
0.0
  9
$USERR5
 40
0.0
  9
$WORLDVIEW
 70
     1
  9
$SHADEDGE
 70
     3
  9
$SHADEDIF
 70
    70
  9
$TILEMODE
 70
     1
  9
$MAXACTVP
 70
    64
  9
$PINSBASE
 10
0.0
 20
0.0
 30
0.0
  9
$PLIMCHECK
 70
     0
  9
$PEXTMIN
 10
1.000000000000000E+20
 20
1.000000000000000E+20
 30
1.000000000000000E+20
  9
$PEXTMAX
 10
-1.000000000000000E+20
 20
-1.000000000000000E+20
 30
-1.000000000000000E+20
  9
$PLIMMIN
 10
0.0
 20
0.0
  9
$PLIMMAX
 10
12.0
 20
9.0
  9
$UNITMODE
 70
     0
  9
$VISRETAIN
 70
     1
  9
$PLINEGEN
 70
     0
  9
$PSLTSCALE
 70
     1
  9
$TREEDEPTH
 70
  3020
  9
$CMLSTYLE
  2
Standard
  9
$CMLJUST
 70
     0
  9
$CMLSCALE
 40
1.0
  9
$PROXYGRAPHICS
 70
     1
  9
$MEASUREMENT
 70
     0
  9
$CELWEIGHT
370
    -1
  9
$ENDCAPS
280
     0
  9
$JOINSTYLE
280
     0
  9
$LWDISPLAY
290
     1
  9
$INSUNITS
 70
     1
  9
$HYPERLINKBASE
  1

  9
$STYLESHEET
  1

  9
$XEDIT
290
     1
  9
$CEPSNTYPE
380
     0
  9
$PSTYLEMODE
290
     1
  9
$FINGERPRINTGUID
  2
{09B16749-1380-C949-9567-2F071EC903E6}
  9
$VERSIONGUID
  2
{FAEB1C32-E019-11D5-929B-00C0DF256EC4}
  9
$EXTNAMES
290
     1
  9
$PSVPSCALE
 40
0.0
  9
$OLESTARTUP
290
     0
  9
$SORTENTS
280
   127
  9
$INDEXCTL
280
     0
  9
$HIDETEXT
280
     1
  9
$XCLIPFRAME
280
     2
  9
$HALOGAP
280
     0
  9
$OBSCOLOR
 70
   257
  9
$OBSLTYPE
280
     0
  9
$INTERSECTIONDISPLAY
280
     0
  9
$INTERSECTIONCOLOR
 70
   257
  9
$DIMASSOC
280
     2
  9
$PROJECTNAME
  1

  9
$CAMERADISPLAY
290
     0
  9
$LENSLENGTH
 40
50.0
  9
$CAMERAHEIGHT
 40
0.0
  9
$STEPSPERSEC
 40
2.0
  9
$STEPSIZE
 40
6.0
  9
$3DDWFPREC
 40
2.0
  9
$PSOLWIDTH
 40
0.25
  9
$PSOLHEIGHT
 40
4.0
  9
$LOFTANG1
 40
1.570796326794897
  9
$LOFTANG2
 40
1.570796326794897
  9
$LOFTMAG1
 40
0.0
  9
$LOFTMAG2
 40
0.0
  9
$LOFTPARAM
 70
     7
  9
$LOFTNORMALS
280
     1
  9
$LATITUDE
 40
37.795
  9
$LONGITUDE
 40
-122.394
  9
$NORTHDIRECTION
 40
0.0
  9
$TIMEZONE
 70
 -8000
  9
$LIGHTGLYPHDISPLAY
280
     1
  9
$TILEMODELIGHTSYNCH
280
     1
  9
$CMATERIAL
347
3C
  9
$SOLIDHIST
280
     1
  9
$SHOWHIST
280
     1
  9
$DWFFRAME
280
     2
  9
$DGNFRAME
280
     2
  9
$REALWORLDSCALE
290
     1
  9
$INTERFERECOLOR
 62
   256
  9
$CSHADOW
280
     0
  9
$SHADOWPLANELOCATION
 40
0.0
  0
ENDSEC
  0
SECTION
  2
CLASSES
  0
CLASS
  1
ACDBDICTIONARYWDFLT
  2
AcDbDictionaryWithDefault
  3
ObjectDBX Classes
 90
        0
 91
        4
280
     0
281
     0
  0
CLASS
  1
VISUALSTYLE
  2
AcDbVisualStyle
  3
ObjectDBX Classes
 90
     4095
 91
        4
280
     0
281
     0
  0
CLASS
  1
MATERIAL
  2
AcDbMaterial
  3
ObjectDBX Classes
 90
     1153
 91
        4
280
     0
281
     0
  0
CLASS
  1
SUN
  2
AcDbSun
  3
SCENEOE
 90
     1024
 91
        4
280
     0
281
     0
  0
ENDSEC
  0
SECTION
  2
TABLES
  0
TABLE
  2
VPORT
  5
8
330
0
100
AcDbSymbolTable
 70
     1
  0
VPORT
  5
29
330
8
100
AcDbSymbolTableRecord
100
AcDbViewportTableRecord
  2
*Active
 70
     0
 10
0.0
 20
0.0
 11
1.0
 21
1.0
 12
0.0
 22
0.0
 13
0.0
 23
0.0
 14
0.5
 24
0.5
 15
0.5
 25
0.5
 16
0.0
 26
0.0
 36
1.0
 17
91.00082462281999
 27
-128.4993055234307
 37
0.0
 40
256.9986110468615
 41
0.7081814508812795
 42
50.0
 43
0.0
 44
0.0
 50
0.0
 51
0.0
 71
     0
 72
   100
 73
     1
 74
     3
 75
     0
 76
     0
 77
     0
 78
     0
281
     0
 65
     1
110
0.0
120
0.0
130
0.0
111
1.0
121
0.0
131
0.0
112
0.0
122
1.0
132
0.0
 79
     0
146
0.0
 60
     3
 61
     5
292
     1
282
     1
141
0.0
142
0.0
 63
   250
361
3F
  0
ENDTAB
  0
TABLE
  2
LTYPE
  5
5
330
0
100
AcDbSymbolTable
 70
     1
  0
LTYPE
  5
14
330
5
100
AcDbSymbolTableRecord
100
AcDbLinetypeTableRecord
  2
ByBlock
 70
     0
  3

 72
    65
 73
     0
 40
0.0
  0
LTYPE
  5
15
330
5
100
AcDbSymbolTableRecord
100
AcDbLinetypeTableRecord
  2
ByLayer
 70
     0
  3

 72
    65
 73
     0
 40
0.0
  0
LTYPE
  5
16
330
5
100
AcDbSymbolTableRecord
100
AcDbLinetypeTableRecord
  2
Continuous
 70
     0
  3
Solid line
 72
    65
 73
     0
 40
0.0
  0
ENDTAB
  0
TABLE
  2
LAYER
  5
2
330
0
100
AcDbSymbolTable
 70
     2
  0
LAYER
  5
10
330
2
100
AcDbSymbolTableRecord
100
AcDbLayerTableRecord
  2
0
 70
     0
 62
     7
  6
Continuous
370
    -3
390
F
347
3E
  0
LAYER
  5
40
330
2
100
AcDbSymbolTableRecord
100
AcDbLayerTableRecord
  2
_U+30EC_U+30A4_U+30E4_U+30FC 1
 70
     0
 62
     7
  6
Continuous
370
    -3
390
F
347
3E
  0
ENDTAB
  0
TABLE
  2
STYLE
  5
3
330
0
100
AcDbSymbolTable
 70
     1
  0
STYLE
  5
11
330
3
100
AcDbSymbolTableRecord
100
AcDbTextStyleTableRecord
  2
Standard
 70
     0
 40
0.0
 41
1.0
 50
0.0
 71
     0
 42
0.2
  3
txt
  4

  0
ENDTAB
  0
TABLE
  2
VIEW
  5
6
330
0
100
AcDbSymbolTable
 70
     0
  0
ENDTAB
  0
TABLE
  2
UCS
  5
7
330
0
100
AcDbSymbolTable
 70
     0
  0
ENDTAB
  0
TABLE
  2
APPID
  5
9
330
0
100
AcDbSymbolTable
 70
     1
  0
APPID
  5
12
330
9
100
AcDbSymbolTableRecord
100
AcDbRegAppTableRecord
  2
ACAD
 70
     0
  0
ENDTAB
  0
TABLE
  2
DIMSTYLE
  5
A
330
0
100
AcDbSymbolTable
 70
     1
100
AcDbDimStyleTable
  0
DIMSTYLE
105
27
330
A
100
AcDbSymbolTableRecord
100
AcDbDimStyleTableRecord
  2
Standard
 70
     0
178
     0
340
11
  0
ENDTAB
  0
TABLE
  2
BLOCK_RECORD
  5
1
330
0
100
AcDbSymbolTable
 70
     7
  0
BLOCK_RECORD
  5
1F
330
1
100
AcDbSymbolTableRecord
100
AcDbBlockTableRecord
  2
*Model_Space
340
22
 70
     0
280
     1
281
     0
  0
BLOCK_RECORD
  5
1B
330
1
100
AcDbSymbolTableRecord
100
AcDbBlockTableRecord
  2
*Paper_Space
340
1E
 70
     0
280
     1
281
     0
  0
BLOCK_RECORD
  5
23
330
1
100
AcDbSymbolTableRecord
100
AcDbBlockTableRecord
  2
*Paper_Space0
340
26
 70
     0
280
     1
281
     0
  0
BLOCK_RECORD
  5
52
330
1
100
AcDbSymbolTableRecord
100
AcDbBlockTableRecord
  2
block 2
340
0
102
{BLKREFS
331
53
102
}
 70
     0
280
     1
281
     0
  0
BLOCK_RECORD
  5
68
330
1
100
AcDbSymbolTableRecord
100
AcDbBlockTableRecord
  2
block 3
340
0
102
{BLKREFS
331
69
102
}
 70
     0
280
     1
281
     0
  0
BLOCK_RECORD
  5
7C
330
1
100
AcDbSymbolTableRecord
100
AcDbBlockTableRecord
  2
block 4
340
0
102
{BLKREFS
331
7D
102
}
 70
     0
280
     1
281
     0
  0
BLOCK_RECORD
  5
91
330
1
100
AcDbSymbolTableRecord
100
AcDbBlockTableRecord
  2
block 5
340
0
102
{BLKREFS
331
92
102
}
 70
     0
280
     1
281
     0
  0
BLOCK_RECORD
  5
A3
330
1
100
AcDbSymbolTableRecord
100
AcDbBlockTableRecord
  2
block 6
340
0
102
{BLKREFS
331
A4
102
}
 70
     0
280
     1
281
     0
  0
BLOCK_RECORD
  5
B8
330
1
100
AcDbSymbolTableRecord
100
AcDbBlockTableRecord
  2
block 7
340
0
102
{BLKREFS
331
B9
102
}
 70
     0
280
     1
281
     0
  0
ENDTAB
  0
ENDSEC
  0
SECTION
  2
BLOCKS
  0
BLOCK
  5
20
330
1F
100
AcDbEntity
  8
0
100
AcDbBlockBegin
  2
*Model_Space
 70
     0
 10
0.0
 20
0.0
 30
0.0
  3
*Model_Space
  1

  0
ENDBLK
  5
21
330
1F
100
AcDbEntity
  8
0
100
AcDbBlockEnd
  0
BLOCK
  5
1C
330
1B
100
AcDbEntity
 67
     1
  8
0
100
AcDbBlockBegin
  2
*Paper_Space
 70
     0
 10
0.0
 20
0.0
 30
0.0
  3
*Paper_Space
  1

  0
ENDBLK
  5
1D
330
1B
100
AcDbEntity
 67
     1
  8
0
100
AcDbBlockEnd
  0
BLOCK
  5
24
330
23
100
AcDbEntity
  8
0
100
AcDbBlockBegin
  2
*Paper_Space0
 70
     0
 10
0.0
 20
0.0
 30
0.0
  3
*Paper_Space0
  1

  0
ENDBLK
  5
25
330
23
100
AcDbEntity
  8
0
100
AcDbBlockEnd
  0
BLOCK
  5
54
330
52
100
AcDbEntity
  8
0
100
AcDbBlockBegin
  2
block 2
 70
     0
 10
0.0
 20
0.0
 30
0.0
  3
block 2
  1

  0
SPLINE
  5
56
330
52
100
AcDbEntity
  8
_U+30EC_U+30A4_U+30E4_U+30FC 1
370
     0
100
AcDbSpline
210
0.0
220
0.0
230
1.0
 70
    11
 71
     3
 72
    26
 73
    22
 74
     0
 42
0.0000000001
 43
0.0000000001
 12
1.0
 22
0.0
 32
0.0
 13
1.0
 23
0.0
 33
0.0
 40
0.0
 40
0.0
 40
0.0
 40
0.0
 40
1.0
 40
1.0
 40
1.0
 40
2.0
 40
2.0
 40
2.0
 40
3.0
 40
3.0
 40
3.0
 40
4.0
 40
4.0
 40
4.0
 40
5.0
 40
5.0
 40
5.0
 40
6.0
 40
6.0
 40
6.0
 40
7.0
 40
7.0
 40
7.0
 40
7.0
 10
88.06043020801962
 20
-116.109880884601
 30
0.0
 10
88.06043020801962
 20
-116.109880884601
 30
0.0
 10
87.82357989340869
 20
-116.109880884601
 30
0.0
 10
87.82357989340869
 20
-116.109880884601
 30
0.0
 10
87.84890134522527
 20
-115.8010280743484
 30
0.0
 10
88.04148218285074
 20
-115.2827134585925
 30
0.0
 10
88.4476589405617
 20
-114.7771456961321
 30
0.0
 10
88.4476589405617
 20
-114.7771456961321
 30
0.0
 10
87.60981171854894
 20
-114.7771456961321
 30
0.0
 10
87.60981171854894
 20
-114.7771456961321
 30
0.0
 10
87.60981171854894
 20
-114.7771456961321
 30
0.0
 10
87.60981171854894
 20
-114.5656168333378
 30
0.0
 10
87.60981171854894
 20
-114.5656168333378
 30
0.0
 10
87.60981171854894
 20
-114.5656168333378
 30
0.0
 10
88.68450925517263
 20
-114.5656168333378
 30
0.0
 10
88.68450925517263
 20
-114.5656168333378
 30
0.0
 10
88.68450925517263
 20
-114.5656168333378
 30
0.0
 10
88.68450925517263
 20
-114.7771456961321
 30
0.0
 10
88.68450925517263
 20
-114.7771456961321
 30
0.0
 10
88.3608425343334
 20
-115.0668782264416
 30
0.0
 10
88.09436439854933
 20
-115.6592623951303
 30
0.0
 10
88.06043020801962
 20
-116.109880884601
 30
0.0
  0
HATCH
  5
57
330
52
100
AcDbEntity
  8
_U+30EC_U+30A4_U+30E4_U+30FC 1
 62
     7
420
 16777215
100
AcDbHatch
 10
0.0
 20
0.0
 30
0.0
210
0.0
220
0.0
230
1.0
  2
SOLID
 70
     1
 71
     0
 91
        1
 92
        1
 93
        1
 72
     4
 94
        3
 73
     0
 74
     1
 95
       26
 96
       22
 40
0.0
 40
0.0
 40
0.0
 40
0.0
 40
1.0
 40
1.0
 40
1.0
 40
2.0
 40
2.0
 40
2.0
 40
3.0
 40
3.0
 40
3.0
 40
4.0
 40
4.0
 40
4.0
 40
5.0
 40
5.0
 40
5.0
 40
6.0
 40
6.0
 40
6.0
 40
7.0
 40
7.0
 40
7.0
 40
7.0
 10
88.06043020801962
 20
-116.109880884601
 10
88.06043020801962
 20
-116.109880884601
 10
87.82357989340869
 20
-116.109880884601
 10
87.82357989340869
 20
-116.109880884601
 10
87.84890134522527
 20
-115.8010280743484
 10
88.04148218285074
 20
-115.2827134585925
 10
88.4476589405617
 20
-114.7771456961321
 10
88.4476589405617
 20
-114.7771456961321
 10
87.60981171854894
 20
-114.7771456961321
 10
87.60981171854894
 20
-114.7771456961321
 10
87.60981171854894
 20
-114.7771456961321
 10
87.60981171854894
 20
-114.5656168333378
 10
87.60981171854894
 20
-114.5656168333378
 10
87.60981171854894
 20
-114.5656168333378
 10
88.68450925517263
 20
-114.5656168333378
 10
88.68450925517263
 20
-114.5656168333378
 10
88.68450925517263
 20
-114.5656168333378
 10
88.68450925517263
 20
-114.7771456961321
 10
88.68450925517263
 20
-114.7771456961321
 10
88.3608425343334
 20
-115.0668782264416
 10
88.09436439854933
 20
-115.6592623951303
 10
88.06043020801962
 20
-116.109880884601
 97
        0
 97
        0
 75
     2
 76
     1
 98
        0
  0
ENDBLK
  5
55
330
52
100
AcDbEntity
  8
0
100
AcDbBlockEnd
  0
BLOCK
  5
6A
330
68
100
AcDbEntity
  8
0
100
AcDbBlockBegin
  2
block 3
 70
     0
 10
0.0
 20
0.0
 30
0.0
  3
block 3
  1

  0
SPLINE
  5
6C
330
68
100
AcDbEntity
  8
_U+30EC_U+30A4_U+30E4_U+30FC 1
370
     0
100
AcDbSpline
210
0.0
220
0.0
230
1.0
 70
    11
 71
     3
 72
    26
 73
    22
 74
     0
 42
0.0000000001
 43
0.0000000001
 12
1.0
 22
0.0
 32
0.0
 13
1.0
 23
0.0
 33
0.0
 40
0.0
 40
0.0
 40
0.0
 40
0.0
 40
1.0
 40
1.0
 40
1.0
 40
2.0
 40
2.0
 40
2.0
 40
3.0
 40
3.0
 40
3.0
 40
4.0
 40
4.0
 40
4.0
 40
5.0
 40
5.0
 40
5.0
 40
6.0
 40
6.0
 40
6.0
 40
7.0
 40
7.0
 40
7.0
 40
7.0
 10
87.61911347635912
 20
-122.4323201191315
 30
0.0
 10
87.61911347635912
 20
-122.4323201191315
 30
0.0
 10
87.61911347635912
 20
-121.3279947613347
 30
0.0
 10
87.61911347635912
 20
-121.3279947613347
 30
0.0
 10
87.61911347635912
 20
-121.3279947613347
 30
0.0
 10
87.28907332887218
 20
-121.3279947613347
 30
0.0
 10
87.28907332887218
 20
-121.3279947613347
 30
0.0
 10
87.28907332887218
 20
-121.3279947613347
 30
0.0
 10
87.28907332887218
 20
-121.1798556554689
 30
0.0
 10
87.28907332887218
 20
-121.1798556554689
 30
0.0
 10
87.62118053365026
 20
-121.1652139996566
 30
0.0
 10
87.66768932270114
 20
-121.0022609832043
 30
0.0
 10
87.69731714387429
 20
-120.8880560678683
 30
0.0
 10
87.69731714387429
 20
-120.8880560678683
 30
0.0
 10
87.84338919244888
 20
-120.8880560678683
 30
0.0
 10
87.84338919244888
 20
-120.8880560678683
 30
0.0
 10
87.84338919244888
 20
-120.8880560678683
 30
0.0
 10
87.84338919244888
 20
-122.4323201191315
 30
0.0
 10
87.84338919244888
 20
-122.4323201191315
 30
0.0
 10
87.84338919244888
 20
-122.4323201191315
 30
0.0
 10
87.61911347635912
 20
-122.4323201191315
 30
0.0
 10
87.61911347635912
 20
-122.4323201191315
 30
0.0
  0
HATCH
  5
6D
330
68
100
AcDbEntity
  8
_U+30EC_U+30A4_U+30E4_U+30FC 1
 62
     7
420
 16777215
100
AcDbHatch
 10
0.0
 20
0.0
 30
0.0
210
0.0
220
0.0
230
1.0
  2
SOLID
 70
     1
 71
     0
 91
        1
 92
        1
 93
        1
 72
     4
 94
        3
 73
     0
 74
     1
 95
       26
 96
       22
 40
0.0
 40
0.0
 40
0.0
 40
0.0
 40
1.0
 40
1.0
 40
1.0
 40
2.0
 40
2.0
 40
2.0
 40
3.0
 40
3.0
 40
3.0
 40
4.0
 40
4.0
 40
4.0
 40
5.0
 40
5.0
 40
5.0
 40
6.0
 40
6.0
 40
6.0
 40
7.0
 40
7.0
 40
7.0
 40
7.0
 10
87.61911347635912
 20
-122.4323201191315
 10
87.61911347635912
 20
-122.4323201191315
 10
87.61911347635912
 20
-121.3279947613347
 10
87.61911347635912
 20
-121.3279947613347
 10
87.61911347635912
 20
-121.3279947613347
 10
87.28907332887218
 20
-121.3279947613347
 10
87.28907332887218
 20
-121.3279947613347
 10
87.28907332887218
 20
-121.3279947613347
 10
87.28907332887218
 20
-121.1798556554689
 10
87.28907332887218
 20
-121.1798556554689
 10
87.62118053365026
 20
-121.1652139996566
 10
87.66768932270114
 20
-121.0022609832043
 10
87.69731714387429
 20
-120.8880560678683
 10
87.69731714387429
 20
-120.8880560678683
 10
87.84338919244888
 20
-120.8880560678683
 10
87.84338919244888
 20
-120.8880560678683
 10
87.84338919244888
 20
-120.8880560678683
 10
87.84338919244888
 20
-122.4323201191315
 10
87.84338919244888
 20
-122.4323201191315
 10
87.84338919244888
 20
-122.4323201191315
 10
87.61911347635912
 20
-122.4323201191315
 10
87.61911347635912
 20
-122.4323201191315
 97
        0
 97
        0
 75
     2
 76
     1
 98
        0
  0
ENDBLK
  5
6B
330
68
100
AcDbEntity
  8
0
100
AcDbBlockEnd
  0
BLOCK
  5
7E
330
7C
100
AcDbEntity
  8
0
100
AcDbBlockBegin
  2
block 4
 70
     0
 10
0.0
 20
0.0
 30
0.0
  3
block 4
  1

  0
SPLINE
  5
80
330
7C
100
AcDbEntity
  8
_U+30EC_U+30A4_U+30E4_U+30FC 1
370
     0
100
AcDbSpline
210
0.0
220
0.0
230
1.0
 70
    11
 71
     3
 72
    26
 73
    22
 74
     0
 42
0.0000000001
 43
0.0000000001
 12
1.0
 22
0.0
 32
0.0
 13
1.0
 23
0.0
 33
0.0
 40
0.0
 40
0.0
 40
0.0
 40
0.0
 40
1.0
 40
1.0
 40
1.0
 40
2.0
 40
2.0
 40
2.0
 40
3.0
 40
3.0
 40
3.0
 40
4.0
 40
4.0
 40
4.0
 40
5.0
 40
5.0
 40
5.0
 40
6.0
 40
6.0
 40
6.0
 40
7.0
 40
7.0
 40
7.0
 40
7.0
 10
103.0397053778859
 20
-132.577265049321
 30
0.0
 10
103.0397053778859
 20
-132.577265049321
 30
0.0
 10
101.9355522748633
 20
-132.577265049321
 30
0.0
 10
101.9355522748633
 20
-132.577265049321
 30
0.0
 10
101.9355522748633
 20
-132.577265049321
 30
0.0
 10
101.9355522748633
 20
-132.9073051968079
 30
0.0
 10
101.9355522748633
 20
-132.9073051968079
 30
0.0
 10
101.9355522748633
 20
-132.9073051968079
 30
0.0
 10
101.7874131689976
 20
-132.9073051968079
 30
0.0
 10
101.7874131689976
 20
-132.9073051968079
 30
0.0
 10
101.772599258411
 20
-132.5751979920298
 30
0.0
 10
101.6096462419587
 20
-132.5286892029789
 30
0.0
 10
101.4952690718484
 20
-132.4990613818058
 30
0.0
 10
101.4952690718484
 20
-132.4990613818058
 30
0.0
 10
101.4952690718484
 20
-132.3529893332312
 30
0.0
 10
101.4952690718484
 20
-132.3529893332312
 30
0.0
 10
101.4952690718484
 20
-132.3529893332312
 30
0.0
 10
103.0397053778859
 20
-132.3529893332312
 30
0.0
 10
103.0397053778859
 20
-132.3529893332312
 30
0.0
 10
103.0397053778859
 20
-132.3529893332312
 30
0.0
 10
103.0397053778859
 20
-132.577265049321
 30
0.0
 10
103.0397053778859
 20
-132.577265049321
 30
0.0
  0
HATCH
  5
81
330
7C
100
AcDbEntity
  8
_U+30EC_U+30A4_U+30E4_U+30FC 1
 62
     7
420
 16777215
100
AcDbHatch
 10
0.0
 20
0.0
 30
0.0
210
0.0
220
0.0
230
1.0
  2
SOLID
 70
     1
 71
     0
 91
        1
 92
        1
 93
        1
 72
     4
 94
        3
 73
     0
 74
     1
 95
       26
 96
       22
 40
0.0
 40
0.0
 40
0.0
 40
0.0
 40
1.0
 40
1.0
 40
1.0
 40
2.0
 40
2.0
 40
2.0
 40
3.0
 40
3.0
 40
3.0
 40
4.0
 40
4.0
 40
4.0
 40
5.0
 40
5.0
 40
5.0
 40
6.0
 40
6.0
 40
6.0
 40
7.0
 40
7.0
 40
7.0
 40
7.0
 10
103.0397053778859
 20
-132.577265049321
 10
103.0397053778859
 20
-132.577265049321
 10
101.9355522748633
 20
-132.577265049321
 10
101.9355522748633
 20
-132.577265049321
 10
101.9355522748633
 20
-132.577265049321
 10
101.9355522748633
 20
-132.9073051968079
 10
101.9355522748633
 20
-132.9073051968079
 10
101.9355522748633
 20
-132.9073051968079
 10
101.7874131689976
 20
-132.9073051968079
 10
101.7874131689976
 20
-132.9073051968079
 10
101.772599258411
 20
-132.5751979920298
 10
101.6096462419587
 20
-132.5286892029789
 10
101.4952690718484
 20
-132.4990613818058
 10
101.4952690718484
 20
-132.4990613818058
 10
101.4952690718484
 20
-132.3529893332312
 10
101.4952690718484
 20
-132.3529893332312
 10
101.4952690718484
 20
-132.3529893332312
 10
103.0397053778859
 20
-132.3529893332312
 10
103.0397053778859
 20
-132.3529893332312
 10
103.0397053778859
 20
-132.3529893332312
 10
103.0397053778859
 20
-132.577265049321
 10
103.0397053778859
 20
-132.577265049321
 97
        0
 97
        0
 75
     2
 76
     1
 98
        0
  0
SPLINE
  5
82
330
7C
100
AcDbEntity
  8
_U+30EC_U+30A4_U+30E4_U+30FC 1
370
     0
100
AcDbSpline
210
0.0
220
0.0
230
1.0
 70
    11
 71
     3
 72
    29
 73
    25
 74
     0
 42
0.0000000001
 43
0.0000000001
 12
1.0
 22
0.0
 32
0.0
 13
1.0
 23
0.0
 33
0.0
 40
0.0
 40
0.0
 40
0.0
 40
0.0
 40
1.0
 40
1.0
 40
1.0
 40
2.0
 40
2.0
 40
2.0
 40
3.0
 40
3.0
 40
3.0
 40
4.0
 40
4.0
 40
4.0
 40
5.0
 40
5.0
 40
5.0
 40
6.0
 40
6.0
 40
6.0
 40
7.0
 40
7.0
 40
7.0
 40
8.0
 40
8.0
 40
8.0
 40
8.0
 10
102.861938450847
 20
-130.9539360566712
 30
0.0
 10
103.0714002563502
 20
-131.0621120549081
 30
0.0
 10
103.0903482815191
 20
-131.2354003578162
 30
0.0
 10
103.0903482815191
 20
-131.3518445852176
 30
0.0
 10
103.0903482815191
 20
-131.5127305443788
 30
0.0
 10
103.0438394924682
 20
-131.6543239688225
 30
0.0
 10
102.861938450847
 20
-131.7494086042154
 30
0.0
 10
102.6672905559304
 20
-131.8531059783215
 30
0.0
 10
102.4302679865452
 20
-131.8723985130389
 30
0.0
 10
102.2676594796414
 20
-131.8723985130389
 30
0.0
 10
102.123654488358
 20
-131.8723985130389
 30
0.0
 10
101.8718180083862
 20
-131.8551730356126
 30
0.0
 10
101.6730359988873
 20
-131.7494086042154
 30
0.0
 10
101.4701198748061
 20
-131.6415771155271
 30
0.0
 10
101.4466932255064
 20
-131.4806911563659
 30
0.0
 10
101.4466932255064
 20
-131.3518445852176
 30
0.0
 10
101.4466932255064
 20
-131.1930256833476
 30
0.0
 10
101.4911349572661
 20
-131.0493652016127
 30
0.0
 10
101.6730359988873
 20
-130.9539360566712
 30
0.0
 10
101.8656168365128
 20
-130.854717306696
 30
0.0
 10
102.0940266671848
 20
-130.8312906573964
 30
0.0
 10
102.2676594796414
 20
-130.8312906573964
 30
0.0
 10
102.4388807252583
 20
-130.8312906573964
 30
0.0
 10
102.6693576132215
 20
-130.8526502494049
 30
0.0
 10
102.861938450847
 20
-130.9539360566712
 30
0.0
  0
SPLINE
  5
83
330
7C
100
AcDbEntity
  8
_U+30EC_U+30A4_U+30E4_U+30FC 1
370
     0
100
AcDbSpline
210
0.0
220
0.0
230
1.0
 70
    11
 71
     3
 72
    17
 73
    13
 74
     0
 42
0.0000000001
 43
0.0000000001
 12
1.0
 22
0.0
 32
0.0
 13
1.0
 23
0.0
 33
0.0
 40
0.0
 40
0.0
 40
0.0
 40
0.0
 40
1.0
 40
1.0
 40
1.0
 40
2.0
 40
2.0
 40
2.0
 40
3.0
 40
3.0
 40
3.0
 40
4.0
 40
4.0
 40
4.0
 40
4.0
 10
101.6392740631319
 20
-131.3518445852176
 30
0.0
 10
101.6392740631319
 20
-131.6016140078982
 30
0.0
 10
101.9228054215679
 20
-131.6481227969491
 30
0.0
 10
102.2676594796414
 20
-131.6481227969491
 30
0.0
 10
102.5870198311241
 20
-131.6481227969491
 30
0.0
 10
102.8957003866025
 20
-131.611949294354
 30
0.0
 10
102.8957003866025
 20
-131.3518445852176
 30
0.0
 10
102.8957003866025
 20
-131.1041422198281
 30
0.0
 10
102.6145805950061
 20
-131.0555663734861
 30
0.0
 10
102.2676594796414
 20
-131.0555663734861
 30
0.0
 10
101.9479546186102
 20
-131.0555663734861
 30
0.0
 10
101.6392740631319
 20
-131.0938069333724
 30
0.0
 10
101.6392740631319
 20
-131.3518445852176
 30
0.0
  0
HATCH
  5
84
330
7C
100
AcDbEntity
  8
_U+30EC_U+30A4_U+30E4_U+30FC 1
 62
     7
420
 16777215
100
AcDbHatch
 10
0.0
 20
0.0
 30
0.0
210
0.0
220
0.0
230
1.0
  2
SOLID
 70
     1
 71
     0
 91
        2
 92
        1
 93
        1
 72
     4
 94
        3
 73
     0
 74
     1
 95
       29
 96
       25
 40
0.0
 40
0.0
 40
0.0
 40
0.0
 40
1.0
 40
1.0
 40
1.0
 40
2.0
 40
2.0
 40
2.0
 40
3.0
 40
3.0
 40
3.0
 40
4.0
 40
4.0
 40
4.0
 40
5.0
 40
5.0
 40
5.0
 40
6.0
 40
6.0
 40
6.0
 40
7.0
 40
7.0
 40
7.0
 40
8.0
 40
8.0
 40
8.0
 40
8.0
 10
102.861938450847
 20
-130.9539360566712
 10
103.0714002563502
 20
-131.0621120549081
 10
103.0903482815191
 20
-131.2354003578162
 10
103.0903482815191
 20
-131.3518445852176
 10
103.0903482815191
 20
-131.5127305443788
 10
103.0438394924682
 20
-131.6543239688225
 10
102.861938450847
 20
-131.7494086042154
 10
102.6672905559304
 20
-131.8531059783215
 10
102.4302679865452
 20
-131.8723985130389
 10
102.2676594796414
 20
-131.8723985130389
 10
102.123654488358
 20
-131.8723985130389
 10
101.8718180083862
 20
-131.8551730356126
 10
101.6730359988873
 20
-131.7494086042154
 10
101.4701198748061
 20
-131.6415771155271
 10
101.4466932255064
 20
-131.4806911563659
 10
101.4466932255064
 20
-131.3518445852176
 10
101.4466932255064
 20
-131.1930256833476
 10
101.4911349572661
 20
-131.0493652016127
 10
101.6730359988873
 20
-130.9539360566712
 10
101.8656168365128
 20
-130.854717306696
 10
102.0940266671848
 20
-130.8312906573964
 10
102.2676594796414
 20
-130.8312906573964
 10
102.4388807252583
 20
-130.8312906573964
 10
102.6693576132215
 20
-130.8526502494049
 10
102.861938450847
 20
-130.9539360566712
 97
        0
 97
        0
 92
        1
 93
        1
 72
     4
 94
        3
 73
     0
 74
     1
 95
       17
 96
       13
 40
0.0
 40
0.0
 40
0.0
 40
0.0
 40
1.0
 40
1.0
 40
1.0
 40
2.0
 40
2.0
 40
2.0
 40
3.0
 40
3.0
 40
3.0
 40
4.0
 40
4.0
 40
4.0
 40
4.0
 10
101.6392740631319
 20
-131.3518445852176
 10
101.6392740631319
 20
-131.6016140078982
 10
101.9228054215679
 20
-131.6481227969491
 10
102.2676594796414
 20
-131.6481227969491
 10
102.5870198311241
 20
-131.6481227969491
 10
102.8957003866025
 20
-131.611949294354
 10
102.8957003866025
 20
-131.3518445852176
 10
102.8957003866025
 20
-131.1041422198281
 10
102.6145805950061
 20
-131.0555663734861
 10
102.2676594796414
 20
-131.0555663734861
 10
101.9479546186102
 20
-131.0555663734861
 10
101.6392740631319
 20
-131.0938069333724
 10
101.6392740631319
 20
-131.3518445852176
 97
        0
 97
        0
 75
     2
 76
     1
 98
        0
  0
ENDBLK
  5
7F
330
7C
100
AcDbEntity
  8
0
100
AcDbBlockEnd
  0
BLOCK
  5
93
330
91
100
AcDbEntity
  8
0
100
AcDbBlockBegin
  2
block 5
 70
     0
 10
0.0
 20
0.0
 30
0.0
  3
block 5
  1

  0
SPLINE
  5
95
330
91
100
AcDbEntity
  8
_U+30EC_U+30A4_U+30E4_U+30FC 1
370
     0
100
AcDbSpline
210
0.0
220
0.0
230
1.0
 70
    11
 71
     3
 72
    26
 73
    22
 74
     0
 42
0.0000000001
 43
0.0000000001
 12
1.0
 22
0.0
 32
0.0
 13
1.0
 23
0.0
 33
0.0
 40
0.0
 40
0.0
 40
0.0
 40
0.0
 40
1.0
 40
1.0
 40
1.0
 40
2.0
 40
2.0
 40
2.0
 40
3.0
 40
3.0
 40
3.0
 40
4.0
 40
4.0
 40
4.0
 40
5.0
 40
5.0
 40
5.0
 40
6.0
 40
6.0
 40
6.0
 40
7.0
 40
7.0
 40
7.0
 40
7.0
 10
103.0696777086076
 20
-122.5106960414209
 30
0.0
 10
103.0696777086076
 20
-122.5106960414209
 30
0.0
 10
103.0696777086076
 20
-122.7475463560319
 30
0.0
 10
103.0696777086076
 20
-122.7475463560319
 30
0.0
 10
102.7606526435807
 20
-122.7222249042153
 30
0.0
 10
102.2425102825991
 20
-122.5296440665898
 30
0.0
 10
101.7367702653644
 20
-122.1234673088789
 30
0.0
 10
101.7367702653644
 20
-122.1234673088789
 30
0.0
 10
101.7367702653644
 20
-122.9613145308916
 30
0.0
 10
101.7367702653644
 20
-122.9613145308916
 30
0.0
 10
101.7367702653644
 20
-122.9613145308916
 30
0.0
 10
101.5252414025701
 20
-122.9613145308916
 30
0.0
 10
101.5252414025701
 20
-122.9613145308916
 30
0.0
 10
101.5252414025701
 20
-122.9613145308916
 30
0.0
 10
101.5252414025701
 20
-121.8866169942679
 30
0.0
 10
101.5252414025701
 20
-121.8866169942679
 30
0.0
 10
101.5252414025701
 20
-121.8866169942679
 30
0.0
 10
101.7367702653644
 20
-121.8866169942679
 30
0.0
 10
101.7367702653644
 20
-121.8866169942679
 30
0.0
 10
102.0268473052225
 20
-122.2102837151072
 30
0.0
 10
102.6190592191369
 20
-122.4767618508912
 30
0.0
 10
103.0696777086076
 20
-122.5106960414209
 30
0.0
  0
HATCH
  5
96
330
91
100
AcDbEntity
  8
_U+30EC_U+30A4_U+30E4_U+30FC 1
 62
     7
420
 16777215
100
AcDbHatch
 10
0.0
 20
0.0
 30
0.0
210
0.0
220
0.0
230
1.0
  2
SOLID
 70
     1
 71
     0
 91
        1
 92
        1
 93
        1
 72
     4
 94
        3
 73
     0
 74
     1
 95
       26
 96
       22
 40
0.0
 40
0.0
 40
0.0
 40
0.0
 40
1.0
 40
1.0
 40
1.0
 40
2.0
 40
2.0
 40
2.0
 40
3.0
 40
3.0
 40
3.0
 40
4.0
 40
4.0
 40
4.0
 40
5.0
 40
5.0
 40
5.0
 40
6.0
 40
6.0
 40
6.0
 40
7.0
 40
7.0
 40
7.0
 40
7.0
 10
103.0696777086076
 20
-122.5106960414209
 10
103.0696777086076
 20
-122.5106960414209
 10
103.0696777086076
 20
-122.7475463560319
 10
103.0696777086076
 20
-122.7475463560319
 10
102.7606526435807
 20
-122.7222249042153
 10
102.2425102825991
 20
-122.5296440665898
 10
101.7367702653644
 20
-122.1234673088789
 10
101.7367702653644
 20
-122.1234673088789
 10
101.7367702653644
 20
-122.9613145308916
 10
101.7367702653644
 20
-122.9613145308916
 10
101.7367702653644
 20
-122.9613145308916
 10
101.5252414025701
 20
-122.9613145308916
 10
101.5252414025701
 20
-122.9613145308916
 10
101.5252414025701
 20
-122.9613145308916
 10
101.5252414025701
 20
-121.8866169942679
 10
101.5252414025701
 20
-121.8866169942679
 10
101.5252414025701
 20
-121.8866169942679
 10
101.7367702653644
 20
-121.8866169942679
 10
101.7367702653644
 20
-121.8866169942679
 10
102.0268473052225
 20
-122.2102837151072
 10
102.6190592191369
 20
-122.4767618508912
 10
103.0696777086076
 20
-122.5106960414209
 97
        0
 97
        0
 75
     2
 76
     1
 98
        0
  0
ENDBLK
  5
94
330
91
100
AcDbEntity
  8
0
100
AcDbBlockEnd
  0
BLOCK
  5
A5
330
A3
100
AcDbEntity
  8
0
100
AcDbBlockBegin
  2
block 6
 70
     0
 10
0.0
 20
0.0
 30
0.0
  3
block 6
  1

  0
SPLINE
  5
A7
330
A3
100
AcDbEntity
  8
_U+30EC_U+30A4_U+30E4_U+30FC 1
370
     0
100
AcDbSpline
210
0.0
220
0.0
230
1.0
 70
    11
 71
     3
 72
    26
 73
    22
 74
     0
 42
0.0000000001
 43
0.0000000001
 12
1.0
 22
0.0
 32
0.0
 13
1.0
 23
0.0
 33
0.0
 40
0.0
 40
0.0
 40
0.0
 40
0.0
 40
1.0
 40
1.0
 40
1.0
 40
2.0
 40
2.0
 40
2.0
 40
3.0
 40
3.0
 40
3.0
 40
4.0
 40
4.0
 40
4.0
 40
5.0
 40
5.0
 40
5.0
 40
6.0
 40
6.0
 40
6.0
 40
7.0
 40
7.0
 40
7.0
 40
7.0
 10
79.06907550106607
 20
-129.1166666343875
 30
0.0
 10
79.06907550106607
 20
-129.1166666343875
 30
0.0
 10
77.96475014326923
 20
-129.1166666343875
 30
0.0
 10
77.96475014326923
 20
-129.1166666343875
 30
0.0
 10
77.96475014326923
 20
-129.1166666343875
 30
0.0
 10
77.96475014326923
 20
-129.4467067818744
 30
0.0
 10
77.96475014326923
 20
-129.4467067818744
 30
0.0
 10
77.96475014326923
 20
-129.4467067818744
 30
0.0
 10
77.81661103740349
 20
-129.4467067818744
 30
0.0
 10
77.81661103740349
 20
-129.4467067818744
 30
0.0
 10
77.80196938159118
 20
-129.1145995770964
 30
0.0
 10
77.63901636513886
 20
-129.0680907880455
 30
0.0
 10
77.52481144980283
 20
-129.0384629668723
 30
0.0
 10
77.52481144980283
 20
-129.0384629668723
 30
0.0
 10
77.52481144980283
 20
-128.8923909182977
 30
0.0
 10
77.52481144980283
 20
-128.8923909182977
 30
0.0
 10
77.52481144980283
 20
-128.8923909182977
 30
0.0
 10
79.06907550106607
 20
-128.8923909182977
 30
0.0
 10
79.06907550106607
 20
-128.8923909182977
 30
0.0
 10
79.06907550106607
 20
-128.8923909182977
 30
0.0
 10
79.06907550106607
 20
-129.1166666343875
 30
0.0
 10
79.06907550106607
 20
-129.1166666343875
 30
0.0
  0
HATCH
  5
A8
330
A3
100
AcDbEntity
  8
_U+30EC_U+30A4_U+30E4_U+30FC 1
 62
     7
420
 16777215
100
AcDbHatch
 10
0.0
 20
0.0
 30
0.0
210
0.0
220
0.0
230
1.0
  2
SOLID
 70
     1
 71
     0
 91
        1
 92
        1
 93
        1
 72
     4
 94
        3
 73
     0
 74
     1
 95
       26
 96
       22
 40
0.0
 40
0.0
 40
0.0
 40
0.0
 40
1.0
 40
1.0
 40
1.0
 40
2.0
 40
2.0
 40
2.0
 40
3.0
 40
3.0
 40
3.0
 40
4.0
 40
4.0
 40
4.0
 40
5.0
 40
5.0
 40
5.0
 40
6.0
 40
6.0
 40
6.0
 40
7.0
 40
7.0
 40
7.0
 40
7.0
 10
79.06907550106607
 20
-129.1166666343875
 10
79.06907550106607
 20
-129.1166666343875
 10
77.96475014326923
 20
-129.1166666343875
 10
77.96475014326923
 20
-129.1166666343875
 10
77.96475014326923
 20
-129.1166666343875
 10
77.96475014326923
 20
-129.4467067818744
 10
77.96475014326923
 20
-129.4467067818744
 10
77.96475014326923
 20
-129.4467067818744
 10
77.81661103740349
 20
-129.4467067818744
 10
77.81661103740349
 20
-129.4467067818744
 10
77.80196938159118
 20
-129.1145995770964
 10
77.63901636513886
 20
-129.0680907880455
 10
77.52481144980283
 20
-129.0384629668723
 10
77.52481144980283
 20
-129.0384629668723
 10
77.52481144980283
 20
-128.8923909182977
 10
77.52481144980283
 20
-128.8923909182977
 10
77.52481144980283
 20
-128.8923909182977
 10
79.06907550106607
 20
-128.8923909182977
 10
79.06907550106607
 20
-128.8923909182977
 10
79.06907550106607
 20
-128.8923909182977
 10
79.06907550106607
 20
-129.1166666343875
 10
79.06907550106607
 20
-129.1166666343875
 97
        0
 97
        0
 75
     2
 76
     1
 98
        0
  0
SPLINE
  5
A9
330
A3
100
AcDbEntity
  8
_U+30EC_U+30A4_U+30E4_U+30FC 1
370
     0
100
AcDbSpline
210
0.0
220
0.0
230
1.0
 70
    11
 71
     3
 72
    32
 73
    28
 74
     0
 42
0.0000000001
 43
0.0000000001
 12
1.0
 22
0.0
 32
0.0
 13
1.0
 23
0.0
 33
0.0
 40
0.0
 40
0.0
 40
0.0
 40
0.0
 40
1.0
 40
1.0
 40
1.0
 40
2.0
 40
2.0
 40
2.0
 40
3.0
 40
3.0
 40
3.0
 40
4.0
 40
4.0
 40
4.0
 40
5.0
 40
5.0
 40
5.0
 40
6.0
 40
6.0
 40
6.0
 40
7.0
 40
7.0
 40
7.0
 40
8.0
 40
8.0
 40
8.0
 40
9.0
 40
9.0
 40
9.0
 40
9.0
 10
79.1198906594735
 20
-127.9334485899785
 30
0.0
 10
79.1198906594735
 20
-128.1069091476608
 30
0.0
 10
79.04995522112293
 20
-128.3523722009848
 30
0.0
 10
78.71784801634485
 20
-128.3904405060968
 30
0.0
 10
78.71784801634485
 20
-128.3904405060968
 30
0.0
 10
78.71784801634485
 20
-128.1768445860114
 30
0.0
 10
78.71784801634485
 20
-128.1768445860114
 30
0.0
 10
78.77710365869115
 20
-128.1661647900071
 30
0.0
 10
78.92524276455688
 20
-128.1344699115428
 30
0.0
 10
78.92524276455688
 20
-127.9313815326873
 30
0.0
 10
78.92524276455688
 20
-127.6394096903124
 30
0.0
 10
78.59520261706996
 20
-127.6013413852004
 30
0.0
 10
78.39004718092332
 20
-127.5887667866792
 30
0.0
 10
78.47031790572964
 20
-127.6797173074898
 30
0.0
 10
78.52750649078479
 20
-127.747413433775
 30
0.0
 10
78.52750649078479
 20
-127.9293144753962
 30
0.0
 10
78.52750649078479
 20
-128.1091484597262
 30
0.0
 10
78.42174205938763
 20
-128.4116278433311
 30
0.0
 10
78.01556530167667
 20
-128.4116278433311
 30
0.0
 10
77.69603269541975
 20
-128.4116278433311
 30
0.0
 10
77.47606334868654
 20
-128.2128458338322
 30
0.0
 10
77.47606334868654
 20
-127.8953802848664
 30
0.0
 10
77.47606334868654
 20
-127.3813720384672
 30
0.0
 10
78.03037921226324
 20
-127.3708644972372
 30
0.0
 10
78.24397513234874
 20
-127.3708644972372
 30
0.0
 10
78.47462427508621
 20
-127.3708644972372
 30
0.0
 10
79.1198906594735
 20
-127.389812522406
 30
0.0
 10
79.1198906594735
 20
-127.9334485899785
 30
0.0
  0
SPLINE
  5
AA
330
A3
100
AcDbEntity
  8
_U+30EC_U+30A4_U+30E4_U+30FC 1
370
     0
100
AcDbSpline
210
0.0
220
0.0
230
1.0
 70
    11
 71
     3
 72
    17
 73
    13
 74
     0
 42
0.0000000001
 43
0.0000000001
 12
1.0
 22
0.0
 32
0.0
 13
1.0
 23
0.0
 33
0.0
 40
0.0
 40
0.0
 40
0.0
 40
0.0
 40
1.0
 40
1.0
 40
1.0
 40
2.0
 40
2.0
 40
2.0
 40
3.0
 40
3.0
 40
3.0
 40
4.0
 40
4.0
 40
4.0
 40
4.0
 10
77.66864418631201
 20
-127.8933132275753
 30
0.0
 10
77.66864418631201
 20
-128.0118245122679
 30
0.0
 10
77.7256605165929
 20
-128.1873521272414
 30
0.0
 10
78.0112589323201
 20
-128.1873521272414
 30
0.0
 10
78.23760170570102
 20
-128.1873521272414
 30
0.0
 10
78.33285859586817
 20
-128.0478257600888
 30
0.0
 10
78.33285859586817
 20
-127.9124335075184
 30
0.0
 10
78.33285859586817
 20
-127.6500894863166
 30
0.0
 10
78.12339679036499
 20
-127.6120211812046
 30
0.0
 10
78.0071248177378
 20
-127.6120211812046
 30
0.0
 10
77.83142494799006
 20
-127.6120211812046
 30
0.0
 10
77.66864418631201
 20
-127.7071058165975
 30
0.0
 10
77.66864418631201
 20
-127.8933132275753
 30
0.0
  0
HATCH
  5
AB
330
A3
100
AcDbEntity
  8
_U+30EC_U+30A4_U+30E4_U+30FC 1
 62
     7
420
 16777215
100
AcDbHatch
 10
0.0
 20
0.0
 30
0.0
210
0.0
220
0.0
230
1.0
  2
SOLID
 70
     1
 71
     0
 91
        2
 92
        1
 93
        1
 72
     4
 94
        3
 73
     0
 74
     1
 95
       32
 96
       28
 40
0.0
 40
0.0
 40
0.0
 40
0.0
 40
1.0
 40
1.0
 40
1.0
 40
2.0
 40
2.0
 40
2.0
 40
3.0
 40
3.0
 40
3.0
 40
4.0
 40
4.0
 40
4.0
 40
5.0
 40
5.0
 40
5.0
 40
6.0
 40
6.0
 40
6.0
 40
7.0
 40
7.0
 40
7.0
 40
8.0
 40
8.0
 40
8.0
 40
9.0
 40
9.0
 40
9.0
 40
9.0
 10
79.1198906594735
 20
-127.9334485899785
 10
79.1198906594735
 20
-128.1069091476608
 10
79.04995522112293
 20
-128.3523722009848
 10
78.71784801634485
 20
-128.3904405060968
 10
78.71784801634485
 20
-128.3904405060968
 10
78.71784801634485
 20
-128.1768445860114
 10
78.71784801634485
 20
-128.1768445860114
 10
78.77710365869115
 20
-128.1661647900071
 10
78.92524276455688
 20
-128.1344699115428
 10
78.92524276455688
 20
-127.9313815326873
 10
78.92524276455688
 20
-127.6394096903124
 10
78.59520261706996
 20
-127.6013413852004
 10
78.39004718092332
 20
-127.5887667866792
 10
78.47031790572964
 20
-127.6797173074898
 10
78.52750649078479
 20
-127.747413433775
 10
78.52750649078479
 20
-127.9293144753962
 10
78.52750649078479
 20
-128.1091484597262
 10
78.42174205938763
 20
-128.4116278433311
 10
78.01556530167667
 20
-128.4116278433311
 10
77.69603269541975
 20
-128.4116278433311
 10
77.47606334868654
 20
-128.2128458338322
 10
77.47606334868654
 20
-127.8953802848664
 10
77.47606334868654
 20
-127.3813720384672
 10
78.03037921226324
 20
-127.3708644972372
 10
78.24397513234874
 20
-127.3708644972372
 10
78.47462427508621
 20
-127.3708644972372
 10
79.1198906594735
 20
-127.389812522406
 10
79.1198906594735
 20
-127.9334485899785
 97
        0
 97
        0
 92
        1
 93
        1
 72
     4
 94
        3
 73
     0
 74
     1
 95
       17
 96
       13
 40
0.0
 40
0.0
 40
0.0
 40
0.0
 40
1.0
 40
1.0
 40
1.0
 40
2.0
 40
2.0
 40
2.0
 40
3.0
 40
3.0
 40
3.0
 40
4.0
 40
4.0
 40
4.0
 40
4.0
 10
77.66864418631201
 20
-127.8933132275753
 10
77.66864418631201
 20
-128.0118245122679
 10
77.7256605165929
 20
-128.1873521272414
 10
78.0112589323201
 20
-128.1873521272414
 10
78.23760170570102
 20
-128.1873521272414
 10
78.33285859586817
 20
-128.0478257600888
 10
78.33285859586817
 20
-127.9124335075184
 10
78.33285859586817
 20
-127.6500894863166
 10
78.12339679036499
 20
-127.6120211812046
 10
78.0071248177378
 20
-127.6120211812046
 10
77.83142494799006
 20
-127.6120211812046
 10
77.66864418631201
 20
-127.7071058165975
 10
77.66864418631201
 20
-127.8933132275753
 97
        0
 97
        0
 75
     2
 76
     1
 98
        0
  0
ENDBLK
  5
A6
330
A3
100
AcDbEntity
  8
0
100
AcDbBlockEnd
  0
BLOCK
  5
BA
330
B8
100
AcDbEntity
  8
0
100
AcDbBlockBegin
  2
block 7
 70
     0
 10
0.0
 20
0.0
 30
0.0
  3
block 7
  1

  0
SPLINE
  5
BC
330
B8
100
AcDbEntity
  8
_U+30EC_U+30A4_U+30E4_U+30FC 1
370
     0
100
AcDbSpline
210
0.0
220
0.0
230
1.0
 70
    11
 71
     3
 72
    26
 73
    22
 74
     0
 42
0.0000000001
 43
0.0000000001
 12
1.0
 22
0.0
 32
0.0
 13
1.0
 23
0.0
 33
0.0
 40
0.0
 40
0.0
 40
0.0
 40
0.0
 40
1.0
 40
1.0
 40
1.0
 40
2.0
 40
2.0
 40
2.0
 40
3.0
 40
3.0
 40
3.0
 40
4.0
 40
4.0
 40
4.0
 40
5.0
 40
5.0
 40
5.0
 40
6.0
 40
6.0
 40
6.0
 40
7.0
 40
7.0
 40
7.0
 40
7.0
 10
90.95241561311259
 20
-141.2868109455811
 30
0.0
 10
90.95241561311259
 20
-141.2868109455811
 30
0.0
 10
90.95241561311259
 20
-140.1826578425585
 30
0.0
 10
90.95241561311259
 20
-140.1826578425585
 30
0.0
 10
90.95241561311259
 20
-140.1826578425585
 30
0.0
 10
90.62237546562567
 20
-140.1826578425585
 30
0.0
 10
90.62237546562567
 20
-140.1826578425585
 30
0.0
 10
90.62237546562567
 20
-140.1826578425585
 30
0.0
 10
90.62237546562567
 20
-140.0345187366928
 30
0.0
 10
90.62237546562567
 20
-140.0345187366928
 30
0.0
 10
90.95448267040375
 20
-140.0197048261062
 30
0.0
 10
91.00099145945461
 20
-139.8567518096539
 30
0.0
 10
91.03061928062776
 20
-139.7423746395436
 30
0.0
 10
91.03061928062776
 20
-139.7423746395436
 30
0.0
 10
91.17669132920236
 20
-139.7423746395436
 30
0.0
 10
91.17669132920236
 20
-139.7423746395436
 30
0.0
 10
91.17669132920236
 20
-139.7423746395436
 30
0.0
 10
91.17669132920236
 20
-141.2868109455811
 30
0.0
 10
91.17669132920236
 20
-141.2868109455811
 30
0.0
 10
91.17669132920236
 20
-141.2868109455811
 30
0.0
 10
90.95241561311259
 20
-141.2868109455811
 30
0.0
 10
90.95241561311259
 20
-141.2868109455811
 30
0.0
  0
HATCH
  5
BD
330
B8
100
AcDbEntity
  8
_U+30EC_U+30A4_U+30E4_U+30FC 1
 62
     7
420
 16777215
100
AcDbHatch
 10
0.0
 20
0.0
 30
0.0
210
0.0
220
0.0
230
1.0
  2
SOLID
 70
     1
 71
     0
 91
        1
 92
        1
 93
        1
 72
     4
 94
        3
 73
     0
 74
     1
 95
       26
 96
       22
 40
0.0
 40
0.0
 40
0.0
 40
0.0
 40
1.0
 40
1.0
 40
1.0
 40
2.0
 40
2.0
 40
2.0
 40
3.0
 40
3.0
 40
3.0
 40
4.0
 40
4.0
 40
4.0
 40
5.0
 40
5.0
 40
5.0
 40
6.0
 40
6.0
 40
6.0
 40
7.0
 40
7.0
 40
7.0
 40
7.0
 10
90.95241561311259
 20
-141.2868109455811
 10
90.95241561311259
 20
-141.2868109455811
 10
90.95241561311259
 20
-140.1826578425585
 10
90.95241561311259
 20
-140.1826578425585
 10
90.95241561311259
 20
-140.1826578425585
 10
90.62237546562567
 20
-140.1826578425585
 10
90.62237546562567
 20
-140.1826578425585
 10
90.62237546562567
 20
-140.1826578425585
 10
90.62237546562567
 20
-140.0345187366928
 10
90.62237546562567
 20
-140.0345187366928
 10
90.95448267040375
 20
-140.0197048261062
 10
91.00099145945461
 20
-139.8567518096539
 10
91.03061928062776
 20
-139.7423746395436
 10
91.03061928062776
 20
-139.7423746395436
 10
91.17669132920236
 20
-139.7423746395436
 10
91.17669132920236
 20
-139.7423746395436
 10
91.17669132920236
 20
-139.7423746395436
 10
91.17669132920236
 20
-141.2868109455811
 10
91.17669132920236
 20
-141.2868109455811
 10
91.17669132920236
 20
-141.2868109455811
 10
90.95241561311259
 20
-141.2868109455811
 10
90.95241561311259
 20
-141.2868109455811
 97
        0
 97
        0
 75
     2
 76
     1
 98
        0
  0
SPLINE
  5
BE
330
B8
100
AcDbEntity
  8
_U+30EC_U+30A4_U+30E4_U+30FC 1
370
     0
100
AcDbSpline
210
0.0
220
0.0
230
1.0
 70
    11
 71
     3
 72
    32
 73
    28
 74
     0
 42
0.0000000001
 43
0.0000000001
 12
1.0
 22
0.0
 32
0.0
 13
1.0
 23
0.0
 33
0.0
 40
0.0
 40
0.0
 40
0.0
 40
0.0
 40
1.0
 40
1.0
 40
1.0
 40
2.0
 40
2.0
 40
2.0
 40
3.0
 40
3.0
 40
3.0
 40
4.0
 40
4.0
 40
4.0
 40
5.0
 40
5.0
 40
5.0
 40
6.0
 40
6.0
 40
6.0
 40
7.0
 40
7.0
 40
7.0
 40
8.0
 40
8.0
 40
8.0
 40
9.0
 40
9.0
 40
9.0
 40
9.0
 10
92.18214244657253
 20
-141.3374538492143
 30
0.0
 10
91.6660671428821
 20
-141.3374538492143
 30
0.0
 10
91.6577989137175
 20
-140.7834824951861
 30
0.0
 10
91.6577989137175
 20
-140.5695420655521
 30
0.0
 10
91.6577989137175
 20
-140.3390651775889
 30
0.0
 10
91.67674693888637
 20
-139.6917317359104
 30
0.0
 10
92.2203830064588
 20
-139.6917317359104
 30
0.0
 10
92.39367130936687
 20
-139.6917317359104
 30
0.0
 10
92.63930661746518
 20
-139.761667174261
 30
0.0
 10
92.67720266780293
 20
-140.0937743790391
 30
0.0
 10
92.67720266780293
 20
-140.0937743790391
 30
0.0
 10
92.46360674771744
 20
-140.0937743790391
 30
0.0
 10
92.46360674771744
 20
-140.0937743790391
 30
0.0
 10
92.45292695171317
 20
-140.0365857939839
 30
0.0
 10
92.42123207324886
 20
-139.8884466881182
 30
0.0
 10
92.21831594916765
 20
-139.8884466881182
 30
0.0
 10
91.92617185201846
 20
-139.8884466881182
 30
0.0
 10
91.88620874438956
 20
-140.216419778314
 30
0.0
 10
91.87346189109414
 20
-140.4214029596863
 30
0.0
 10
91.96647946919589
 20
-140.3431992921712
 30
0.0
 10
92.0343478502553
 20
-140.2839436498249
 30
0.0
 10
92.2162488918765
 20
-140.2839436498249
 30
0.0
 10
92.39608287620653
 20
-140.2839436498249
 30
0.0
 10
92.69856225981148
 20
-140.3921196480617
 30
0.0
 10
92.69856225981148
 20
-140.7982964057726
 30
0.0
 10
92.69856225981148
 20
-141.1176567572553
 30
0.0
 10
92.49943574076403
 20
-141.3374538492143
 30
0.0
 10
92.18214244657253
 20
-141.3374538492143
 30
0.0
  0
SPLINE
  5
BF
330
B8
100
AcDbEntity
  8
_U+30EC_U+30A4_U+30E4_U+30FC 1
370
     0
100
AcDbSpline
210
0.0
220
0.0
230
1.0
 70
    11
 71
     3
 72
    17
 73
    13
 74
     0
 42
0.0000000001
 43
0.0000000001
 12
1.0
 22
0.0
 32
0.0
 13
1.0
 23
0.0
 33
0.0
 40
0.0
 40
0.0
 40
0.0
 40
0.0
 40
1.0
 40
1.0
 40
1.0
 40
2.0
 40
2.0
 40
2.0
 40
3.0
 40
3.0
 40
3.0
 40
4.0
 40
4.0
 40
4.0
 40
4.0
 10
92.19936792399878
 20
-140.4785915447415
 30
0.0
 10
91.93685164802274
 20
-140.4785915447415
 30
0.0
 10
91.89895559768499
 20
-140.6901204075358
 30
0.0
 10
91.89895559768499
 20
-140.8065646349372
 30
0.0
 10
91.89895559768499
 20
-140.982264504685
 30
0.0
 10
91.99404023307788
 20
-141.1452175211373
 30
0.0
 10
92.17800833199023
 20
-141.1452175211373
 30
0.0
 10
92.29858667397397
 20
-141.1452175211373
 30
0.0
 10
92.4742865437217
 20
-141.085961878791
 30
0.0
 10
92.4742865437217
 20
-140.8003634630638
 30
0.0
 10
92.4742865437217
 20
-140.5760877469741
 30
0.0
 10
92.33441566702056
 20
-140.4785915447415
 30
0.0
 10
92.19936792399878
 20
-140.4785915447415
 30
0.0
  0
HATCH
  5
C0
330
B8
100
AcDbEntity
  8
_U+30EC_U+30A4_U+30E4_U+30FC 1
 62
     7
420
 16777215
100
AcDbHatch
 10
0.0
 20
0.0
 30
0.0
210
0.0
220
0.0
230
1.0
  2
SOLID
 70
     1
 71
     0
 91
        2
 92
        1
 93
        1
 72
     4
 94
        3
 73
     0
 74
     1
 95
       32
 96
       28
 40
0.0
 40
0.0
 40
0.0
 40
0.0
 40
1.0
 40
1.0
 40
1.0
 40
2.0
 40
2.0
 40
2.0
 40
3.0
 40
3.0
 40
3.0
 40
4.0
 40
4.0
 40
4.0
 40
5.0
 40
5.0
 40
5.0
 40
6.0
 40
6.0
 40
6.0
 40
7.0
 40
7.0
 40
7.0
 40
8.0
 40
8.0
 40
8.0
 40
9.0
 40
9.0
 40
9.0
 40
9.0
 10
92.18214244657253
 20
-141.3374538492143
 10
91.6660671428821
 20
-141.3374538492143
 10
91.6577989137175
 20
-140.7834824951861
 10
91.6577989137175
 20
-140.5695420655521
 10
91.6577989137175
 20
-140.3390651775889
 10
91.67674693888637
 20
-139.6917317359104
 10
92.2203830064588
 20
-139.6917317359104
 10
92.39367130936687
 20
-139.6917317359104
 10
92.63930661746518
 20
-139.761667174261
 10
92.67720266780293
 20
-140.0937743790391
 10
92.67720266780293
 20
-140.0937743790391
 10
92.46360674771744
 20
-140.0937743790391
 10
92.46360674771744
 20
-140.0937743790391
 10
92.45292695171317
 20
-140.0365857939839
 10
92.42123207324886
 20
-139.8884466881182
 10
92.21831594916765
 20
-139.8884466881182
 10
91.92617185201846
 20
-139.8884466881182
 10
91.88620874438956
 20
-140.216419778314
 10
91.87346189109414
 20
-140.4214029596863
 10
91.96647946919589
 20
-140.3431992921712
 10
92.0343478502553
 20
-140.2839436498249
 10
92.2162488918765
 20
-140.2839436498249
 10
92.39608287620653
 20
-140.2839436498249
 10
92.69856225981148
 20
-140.3921196480617
 10
92.69856225981148
 20
-140.7982964057726
 10
92.69856225981148
 20
-141.1176567572553
 10
92.49943574076403
 20
-141.3374538492143
 10
92.18214244657253
 20
-141.3374538492143
 97
        0
 97
        0
 92
        1
 93
        1
 72
     4
 94
        3
 73
     0
 74
     1
 95
       17
 96
       13
 40
0.0
 40
0.0
 40
0.0
 40
0.0
 40
1.0
 40
1.0
 40
1.0
 40
2.0
 40
2.0
 40
2.0
 40
3.0
 40
3.0
 40
3.0
 40
4.0
 40
4.0
 40
4.0
 40
4.0
 10
92.19936792399878
 20
-140.4785915447415
 10
91.93685164802274
 20
-140.4785915447415
 10
91.89895559768499
 20
-140.6901204075358
 10
91.89895559768499
 20
-140.8065646349372
 10
91.89895559768499
 20
-140.982264504685
 10
91.99404023307788
 20
-141.1452175211373
 10
92.17800833199023
 20
-141.1452175211373
 10
92.29858667397397
 20
-141.1452175211373
 10
92.4742865437217
 20
-141.085961878791
 10
92.4742865437217
 20
-140.8003634630638
 10
92.4742865437217
 20
-140.5760877469741
 10
92.33441566702056
 20
-140.4785915447415
 10
92.19936792399878
 20
-140.4785915447415
 97
        0
 97
        0
 75
     2
 76
     1
 98
        0
  0
ENDBLK
  5
BB
330
B8
100
AcDbEntity
  8
0
100
AcDbBlockEnd
  0
ENDSEC
  0
SECTION
  2
ENTITIES
  0
SPLINE
  5
41
330
1F
100
AcDbEntity
  8
_U+30EC_U+30A4_U+30E4_U+30FC 1
 62
     7
420
 16777215
370
    25
100
AcDbSpline
210
0.0
220
0.0
230
1.0
 70
    11
 71
     3
 72
    62
 73
    58
 74
     0
 42
0.0000000001
 43
0.0000000001
 12
1.0
 22
0.0
 32
0.0
 13
1.0
 23
0.0
 33
0.0
 40
0.0
 40
0.0
 40
0.0
 40
0.0
 40
1.0
 40
1.0
 40
1.0
 40
2.0
 40
2.0
 40
2.0
 40
3.0
 40
3.0
 40
3.0
 40
4.0
 40
4.0
 40
4.0
 40
5.0
 40
5.0
 40
5.0
 40
6.0
 40
6.0
 40
6.0
 40
7.0
 40
7.0
 40
7.0
 40
8.0
 40
8.0
 40
8.0
 40
9.0
 40
9.0
 40
9.0
 40
10.0
 40
10.0
 40
10.0
 40
11.0
 40
11.0
 40
11.0
 40
12.0
 40
12.0
 40
12.0
 40
13.0
 40
13.0
 40
13.0
 40
14.0
 40
14.0
 40
14.0
 40
15.0
 40
15.0
 40
15.0
 40
16.0
 40
16.0
 40
16.0
 40
17.0
 40
17.0
 40
17.0
 40
18.0
 40
18.0
 40
18.0
 40
19.0
 40
19.0
 40
19.0
 40
19.0
 10
98.86597219750573
 20
-137.0824241323958
 30
0.0
 10
99.30764997517323
 20
-137.0824241323958
 30
0.0
 10
99.66592856842144
 20
-137.4407052434176
 30
0.0
 10
99.66592856842144
 20
-137.882383021085
 30
0.0
 10
99.66592856842144
 20
-137.882383021085
 30
0.0
 10
91.86622376740848
 20
-137.8810071877522
 30
0.0
 10
91.86622376740848
 20
-137.8810071877522
 30
0.0
 10
91.86622376740848
 20
-137.8810071877522
 30
0.0
 10
91.66641043917282
 20
-137.6808410766911
 30
0.0
 10
91.66641043917282
 20
-137.6808410766911
 30
0.0
 10
91.66641043917282
 20
-137.6808410766911
 30
0.0
 10
91.46659711093714
 20
-137.8810071877522
 30
0.0
 10
91.46659711093714
 20
-137.8810071877522
 30
0.0
 10
91.46659711093714
 20
-137.8810071877522
 30
0.0
 10
84.86855922371156
 20
-137.8820302433073
 30
0.0
 10
84.86855922371156
 20
-137.8820302433073
 30
0.0
 10
84.86855922371156
 20
-137.8820302433073
 30
0.0
 10
84.66839311770711
 20
-137.6818641322463
 30
0.0
 10
84.66839311770711
 20
-137.6818641322463
 30
0.0
 10
84.66839311770711
 20
-137.6818641322463
 30
0.0
 10
84.46857978947145
 20
-137.8820302433073
 30
0.0
 10
84.46857978947145
 20
-137.8820302433073
 30
0.0
 10
84.46857978947145
 20
-137.8820302433073
 30
0.0
 10
84.46339395627041
 20
-137.8820302433073
 30
0.0
 10
84.46339395627041
 20
-137.8820302433073
 30
0.0
 10
84.0065820234802
 20
-137.7900257988858
 30
0.0
 10
83.66205925449194
 20
-137.38627163232
 30
0.0
 10
83.66205925449194
 20
-136.8740030213368
 30
0.0
 10
83.66205925449194
 20
-136.8740030213368
 30
0.0
 10
83.66205925449194
 20
-118.8830066369461
 30
0.0
 10
83.66205925449194
 20
-118.8830066369461
 30
0.0
 10
84.21468562928216
 20
-118.9107349702724
 30
0.0
 10
84.56400831219227
 20
-119.2948746923985
 30
0.0
 10
84.65735117354437
 20
-119.8092246922701
 30
0.0
 10
84.65735117354437
 20
-119.8092246922701
 30
0.0
 10
84.65735117354437
 20
-125.8801774685301
 30
0.0
 10
84.65735117354437
 20
-125.8801774685301
 30
0.0
 10
84.65735117354437
 20
-125.8801774685301
 30
0.0
 10
90.71623879674705
 20
-125.8801774685301
 30
0.0
 10
90.71623879674705
 20
-125.8801774685301
 30
0.0
 10
91.2681596159997
 20
-125.8801774685301
 30
0.0
 10
91.66570488363526
 20
-126.3314860795281
 30
0.0
 10
91.66570488363526
 20
-126.8840771905013
 30
0.0
 10
91.66570488363526
 20
-126.8840771905013
 30
0.0
 10
84.66596108994447
 20
-126.8840771905013
 30
0.0
 10
84.66596108994447
 20
-126.8840771905013
 30
0.0
 10
84.66596108994447
 20
-126.8840771905013
 30
0.0
 10
84.66596108994447
 20
-136.8826107991125
 30
0.0
 10
84.66596108994447
 20
-136.8826107991125
 30
0.0
 10
84.66596108994447
 20
-136.8826107991125
 30
0.0
 10
91.66570488363526
 20
-136.8826107991125
 30
0.0
 10
91.66570488363526
 20
-136.8826107991125
 30
0.0
 10
91.66570488363526
 20
-136.8826107991125
 30
0.0
 10
92.01230904145932
 20
-137.0824241323958
 30
0.0
 10
92.01230904145932
 20
-137.0824241323958
 30
0.0
 10
92.01230904145932
 20
-137.0824241323958
 30
0.0
 10
98.86597219750573
 20
-137.0824241323958
 30
0.0
 10
98.86597219750573
 20
-137.0824241323958
 30
0.0
  0
HATCH
  5
42
330
1F
100
AcDbEntity
  8
_U+30EC_U+30A4_U+30E4_U+30FC 1
 62
   253
420
 11711154
100
AcDbHatch
 10
0.0
 20
0.0
 30
0.0
210
0.0
220
0.0
230
1.0
  2
SOLID
 70
     1
 71
     0
 91
        1
 92
        1
 93
        2
 72
     4
 94
        3
 73
     0
 74
     0
 95
       62
 96
       58
 40
0.0
 40
0.0
 40
0.0
 40
0.0
 40
0.3527777776895833
 40
0.3527777776895833
 40
0.3527777776895833
 40
0.7055555553791667
 40
0.7055555553791667
 40
0.7055555553791667
 40
1.05833333306875
 40
1.05833333306875
 40
1.05833333306875
 40
1.411111110758333
 40
1.411111110758333
 40
1.411111110758333
 40
1.763888888447917
 40
1.763888888447917
 40
1.763888888447917
 40
2.1166666661375
 40
2.1166666661375
 40
2.1166666661375
 40
2.469444443827083
 40
2.469444443827083
 40
2.469444443827083
 40
2.822222221516667
 40
2.822222221516667
 40
2.822222221516667
 40
3.17499999920625
 40
3.17499999920625
 40
3.17499999920625
 40
3.527777776895833
 40
3.527777776895833
 40
3.527777776895833
 40
3.880555554585417
 40
3.880555554585417
 40
3.880555554585417
 40
4.233333332275
 40
4.233333332275
 40
4.233333332275
 40
4.586111109964584
 40
4.586111109964584
 40
4.586111109964584
 40
4.938888887654167
 40
4.938888887654167
 40
4.938888887654167
 40
5.29166666534375
 40
5.29166666534375
 40
5.29166666534375
 40
5.644444443033334
 40
5.644444443033334
 40
5.644444443033334
 40
5.997222220722917
 40
5.997222220722917
 40
5.997222220722917
 40
6.349999998412501
 40
6.349999998412501
 40
6.349999998412501
 40
6.702777776102083
 40
6.702777776102083
 40
6.702777776102083
 40
6.702777776102083
 10
98.86597219750573
 20
-137.0824241323958
 10
99.30764997517323
 20
-137.0824241323958
 10
99.66592856842144
 20
-137.4407052434176
 10
99.66592856842144
 20
-137.882383021085
 10
99.66592856842144
 20
-137.882383021085
 10
91.86622376740848
 20
-137.8810071877522
 10
91.86622376740848
 20
-137.8810071877522
 10
91.86622376740848
 20
-137.8810071877522
 10
91.66641043917282
 20
-137.6808410766911
 10
91.66641043917282
 20
-137.6808410766911
 10
91.66641043917282
 20
-137.6808410766911
 10
91.46659711093714
 20
-137.8810071877522
 10
91.46659711093714
 20
-137.8810071877522
 10
91.46659711093714
 20
-137.8810071877522
 10
84.86855922371156
 20
-137.8820302433073
 10
84.86855922371156
 20
-137.8820302433073
 10
84.86855922371156
 20
-137.8820302433073
 10
84.66839311770711
 20
-137.6818641322463
 10
84.66839311770711
 20
-137.6818641322463
 10
84.66839311770711
 20
-137.6818641322463
 10
84.46857978947145
 20
-137.8820302433073
 10
84.46857978947145
 20
-137.8820302433073
 10
84.46857978947145
 20
-137.8820302433073
 10
84.46339395627041
 20
-137.8820302433073
 10
84.46339395627041
 20
-137.8820302433073
 10
84.0065820234802
 20
-137.7900257988858
 10
83.66205925449194
 20
-137.38627163232
 10
83.66205925449194
 20
-136.8740030213368
 10
83.66205925449194
 20
-136.8740030213368
 10
83.66205925449194
 20
-118.8830066369461
 10
83.66205925449194
 20
-118.8830066369461
 10
84.21468562928216
 20
-118.9107349702724
 10
84.56400831219227
 20
-119.2948746923985
 10
84.65735117354437
 20
-119.8092246922701
 10
84.65735117354437
 20
-119.8092246922701
 10
84.65735117354437
 20
-125.8801774685301
 10
84.65735117354437
 20
-125.8801774685301
 10
84.65735117354437
 20
-125.8801774685301
 10
90.71623879674705
 20
-125.8801774685301
 10
90.71623879674705
 20
-125.8801774685301
 10
91.2681596159997
 20
-125.8801774685301
 10
91.66570488363526
 20
-126.3314860795281
 10
91.66570488363526
 20
-126.8840771905013
 10
91.66570488363526
 20
-126.8840771905013
 10
84.66596108994447
 20
-126.8840771905013
 10
84.66596108994447
 20
-126.8840771905013
 10
84.66596108994447
 20
-126.8840771905013
 10
84.66596108994447
 20
-136.8826107991125
 10
84.66596108994447
 20
-136.8826107991125
 10
84.66596108994447
 20
-136.8826107991125
 10
91.66570488363526
 20
-136.8826107991125
 10
91.66570488363526
 20
-136.8826107991125
 10
91.66570488363526
 20
-136.8826107991125
 10
92.01230904145932
 20
-137.0824241323958
 10
92.01230904145932
 20
-137.0824241323958
 10
92.01230904145932
 20
-137.0824241323958
 10
98.86597219750573
 20
-137.0824241323958
 10
98.86597219750573
 20
-137.0824241323958
 97
        0
 72
     1
 10
98.86597219750573
 20
-137.0824241323958
 11
98.86597219750573
 21
-137.0824241323958
 97
        0
 75
     2
 76
     1
 98
        0
  0
SPLINE
  5
43
330
1F
100
AcDbEntity
  8
_U+30EC_U+30A4_U+30E4_U+30FC 1
 62
     7
420
 16777215
370
    25
100
AcDbSpline
210
0.0
220
0.0
230
1.0
 70
    11
 71
     3
 72
    62
 73
    58
 74
     0
 42
0.0000000001
 43
0.0000000001
 12
1.0
 22
0.0
 32
0.0
 13
1.0
 23
0.0
 33
0.0
 40
0.0
 40
0.0
 40
0.0
 40
0.0
 40
1.0
 40
1.0
 40
1.0
 40
2.0
 40
2.0
 40
2.0
 40
3.0
 40
3.0
 40
3.0
 40
4.0
 40
4.0
 40
4.0
 40
5.0
 40
5.0
 40
5.0
 40
6.0
 40
6.0
 40
6.0
 40
7.0
 40
7.0
 40
7.0
 40
8.0
 40
8.0
 40
8.0
 40
9.0
 40
9.0
 40
9.0
 40
10.0
 40
10.0
 40
10.0
 40
11.0
 40
11.0
 40
11.0
 40
12.0
 40
12.0
 40
12.0
 40
13.0
 40
13.0
 40
13.0
 40
14.0
 40
14.0
 40
14.0
 40
15.0
 40
15.0
 40
15.0
 40
16.0
 40
16.0
 40
16.0
 40
17.0
 40
17.0
 40
17.0
 40
18.0
 40
18.0
 40
18.0
 40
19.0
 40
19.0
 40
19.0
 40
19.0
 10
98.86597219750573
 20
-137.0824241323958
 30
0.0
 10
99.30764997517323
 20
-137.0824241323958
 30
0.0
 10
99.66592856842144
 20
-137.4407052434176
 30
0.0
 10
99.66592856842144
 20
-137.882383021085
 30
0.0
 10
99.66592856842144
 20
-137.882383021085
 30
0.0
 10
91.86622376740848
 20
-137.8810071877522
 30
0.0
 10
91.86622376740848
 20
-137.8810071877522
 30
0.0
 10
91.86622376740848
 20
-137.8810071877522
 30
0.0
 10
91.66641043917282
 20
-137.6808410766911
 30
0.0
 10
91.66641043917282
 20
-137.6808410766911
 30
0.0
 10
91.66641043917282
 20
-137.6808410766911
 30
0.0
 10
91.46659711093714
 20
-137.8810071877522
 30
0.0
 10
91.46659711093714
 20
-137.8810071877522
 30
0.0
 10
91.46659711093714
 20
-137.8810071877522
 30
0.0
 10
84.86855922371156
 20
-137.8820302433073
 30
0.0
 10
84.86855922371156
 20
-137.8820302433073
 30
0.0
 10
84.86855922371156
 20
-137.8820302433073
 30
0.0
 10
84.66839311770711
 20
-137.6818641322463
 30
0.0
 10
84.66839311770711
 20
-137.6818641322463
 30
0.0
 10
84.66839311770711
 20
-137.6818641322463
 30
0.0
 10
84.46857978947145
 20
-137.8820302433073
 30
0.0
 10
84.46857978947145
 20
-137.8820302433073
 30
0.0
 10
84.46857978947145
 20
-137.8820302433073
 30
0.0
 10
84.46339395627041
 20
-137.8820302433073
 30
0.0
 10
84.46339395627041
 20
-137.8820302433073
 30
0.0
 10
84.0065820234802
 20
-137.7900257988858
 30
0.0
 10
83.66205925449194
 20
-137.38627163232
 30
0.0
 10
83.66205925449194
 20
-136.8740030213368
 30
0.0
 10
83.66205925449194
 20
-136.8740030213368
 30
0.0
 10
83.66205925449194
 20
-118.8830066369461
 30
0.0
 10
83.66205925449194
 20
-118.8830066369461
 30
0.0
 10
84.21468562928216
 20
-118.9107349702724
 30
0.0
 10
84.56400831219227
 20
-119.2948746923985
 30
0.0
 10
84.65735117354437
 20
-119.8092246922701
 30
0.0
 10
84.65735117354437
 20
-119.8092246922701
 30
0.0
 10
84.65735117354437
 20
-125.8801774685301
 30
0.0
 10
84.65735117354437
 20
-125.8801774685301
 30
0.0
 10
84.65735117354437
 20
-125.8801774685301
 30
0.0
 10
90.71623879674705
 20
-125.8801774685301
 30
0.0
 10
90.71623879674705
 20
-125.8801774685301
 30
0.0
 10
91.2681596159997
 20
-125.8801774685301
 30
0.0
 10
91.66570488363526
 20
-126.3314860795281
 30
0.0
 10
91.66570488363526
 20
-126.8840771905013
 30
0.0
 10
91.66570488363526
 20
-126.8840771905013
 30
0.0
 10
84.66596108994447
 20
-126.8840771905013
 30
0.0
 10
84.66596108994447
 20
-126.8840771905013
 30
0.0
 10
84.66596108994447
 20
-126.8840771905013
 30
0.0
 10
84.66596108994447
 20
-136.8826107991125
 30
0.0
 10
84.66596108994447
 20
-136.8826107991125
 30
0.0
 10
84.66596108994447
 20
-136.8826107991125
 30
0.0
 10
91.66570488363526
 20
-136.8826107991125
 30
0.0
 10
91.66570488363526
 20
-136.8826107991125
 30
0.0
 10
91.66570488363526
 20
-136.8826107991125
 30
0.0
 10
92.01230904145932
 20
-137.0824241323958
 30
0.0
 10
92.01230904145932
 20
-137.0824241323958
 30
0.0
 10
92.01230904145932
 20
-137.0824241323958
 30
0.0
 10
98.86597219750573
 20
-137.0824241323958
 30
0.0
 10
98.86597219750573
 20
-137.0824241323958
 30
0.0
  0
SPLINE
  5
44
330
1F
100
AcDbEntity
  8
_U+30EC_U+30A4_U+30E4_U+30FC 1
 62
     7
420
 16777215
370
     9
100
AcDbSpline
210
0.0
220
0.0
230
1.0
 70
    11
 71
     3
 72
    17
 73
    13
 74
     0
 42
0.0000000001
 43
0.0000000001
 12
1.0
 22
0.0
 32
0.0
 13
1.0
 23
0.0
 33
0.0
 40
0.0
 40
0.0
 40
0.0
 40
0.0
 40
1.0
 40
1.0
 40
1.0
 40
2.0
 40
2.0
 40
2.0
 40
3.0
 40
3.0
 40
3.0
 40
4.0
 40
4.0
 40
4.0
 40
4.0
 10
91.76631942150287
 20
-116.7060502486014
 30
0.0
 10
91.76631942150287
 20
-116.6509463597261
 30
0.0
 10
91.72151664373615
 20
-116.6061435819594
 30
0.0
 10
91.66641043917282
 20
-116.6061435819594
 30
0.0
 10
91.61060099615219
 20
-116.6061435819594
 30
0.0
 10
91.56579821951743
 20
-116.6509463597261
 30
0.0
 10
91.56579821951743
 20
-116.7060502486014
 30
0.0
 10
91.56579821951743
 20
-116.7611894152541
 30
0.0
 10
91.61060099615219
 20
-116.805956915243
 30
0.0
 10
91.66641043917282
 20
-116.805956915243
 30
0.0
 10
91.72151664373615
 20
-116.805956915243
 30
0.0
 10
91.76631942150287
 20
-116.7611894152541
 30
0.0
 10
91.76631942150287
 20
-116.7060502486014
 30
0.0
  0
SPLINE
  5
45
330
1F
100
AcDbEntity
  8
_U+30EC_U+30A4_U+30E4_U+30FC 1
 62
     7
420
 16777215
370
     9
100
AcDbSpline
210
0.0
220
0.0
230
1.0
 70
    11
 71
     3
 72
    17
 73
    13
 74
     0
 42
0.0000000001
 43
0.0000000001
 12
1.0
 22
0.0
 32
0.0
 13
1.0
 23
0.0
 33
0.0
 40
0.0
 40
0.0
 40
0.0
 40
0.0
 40
1.0
 40
1.0
 40
1.0
 40
2.0
 40
2.0
 40
2.0
 40
3.0
 40
3.0
 40
3.0
 40
4.0
 40
4.0
 40
4.0
 40
4.0
 10
84.7651953374597
 20
-116.7060502486014
 30
0.0
 10
84.7651953374597
 20
-116.6509463597261
 30
0.0
 10
84.72039256082493
 20
-116.6061435819594
 30
0.0
 10
84.66528867334186
 20
-116.6061435819594
 30
0.0
 10
84.61014950808192
 20
-116.6061435819594
 30
0.0
 10
84.56538200922404
 20
-116.6509463597261
 30
0.0
 10
84.56538200922404
 20
-116.7060502486014
 30
0.0
 10
84.56538200922404
 20
-116.7611894152541
 30
0.0
 10
84.61014950808192
 20
-116.805956915243
 30
0.0
 10
84.66528867334186
 20
-116.805956915243
 30
0.0
 10
84.72039256082493
 20
-116.805956915243
 30
0.0
 10
84.7651953374597
 20
-116.7611894152541
 30
0.0
 10
84.7651953374597
 20
-116.7060502486014
 30
0.0
  0
POLYLINE
  5
46
330
1F
100
AcDbEntity
  8
_U+30EC_U+30A4_U+30E4_U+30FC 1
 62
     7
420
 16777215
370
     9
100
AcDb2dPolyline
 66
     1
 10
0.0
 20
0.0
 30
0.0
  0
VERTEX
  5
47
330
46
100
AcDbEntity
  8
_U+30EC_U+30A4_U+30E4_U+30FC 1
 62
     7
420
 16777215
370
     9
100
AcDbVertex
100
AcDb2dVertex
 10
84.66528867334186
 20
-118.3092135815338
 30
0.0
  0
VERTEX
  5
48
330
46
100
AcDbEntity
  8
_U+30EC_U+30A4_U+30E4_U+30FC 1
 62
     7
420
 16777215
370
     9
100
AcDbVertex
100
AcDb2dVertex
 10
84.66528867334186
 20
-115.7062780266292
 30
0.0
  0
SEQEND
  5
49
330
46
100
AcDbEntity
  8
_U+30EC_U+30A4_U+30E4_U+30FC 1
 62
     7
420
 16777215
370
     9
  0
POLYLINE
  5
4A
330
1F
100
AcDbEntity
  8
_U+30EC_U+30A4_U+30E4_U+30FC 1
 62
     7
420
 16777215
370
     9
100
AcDb2dPolyline
 66
     1
 10
0.0
 20
0.0
 30
0.0
  0
VERTEX
  5
4B
330
4A
100
AcDbEntity
  8
_U+30EC_U+30A4_U+30E4_U+30FC 1
 62
     7
420
 16777215
370
     9
100
AcDbVertex
100
AcDb2dVertex
 10
84.66596108994447
 20
-116.7060502486014
 30
0.0
  0
VERTEX
  5
4C
330
4A
100
AcDbEntity
  8
_U+30EC_U+30A4_U+30E4_U+30FC 1
 62
     7
420
 16777215
370
     9
100
AcDbVertex
100
AcDb2dVertex
 10
91.66570488363526
 20
-116.7060502486014
 30
0.0
  0
SEQEND
  5
4D
330
4A
100
AcDbEntity
  8
_U+30EC_U+30A4_U+30E4_U+30FC 1
 62
     7
420
 16777215
370
     9
  0
POLYLINE
  5
4E
330
1F
100
AcDbEntity
  8
_U+30EC_U+30A4_U+30E4_U+30FC 1
 62
     7
420
 16777215
370
     9
100
AcDb2dPolyline
 66
     1
 10
0.0
 20
0.0
 30
0.0
  0
VERTEX
  5
4F
330
4E
100
AcDbEntity
  8
_U+30EC_U+30A4_U+30E4_U+30FC 1
 62
     7
420
 16777215
370
     9
100
AcDbVertex
100
AcDb2dVertex
 10
91.66641043917282
 20
-124.3829180244599
 30
0.0
  0
VERTEX
  5
50
330
4E
100
AcDbEntity
  8
_U+30EC_U+30A4_U+30E4_U+30FC 1
 62
     7
420
 16777215
370
     9
100
AcDbVertex
100
AcDb2dVertex
 10
91.66641043917282
 20
-115.7062780266292
 30
0.0
  0
SEQEND
  5
51
330
4E
100
AcDbEntity
  8
_U+30EC_U+30A4_U+30E4_U+30FC 1
 62
     7
420
 16777215
370
     9
  0
INSERT
  5
53
330
1F
100
AcDbEntity
  8
_U+30EC_U+30A4_U+30E4_U+30FC 1
100
AcDbBlockReference
  2
block 2
 10
0.0
 20
0.0
 30
0.0
  0
SPLINE
  5
58
330
1F
100
AcDbEntity
  8
_U+30EC_U+30A4_U+30E4_U+30FC 1
 62
     7
420
 16777215
370
     9
100
AcDbSpline
210
0.0
220
0.0
230
1.0
 70
    11
 71
     3
 72
    17
 73
    13
 74
     0
 42
0.0000000001
 43
0.0000000001
 12
1.0
 22
0.0
 32
0.0
 13
1.0
 23
0.0
 33
0.0
 40
0.0
 40
0.0
 40
0.0
 40
0.0
 40
1.0
 40
1.0
 40
1.0
 40
2.0
 40
2.0
 40
2.0
 40
3.0
 40
3.0
 40
3.0
 40
4.0
 40
4.0
 40
4.0
 40
4.0
 10
83.76612869628136
 20
-122.8817427470575
 30
0.0
 10
83.76612869628136
 20
-122.8266035804044
 30
0.0
 10
83.72132591964659
 20
-122.7818360804155
 30
0.0
 10
83.66551647662595
 20
-122.7818360804155
 30
0.0
 10
83.61041258914288
 20
-122.7818360804155
 30
0.0
 10
83.56560981250813
 20
-122.8266035804044
 30
0.0
 10
83.56560981250813
 20
-122.8817427470575
 30
0.0
 10
83.56560981250813
 20
-122.9368466359324
 30
0.0
 10
83.61041258914288
 20
-122.9816494136991
 30
0.0
 10
83.66551647662595
 20
-122.9816494136991
 30
0.0
 10
83.72132591964659
 20
-122.9816494136991
 30
0.0
 10
83.76612869628136
 20
-122.9368466359324
 30
0.0
 10
83.76612869628136
 20
-122.8817427470575
 30
0.0
  0
SPLINE
  5
59
330
1F
100
AcDbEntity
  8
_U+30EC_U+30A4_U+30E4_U+30FC 1
 62
     7
420
 16777215
370
     9
100
AcDbSpline
210
0.0
220
0.0
230
1.0
 70
    11
 71
     3
 72
    17
 73
    13
 74
     0
 42
0.0000000001
 43
0.0000000001
 12
1.0
 22
0.0
 32
0.0
 13
1.0
 23
0.0
 33
0.0
 40
0.0
 40
0.0
 40
0.0
 40
0.0
 40
1.0
 40
1.0
 40
1.0
 40
2.0
 40
2.0
 40
2.0
 40
3.0
 40
3.0
 40
3.0
 40
4.0
 40
4.0
 40
4.0
 40
4.0
 10
84.76590089299727
 20
-122.8817427470575
 30
0.0
 10
84.76590089299727
 20
-122.8266035804044
 30
0.0
 10
84.7210981163625
 20
-122.7818360804155
 30
0.0
 10
84.66596108994447
 20
-122.7818360804155
 30
0.0
 10
84.61085506361947
 20
-122.7818360804155
 30
0.0
 10
84.56605228698471
 20
-122.8266035804044
 30
0.0
 10
84.56605228698471
 20
-122.8817427470575
 30
0.0
 10
84.56605228698471
 20
-122.9368466359324
 30
0.0
 10
84.61085506361947
 20
-122.9816494136991
 30
0.0
 10
84.66596108994447
 20
-122.9816494136991
 30
0.0
 10
84.7210981163625
 20
-122.9816494136991
 30
0.0
 10
84.76590089299727
 20
-122.9368466359324
 30
0.0
 10
84.76590089299727
 20
-122.8817427470575
 30
0.0
  0
SPLINE
  5
5A
330
1F
100
AcDbEntity
  8
_U+30EC_U+30A4_U+30E4_U+30FC 1
 62
     7
420
 16777215
370
     9
100
AcDbSpline
210
0.0
220
0.0
230
1.0
 70
    11
 71
     3
 72
    17
 73
    13
 74
     0
 42
0.0000000001
 43
0.0000000001
 12
1.0
 22
0.0
 32
0.0
 13
1.0
 23
0.0
 33
0.0
 40
0.0
 40
0.0
 40
0.0
 40
0.0
 40
1.0
 40
1.0
 40
1.0
 40
2.0
 40
2.0
 40
2.0
 40
3.0
 40
3.0
 40
3.0
 40
4.0
 40
4.0
 40
4.0
 40
4.0
 10
99.76583523253927
 20
-141.8835180200848
 30
0.0
 10
99.76583523253927
 20
-141.8283788534318
 30
0.0
 10
99.7210324559045
 20
-141.7836113534432
 30
0.0
 10
99.66592856842144
 20
-141.7836113534432
 30
0.0
 10
99.61078940316149
 20
-141.7836113534432
 30
0.0
 10
99.56602190430361
 20
-141.8283788534318
 30
0.0
 10
99.56602190430361
 20
-141.8835180200848
 30
0.0
 10
99.56602190430361
 20
-141.9386219089597
 30
0.0
 10
99.61078940316149
 20
-141.9834246867265
 30
0.0
 10
99.66592856842144
 20
-141.9834246867265
 30
0.0
 10
99.7210324559045
 20
-141.9834246867265
 30
0.0
 10
99.76583523253927
 20
-141.9386219089597
 30
0.0
 10
99.76583523253927
 20
-141.8835180200848
 30
0.0
  0
SPLINE
  5
5B
330
1F
100
AcDbEntity
  8
_U+30EC_U+30A4_U+30E4_U+30FC 1
 62
     7
420
 16777215
370
     9
100
AcDbSpline
210
0.0
220
0.0
230
1.0
 70
    11
 71
     3
 72
    17
 73
    13
 74
     0
 42
0.0000000001
 43
0.0000000001
 12
1.0
 22
0.0
 32
0.0
 13
1.0
 23
0.0
 33
0.0
 40
0.0
 40
0.0
 40
0.0
 40
0.0
 40
1.0
 40
1.0
 40
1.0
 40
2.0
 40
2.0
 40
2.0
 40
3.0
 40
3.0
 40
3.0
 40
4.0
 40
4.0
 40
4.0
 40
4.0
 10
83.76612869628136
 20
-141.8835180200848
 30
0.0
 10
83.76612869628136
 20
-141.8283788534318
 30
0.0
 10
83.72132591964659
 20
-141.7836113534432
 30
0.0
 10
83.66551647662595
 20
-141.7836113534432
 30
0.0
 10
83.61041258914288
 20
-141.7836113534432
 30
0.0
 10
83.56560981250813
 20
-141.8283788534318
 30
0.0
 10
83.56560981250813
 20
-141.8835180200848
 30
0.0
 10
83.56560981250813
 20
-141.9386219089597
 30
0.0
 10
83.61041258914288
 20
-141.9834246867265
 30
0.0
 10
83.66551647662595
 20
-141.9834246867265
 30
0.0
 10
83.72132591964659
 20
-141.9834246867265
 30
0.0
 10
83.76612869628136
 20
-141.9386219089597
 30
0.0
 10
83.76612869628136
 20
-141.8835180200848
 30
0.0
  0
SPLINE
  5
5C
330
1F
100
AcDbEntity
  8
_U+30EC_U+30A4_U+30E4_U+30FC 1
 62
     7
420
 16777215
370
     9
100
AcDbSpline
210
0.0
220
0.0
230
1.0
 70
    11
 71
     3
 72
    17
 73
    13
 74
     0
 42
0.0000000001
 43
0.0000000001
 12
1.0
 22
0.0
 32
0.0
 13
1.0
 23
0.0
 33
0.0
 40
0.0
 40
0.0
 40
0.0
 40
0.0
 40
1.0
 40
1.0
 40
1.0
 40
2.0
 40
2.0
 40
2.0
 40
3.0
 40
3.0
 40
3.0
 40
4.0
 40
4.0
 40
4.0
 40
4.0
 10
79.76566407611948
 20
-118.8819835813906
 30
0.0
 10
79.76566407611948
 20
-118.8268444147379
 30
0.0
 10
79.7208965772616
 20
-118.782076914749
 30
0.0
 10
79.66575741200165
 20
-118.782076914749
 30
0.0
 10
79.61065553565278
 20
-118.782076914749
 30
0.0
 10
79.56585275788638
 20
-118.8268444147379
 30
0.0
 10
79.56585275788638
 20
-118.8819835813906
 30
0.0
 10
79.56585275788638
 20
-118.9370874702659
 30
0.0
 10
79.61065553565278
 20
-118.9818902480323
 30
0.0
 10
79.66575741200165
 20
-118.9818902480323
 30
0.0
 10
79.7208965772616
 20
-118.9818902480323
 30
0.0
 10
79.76566407611948
 20
-118.9370874702659
 30
0.0
 10
79.76566407611948
 20
-118.8819835813906
 30
0.0
  0
SPLINE
  5
5D
330
1F
100
AcDbEntity
  8
_U+30EC_U+30A4_U+30E4_U+30FC 1
 62
     7
420
 16777215
370
     9
100
AcDbSpline
210
0.0
220
0.0
230
1.0
 70
    11
 71
     3
 72
    17
 73
    13
 74
     0
 42
0.0000000001
 43
0.0000000001
 12
1.0
 22
0.0
 32
0.0
 13
1.0
 23
0.0
 33
0.0
 40
0.0
 40
0.0
 40
0.0
 40
0.0
 40
1.0
 40
1.0
 40
1.0
 40
2.0
 40
2.0
 40
2.0
 40
3.0
 40
3.0
 40
3.0
 40
4.0
 40
4.0
 40
4.0
 40
4.0
 10
79.76566407611948
 20
-137.8834060766402
 30
0.0
 10
79.76566407611948
 20
-137.8282669099871
 30
0.0
 10
79.7208965772616
 20
-137.7834994099985
 30
0.0
 10
79.66575741200165
 20
-137.7834994099985
 30
0.0
 10
79.61065553565278
 20
-137.7834994099985
 30
0.0
 10
79.56585275788638
 20
-137.8282669099871
 30
0.0
 10
79.56585275788638
 20
-137.8834060766402
 30
0.0
 10
79.56585275788638
 20
-137.9392155210706
 30
0.0
 10
79.61065553565278
 20
-137.9839830210598
 30
0.0
 10
79.66575741200165
 20
-137.9839830210598
 30
0.0
 10
79.7208965772616
 20
-137.9839830210598
 30
0.0
 10
79.76566407611948
 20
-137.9392155210706
 30
0.0
 10
79.76566407611948
 20
-137.8834060766402
 30
0.0
  0
SPLINE
  5
5E
330
1F
100
AcDbEntity
  8
_U+30EC_U+30A4_U+30E4_U+30FC 1
 62
     7
420
 16777215
370
     9
100
AcDbSpline
210
0.0
220
0.0
230
1.0
 70
    11
 71
     3
 72
    17
 73
    13
 74
     0
 42
0.0000000001
 43
0.0000000001
 12
1.0
 22
0.0
 32
0.0
 13
1.0
 23
0.0
 33
0.0
 40
0.0
 40
0.0
 40
0.0
 40
0.0
 40
1.0
 40
1.0
 40
1.0
 40
2.0
 40
2.0
 40
2.0
 40
3.0
 40
3.0
 40
3.0
 40
4.0
 40
4.0
 40
4.0
 40
4.0
 10
103.7655942971636
 20
-118.8819835813906
 30
0.0
 10
103.7655942971636
 20
-118.8268444147379
 30
0.0
 10
103.7207915205288
 20
-118.782076914749
 30
0.0
 10
103.6656876330457
 20
-118.782076914749
 30
0.0
 10
103.6105484677858
 20
-118.782076914749
 30
0.0
 10
103.5657809689279
 20
-118.8268444147379
 30
0.0
 10
103.5657809689279
 20
-118.8819835813906
 30
0.0
 10
103.5657809689279
 20
-118.9370874702659
 30
0.0
 10
103.6105484677858
 20
-118.9818902480323
 30
0.0
 10
103.6656876330457
 20
-118.9818902480323
 30
0.0
 10
103.7207915205288
 20
-118.9818902480323
 30
0.0
 10
103.7655942971636
 20
-118.9370874702659
 30
0.0
 10
103.7655942971636
 20
-118.8819835813906
 30
0.0
  0
SPLINE
  5
5F
330
1F
100
AcDbEntity
  8
_U+30EC_U+30A4_U+30E4_U+30FC 1
 62
     7
420
 16777215
370
     9
100
AcDbSpline
210
0.0
220
0.0
230
1.0
 70
    11
 71
     3
 72
    17
 73
    13
 74
     0
 42
0.0000000001
 43
0.0000000001
 12
1.0
 22
0.0
 32
0.0
 13
1.0
 23
0.0
 33
0.0
 40
0.0
 40
0.0
 40
0.0
 40
0.0
 40
1.0
 40
1.0
 40
1.0
 40
2.0
 40
2.0
 40
2.0
 40
3.0
 40
3.0
 40
3.0
 40
4.0
 40
4.0
 40
4.0
 40
4.0
 10
103.7655942971636
 20
-136.8836338546683
 30
0.0
 10
103.7655942971636
 20
-136.8285299657927
 30
0.0
 10
103.7207915205288
 20
-136.783727188026
 30
0.0
 10
103.6656876330457
 20
-136.783727188026
 30
0.0
 10
103.6105484677858
 20
-136.783727188026
 30
0.0
 10
103.5657809689279
 20
-136.8285299657927
 30
0.0
 10
103.5657809689279
 20
-136.8836338546683
 30
0.0
 10
103.5657809689279
 20
-136.9387730213207
 30
0.0
 10
103.6105484677858
 20
-136.9835405213099
 30
0.0
 10
103.6656876330457
 20
-136.9835405213099
 30
0.0
 10
103.7207915205288
 20
-136.9835405213099
 30
0.0
 10
103.7655942971636
 20
-136.9387730213207
 30
0.0
 10
103.7655942971636
 20
-136.8836338546683
 30
0.0
  0
POLYLINE
  5
60
330
1F
100
AcDbEntity
  8
_U+30EC_U+30A4_U+30E4_U+30FC 1
 62
     7
420
 16777215
370
     9
100
AcDb2dPolyline
 66
     1
 10
0.0
 20
0.0
 30
0.0
  0
VERTEX
  5
61
330
60
100
AcDbEntity
  8
_U+30EC_U+30A4_U+30E4_U+30FC 1
 62
     7
420
 16777215
370
     9
100
AcDbVertex
100
AcDb2dVertex
 10
84.66596108994447
 20
-122.8817427470575
 30
0.0
  0
VERTEX
  5
62
330
60
100
AcDbEntity
  8
_U+30EC_U+30A4_U+30E4_U+30FC 1
 62
     7
420
 16777215
370
     9
100
AcDbVertex
100
AcDb2dVertex
 10
88.43627135491387
 20
-122.8817427470575
 30
0.0
  0
SEQEND
  5
63
330
60
100
AcDbEntity
  8
_U+30EC_U+30A4_U+30E4_U+30FC 1
 62
     7
420
 16777215
370
     9
  0
POLYLINE
  5
64
330
1F
100
AcDbEntity
  8
_U+30EC_U+30A4_U+30E4_U+30FC 1
 62
     7
420
 16777215
370
     9
100
AcDb2dPolyline
 66
     1
 10
0.0
 20
0.0
 30
0.0
  0
VERTEX
  5
65
330
64
100
AcDbEntity
  8
_U+30EC_U+30A4_U+30E4_U+30FC 1
 62
     7
420
 16777215
370
     9
100
AcDbVertex
100
AcDb2dVertex
 10
82.66574427991006
 20
-122.8817427470575
 30
0.0
  0
VERTEX
  5
66
330
64
100
AcDbEntity
  8
_U+30EC_U+30A4_U+30E4_U+30FC 1
 62
     7
420
 16777215
370
     9
100
AcDbVertex
100
AcDb2dVertex
 10
84.66596108994447
 20
-122.8817427470575
 30
0.0
  0
SEQEND
  5
67
330
64
100
AcDbEntity
  8
_U+30EC_U+30A4_U+30E4_U+30FC 1
 62
     7
420
 16777215
370
     9
  0
INSERT
  5
69
330
1F
100
AcDbEntity
  8
_U+30EC_U+30A4_U+30E4_U+30FC 1
100
AcDbBlockReference
  2
block 3
 10
0.0
 20
0.0
 30
0.0
  0
POLYLINE
  5
6E
330
1F
100
AcDbEntity
  8
_U+30EC_U+30A4_U+30E4_U+30FC 1
 62
     7
420
 16777215
370
     9
100
AcDb2dPolyline
 66
     1
 10
0.0
 20
0.0
 30
0.0
  0
VERTEX
  5
6F
330
6E
100
AcDbEntity
  8
_U+30EC_U+30A4_U+30E4_U+30FC 1
 62
     7
420
 16777215
370
     9
100
AcDbVertex
100
AcDb2dVertex
 10
97.20544719792075
 20
-136.8836338546683
 30
0.0
  0
VERTEX
  5
70
330
6E
100
AcDbEntity
  8
_U+30EC_U+30A4_U+30E4_U+30FC 1
 62
     7
420
 16777215
370
     9
100
AcDbVertex
100
AcDb2dVertex
 10
104.6654598297617
 20
-136.8836338546683
 30
0.0
  0
SEQEND
  5
71
330
6E
100
AcDbEntity
  8
_U+30EC_U+30A4_U+30E4_U+30FC 1
 62
     7
420
 16777215
370
     9
  0
SPLINE
  5
72
330
1F
100
AcDbEntity
  8
_U+30EC_U+30A4_U+30E4_U+30FC 1
 62
     7
420
 16777215
370
     9
100
AcDbSpline
210
0.0
220
0.0
230
1.0
 70
    11
 71
     3
 72
    17
 73
    13
 74
     0
 42
0.0000000001
 43
0.0000000001
 12
1.0
 22
0.0
 32
0.0
 13
1.0
 23
0.0
 33
0.0
 40
0.0
 40
0.0
 40
0.0
 40
0.0
 40
1.0
 40
1.0
 40
1.0
 40
2.0
 40
2.0
 40
2.0
 40
3.0
 40
3.0
 40
3.0
 40
4.0
 40
4.0
 40
4.0
 40
4.0
 10
103.7655942971636
 20
-126.8804435793911
 30
0.0
 10
103.7655942971636
 20
-126.8246341349607
 30
0.0
 10
103.7207915205288
 20
-126.7798666349718
 30
0.0
 10
103.6656876330457
 20
-126.7798666349718
 30
0.0
 10
103.6105484677858
 20
-126.7798666349718
 30
0.0
 10
103.5657809689279
 20
-126.8246341349607
 30
0.0
 10
103.5657809689279
 20
-126.8804435793911
 30
0.0
 10
103.5657809689279
 20
-126.9355827460438
 30
0.0
 10
103.6105484677858
 20
-126.9803502460327
 30
0.0
 10
103.6656876330457
 20
-126.9803502460327
 30
0.0
 10
103.7207915205288
 20
-126.9803502460327
 30
0.0
 10
103.7655942971636
 20
-126.9355827460438
 30
0.0
 10
103.7655942971636
 20
-126.8804435793911
 30
0.0
  0
POLYLINE
  5
73
330
1F
100
AcDbEntity
  8
_U+30EC_U+30A4_U+30E4_U+30FC 1
 62
     7
420
 16777215
370
     9
100
AcDb2dPolyline
 66
     1
 10
0.0
 20
0.0
 30
0.0
  0
VERTEX
  5
74
330
73
100
AcDbEntity
  8
_U+30EC_U+30A4_U+30E4_U+30FC 1
 62
     7
420
 16777215
370
     9
100
AcDbVertex
100
AcDb2dVertex
 10
97.19440279814198
 20
-126.8804435793911
 30
0.0
  0
VERTEX
  5
75
330
73
100
AcDbEntity
  8
_U+30EC_U+30A4_U+30E4_U+30FC 1
 62
     7
420
 16777215
370
     9
100
AcDbVertex
100
AcDb2dVertex
 10
104.6654598297617
 20
-126.8804435793911
 30
0.0
  0
SEQEND
  5
76
330
73
100
AcDbEntity
  8
_U+30EC_U+30A4_U+30E4_U+30FC 1
 62
     7
420
 16777215
370
     9
  0
SPLINE
  5
77
330
1F
100
AcDbEntity
  8
_U+30EC_U+30A4_U+30E4_U+30FC 1
 62
     7
420
 16777215
370
     9
100
AcDbSpline
210
0.0
220
0.0
230
1.0
 70
    11
 71
     3
 72
    17
 73
    13
 74
     0
 42
0.0000000001
 43
0.0000000001
 12
1.0
 22
0.0
 32
0.0
 13
1.0
 23
0.0
 33
0.0
 40
0.0
 40
0.0
 40
0.0
 40
0.0
 40
1.0
 40
1.0
 40
1.0
 40
2.0
 40
2.0
 40
2.0
 40
3.0
 40
3.0
 40
3.0
 40
4.0
 40
4.0
 40
4.0
 40
4.0
 10
103.7655942971636
 20
-125.8800010796412
 30
0.0
 10
103.7655942971636
 20
-125.8248619129881
 30
0.0
 10
103.7207915205288
 20
-125.7800944129996
 30
0.0
 10
103.6656876330457
 20
-125.7800944129996
 30
0.0
 10
103.6105484677858
 20
-125.7800944129996
 30
0.0
 10
103.5657809689279
 20
-125.8248619129881
 30
0.0
 10
103.5657809689279
 20
-125.8800010796412
 30
0.0
 10
103.5657809689279
 20
-125.9351049685161
 30
0.0
 10
103.6105484677858
 20
-125.9799077462828
 30
0.0
 10
103.6656876330457
 20
-125.9799077462828
 30
0.0
 10
103.7207915205288
 20
-125.9799077462828
 30
0.0
 10
103.7655942971636
 20
-125.9351049685161
 30
0.0
 10
103.7655942971636
 20
-125.8800010796412
 30
0.0
  0
POLYLINE
  5
78
330
1F
100
AcDbEntity
  8
_U+30EC_U+30A4_U+30E4_U+30FC 1
 62
     7
420
 16777215
370
     9
100
AcDb2dPolyline
 66
     1
 10
0.0
 20
0.0
 30
0.0
  0
VERTEX
  5
79
330
78
100
AcDbEntity
  8
_U+30EC_U+30A4_U+30E4_U+30FC 1
 62
     7
420
 16777215
370
     9
100
AcDbVertex
100
AcDb2dVertex
 10
97.19440279814198
 20
-125.8837758018624
 30
0.0
  0
VERTEX
  5
7A
330
78
100
AcDbEntity
  8
_U+30EC_U+30A4_U+30E4_U+30FC 1
 62
     7
420
 16777215
370
     9
100
AcDbVertex
100
AcDb2dVertex
 10
104.6654598297617
 20
-125.8837758018624
 30
0.0
  0
SEQEND
  5
7B
330
78
100
AcDbEntity
  8
_U+30EC_U+30A4_U+30E4_U+30FC 1
 62
     7
420
 16777215
370
     9
  0
INSERT
  5
7D
330
1F
100
AcDbEntity
  8
_U+30EC_U+30A4_U+30E4_U+30FC 1
100
AcDbBlockReference
  2
block 4
 10
0.0
 20
0.0
 30
0.0
  0
POLYLINE
  5
85
330
1F
100
AcDbEntity
  8
_U+30EC_U+30A4_U+30E4_U+30FC 1
 62
     7
420
 16777215
370
     9
100
AcDb2dPolyline
 66
     1
 10
0.0
 20
0.0
 30
0.0
  0
VERTEX
  5
86
330
85
100
AcDbEntity
  8
_U+30EC_U+30A4_U+30E4_U+30FC 1
 62
     7
420
 16777215
370
     9
100
AcDbVertex
100
AcDb2dVertex
 10
103.6656876330457
 20
-126.8804435793911
 30
0.0
  0
VERTEX
  5
87
330
85
100
AcDbEntity
  8
_U+30EC_U+30A4_U+30E4_U+30FC 1
 62
     7
420
 16777215
370
     9
100
AcDbVertex
100
AcDb2dVertex
 10
103.6656876330457
 20
-125.8805302463075
 30
0.0
  0
SEQEND
  5
88
330
85
100
AcDbEntity
  8
_U+30EC_U+30A4_U+30E4_U+30FC 1
 62
     7
420
 16777215
370
     9
  0
POLYLINE
  5
89
330
1F
100
AcDbEntity
  8
_U+30EC_U+30A4_U+30E4_U+30FC 1
 62
     7
420
 16777215
370
     9
100
AcDb2dPolyline
 66
     1
 10
0.0
 20
0.0
 30
0.0
  0
VERTEX
  5
8A
330
89
100
AcDbEntity
  8
_U+30EC_U+30A4_U+30E4_U+30FC 1
 62
     7
420
 16777215
370
     9
100
AcDbVertex
100
AcDb2dVertex
 10
103.6656876330457
 20
-125.8805302463075
 30
0.0
  0
VERTEX
  5
8B
330
89
100
AcDbEntity
  8
_U+30EC_U+30A4_U+30E4_U+30FC 1
 62
     7
420
 16777215
370
     9
100
AcDbVertex
100
AcDb2dVertex
 10
103.6656876330457
 20
-118.8806077480577
 30
0.0
  0
SEQEND
  5
8C
330
89
100
AcDbEntity
  8
_U+30EC_U+30A4_U+30E4_U+30FC 1
 62
     7
420
 16777215
370
     9
  0
POLYLINE
  5
8D
330
1F
100
AcDbEntity
  8
_U+30EC_U+30A4_U+30E4_U+30FC 1
 62
     7
420
 16777215
370
     9
100
AcDb2dPolyline
 66
     1
 10
0.0
 20
0.0
 30
0.0
  0
VERTEX
  5
8E
330
8D
100
AcDbEntity
  8
_U+30EC_U+30A4_U+30E4_U+30FC 1
 62
     7
420
 16777215
370
     9
100
AcDbVertex
100
AcDb2dVertex
 10
86.2059397451477
 20
-118.8819835813906
 30
0.0
  0
VERTEX
  5
8F
330
8D
100
AcDbEntity
  8
_U+30EC_U+30A4_U+30E4_U+30FC 1
 62
     7
420
 16777215
370
     9
100
AcDbVertex
100
AcDb2dVertex
 10
104.6654598297617
 20
-118.8819835813906
 30
0.0
  0
SEQEND
  5
90
330
8D
100
AcDbEntity
  8
_U+30EC_U+30A4_U+30E4_U+30FC 1
 62
     7
420
 16777215
370
     9
  0
INSERT
  5
92
330
1F
100
AcDbEntity
  8
_U+30EC_U+30A4_U+30E4_U+30FC 1
100
AcDbBlockReference
  2
block 5
 10
0.0
 20
0.0
 30
0.0
  0
POLYLINE
  5
97
330
1F
100
AcDbEntity
  8
_U+30EC_U+30A4_U+30E4_U+30FC 1
 62
     7
420
 16777215
370
     9
100
AcDb2dPolyline
 66
     1
 10
0.0
 20
0.0
 30
0.0
  0
VERTEX
  5
98
330
97
100
AcDbEntity
  8
_U+30EC_U+30A4_U+30E4_U+30FC 1
 62
     7
420
 16777215
370
     9
100
AcDbVertex
100
AcDb2dVertex
 10
79.66575741200165
 20
-137.8830532988624
 30
0.0
  0
VERTEX
  5
99
330
97
100
AcDbEntity
  8
_U+30EC_U+30A4_U+30E4_U+30FC 1
 62
     7
420
 16777215
370
     9
100
AcDbVertex
100
AcDb2dVertex
 10
79.66575741200165
 20
-118.8830066369461
 30
0.0
  0
SEQEND
  5
9A
330
97
100
AcDbEntity
  8
_U+30EC_U+30A4_U+30E4_U+30FC 1
 62
     7
420
 16777215
370
     9
  0
POLYLINE
  5
9B
330
1F
100
AcDbEntity
  8
_U+30EC_U+30A4_U+30E4_U+30FC 1
 62
     7
420
 16777215
370
     9
100
AcDb2dPolyline
 66
     1
 10
0.0
 20
0.0
 30
0.0
  0
VERTEX
  5
9C
330
9B
100
AcDbEntity
  8
_U+30EC_U+30A4_U+30E4_U+30FC 1
 62
     7
420
 16777215
370
     9
100
AcDbVertex
100
AcDb2dVertex
 10
82.12557096035769
 20
-137.8834060766402
 30
0.0
  0
VERTEX
  5
9D
330
9B
100
AcDbEntity
  8
_U+30EC_U+30A4_U+30E4_U+30FC 1
 62
     7
420
 16777215
370
     9
100
AcDbVertex
100
AcDb2dVertex
 10
78.66598521528574
 20
-137.8834060766402
 30
0.0
  0
SEQEND
  5
9E
330
9B
100
AcDbEntity
  8
_U+30EC_U+30A4_U+30E4_U+30FC 1
 62
     7
420
 16777215
370
     9
  0
POLYLINE
  5
9F
330
1F
100
AcDbEntity
  8
_U+30EC_U+30A4_U+30E4_U+30FC 1
 62
     7
420
 16777215
370
     9
100
AcDb2dPolyline
 66
     1
 10
0.0
 20
0.0
 30
0.0
  0
VERTEX
  5
A0
330
9F
100
AcDbEntity
  8
_U+30EC_U+30A4_U+30E4_U+30FC 1
 62
     7
420
 16777215
370
     9
100
AcDbVertex
100
AcDb2dVertex
 10
82.12557096035769
 20
-118.8819835813906
 30
0.0
  0
VERTEX
  5
A1
330
9F
100
AcDbEntity
  8
_U+30EC_U+30A4_U+30E4_U+30FC 1
 62
     7
420
 16777215
370
     9
100
AcDbVertex
100
AcDb2dVertex
 10
78.66598521528574
 20
-118.8819835813906
 30
0.0
  0
SEQEND
  5
A2
330
9F
100
AcDbEntity
  8
_U+30EC_U+30A4_U+30E4_U+30FC 1
 62
     7
420
 16777215
370
     9
  0
INSERT
  5
A4
330
1F
100
AcDbEntity
  8
_U+30EC_U+30A4_U+30E4_U+30FC 1
100
AcDbBlockReference
  2
block 6
 10
0.0
 20
0.0
 30
0.0
  0
POLYLINE
  5
AC
330
1F
100
AcDbEntity
  8
_U+30EC_U+30A4_U+30E4_U+30FC 1
 62
     7
420
 16777215
370
     9
100
AcDb2dPolyline
 66
     1
 10
0.0
 20
0.0
 30
0.0
  0
VERTEX
  5
AD
330
AC
100
AcDbEntity
  8
_U+30EC_U+30A4_U+30E4_U+30FC 1
 62
     7
420
 16777215
370
     9
100
AcDbVertex
100
AcDb2dVertex
 10
83.66551647662595
 20
-141.8835180200848
 30
0.0
  0
VERTEX
  5
AE
330
AC
100
AcDbEntity
  8
_U+30EC_U+30A4_U+30E4_U+30FC 1
 62
     7
420
 16777215
370
     9
100
AcDbVertex
100
AcDb2dVertex
 10
99.66522301288389
 20
-141.8835180200848
 30
0.0
  0
SEQEND
  5
AF
330
AC
100
AcDbEntity
  8
_U+30EC_U+30A4_U+30E4_U+30FC 1
 62
     7
420
 16777215
370
     9
  0
POLYLINE
  5
B0
330
1F
100
AcDbEntity
  8
_U+30EC_U+30A4_U+30E4_U+30FC 1
 62
     7
420
 16777215
370
     9
100
AcDb2dPolyline
 66
     1
 10
0.0
 20
0.0
 30
0.0
  0
VERTEX
  5
B1
330
B0
100
AcDbEntity
  8
_U+30EC_U+30A4_U+30E4_U+30FC 1
 62
     7
420
 16777215
370
     9
100
AcDbVertex
100
AcDb2dVertex
 10
83.66551647662595
 20
-139.4229988540331
 30
0.0
  0
VERTEX
  5
B2
330
B0
100
AcDbEntity
  8
_U+30EC_U+30A4_U+30E4_U+30FC 1
 62
     7
420
 16777215
370
     9
100
AcDbVertex
100
AcDb2dVertex
 10
83.66551647662595
 20
-142.8832549642792
 30
0.0
  0
SEQEND
  5
B3
330
B0
100
AcDbEntity
  8
_U+30EC_U+30A4_U+30E4_U+30FC 1
 62
     7
420
 16777215
370
     9
  0
POLYLINE
  5
B4
330
1F
100
AcDbEntity
  8
_U+30EC_U+30A4_U+30E4_U+30FC 1
 62
     7
420
 16777215
370
     9
100
AcDb2dPolyline
 66
     1
 10
0.0
 20
0.0
 30
0.0
  0
VERTEX
  5
B5
330
B4
100
AcDbEntity
  8
_U+30EC_U+30A4_U+30E4_U+30FC 1
 62
     7
420
 16777215
370
     9
100
AcDbVertex
100
AcDb2dVertex
 10
99.66592856842144
 20
-140.4234766315611
 30
0.0
  0
VERTEX
  5
B6
330
B4
100
AcDbEntity
  8
_U+30EC_U+30A4_U+30E4_U+30FC 1
 62
     7
420
 16777215
370
     9
100
AcDbVertex
100
AcDb2dVertex
 10
99.66592856842144
 20
-142.8832549642792
 30
0.0
  0
SEQEND
  5
B7
330
B4
100
AcDbEntity
  8
_U+30EC_U+30A4_U+30E4_U+30FC 1
 62
     7
420
 16777215
370
     9
  0
INSERT
  5
B9
330
1F
100
AcDbEntity
  8
_U+30EC_U+30A4_U+30E4_U+30FC 1
100
AcDbBlockReference
  2
block 7
 10
0.0
 20
0.0
 30
0.0
  0
POLYLINE
  5
C1
330
1F
100
AcDbEntity
  8
_U+30EC_U+30A4_U+30E4_U+30FC 1
 62
     7
420
 16777215
370
     9
100
AcDb2dPolyline
 66
     1
 10
0.0
 20
0.0
 30
0.0
  0
VERTEX
  5
C2
330
C1
100
AcDbEntity
  8
_U+30EC_U+30A4_U+30E4_U+30FC 1
 62
     7
420
 16777215
370
     9
100
AcDbVertex
100
AcDb2dVertex
 10
103.6656876330457
 20
-136.8836338546683
 30
0.0
  0
VERTEX
  5
C3
330
C1
100
AcDbEntity
  8
_U+30EC_U+30A4_U+30E4_U+30FC 1
 62
     7
420
 16777215
370
     9
100
AcDbVertex
100
AcDb2dVertex
 10
103.6656876330457
 20
-126.8835480238346
 30
0.0
  0
SEQEND
  5
C4
330
C1
100
AcDbEntity
  8
_U+30EC_U+30A4_U+30E4_U+30FC 1
 62
     7
420
 16777215
370
     9
  0
ENDSEC
  0
SECTION
  2
OBJECTS
  0
DICTIONARY
  5
C
330
0
100
AcDbDictionary
281
     1
  3
ACAD_GROUP
350
D
  3
ACAD_LAYOUT
350
1A
  3
ACAD_MATERIAL
350
3B
  3
ACAD_MLEADERSTYLE
350
C6
  3
ACAD_MLINESTYLE
350
17
  3
ACAD_PLOTSETTINGS
350
19
  3
ACAD_PLOTSTYLENAME
350
E
  3
ACAD_TABLESTYLE
350
C5
  3
ACAD_VISUALSTYLE
350
2A
  0
SUN
  5
3F
330
29
100
AcDbSun
 90
        1
290
     0
 63
     7
421
 16777215
 40
1.0
291
     1
 91
  2455826
 92
 54000000
292
     0
 70
     2
 71
   256
280
     1
  0
DICTIONARY
  5
D
102
{ACAD_REACTORS
330
C
102
}
330
C
100
AcDbDictionary
281
     1
  0
DICTIONARY
  5
1A
102
{ACAD_REACTORS
330
C
102
}
330
C
100
AcDbDictionary
281
     1
  3
Layout1
350
1E
  3
Layout2
350
26
  3
Model
350
22
  0
DICTIONARY
  5
3B
102
{ACAD_REACTORS
330
C
102
}
330
C
100
AcDbDictionary
281
     1
  3
ByBlock
350
3D
  3
ByLayer
350
3C
  3
Global
350
3E
  0
DICTIONARY
  5
C6
102
{ACAD_REACTORS
330
C
102
}
330
C
100
AcDbDictionary
281
     1
  0
DICTIONARY
  5
17
102
{ACAD_REACTORS
330
C
102
}
330
C
100
AcDbDictionary
281
     1
  3
Standard
350
18
  0
DICTIONARY
  5
19
102
{ACAD_REACTORS
330
C
102
}
330
C
100
AcDbDictionary
281
     1
  0
ACDBDICTIONARYWDFLT
  5
E
102
{ACAD_REACTORS
330
C
102
}
330
C
100
AcDbDictionary
281
     1
  3
Normal
350
F
100
AcDbDictionaryWithDefault
340
F
  0
DICTIONARY
  5
C5
102
{ACAD_REACTORS
330
C
102
}
330
C
100
AcDbDictionary
281
     1
  0
DICTIONARY
  5
2A
102
{ACAD_REACTORS
330
C
102
}
330
C
100
AcDbDictionary
281
     1
  3
2dWireframe
350
2F
  3
3D Hidden
350
31
  3
3dWireframe
350
30
  3
Basic
350
32
  3
Brighten
350
36
  3
ColorChange
350
3A
  3
Conceptual
350
34
  3
Dim
350
35
  3
Facepattern
350
39
  3
Flat
350
2B
  3
FlatWithEdges
350
2C
  3
Gouraud
350
2D
  3
GouraudWithEdges
350
2E
  3
Linepattern
350
38
  3
Realistic
350
33
  3
Thicken
350
37
  0
LAYOUT
  5
1E
102
{ACAD_REACTORS
330
1A
102
}
330
1A
100
AcDbPlotSettings
  1

  2
none_device
  4

  6

 40
0.0
 41
0.0
 42
0.0
 43
0.0
 44
0.0
 45
0.0
 46
0.0
 47
0.0
 48
0.0
 49
0.0
140
0.0
141
0.0
142
1.0
143
1.0
 70
   688
 72
     0
 73
     0
 74
     5
  7

 75
    16
 76
     0
 77
     2
 78
   300
147
1.0
148
0.0
149
0.0
100
AcDbLayout
  1
Layout1
 70
     1
 71
     1
 10
0.0
 20
0.0
 11
12.0
 21
9.0
 12
0.0
 22
0.0
 32
0.0
 14
1.000000000000000E+20
 24
1.000000000000000E+20
 34
1.000000000000000E+20
 15
-1.000000000000000E+20
 25
-1.000000000000000E+20
 35
-1.000000000000000E+20
146
0.0
 13
0.0
 23
0.0
 33
0.0
 16
1.0
 26
0.0
 36
0.0
 17
0.0
 27
1.0
 37
0.0
 76
     0
330
1B
  0
LAYOUT
  5
26
102
{ACAD_REACTORS
330
1A
102
}
330
1A
100
AcDbPlotSettings
  1

  2
none_device
  4

  6

 40
0.0
 41
0.0
 42
0.0
 43
0.0
 44
0.0
 45
0.0
 46
0.0
 47
0.0
 48
0.0
 49
0.0
140
0.0
141
0.0
142
1.0
143
1.0
 70
   688
 72
     0
 73
     0
 74
     5
  7

 75
    16
 76
     0
 77
     2
 78
   300
147
1.0
148
0.0
149
0.0
100
AcDbLayout
  1
Layout2
 70
     1
 71
     2
 10
0.0
 20
0.0
 11
0.0
 21
0.0
 12
0.0
 22
0.0
 32
0.0
 14
0.0
 24
0.0
 34
0.0
 15
0.0
 25
0.0
 35
0.0
146
0.0
 13
0.0
 23
0.0
 33
0.0
 16
1.0
 26
0.0
 36
0.0
 17
0.0
 27
1.0
 37
0.0
 76
     0
330
23
  0
LAYOUT
  5
22
102
{ACAD_REACTORS
330
1A
102
}
330
1A
100
AcDbPlotSettings
  1

  2
none_device
  4

  6

 40
0.0
 41
0.0
 42
0.0
 43
0.0
 44
0.0
 45
0.0
 46
0.0
 47
0.0
 48
0.0
 49
0.0
140
0.0
141
0.0
142
1.0
143
1.0
 70
  1712
 72
     0
 73
     0
 74
     0
  7

 75
     0
 76
     0
 77
     2
 78
   300
147
1.0
148
0.0
149
0.0
100
AcDbLayout
  1
Model
 70
     1
 71
     0
 10
0.0
 20
0.0
 11
12.0
 21
9.0
 12
0.0
 22
0.0
 32
0.0
 14
1.000000000000000E+20
 24
1.000000000000000E+20
 34
1.000000000000000E+20
 15
-1.000000000000000E+20
 25
-1.000000000000000E+20
 35
-1.000000000000000E+20
146
0.0
 13
0.0
 23
0.0
 33
0.0
 16
1.0
 26
0.0
 36
0.0
 17
0.0
 27
1.0
 37
0.0
 76
     0
330
1F
331
29
  0
MATERIAL
  5
3D
102
{ACAD_REACTORS
330
3B
102
}
330
3B
100
AcDbMaterial
  1
ByBlock
 72
     1
 94
      127
  0
MATERIAL
  5
3C
102
{ACAD_REACTORS
330
3B
102
}
330
3B
100
AcDbMaterial
  1
ByLayer
 72
     1
 94
      127
  0
MATERIAL
  5
3E
102
{ACAD_REACTORS
330
3B
102
}
330
3B
100
AcDbMaterial
  1
Global
 72
     1
 94
      127
  0
MLINESTYLE
  5
18
102
{ACAD_REACTORS
330
17
102
}
330
17
100
AcDbMlineStyle
  2
Standard
 70
     0
  3

 62
   256
 51
90.0
 52
90.0
 71
     2
 49
0.5
 62
   256
  6
BYLAYER
 49
-0.5
 62
   256
  6
BYLAYER
  0
ACDBPLACEHOLDER
  5
F
102
{ACAD_REACTORS
330
E
102
}
330
E
  0
VISUALSTYLE
  5
2F
102
{ACAD_REACTORS
330
2A
102
}
330
2A
100
AcDbVisualStyle
  2
2dWireframe
 70
     4
177
     2
291
     0
 71
     0
176
     1
 72
     2
176
     1
 73
     0
176
     1
 90
        0
176
     1
 40
-0.6
176
     1
 41
-30.0
176
     1
 62
     5
 63
     7
421
 16777215
176
     1
 74
     1
176
     1
 91
        4
176
     1
 64
     7
176
     1
 65
   257
176
     1
 75
     1
176
     1
175
     1
176
     1
 42
1.0
176
     1
 92
        0
176
     1
 66
   257
176
     1
 43
1.0
176
     1
 76
     1
176
     1
 77
     6
176
     1
 78
     2
176
     1
 67
     7
176
     1
 79
     5
176
     1
170
     0
176
     1
171
     0
176
     1
290
     0
176
     1
 93
        1
176
     1
 44
0.0
176
     1
173
     0
176
     1
  0
VISUALSTYLE
  5
31
102
{ACAD_REACTORS
330
2A
102
}
330
2A
100
AcDbVisualStyle
  2
3D Hidden
 70
     6
177
     2
291
     0
 71
     1
176
     1
 72
     2
176
     1
 73
     2
176
     1
 90
        0
176
     1
 40
-0.6
176
     1
 41
-30.0
176
     1
 62
     5
 63
     7
421
 16777215
176
     1
 74
     2
176
     1
 91
        2
176
     1
 64
     7
176
     1
 65
   257
176
     1
 75
     2
176
     1
175
     1
176
     1
 42
40.0
176
     1
 92
        0
176
     1
 66
   257
176
     1
 43
1.0
176
     1
 76
     1
176
     1
 77
     6
176
     1
 78
     2
176
     1
 67
     7
176
     1
 79
     3
176
     1
170
     0
176
     1
171
     0
176
     1
290
     0
176
     1
 93
        1
176
     1
 44
0.0
176
     1
173
     0
176
     1
  0
VISUALSTYLE
  5
30
102
{ACAD_REACTORS
330
2A
102
}
330
2A
100
AcDbVisualStyle
  2
3dWireframe
 70
     5
177
     2
291
     0
 71
     0
176
     1
 72
     2
176
     1
 73
     0
176
     1
 90
        0
176
     1
 40
-0.6
176
     1
 41
-30.0
176
     1
 62
     5
 63
     7
421
 16777215
176
     1
 74
     1
176
     1
 91
        4
176
     1
 64
     7
176
     1
 65
   257
176
     1
 75
     1
176
     1
175
     1
176
     1
 42
1.0
176
     1
 92
        0
176
     1
 66
   257
176
     1
 43
1.0
176
     1
 76
     1
176
     1
 77
     6
176
     1
 78
     2
176
     1
 67
     7
176
     1
 79
     5
176
     1
170
     0
176
     1
171
     0
176
     1
290
     0
176
     1
 93
        1
176
     1
 44
0.0
176
     1
173
     0
176
     1
  0
VISUALSTYLE
  5
32
102
{ACAD_REACTORS
330
2A
102
}
330
2A
100
AcDbVisualStyle
  2
Basic
 70
     7
177
     2
291
     1
 71
     1
176
     1
 72
     0
176
     1
 73
     1
176
     1
 90
        0
176
     1
 40
-0.6
176
     1
 41
-30.0
176
     1
 62
     5
 63
     7
421
 16777215
176
     1
 74
     0
176
     1
 91
        4
176
     1
 64
     7
176
     1
 65
   257
176
     1
 75
     1
176
     1
175
     1
176
     1
 42
1.0
176
     1
 92
        8
176
     1
 66
     7
176
     1
 43
1.0
176
     1
 76
     1
176
     1
 77
     6
176
     1
 78
     2
176
     1
 67
     7
176
     1
 79
     5
176
     1
170
     0
176
     1
171
     0
176
     1
290
     0
176
     1
 93
        1
176
     1
 44
0.0
176
     1
173
     0
176
     1
  0
VISUALSTYLE
  5
36
102
{ACAD_REACTORS
330
2A
102
}
330
2A
100
AcDbVisualStyle
  2
Brighten
 70
    12
177
     2
291
     1
 71
     2
176
     1
 72
     2
176
     1
 73
     0
176
     1
 90
        0
176
     1
 40
-0.6
176
     1
 41
-30.0
176
     1
 62
     5
 63
     7
421
 16777215
176
     1
 74
     1
176
     1
 91
        4
176
     1
 64
     7
176
     1
 65
   257
176
     1
 75
     1
176
     1
175
     1
176
     1
 42
1.0
176
     1
 92
        8
176
     1
 66
     7
176
     1
 43
1.0
176
     1
 76
     1
176
     1
 77
     6
176
     1
 78
     2
176
     1
 67
     7
176
     1
 79
     5
176
     1
170
     0
176
     1
171
     0
176
     1
290
     0
176
     1
 93
        1
176
     1
 44
50.0
176
     1
173
     0
176
     1
  0
VISUALSTYLE
  5
3A
102
{ACAD_REACTORS
330
2A
102
}
330
2A
100
AcDbVisualStyle
  2
ColorChange
 70
    16
177
     2
291
     1
 71
     2
176
     1
 72
     2
176
     1
 73
     3
176
     1
 90
        0
176
     1
 40
-0.6
176
     1
 41
-30.0
176
     1
 62
     5
 63
     8
421
  8421504
176
     1
 74
     1
176
     1
 91
        4
176
     1
 64
     7
176
     1
 65
   257
176
     1
 75
     1
176
     1
175
     1
176
     1
 42
1.0
176
     1
 92
        8
176
     1
 66
     8
424
  8421504
176
     1
 43
1.0
176
     1
 76
     1
176
     1
 77
     6
176
     1
 78
     2
176
     1
 67
     7
176
     1
 79
     5
176
     1
170
     0
176
     1
171
     0
176
     1
290
     0
176
     1
 93
        1
176
     1
 44
0.0
176
     1
173
     0
176
     1
  0
VISUALSTYLE
  5
34
102
{ACAD_REACTORS
330
2A
102
}
330
2A
100
AcDbVisualStyle
  2
Conceptual
 70
     9
177
     2
291
     0
 71
     3
176
     1
 72
     2
176
     1
 73
     0
176
     1
 90
        0
176
     1
 40
-0.6
176
     1
 41
-30.0
176
     1
 62
     5
 63
     7
421
 16777215
176
     1
 74
     2
176
     1
 91
        2
176
     1
 64
     7
176
     1
 65
   257
176
     1
 75
     1
176
     1
175
     1
176
     1
 42
40.0
176
     1
 92
        8
176
     1
 66
     7
176
     1
 43
1.0
176
     1
 76
     1
176
     1
 77
     6
176
     1
 78
     2
176
     1
 67
     7
176
     1
 79
     3
176
     1
170
     0
176
     1
171
     0
176
     1
290
     0
176
     1
 93
        1
176
     1
 44
0.0
176
     1
173
     0
176
     1
  0
VISUALSTYLE
  5
35
102
{ACAD_REACTORS
330
2A
102
}
330
2A
100
AcDbVisualStyle
  2
Dim
 70
    11
177
     2
291
     1
 71
     2
176
     1
 72
     2
176
     1
 73
     0
176
     1
 90
        0
176
     1
 40
-0.6
176
     1
 41
-30.0
176
     1
 62
     5
 63
     7
421
 16777215
176
     1
 74
     1
176
     1
 91
        4
176
     1
 64
     7
176
     1
 65
   257
176
     1
 75
     1
176
     1
175
     1
176
     1
 42
1.0
176
     1
 92
        8
176
     1
 66
     7
176
     1
 43
1.0
176
     1
 76
     1
176
     1
 77
     6
176
     1
 78
     2
176
     1
 67
     7
176
     1
 79
     5
176
     1
170
     0
176
     1
171
     0
176
     1
290
     0
176
     1
 93
        1
176
     1
 44
-50.0
176
     1
173
     0
176
     1
  0
VISUALSTYLE
  5
39
102
{ACAD_REACTORS
330
2A
102
}
330
2A
100
AcDbVisualStyle
  2
Facepattern
 70
    15
177
     2
291
     1
 71
     2
176
     1
 72
     2
176
     1
 73
     0
176
     1
 90
        0
176
     1
 40
-0.6
176
     1
 41
-30.0
176
     1
 62
     5
 63
     7
421
 16777215
176
     1
 74
     1
176
     1
 91
        4
176
     1
 64
     7
176
     1
 65
   257
176
     1
 75
     1
176
     1
175
     1
176
     1
 42
1.0
176
     1
 92
        8
176
     1
 66
     7
176
     1
 43
1.0
176
     1
 76
     1
176
     1
 77
     6
176
     1
 78
     2
176
     1
 67
     7
176
     1
 79
     5
176
     1
170
     0
176
     1
171
     0
176
     1
290
     0
176
     1
 93
        1
176
     1
 44
0.0
176
     1
173
     0
176
     1
  0
VISUALSTYLE
  5
2B
102
{ACAD_REACTORS
330
2A
102
}
330
2A
100
AcDbVisualStyle
  2
Flat
 70
     0
177
     2
291
     1
 71
     2
176
     1
 72
     1
176
     1
 73
     1
176
     1
 90
        2
176
     1
 40
-0.6
176
     1
 41
30.0
176
     1
 62
     5
 63
     7
421
 16777215
176
     1
 74
     0
176
     1
 91
        4
176
     1
 64
     7
176
     1
 65
   257
176
     1
 75
     1
176
     1
175
     1
176
     1
 42
1.0
176
     1
 92
        8
176
     1
 66
     7
176
     1
 43
1.0
176
     1
 76
     1
176
     1
 77
     6
176
     1
 78
     2
176
     1
 67
     7
176
     1
 79
     5
176
     1
170
     0
176
     1
171
     0
176
     1
290
     0
176
     1
 93
       13
176
     1
 44
0.0
176
     1
173
     0
176
     1
  0
VISUALSTYLE
  5
2C
102
{ACAD_REACTORS
330
2A
102
}
330
2A
100
AcDbVisualStyle
  2
FlatWithEdges
 70
     1
177
     2
291
     1
 71
     2
176
     1
 72
     1
176
     1
 73
     1
176
     1
 90
        2
176
     1
 40
-0.6
176
     1
 41
30.0
176
     1
 62
     5
 63
     7
421
 16777215
176
     1
 74
     1
176
     1
 91
        4
176
     1
 64
     7
176
     1
 65
   257
176
     1
 75
     1
176
     1
175
     1
176
     1
 42
1.0
176
     1
 92
        0
176
     1
 66
   257
176
     1
 43
1.0
176
     1
 76
     1
176
     1
 77
     6
176
     1
 78
     2
176
     1
 67
     7
176
     1
 79
     5
176
     1
170
     0
176
     1
171
     0
176
     1
290
     0
176
     1
 93
       13
176
     1
 44
0.0
176
     1
173
     0
176
     1
  0
VISUALSTYLE
  5
2D
102
{ACAD_REACTORS
330
2A
102
}
330
2A
100
AcDbVisualStyle
  2
Gouraud
 70
     2
177
     2
291
     1
 71
     2
176
     1
 72
     2
176
     1
 73
     1
176
     1
 90
        2
176
     1
 40
-0.6
176
     1
 41
30.0
176
     1
 62
     5
 63
     7
421
 16777215
176
     1
 74
     0
176
     1
 91
        4
176
     1
 64
     7
176
     1
 65
   257
176
     1
 75
     1
176
     1
175
     1
176
     1
 42
1.0
176
     1
 92
        0
176
     1
 66
     7
176
     1
 43
1.0
176
     1
 76
     1
176
     1
 77
     6
176
     1
 78
     2
176
     1
 67
     7
176
     1
 79
     5
176
     1
170
     0
176
     1
171
     0
176
     1
290
     0
176
     1
 93
       13
176
     1
 44
0.0
176
     1
173
     0
176
     1
  0
VISUALSTYLE
  5
2E
102
{ACAD_REACTORS
330
2A
102
}
330
2A
100
AcDbVisualStyle
  2
GouraudWithEdges
 70
     3
177
     2
291
     1
 71
     2
176
     1
 72
     2
176
     1
 73
     1
176
     1
 90
        2
176
     1
 40
-0.6
176
     1
 41
30.0
176
     1
 62
     5
 63
     7
421
 16777215
176
     1
 74
     1
176
     1
 91
        4
176
     1
 64
     7
176
     1
 65
   257
176
     1
 75
     1
176
     1
175
     1
176
     1
 42
1.0
176
     1
 92
        0
176
     1
 66
   257
176
     1
 43
1.0
176
     1
 76
     1
176
     1
 77
     6
176
     1
 78
     2
176
     1
 67
     7
176
     1
 79
     5
176
     1
170
     0
176
     1
171
     0
176
     1
290
     0
176
     1
 93
       13
176
     1
 44
0.0
176
     1
173
     0
176
     1
  0
VISUALSTYLE
  5
38
102
{ACAD_REACTORS
330
2A
102
}
330
2A
100
AcDbVisualStyle
  2
Linepattern
 70
    14
177
     2
291
     1
 71
     2
176
     1
 72
     2
176
     1
 73
     0
176
     1
 90
        0
176
     1
 40
-0.6
176
     1
 41
-30.0
176
     1
 62
     5
 63
     7
421
 16777215
176
     1
 74
     1
176
     1
 91
        4
176
     1
 64
     7
176
     1
 65
   257
176
     1
 75
     7
176
     1
175
     7
176
     1
 42
1.0
176
     1
 92
        8
176
     1
 66
     7
176
     1
 43
1.0
176
     1
 76
     1
176
     1
 77
     6
176
     1
 78
     2
176
     1
 67
     7
176
     1
 79
     5
176
     1
170
     0
176
     1
171
     0
176
     1
290
     0
176
     1
 93
        1
176
     1
 44
0.0
176
     1
173
     0
176
     1
  0
VISUALSTYLE
  5
33
102
{ACAD_REACTORS
330
2A
102
}
330
2A
100
AcDbVisualStyle
  2
Realistic
 70
     8
177
     2
291
     0
 71
     2
176
     1
 72
     2
176
     1
 73
     0
176
     1
 90
        0
176
     1
 40
-0.6
176
     1
 41
-30.0
176
     1
 62
     5
 63
     7
421
 16777215
176
     1
 74
     1
176
     1
 91
        0
176
     1
 64
     7
176
     1
 65
   257
176
     1
 75
     1
176
     1
175
     1
176
     1
 42
1.0
176
     1
 92
        8
176
     1
 66
     8
424
  7895160
176
     1
 43
1.0
176
     1
 76
     1
176
     1
 77
     6
176
     1
 78
     2
176
     1
 67
     7
176
     1
 79
     5
176
     1
170
     0
176
     1
171
     0
176
     1
290
     0
176
     1
 93
       13
176
     1
 44
0.0
176
     1
173
     0
176
     1
  0
VISUALSTYLE
  5
37
102
{ACAD_REACTORS
330
2A
102
}
330
2A
100
AcDbVisualStyle
  2
Thicken
 70
    13
177
     2
291
     1
 71
     2
176
     1
 72
     2
176
     1
 73
     0
176
     1
 90
        0
176
     1
 40
-0.6
176
     1
 41
-30.0
176
     1
 62
     5
 63
     7
421
 16777215
176
     1
 74
     1
176
     1
 91
        4
176
     1
 64
     7
176
     1
 65
   257
176
     1
 75
     1
176
     1
175
     1
176
     1
 42
1.0
176
     1
 92
       12
176
     1
 66
     7
176
     1
 43
1.0
176
     1
 76
     1
176
     1
 77
     6
176
     1
 78
     2
176
     1
 67
     7
176
     1
 79
     5
176
     1
170
     0
176
     1
171
     0
176
     1
290
     0
176
     1
 93
        1
176
     1
 44
0.0
176
     1
173
     0
176
     1
  0
ENDSEC
  0
EOF
