  0
SECTION
  2
HEADER
  9
$ACADVER
  1
AC1024
  9
$ACADMAINTVER
 70
     6
  9
$DWGCODEPAGE
  3
UNDEFINED
  9
$INSBASE
 10
0.0
 20
0.0
 30
0.0
  9
$EXTMIN
 10
1.000000000000000E+20
 20
1.000000000000000E+20
 30
1.000000000000000E+20
  9
$EXTMAX
 10
-1.000000000000000E+20
 20
-1.000000000000000E+20
 30
-1.000000000000000E+20
  9
$LIMMIN
 10
0.0
 20
0.0
  9
$LIMMAX
 10
12.0
 20
9.0
  9
$ORTHOMODE
 70
     0
  9
$REGENMODE
 70
     1
  9
$FILLMODE
 70
     1
  9
$QTEXTMODE
 70
     0
  9
$MIRRTEXT
 70
     1
  9
$LTSCALE
 40
1.0
  9
$ATTMODE
 70
     1
  9
$TEXTSIZE
 40
0.2
  9
$TRACEWID
 40
0.05
  9
$TEXTSTYLE
  7
Standard
  9
$CLAYER
  8
0
  9
$CELTYPE
  6
ByLayer
  9
$CECOLOR
 62
   256
  9
$CELTSCALE
 40
1.0
  9
$DISPSILH
 70
     0
  9
$DIMSCALE
 40
1.0
  9
$DIMASZ
 40
0.18
  9
$DIMEXO
 40
0.0625
  9
$DIMDLI
 40
0.38
  9
$DIMRND
 40
0.0
  9
$DIMDLE
 40
0.0
  9
$DIMEXE
 40
0.18
  9
$DIMTP
 40
0.0
  9
$DIMTM
 40
0.0
  9
$DIMTXT
 40
0.18
  9
$DIMCEN
 40
0.09
  9
$DIMTSZ
 40
0.0
  9
$DIMTOL
 70
     0
  9
$DIMLIM
 70
     0
  9
$DIMTIH
 70
     1
  9
$DIMTOH
 70
     1
  9
$DIMSE1
 70
     0
  9
$DIMSE2
 70
     0
  9
$DIMTAD
 70
     0
  9
$DIMZIN
 70
     0
  9
$DIMBLK
  1

  9
$DIMASO
 70
     1
  9
$DIMSHO
 70
     1
  9
$DIMPOST
  1

  9
$DIMAPOST
  1

  9
$DIMALT
 70
     0
  9
$DIMALTD
 70
     2
  9
$DIMALTF
 40
25.4
  9
$DIMLFAC
 40
1.0
  9
$DIMTOFL
 70
     0
  9
$DIMTVP
 40
0.0
  9
$DIMTIX
 70
     0
  9
$DIMSOXD
 70
     0
  9
$DIMSAH
 70
     0
  9
$DIMBLK1
  1

  9
$DIMBLK2
  1

  9
$DIMSTYLE
  2
Standard
  9
$DIMCLRD
 70
     0
  9
$DIMCLRE
 70
     0
  9
$DIMCLRT
 70
     0
  9
$DIMTFAC
 40
1.0
  9
$DIMGAP
 40
0.09
  9
$DIMJUST
 70
     0
  9
$DIMSD1
 70
     0
  9
$DIMSD2
 70
     0
  9
$DIMTOLJ
 70
     1
  9
$DIMTZIN
 70
     0
  9
$DIMALTZ
 70
     0
  9
$DIMALTTZ
 70
     0
  9
$DIMUPT
 70
     0
  9
$DIMDEC
 70
     4
  9
$DIMTDEC
 70
     4
  9
$DIMALTU
 70
     2
  9
$DIMALTTD
 70
     2
  9
$DIMTXSTY
  7
Standard
  9
$DIMAUNIT
 70
     0
  9
$DIMADEC
 70
     0
  9
$DIMALTRND
 40
0.0
  9
$DIMAZIN
 70
     0
  9
$DIMDSEP
 70
    46
  9
$DIMATFIT
 70
     3
  9
$DIMFRAC
 70
     0
  9
$DIMLDRBLK
  1

  9
$DIMLUNIT
 70
     2
  9
$DIMLWD
 70
    -2
  9
$DIMLWE
 70
    -2
  9
$DIMTMOVE
 70
     0
  9
$DIMFXL
 40
1.0
  9
$DIMFXLON
 70
     0
  9
$DIMJOGANG
 40
0.7853981633974483
  9
$DIMTFILL
 70
     0
  9
$DIMTFILLCLR
 70
     0
  9
$DIMARCSYM
 70
     0
  9
$DIMLTYPE
  6

  9
$DIMLTEX1
  6

  9
$DIMLTEX2
  6

  9
$DIMTXTDIRECTION
 70
     0
  9
$LUNITS
 70
     2
  9
$LUPREC
 70
     4
  9
$SKETCHINC
 40
0.1
  9
$FILLETRAD
 40
0.5
  9
$AUNITS
 70
     0
  9
$AUPREC
 70
     0
  9
$MENU
  1
.
  9
$ELEVATION
 40
0.0
  9
$PELEVATION
 40
0.0
  9
$THICKNESS
 40
0.0
  9
$LIMCHECK
 70
     0
  9
$CHAMFERA
 40
0.5
  9
$CHAMFERB
 40
0.5
  9
$CHAMFERC
 40
1.0
  9
$CHAMFERD
 40
0.0
  9
$SKPOLY
 70
     0
  9
$TDCREATE
 40
2457917.622453692
  9
$TDUCREATE
 40
2457917.247453704
  9
$TDUPDATE
 40
2457917.622453692
  9
$TDUUPDATE
 40
2457917.247453704
  9
$TDINDWG
 40
0.0000000116
  9
$TDUSRTIMER
 40
0.0000000116
  9
$USRTIMER
 70
     1
  9
$ANGBASE
 50
0.0
  9
$ANGDIR
 70
     0
  9
$PDMODE
 70
     0
  9
$PDSIZE
 40
0.0
  9
$PLINEWID
 40
0.0
  9
$SPLFRAME
 70
     0
  9
$SPLINETYPE
 70
     6
  9
$SPLINESEGS
 70
     8
  9
$HANDSEED
  5
EE
  9
$SURFTAB1
 70
     6
  9
$SURFTAB2
 70
     6
  9
$SURFTYPE
 70
     6
  9
$SURFU
 70
     6
  9
$SURFV
 70
     6
  9
$UCSBASE
  2

  9
$UCSNAME
  2

  9
$UCSORG
 10
0.0
 20
0.0
 30
0.0
  9
$UCSXDIR
 10
1.0
 20
0.0
 30
0.0
  9
$UCSYDIR
 10
0.0
 20
1.0
 30
0.0
  9
$UCSORTHOREF
  2

  9
$UCSORTHOVIEW
 70
     0
  9
$UCSORGTOP
 10
0.0
 20
0.0
 30
0.0
  9
$UCSORGBOTTOM
 10
0.0
 20
0.0
 30
0.0
  9
$UCSORGLEFT
 10
0.0
 20
0.0
 30
0.0
  9
$UCSORGRIGHT
 10
0.0
 20
0.0
 30
0.0
  9
$UCSORGFRONT
 10
0.0
 20
0.0
 30
0.0
  9
$UCSORGBACK
 10
0.0
 20
0.0
 30
0.0
  9
$PUCSBASE
  2

  9
$PUCSNAME
  2

  9
$PUCSORG
 10
0.0
 20
0.0
 30
0.0
  9
$PUCSXDIR
 10
1.0
 20
0.0
 30
0.0
  9
$PUCSYDIR
 10
0.0
 20
1.0
 30
0.0
  9
$PUCSORTHOREF
  2

  9
$PUCSORTHOVIEW
 70
     0
  9
$PUCSORGTOP
 10
0.0
 20
0.0
 30
0.0
  9
$PUCSORGBOTTOM
 10
0.0
 20
0.0
 30
0.0
  9
$PUCSORGLEFT
 10
0.0
 20
0.0
 30
0.0
  9
$PUCSORGRIGHT
 10
0.0
 20
0.0
 30
0.0
  9
$PUCSORGFRONT
 10
0.0
 20
0.0
 30
0.0
  9
$PUCSORGBACK
 10
0.0
 20
0.0
 30
0.0
  9
$USERI1
 70
     0
  9
$USERI2
 70
     0
  9
$USERI3
 70
     0
  9
$USERI4
 70
     0
  9
$USERI5
 70
     0
  9
$USERR1
 40
0.0
  9
$USERR2
 40
0.0
  9
$USERR3
 40
0.0
  9
$USERR4
 40
0.0
  9
$USERR5
 40
0.0
  9
$WORLDVIEW
 70
     1
  9
$SHADEDGE
 70
     3
  9
$SHADEDIF
 70
    70
  9
$TILEMODE
 70
     1
  9
$MAXACTVP
 70
    64
  9
$PINSBASE
 10
0.0
 20
0.0
 30
0.0
  9
$PLIMCHECK
 70
     0
  9
$PEXTMIN
 10
1.000000000000000E+20
 20
1.000000000000000E+20
 30
1.000000000000000E+20
  9
$PEXTMAX
 10
-1.000000000000000E+20
 20
-1.000000000000000E+20
 30
-1.000000000000000E+20
  9
$PLIMMIN
 10
0.0
 20
0.0
  9
$PLIMMAX
 10
12.0
 20
9.0
  9
$UNITMODE
 70
     0
  9
$VISRETAIN
 70
     1
  9
$PLINEGEN
 70
     0
  9
$PSLTSCALE
 70
     1
  9
$TREEDEPTH
 70
  3020
  9
$CMLSTYLE
  2
Standard
  9
$CMLJUST
 70
     0
  9
$CMLSCALE
 40
1.0
  9
$PROXYGRAPHICS
 70
     1
  9
$MEASUREMENT
 70
     0
  9
$CELWEIGHT
370
    -1
  9
$ENDCAPS
280
     0
  9
$JOINSTYLE
280
     0
  9
$LWDISPLAY
290
     1
  9
$INSUNITS
 70
     1
  9
$HYPERLINKBASE
  1

  9
$STYLESHEET
  1

  9
$XEDIT
290
     1
  9
$CEPSNTYPE
380
     0
  9
$PSTYLEMODE
290
     1
  9
$FINGERPRINTGUID
  2
{B3797053-BE5A-D209-7CDD-4EE851DFC30F}
  9
$VERSIONGUID
  2
{FAEB1C32-E019-11D5-929B-00C0DF256EC4}
  9
$EXTNAMES
290
     1
  9
$PSVPSCALE
 40
0.0
  9
$OLESTARTUP
290
     0
  9
$SORTENTS
280
   127
  9
$INDEXCTL
280
     0
  9
$HIDETEXT
280
     1
  9
$XCLIPFRAME
280
     2
  9
$HALOGAP
280
     0
  9
$OBSCOLOR
 70
   257
  9
$OBSLTYPE
280
     0
  9
$INTERSECTIONDISPLAY
280
     0
  9
$INTERSECTIONCOLOR
 70
   257
  9
$DIMASSOC
280
     2
  9
$PROJECTNAME
  1

  9
$CAMERADISPLAY
290
     0
  9
$LENSLENGTH
 40
50.0
  9
$CAMERAHEIGHT
 40
0.0
  9
$STEPSPERSEC
 40
2.0
  9
$STEPSIZE
 40
6.0
  9
$3DDWFPREC
 40
2.0
  9
$PSOLWIDTH
 40
0.25
  9
$PSOLHEIGHT
 40
4.0
  9
$LOFTANG1
 40
1.570796326794897
  9
$LOFTANG2
 40
1.570796326794897
  9
$LOFTMAG1
 40
0.0
  9
$LOFTMAG2
 40
0.0
  9
$LOFTPARAM
 70
     7
  9
$LOFTNORMALS
280
     1
  9
$LATITUDE
 40
37.795
  9
$LONGITUDE
 40
-122.394
  9
$NORTHDIRECTION
 40
0.0
  9
$TIMEZONE
 70
 -8000
  9
$LIGHTGLYPHDISPLAY
280
     1
  9
$TILEMODELIGHTSYNCH
280
     1
  9
$CMATERIAL
347
3C
  9
$SOLIDHIST
280
     1
  9
$SHOWHIST
280
     1
  9
$DWFFRAME
280
     2
  9
$DGNFRAME
280
     2
  9
$REALWORLDSCALE
290
     1
  9
$INTERFERECOLOR
 62
   256
  9
$CSHADOW
280
     0
  9
$SHADOWPLANELOCATION
 40
0.0
  0
ENDSEC
  0
SECTION
  2
CLASSES
  0
CLASS
  1
ACDBDICTIONARYWDFLT
  2
AcDbDictionaryWithDefault
  3
ObjectDBX Classes
 90
        0
 91
        4
280
     0
281
     0
  0
CLASS
  1
VISUALSTYLE
  2
AcDbVisualStyle
  3
ObjectDBX Classes
 90
     4095
 91
        4
280
     0
281
     0
  0
CLASS
  1
MATERIAL
  2
AcDbMaterial
  3
ObjectDBX Classes
 90
     1153
 91
        4
280
     0
281
     0
  0
CLASS
  1
SUN
  2
AcDbSun
  3
SCENEOE
 90
     1024
 91
        4
280
     0
281
     0
  0
ENDSEC
  0
SECTION
  2
TABLES
  0
TABLE
  2
VPORT
  5
8
330
0
100
AcDbSymbolTable
 70
     1
  0
VPORT
  5
29
330
8
100
AcDbSymbolTableRecord
100
AcDbViewportTableRecord
  2
*Active
 70
     0
 10
0.0
 20
0.0
 11
1.0
 21
1.0
 12
0.0
 22
0.0
 13
0.0
 23
0.0
 14
0.5
 24
0.5
 15
0.5
 25
0.5
 16
0.0
 26
0.0
 36
1.0
 17
91.00082462281999
 27
-128.4993055234307
 37
0.0
 40
256.9986110468615
 41
0.7081814508812795
 42
50.0
 43
0.0
 44
0.0
 50
0.0
 51
0.0
 71
     0
 72
   100
 73
     1
 74
     3
 75
     0
 76
     0
 77
     0
 78
     0
281
     0
 65
     1
110
0.0
120
0.0
130
0.0
111
1.0
121
0.0
131
0.0
112
0.0
122
1.0
132
0.0
 79
     0
146
0.0
 60
     3
 61
     5
292
     1
282
     1
141
0.0
142
0.0
 63
   250
361
3F
  0
ENDTAB
  0
TABLE
  2
LTYPE
  5
5
330
0
100
AcDbSymbolTable
 70
     2
  0
LTYPE
  5
14
330
5
100
AcDbSymbolTableRecord
100
AcDbLinetypeTableRecord
  2
ByBlock
 70
     0
  3

 72
    65
 73
     0
 40
0.0
  0
LTYPE
  5
15
330
5
100
AcDbSymbolTableRecord
100
AcDbLinetypeTableRecord
  2
ByLayer
 70
     0
  3

 72
    65
 73
     0
 40
0.0
  0
LTYPE
  5
16
330
5
100
AcDbSymbolTableRecord
100
AcDbLinetypeTableRecord
  2
Continuous
 70
     0
  3
Solid line
 72
    65
 73
     0
 40
0.0
  0
LTYPE
  5
EA
330
5
100
AcDbSymbolTableRecord
100
AcDbLinetypeTableRecord
  2
AI-Linetype-1
 70
     0
  3
Adobe Illustrator Linetype No. 1
 72
    65
 73
     2
 40
1.411111110758333
 49
0.7055555553791667
 74
     0
 49
-0.7055555553791667
 74
     0
  0
ENDTAB
  0
TABLE
  2
LAYER
  5
2
330
0
100
AcDbSymbolTable
 70
     2
  0
LAYER
  5
10
330
2
100
AcDbSymbolTableRecord
100
AcDbLayerTableRecord
  2
0
 70
     0
 62
     7
  6
Continuous
370
    -3
390
F
347
3E
  0
LAYER
  5
40
330
2
100
AcDbSymbolTableRecord
100
AcDbLayerTableRecord
  2
_U+30EC_U+30A4_U+30E4_U+30FC 1
 70
     0
 62
     7
  6
Continuous
370
    -3
390
F
347
3E
  0
ENDTAB
  0
TABLE
  2
STYLE
  5
3
330
0
100
AcDbSymbolTable
 70
     1
  0
STYLE
  5
11
330
3
100
AcDbSymbolTableRecord
100
AcDbTextStyleTableRecord
  2
Standard
 70
     0
 40
0.0
 41
1.0
 50
0.0
 71
     0
 42
0.2
  3
txt
  4

  0
ENDTAB
  0
TABLE
  2
VIEW
  5
6
330
0
100
AcDbSymbolTable
 70
     0
  0
ENDTAB
  0
TABLE
  2
UCS
  5
7
330
0
100
AcDbSymbolTable
 70
     0
  0
ENDTAB
  0
TABLE
  2
APPID
  5
9
330
0
100
AcDbSymbolTable
 70
     1
  0
APPID
  5
12
330
9
100
AcDbSymbolTableRecord
100
AcDbRegAppTableRecord
  2
ACAD
 70
     0
  0
ENDTAB
  0
TABLE
  2
DIMSTYLE
  5
A
330
0
100
AcDbSymbolTable
 70
     1
100
AcDbDimStyleTable
  0
DIMSTYLE
105
27
330
A
100
AcDbSymbolTableRecord
100
AcDbDimStyleTableRecord
  2
Standard
 70
     0
178
     0
340
11
  0
ENDTAB
  0
TABLE
  2
BLOCK_RECORD
  5
1
330
0
100
AcDbSymbolTable
 70
     7
  0
BLOCK_RECORD
  5
1F
330
1
100
AcDbSymbolTableRecord
100
AcDbBlockTableRecord
  2
*Model_Space
340
22
 70
     0
280
     1
281
     0
  0
BLOCK_RECORD
  5
1B
330
1
100
AcDbSymbolTableRecord
100
AcDbBlockTableRecord
  2
*Paper_Space
340
1E
 70
     0
280
     1
281
     0
  0
BLOCK_RECORD
  5
23
330
1
100
AcDbSymbolTableRecord
100
AcDbBlockTableRecord
  2
*Paper_Space0
340
26
 70
     0
280
     1
281
     0
  0
BLOCK_RECORD
  5
56
330
1
100
AcDbSymbolTableRecord
100
AcDbBlockTableRecord
  2
block 2
340
0
102
{BLKREFS
331
57
102
}
 70
     0
280
     1
281
     0
  0
BLOCK_RECORD
  5
6C
330
1
100
AcDbSymbolTableRecord
100
AcDbBlockTableRecord
  2
block 3
340
0
102
{BLKREFS
331
6D
102
}
 70
     0
280
     1
281
     0
  0
BLOCK_RECORD
  5
7C
330
1
100
AcDbSymbolTableRecord
100
AcDbBlockTableRecord
  2
block 4
340
0
102
{BLKREFS
331
7D
102
}
 70
     0
280
     1
281
     0
  0
BLOCK_RECORD
  5
94
330
1
100
AcDbSymbolTableRecord
100
AcDbBlockTableRecord
  2
block 5
340
0
102
{BLKREFS
331
95
102
}
 70
     0
280
     1
281
     0
  0
BLOCK_RECORD
  5
A6
330
1
100
AcDbSymbolTableRecord
100
AcDbBlockTableRecord
  2
block 6
340
0
102
{BLKREFS
331
A7
102
}
 70
     0
280
     1
281
     0
  0
BLOCK_RECORD
  5
D7
330
1
100
AcDbSymbolTableRecord
100
AcDbBlockTableRecord
  2
block 7
340
0
102
{BLKREFS
331
D8
102
}
 70
     0
280
     1
281
     0
  0
ENDTAB
  0
ENDSEC
  0
SECTION
  2
BLOCKS
  0
BLOCK
  5
20
330
1F
100
AcDbEntity
  8
0
100
AcDbBlockBegin
  2
*Model_Space
 70
     0
 10
0.0
 20
0.0
 30
0.0
  3
*Model_Space
  1

  0
ENDBLK
  5
21
330
1F
100
AcDbEntity
  8
0
100
AcDbBlockEnd
  0
BLOCK
  5
1C
330
1B
100
AcDbEntity
 67
     1
  8
0
100
AcDbBlockBegin
  2
*Paper_Space
 70
     0
 10
0.0
 20
0.0
 30
0.0
  3
*Paper_Space
  1

  0
ENDBLK
  5
1D
330
1B
100
AcDbEntity
 67
     1
  8
0
100
AcDbBlockEnd
  0
BLOCK
  5
24
330
23
100
AcDbEntity
  8
0
100
AcDbBlockBegin
  2
*Paper_Space0
 70
     0
 10
0.0
 20
0.0
 30
0.0
  3
*Paper_Space0
  1

  0
ENDBLK
  5
25
330
23
100
AcDbEntity
  8
0
100
AcDbBlockEnd
  0
BLOCK
  5
58
330
56
100
AcDbEntity
  8
0
100
AcDbBlockBegin
  2
block 2
 70
     0
 10
0.0
 20
0.0
 30
0.0
  3
block 2
  1

  0
SPLINE
  5
5A
330
56
100
AcDbEntity
  8
_U+30EC_U+30A4_U+30E4_U+30FC 1
370
     0
100
AcDbSpline
210
0.0
220
0.0
230
1.0
 70
    11
 71
     3
 72
    26
 73
    22
 74
     0
 42
0.0000000001
 43
0.0000000001
 12
1.0
 22
0.0
 32
0.0
 13
1.0
 23
0.0
 33
0.0
 40
0.0
 40
0.0
 40
0.0
 40
0.0
 40
1.0
 40
1.0
 40
1.0
 40
2.0
 40
2.0
 40
2.0
 40
3.0
 40
3.0
 40
3.0
 40
4.0
 40
4.0
 40
4.0
 40
5.0
 40
5.0
 40
5.0
 40
6.0
 40
6.0
 40
6.0
 40
7.0
 40
7.0
 40
7.0
 40
7.0
 10
88.02081160993924
 20
-118.2451510663589
 30
0.0
 10
88.02081160993924
 20
-118.2451510663589
 30
0.0
 10
87.78396129532833
 20
-118.2451510663589
 30
0.0
 10
87.78396129532833
 20
-118.2451510663589
 30
0.0
 10
87.8092827471449
 20
-117.9362982561062
 30
0.0
 10
88.00186358477038
 20
-117.4179836403504
 30
0.0
 10
88.40804034248133
 20
-116.91241587789
 30
0.0
 10
88.40804034248133
 20
-116.91241587789
 30
0.0
 10
87.57019312046857
 20
-116.91241587789
 30
0.0
 10
87.57019312046857
 20
-116.91241587789
 30
0.0
 10
87.57019312046857
 20
-116.91241587789
 30
0.0
 10
87.57019312046857
 20
-116.7008870150956
 30
0.0
 10
87.57019312046857
 20
-116.7008870150956
 30
0.0
 10
87.57019312046857
 20
-116.7008870150956
 30
0.0
 10
88.64489065709225
 20
-116.7008870150956
 30
0.0
 10
88.64489065709225
 20
-116.7008870150956
 30
0.0
 10
88.64489065709225
 20
-116.7008870150956
 30
0.0
 10
88.64489065709225
 20
-116.91241587789
 30
0.0
 10
88.64489065709225
 20
-116.91241587789
 30
0.0
 10
88.32122393625303
 20
-117.2021484081995
 30
0.0
 10
88.05474580046895
 20
-117.7945325768882
 30
0.0
 10
88.02081160993924
 20
-118.2451510663589
 30
0.0
  0
HATCH
  5
5B
330
56
100
AcDbEntity
  8
_U+30EC_U+30A4_U+30E4_U+30FC 1
 62
     7
420
 16777215
100
AcDbHatch
 10
0.0
 20
0.0
 30
0.0
210
0.0
220
0.0
230
1.0
  2
SOLID
 70
     1
 71
     0
 91
        1
 92
        1
 93
        1
 72
     4
 94
        3
 73
     0
 74
     1
 95
       26
 96
       22
 40
0.0
 40
0.0
 40
0.0
 40
0.0
 40
1.0
 40
1.0
 40
1.0
 40
2.0
 40
2.0
 40
2.0
 40
3.0
 40
3.0
 40
3.0
 40
4.0
 40
4.0
 40
4.0
 40
5.0
 40
5.0
 40
5.0
 40
6.0
 40
6.0
 40
6.0
 40
7.0
 40
7.0
 40
7.0
 40
7.0
 10
88.02081160993924
 20
-118.2451510663589
 10
88.02081160993924
 20
-118.2451510663589
 10
87.78396129532833
 20
-118.2451510663589
 10
87.78396129532833
 20
-118.2451510663589
 10
87.8092827471449
 20
-117.9362982561062
 10
88.00186358477038
 20
-117.4179836403504
 10
88.40804034248133
 20
-116.91241587789
 10
88.40804034248133
 20
-116.91241587789
 10
87.57019312046857
 20
-116.91241587789
 10
87.57019312046857
 20
-116.91241587789
 10
87.57019312046857
 20
-116.91241587789
 10
87.57019312046857
 20
-116.7008870150956
 10
87.57019312046857
 20
-116.7008870150956
 10
87.57019312046857
 20
-116.7008870150956
 10
88.64489065709225
 20
-116.7008870150956
 10
88.64489065709225
 20
-116.7008870150956
 10
88.64489065709225
 20
-116.7008870150956
 10
88.64489065709225
 20
-116.91241587789
 10
88.64489065709225
 20
-116.91241587789
 10
88.32122393625303
 20
-117.2021484081995
 10
88.05474580046895
 20
-117.7945325768882
 10
88.02081160993924
 20
-118.2451510663589
 97
        0
 97
        0
 75
     2
 76
     1
 98
        0
  0
ENDBLK
  5
59
330
56
100
AcDbEntity
  8
0
100
AcDbBlockEnd
  0
BLOCK
  5
6E
330
6C
100
AcDbEntity
  8
0
100
AcDbBlockBegin
  2
block 3
 70
     0
 10
0.0
 20
0.0
 30
0.0
  3
block 3
  1

  0
SPLINE
  5
70
330
6C
100
AcDbEntity
  8
_U+30EC_U+30A4_U+30E4_U+30FC 1
370
     0
100
AcDbSpline
210
0.0
220
0.0
230
1.0
 70
    11
 71
     3
 72
    26
 73
    22
 74
     0
 42
0.0000000001
 43
0.0000000001
 12
1.0
 22
0.0
 32
0.0
 13
1.0
 23
0.0
 33
0.0
 40
0.0
 40
0.0
 40
0.0
 40
0.0
 40
1.0
 40
1.0
 40
1.0
 40
2.0
 40
2.0
 40
2.0
 40
3.0
 40
3.0
 40
3.0
 40
4.0
 40
4.0
 40
4.0
 40
5.0
 40
5.0
 40
5.0
 40
6.0
 40
6.0
 40
6.0
 40
7.0
 40
7.0
 40
7.0
 40
7.0
 10
87.57949487827874
 20
-124.5675903008894
 30
0.0
 10
87.57949487827874
 20
-124.5675903008894
 30
0.0
 10
87.57949487827874
 20
-123.4632649430925
 30
0.0
 10
87.57949487827874
 20
-123.4632649430925
 30
0.0
 10
87.57949487827874
 20
-123.4632649430925
 30
0.0
 10
87.24945473079181
 20
-123.4632649430925
 30
0.0
 10
87.24945473079181
 20
-123.4632649430925
 30
0.0
 10
87.24945473079181
 20
-123.4632649430925
 30
0.0
 10
87.24945473079181
 20
-123.3151258372268
 30
0.0
 10
87.24945473079181
 20
-123.3151258372268
 30
0.0
 10
87.5815619355699
 20
-123.3004841814145
 30
0.0
 10
87.62807072462077
 20
-123.1375311649622
 30
0.0
 10
87.6576985457939
 20
-123.0233262496261
 30
0.0
 10
87.6576985457939
 20
-123.0233262496261
 30
0.0
 10
87.8037705943685
 20
-123.0233262496261
 30
0.0
 10
87.8037705943685
 20
-123.0233262496261
 30
0.0
 10
87.8037705943685
 20
-123.0233262496261
 30
0.0
 10
87.8037705943685
 20
-124.5675903008894
 30
0.0
 10
87.8037705943685
 20
-124.5675903008894
 30
0.0
 10
87.8037705943685
 20
-124.5675903008894
 30
0.0
 10
87.57949487827874
 20
-124.5675903008894
 30
0.0
 10
87.57949487827874
 20
-124.5675903008894
 30
0.0
  0
HATCH
  5
71
330
6C
100
AcDbEntity
  8
_U+30EC_U+30A4_U+30E4_U+30FC 1
 62
     7
420
 16777215
100
AcDbHatch
 10
0.0
 20
0.0
 30
0.0
210
0.0
220
0.0
230
1.0
  2
SOLID
 70
     1
 71
     0
 91
        1
 92
        1
 93
        1
 72
     4
 94
        3
 73
     0
 74
     1
 95
       26
 96
       22
 40
0.0
 40
0.0
 40
0.0
 40
0.0
 40
1.0
 40
1.0
 40
1.0
 40
2.0
 40
2.0
 40
2.0
 40
3.0
 40
3.0
 40
3.0
 40
4.0
 40
4.0
 40
4.0
 40
5.0
 40
5.0
 40
5.0
 40
6.0
 40
6.0
 40
6.0
 40
7.0
 40
7.0
 40
7.0
 40
7.0
 10
87.57949487827874
 20
-124.5675903008894
 10
87.57949487827874
 20
-124.5675903008894
 10
87.57949487827874
 20
-123.4632649430925
 10
87.57949487827874
 20
-123.4632649430925
 10
87.57949487827874
 20
-123.4632649430925
 10
87.24945473079181
 20
-123.4632649430925
 10
87.24945473079181
 20
-123.4632649430925
 10
87.24945473079181
 20
-123.4632649430925
 10
87.24945473079181
 20
-123.3151258372268
 10
87.24945473079181
 20
-123.3151258372268
 10
87.5815619355699
 20
-123.3004841814145
 10
87.62807072462077
 20
-123.1375311649622
 10
87.6576985457939
 20
-123.0233262496261
 10
87.6576985457939
 20
-123.0233262496261
 10
87.8037705943685
 20
-123.0233262496261
 10
87.8037705943685
 20
-123.0233262496261
 10
87.8037705943685
 20
-123.0233262496261
 10
87.8037705943685
 20
-124.5675903008894
 10
87.8037705943685
 20
-124.5675903008894
 10
87.8037705943685
 20
-124.5675903008894
 10
87.57949487827874
 20
-124.5675903008894
 10
87.57949487827874
 20
-124.5675903008894
 97
        0
 97
        0
 75
     2
 76
     1
 98
        0
  0
ENDBLK
  5
6F
330
6C
100
AcDbEntity
  8
0
100
AcDbBlockEnd
  0
BLOCK
  5
7E
330
7C
100
AcDbEntity
  8
0
100
AcDbBlockBegin
  2
block 4
 70
     0
 10
0.0
 20
0.0
 30
0.0
  3
block 4
  1

  0
SPLINE
  5
80
330
7C
100
AcDbEntity
  8
_U+30EC_U+30A4_U+30E4_U+30FC 1
370
     0
100
AcDbSpline
210
0.0
220
0.0
230
1.0
 70
    11
 71
     3
 72
    53
 73
    49
 74
     0
 42
0.0000000001
 43
0.0000000001
 12
1.0
 22
0.0
 32
0.0
 13
1.0
 23
0.0
 33
0.0
 40
0.0
 40
0.0
 40
0.0
 40
0.0
 40
1.0
 40
1.0
 40
1.0
 40
2.0
 40
2.0
 40
2.0
 40
3.0
 40
3.0
 40
3.0
 40
4.0
 40
4.0
 40
4.0
 40
5.0
 40
5.0
 40
5.0
 40
6.0
 40
6.0
 40
6.0
 40
7.0
 40
7.0
 40
7.0
 40
8.0
 40
8.0
 40
8.0
 40
9.0
 40
9.0
 40
9.0
 40
10.0
 40
10.0
 40
10.0
 40
11.0
 40
11.0
 40
11.0
 40
12.0
 40
12.0
 40
12.0
 40
13.0
 40
13.0
 40
13.0
 40
14.0
 40
14.0
 40
14.0
 40
15.0
 40
15.0
 40
15.0
 40
16.0
 40
16.0
 40
16.0
 40
16.0
 10
103.0789794664178
 20
-132.7488308044864
 30
0.0
 10
103.0789794664178
 20
-132.8270344720016
 30
0.0
 10
103.06209849854
 20
-132.9286647888165
 30
0.0
 10
102.9987087416114
 20
-133.0302951056313
 30
0.0
 10
102.888810195632
 20
-133.2035834085394
 30
0.0
 10
102.7575520576439
 20
-133.2249430005479
 30
0.0
 10
102.6497205689556
 20
-133.2438910257168
 30
0.0
 10
102.6497205689556
 20
-133.2438910257168
 30
0.0
 10
102.6497205689556
 20
-133.0216823669182
 30
0.0
 10
102.6497205689556
 20
-133.0216823669182
 30
0.0
 10
102.8485025784545
 20
-132.9669053487027
 30
0.0
 10
102.8781303996277
 20
-132.839781325297
 30
0.0
 10
102.8781303996277
 20
-132.7467637471952
 30
0.0
 10
102.8781303996277
 20
-132.6072373800426
 30
0.0
 10
102.778567140104
 20
-132.4549641595946
 30
0.0
 10
102.5460231948496
 20
-132.4549641595946
 30
0.0
 10
102.2900526002956
 20
-132.4549641595946
 30
0.0
 10
102.220117161945
 20
-132.6347981439246
 30
0.0
 10
102.220117161945
 20
-132.7553764859084
 30
0.0
 10
102.220117161945
 20
-132.7870713643727
 30
0.0
 10
102.220117161945
 20
-132.9286647888165
 30
0.0
 10
102.3493082426418
 20
-133.0175482523359
 30
0.0
 10
102.3493082426418
 20
-133.0175482523359
 30
0.0
 10
102.330360217473
 20
-133.1932481220836
 30
0.0
 10
102.330360217473
 20
-133.1932481220836
 30
0.0
 10
102.330360217473
 20
-133.1932481220836
 30
0.0
 10
101.4839002567471
 20
-133.0726697800999
 30
0.0
 10
101.4839002567471
 20
-133.0726697800999
 30
0.0
 10
101.4839002567471
 20
-133.0726697800999
 30
0.0
 10
101.4839002567471
 20
-132.2940782004334
 30
0.0
 10
101.4839002567471
 20
-132.2940782004334
 30
0.0
 10
101.4839002567471
 20
-132.2940782004334
 30
0.0
 10
101.6785481516637
 20
-132.2940782004334
 30
0.0
 10
101.6785481516637
 20
-132.2940782004334
 30
0.0
 10
101.6785481516637
 20
-132.2940782004334
 30
0.0
 10
101.6785481516637
 20
-132.9097167636476
 30
0.0
 10
101.6785481516637
 20
-132.9097167636476
 30
0.0
 10
101.6785481516637
 20
-132.9097167636476
 30
0.0
 10
102.1016058772524
 20
-132.9751735778673
 30
0.0
 10
102.1016058772524
 20
-132.9751735778673
 30
0.0
 10
102.0678439414969
 20
-132.9138508782299
 30
0.0
 10
102.0275363243195
 20
-132.8315130961324
 30
0.0
 10
102.0275363243195
 20
-132.7130018114398
 30
0.0
 10
102.0275363243195
 20
-132.4590982741769
 30
0.0
 10
102.2139159900715
 20
-132.2220757047917
 30
0.0
 10
102.5270751696807
 20
-132.2220757047917
 30
0.0
 10
102.8443684638722
 20
-132.2220757047917
 30
0.0
 10
103.0789794664178
 20
-132.4463514208815
 30
0.0
 10
103.0789794664178
 20
-132.7488308044864
 30
0.0
  0
HATCH
  5
81
330
7C
100
AcDbEntity
  8
_U+30EC_U+30A4_U+30E4_U+30FC 1
 62
     7
420
 16777215
100
AcDbHatch
 10
0.0
 20
0.0
 30
0.0
210
0.0
220
0.0
230
1.0
  2
SOLID
 70
     1
 71
     0
 91
        1
 92
        1
 93
        1
 72
     4
 94
        3
 73
     0
 74
     1
 95
       53
 96
       49
 40
0.0
 40
0.0
 40
0.0
 40
0.0
 40
1.0
 40
1.0
 40
1.0
 40
2.0
 40
2.0
 40
2.0
 40
3.0
 40
3.0
 40
3.0
 40
4.0
 40
4.0
 40
4.0
 40
5.0
 40
5.0
 40
5.0
 40
6.0
 40
6.0
 40
6.0
 40
7.0
 40
7.0
 40
7.0
 40
8.0
 40
8.0
 40
8.0
 40
9.0
 40
9.0
 40
9.0
 40
10.0
 40
10.0
 40
10.0
 40
11.0
 40
11.0
 40
11.0
 40
12.0
 40
12.0
 40
12.0
 40
13.0
 40
13.0
 40
13.0
 40
14.0
 40
14.0
 40
14.0
 40
15.0
 40
15.0
 40
15.0
 40
16.0
 40
16.0
 40
16.0
 40
16.0
 10
103.0789794664178
 20
-132.7488308044864
 10
103.0789794664178
 20
-132.8270344720016
 10
103.06209849854
 20
-132.9286647888165
 10
102.9987087416114
 20
-133.0302951056313
 10
102.888810195632
 20
-133.2035834085394
 10
102.7575520576439
 20
-133.2249430005479
 10
102.6497205689556
 20
-133.2438910257168
 10
102.6497205689556
 20
-133.2438910257168
 10
102.6497205689556
 20
-133.0216823669182
 10
102.6497205689556
 20
-133.0216823669182
 10
102.8485025784545
 20
-132.9669053487027
 10
102.8781303996277
 20
-132.839781325297
 10
102.8781303996277
 20
-132.7467637471952
 10
102.8781303996277
 20
-132.6072373800426
 10
102.778567140104
 20
-132.4549641595946
 10
102.5460231948496
 20
-132.4549641595946
 10
102.2900526002956
 20
-132.4549641595946
 10
102.220117161945
 20
-132.6347981439246
 10
102.220117161945
 20
-132.7553764859084
 10
102.220117161945
 20
-132.7870713643727
 10
102.220117161945
 20
-132.9286647888165
 10
102.3493082426418
 20
-133.0175482523359
 10
102.3493082426418
 20
-133.0175482523359
 10
102.330360217473
 20
-133.1932481220836
 10
102.330360217473
 20
-133.1932481220836
 10
102.330360217473
 20
-133.1932481220836
 10
101.4839002567471
 20
-133.0726697800999
 10
101.4839002567471
 20
-133.0726697800999
 10
101.4839002567471
 20
-133.0726697800999
 10
101.4839002567471
 20
-132.2940782004334
 10
101.4839002567471
 20
-132.2940782004334
 10
101.4839002567471
 20
-132.2940782004334
 10
101.6785481516637
 20
-132.2940782004334
 10
101.6785481516637
 20
-132.2940782004334
 10
101.6785481516637
 20
-132.2940782004334
 10
101.6785481516637
 20
-132.9097167636476
 10
101.6785481516637
 20
-132.9097167636476
 10
101.6785481516637
 20
-132.9097167636476
 10
102.1016058772524
 20
-132.9751735778673
 10
102.1016058772524
 20
-132.9751735778673
 10
102.0678439414969
 20
-132.9138508782299
 10
102.0275363243195
 20
-132.8315130961324
 10
102.0275363243195
 20
-132.7130018114398
 10
102.0275363243195
 20
-132.4590982741769
 10
102.2139159900715
 20
-132.2220757047917
 10
102.5270751696807
 20
-132.2220757047917
 10
102.8443684638722
 20
-132.2220757047917
 10
103.0789794664178
 20
-132.4463514208815
 10
103.0789794664178
 20
-132.7488308044864
 97
        0
 97
        0
 75
     2
 76
     1
 98
        0
  0
POLYLINE
  5
82
330
7C
100
AcDbEntity
  8
_U+30EC_U+30A4_U+30E4_U+30FC 1
370
     0
100
AcDb2dPolyline
 66
     1
 10
0.0
 20
0.0
 30
0.0
  0
VERTEX
  5
83
330
82
100
AcDbEntity
  8
_U+30EC_U+30A4_U+30E4_U+30FC 1
370
     0
100
AcDbVertex
100
AcDb2dVertex
 10
103.0283365627846
 20
-131.9929768550226
 30
0.0
  0
VERTEX
  5
84
330
82
100
AcDbEntity
  8
_U+30EC_U+30A4_U+30E4_U+30FC 1
370
     0
100
AcDbVertex
100
AcDb2dVertex
 10
102.7765000828128
 20
-131.9929768550226
 30
0.0
  0
VERTEX
  5
85
330
82
100
AcDbEntity
  8
_U+30EC_U+30A4_U+30E4_U+30FC 1
370
     0
100
AcDbVertex
100
AcDb2dVertex
 10
102.7765000828128
 20
-131.7411403750508
 30
0.0
  0
VERTEX
  5
86
330
82
100
AcDbEntity
  8
_U+30EC_U+30A4_U+30E4_U+30FC 1
370
     0
100
AcDbVertex
100
AcDb2dVertex
 10
103.0283365627846
 20
-131.7411403750508
 30
0.0
  0
VERTEX
  5
87
330
82
100
AcDbEntity
  8
_U+30EC_U+30A4_U+30E4_U+30FC 1
370
     0
100
AcDbVertex
100
AcDb2dVertex
 10
103.0283365627846
 20
-131.9929768550226
 30
0.0
  0
SEQEND
  5
88
330
82
100
AcDbEntity
  8
_U+30EC_U+30A4_U+30E4_U+30FC 1
370
     0
  0
HATCH
  5
89
330
7C
100
AcDbEntity
  8
_U+30EC_U+30A4_U+30E4_U+30FC 1
 62
     7
420
 16777215
100
AcDbHatch
 10
0.0
 20
0.0
 30
0.0
210
0.0
220
0.0
230
1.0
  2
SOLID
 70
     1
 71
     0
 91
        1
 92
        1
 93
        4
 72
     1
 10
103.0283365627846
 20
-131.9929768550226
 11
102.7765000828128
 21
-131.9929768550226
 72
     1
 10
102.7765000828128
 20
-131.9929768550226
 11
102.7765000828128
 21
-131.7411403750508
 72
     1
 10
102.7765000828128
 20
-131.7411403750508
 11
103.0283365627846
 21
-131.7411403750508
 72
     1
 10
103.0283365627846
 20
-131.7411403750508
 11
103.0283365627846
 21
-131.9929768550226
 97
        0
 75
     2
 76
     1
 98
        0
  0
SPLINE
  5
8A
330
7C
100
AcDbEntity
  8
_U+30EC_U+30A4_U+30E4_U+30FC 1
370
     0
100
AcDbSpline
210
0.0
220
0.0
230
1.0
 70
    11
 71
     3
 72
    53
 73
    49
 74
     0
 42
0.0000000001
 43
0.0000000001
 12
1.0
 22
0.0
 32
0.0
 13
1.0
 23
0.0
 33
0.0
 40
0.0
 40
0.0
 40
0.0
 40
0.0
 40
1.0
 40
1.0
 40
1.0
 40
2.0
 40
2.0
 40
2.0
 40
3.0
 40
3.0
 40
3.0
 40
4.0
 40
4.0
 40
4.0
 40
5.0
 40
5.0
 40
5.0
 40
6.0
 40
6.0
 40
6.0
 40
7.0
 40
7.0
 40
7.0
 40
8.0
 40
8.0
 40
8.0
 40
9.0
 40
9.0
 40
9.0
 40
10.0
 40
10.0
 40
10.0
 40
11.0
 40
11.0
 40
11.0
 40
12.0
 40
12.0
 40
12.0
 40
13.0
 40
13.0
 40
13.0
 40
14.0
 40
14.0
 40
14.0
 40
15.0
 40
15.0
 40
15.0
 40
16.0
 40
16.0
 40
16.0
 40
16.0
 10
103.0789794664178
 20
-131.0238714950218
 30
0.0
 10
103.0789794664178
 20
-131.102075162537
 30
0.0
 10
103.06209849854
 20
-131.2037054793519
 30
0.0
 10
102.9987087416114
 20
-131.3053357961667
 30
0.0
 10
102.888810195632
 20
-131.4786240990748
 30
0.0
 10
102.7575520576439
 20
-131.4999836910833
 30
0.0
 10
102.6497205689556
 20
-131.5189317162522
 30
0.0
 10
102.6497205689556
 20
-131.5189317162522
 30
0.0
 10
102.6497205689556
 20
-131.2967230574536
 30
0.0
 10
102.6497205689556
 20
-131.2967230574536
 30
0.0
 10
102.8485025784545
 20
-131.2419460392381
 30
0.0
 10
102.8781303996277
 20
-131.1148220158324
 30
0.0
 10
102.8781303996277
 20
-131.0218044377307
 30
0.0
 10
102.8781303996277
 20
-130.8822780705781
 30
0.0
 10
102.778567140104
 20
-130.73000485013
 30
0.0
 10
102.5460231948496
 20
-130.73000485013
 30
0.0
 10
102.2900526002956
 20
-130.73000485013
 30
0.0
 10
102.220117161945
 20
-130.90983883446
 30
0.0
 10
102.220117161945
 20
-131.0304171764438
 30
0.0
 10
102.220117161945
 20
-131.0621120549081
 30
0.0
 10
102.220117161945
 20
-131.2037054793519
 30
0.0
 10
102.3493082426418
 20
-131.2925889428713
 30
0.0
 10
102.3493082426418
 20
-131.2925889428713
 30
0.0
 10
102.330360217473
 20
-131.4682888126191
 30
0.0
 10
102.330360217473
 20
-131.4682888126191
 30
0.0
 10
102.330360217473
 20
-131.4682888126191
 30
0.0
 10
101.4839002567471
 20
-131.3477104706353
 30
0.0
 10
101.4839002567471
 20
-131.3477104706353
 30
0.0
 10
101.4839002567471
 20
-131.3477104706353
 30
0.0
 10
101.4839002567471
 20
-130.5691188909688
 30
0.0
 10
101.4839002567471
 20
-130.5691188909688
 30
0.0
 10
101.4839002567471
 20
-130.5691188909688
 30
0.0
 10
101.6785481516637
 20
-130.5691188909688
 30
0.0
 10
101.6785481516637
 20
-130.5691188909688
 30
0.0
 10
101.6785481516637
 20
-130.5691188909688
 30
0.0
 10
101.6785481516637
 20
-131.184757454183
 30
0.0
 10
101.6785481516637
 20
-131.184757454183
 30
0.0
 10
101.6785481516637
 20
-131.184757454183
 30
0.0
 10
102.1016058772524
 20
-131.2502142684027
 30
0.0
 10
102.1016058772524
 20
-131.2502142684027
 30
0.0
 10
102.0678439414969
 20
-131.1888915687653
 30
0.0
 10
102.0275363243195
 20
-131.1065537866678
 30
0.0
 10
102.0275363243195
 20
-130.9880425019752
 30
0.0
 10
102.0275363243195
 20
-130.7341389647123
 30
0.0
 10
102.2139159900715
 20
-130.4971163953271
 30
0.0
 10
102.5270751696807
 20
-130.4971163953271
 30
0.0
 10
102.8443684638722
 20
-130.4971163953271
 30
0.0
 10
103.0789794664178
 20
-130.7213921114169
 30
0.0
 10
103.0789794664178
 20
-131.0238714950218
 30
0.0
  0
HATCH
  5
8B
330
7C
100
AcDbEntity
  8
_U+30EC_U+30A4_U+30E4_U+30FC 1
 62
     7
420
 16777215
100
AcDbHatch
 10
0.0
 20
0.0
 30
0.0
210
0.0
220
0.0
230
1.0
  2
SOLID
 70
     1
 71
     0
 91
        1
 92
        1
 93
        1
 72
     4
 94
        3
 73
     0
 74
     1
 95
       53
 96
       49
 40
0.0
 40
0.0
 40
0.0
 40
0.0
 40
1.0
 40
1.0
 40
1.0
 40
2.0
 40
2.0
 40
2.0
 40
3.0
 40
3.0
 40
3.0
 40
4.0
 40
4.0
 40
4.0
 40
5.0
 40
5.0
 40
5.0
 40
6.0
 40
6.0
 40
6.0
 40
7.0
 40
7.0
 40
7.0
 40
8.0
 40
8.0
 40
8.0
 40
9.0
 40
9.0
 40
9.0
 40
10.0
 40
10.0
 40
10.0
 40
11.0
 40
11.0
 40
11.0
 40
12.0
 40
12.0
 40
12.0
 40
13.0
 40
13.0
 40
13.0
 40
14.0
 40
14.0
 40
14.0
 40
15.0
 40
15.0
 40
15.0
 40
16.0
 40
16.0
 40
16.0
 40
16.0
 10
103.0789794664178
 20
-131.0238714950218
 10
103.0789794664178
 20
-131.102075162537
 10
103.06209849854
 20
-131.2037054793519
 10
102.9987087416114
 20
-131.3053357961667
 10
102.888810195632
 20
-131.4786240990748
 10
102.7575520576439
 20
-131.4999836910833
 10
102.6497205689556
 20
-131.5189317162522
 10
102.6497205689556
 20
-131.5189317162522
 10
102.6497205689556
 20
-131.2967230574536
 10
102.6497205689556
 20
-131.2967230574536
 10
102.8485025784545
 20
-131.2419460392381
 10
102.8781303996277
 20
-131.1148220158324
 10
102.8781303996277
 20
-131.0218044377307
 10
102.8781303996277
 20
-130.8822780705781
 10
102.778567140104
 20
-130.73000485013
 10
102.5460231948496
 20
-130.73000485013
 10
102.2900526002956
 20
-130.73000485013
 10
102.220117161945
 20
-130.90983883446
 10
102.220117161945
 20
-131.0304171764438
 10
102.220117161945
 20
-131.0621120549081
 10
102.220117161945
 20
-131.2037054793519
 10
102.3493082426418
 20
-131.2925889428713
 10
102.3493082426418
 20
-131.2925889428713
 10
102.330360217473
 20
-131.4682888126191
 10
102.330360217473
 20
-131.4682888126191
 10
102.330360217473
 20
-131.4682888126191
 10
101.4839002567471
 20
-131.3477104706353
 10
101.4839002567471
 20
-131.3477104706353
 10
101.4839002567471
 20
-131.3477104706353
 10
101.4839002567471
 20
-130.5691188909688
 10
101.4839002567471
 20
-130.5691188909688
 10
101.4839002567471
 20
-130.5691188909688
 10
101.6785481516637
 20
-130.5691188909688
 10
101.6785481516637
 20
-130.5691188909688
 10
101.6785481516637
 20
-130.5691188909688
 10
101.6785481516637
 20
-131.184757454183
 10
101.6785481516637
 20
-131.184757454183
 10
101.6785481516637
 20
-131.184757454183
 10
102.1016058772524
 20
-131.2502142684027
 10
102.1016058772524
 20
-131.2502142684027
 10
102.0678439414969
 20
-131.1888915687653
 10
102.0275363243195
 20
-131.1065537866678
 10
102.0275363243195
 20
-130.9880425019752
 10
102.0275363243195
 20
-130.7341389647123
 10
102.2139159900715
 20
-130.4971163953271
 10
102.5270751696807
 20
-130.4971163953271
 10
102.8443684638722
 20
-130.4971163953271
 10
103.0789794664178
 20
-130.7213921114169
 10
103.0789794664178
 20
-131.0238714950218
 97
        0
 97
        0
 75
     2
 76
     1
 98
        0
  0
ENDBLK
  5
7F
330
7C
100
AcDbEntity
  8
0
100
AcDbBlockEnd
  0
BLOCK
  5
96
330
94
100
AcDbEntity
  8
0
100
AcDbBlockBegin
  2
block 5
 70
     0
 10
0.0
 20
0.0
 30
0.0
  3
block 5
  1

  0
SPLINE
  5
98
330
94
100
AcDbEntity
  8
_U+30EC_U+30A4_U+30E4_U+30FC 1
370
     0
100
AcDbSpline
210
0.0
220
0.0
230
1.0
 70
    11
 71
     3
 72
    26
 73
    22
 74
     0
 42
0.0000000001
 43
0.0000000001
 12
1.0
 22
0.0
 32
0.0
 13
1.0
 23
0.0
 33
0.0
 40
0.0
 40
0.0
 40
0.0
 40
0.0
 40
1.0
 40
1.0
 40
1.0
 40
2.0
 40
2.0
 40
2.0
 40
3.0
 40
3.0
 40
3.0
 40
4.0
 40
4.0
 40
4.0
 40
5.0
 40
5.0
 40
5.0
 40
6.0
 40
6.0
 40
6.0
 40
7.0
 40
7.0
 40
7.0
 40
7.0
 10
103.0324706773669
 20
-124.8910847669543
 30
0.0
 10
103.0324706773669
 20
-124.8910847669543
 30
0.0
 10
103.0324706773669
 20
-125.1279350815652
 30
0.0
 10
103.0324706773669
 20
-125.1279350815652
 30
0.0
 10
102.72344561234
 20
-125.1026136297487
 30
0.0
 10
102.2053032513584
 20
-124.9100327921232
 30
0.0
 10
101.6995632341237
 20
-124.5038560344122
 30
0.0
 10
101.6995632341237
 20
-124.5038560344122
 30
0.0
 10
101.6995632341237
 20
-125.341703256425
 30
0.0
 10
101.6995632341237
 20
-125.341703256425
 30
0.0
 10
101.6995632341237
 20
-125.341703256425
 30
0.0
 10
101.4880343713294
 20
-125.341703256425
 30
0.0
 10
101.4880343713294
 20
-125.341703256425
 30
0.0
 10
101.4880343713294
 20
-125.341703256425
 30
0.0
 10
101.4880343713294
 20
-124.2670057198013
 30
0.0
 10
101.4880343713294
 20
-124.2670057198013
 30
0.0
 10
101.4880343713294
 20
-124.2670057198013
 30
0.0
 10
101.6995632341237
 20
-124.2670057198013
 30
0.0
 10
101.6995632341237
 20
-124.2670057198013
 30
0.0
 10
101.9896402739818
 20
-124.5906724406405
 30
0.0
 10
102.5818521878962
 20
-124.8571505764246
 30
0.0
 10
103.0324706773669
 20
-124.8910847669543
 30
0.0
  0
HATCH
  5
99
330
94
100
AcDbEntity
  8
_U+30EC_U+30A4_U+30E4_U+30FC 1
 62
     7
420
 16777215
100
AcDbHatch
 10
0.0
 20
0.0
 30
0.0
210
0.0
220
0.0
230
1.0
  2
SOLID
 70
     1
 71
     0
 91
        1
 92
        1
 93
        1
 72
     4
 94
        3
 73
     0
 74
     1
 95
       26
 96
       22
 40
0.0
 40
0.0
 40
0.0
 40
0.0
 40
1.0
 40
1.0
 40
1.0
 40
2.0
 40
2.0
 40
2.0
 40
3.0
 40
3.0
 40
3.0
 40
4.0
 40
4.0
 40
4.0
 40
5.0
 40
5.0
 40
5.0
 40
6.0
 40
6.0
 40
6.0
 40
7.0
 40
7.0
 40
7.0
 40
7.0
 10
103.0324706773669
 20
-124.8910847669543
 10
103.0324706773669
 20
-124.8910847669543
 10
103.0324706773669
 20
-125.1279350815652
 10
103.0324706773669
 20
-125.1279350815652
 10
102.72344561234
 20
-125.1026136297487
 10
102.2053032513584
 20
-124.9100327921232
 10
101.6995632341237
 20
-124.5038560344122
 10
101.6995632341237
 20
-124.5038560344122
 10
101.6995632341237
 20
-125.341703256425
 10
101.6995632341237
 20
-125.341703256425
 10
101.6995632341237
 20
-125.341703256425
 10
101.4880343713294
 20
-125.341703256425
 10
101.4880343713294
 20
-125.341703256425
 10
101.4880343713294
 20
-125.341703256425
 10
101.4880343713294
 20
-124.2670057198013
 10
101.4880343713294
 20
-124.2670057198013
 10
101.4880343713294
 20
-124.2670057198013
 10
101.6995632341237
 20
-124.2670057198013
 10
101.6995632341237
 20
-124.2670057198013
 10
101.9896402739818
 20
-124.5906724406405
 10
102.5818521878962
 20
-124.8571505764246
 10
103.0324706773669
 20
-124.8910847669543
 97
        0
 97
        0
 75
     2
 76
     1
 98
        0
  0
ENDBLK
  5
97
330
94
100
AcDbEntity
  8
0
100
AcDbBlockEnd
  0
BLOCK
  5
A8
330
A6
100
AcDbEntity
  8
0
100
AcDbBlockBegin
  2
block 6
 70
     0
 10
0.0
 20
0.0
 30
0.0
  3
block 6
  1

  0
SPLINE
  5
AA
330
A6
100
AcDbEntity
  8
_U+30EC_U+30A4_U+30E4_U+30FC 1
370
     0
100
AcDbSpline
210
0.0
220
0.0
230
1.0
 70
    11
 71
     3
 72
    26
 73
    22
 74
     0
 42
0.0000000001
 43
0.0000000001
 12
1.0
 22
0.0
 32
0.0
 13
1.0
 23
0.0
 33
0.0
 40
0.0
 40
0.0
 40
0.0
 40
0.0
 40
1.0
 40
1.0
 40
1.0
 40
2.0
 40
2.0
 40
2.0
 40
3.0
 40
3.0
 40
3.0
 40
4.0
 40
4.0
 40
4.0
 40
5.0
 40
5.0
 40
5.0
 40
6.0
 40
6.0
 40
6.0
 40
7.0
 40
7.0
 40
7.0
 40
7.0
 10
79.02790661001734
 20
-129.9524467991091
 30
0.0
 10
79.02790661001734
 20
-129.9524467991091
 30
0.0
 10
77.9235812522205
 20
-129.9524467991091
 30
0.0
 10
77.9235812522205
 20
-129.9524467991091
 30
0.0
 10
77.9235812522205
 20
-129.9524467991091
 30
0.0
 10
77.9235812522205
 20
-130.282486946596
 30
0.0
 10
77.9235812522205
 20
-130.282486946596
 30
0.0
 10
77.9235812522205
 20
-130.282486946596
 30
0.0
 10
77.77544214635475
 20
-130.282486946596
 30
0.0
 10
77.77544214635475
 20
-130.282486946596
 30
0.0
 10
77.76080049054244
 20
-129.950379741818
 30
0.0
 10
77.59784747409013
 20
-129.9038709527671
 30
0.0
 10
77.4836425587541
 20
-129.8742431315939
 30
0.0
 10
77.4836425587541
 20
-129.8742431315939
 30
0.0
 10
77.4836425587541
 20
-129.7281710830194
 30
0.0
 10
77.4836425587541
 20
-129.7281710830194
 30
0.0
 10
77.4836425587541
 20
-129.7281710830194
 30
0.0
 10
79.02790661001734
 20
-129.7281710830194
 30
0.0
 10
79.02790661001734
 20
-129.7281710830194
 30
0.0
 10
79.02790661001734
 20
-129.7281710830194
 30
0.0
 10
79.02790661001734
 20
-129.9524467991091
 30
0.0
 10
79.02790661001734
 20
-129.9524467991091
 30
0.0
  0
HATCH
  5
AB
330
A6
100
AcDbEntity
  8
_U+30EC_U+30A4_U+30E4_U+30FC 1
 62
     7
420
 16777215
100
AcDbHatch
 10
0.0
 20
0.0
 30
0.0
210
0.0
220
0.0
230
1.0
  2
SOLID
 70
     1
 71
     0
 91
        1
 92
        1
 93
        1
 72
     4
 94
        3
 73
     0
 74
     1
 95
       26
 96
       22
 40
0.0
 40
0.0
 40
0.0
 40
0.0
 40
1.0
 40
1.0
 40
1.0
 40
2.0
 40
2.0
 40
2.0
 40
3.0
 40
3.0
 40
3.0
 40
4.0
 40
4.0
 40
4.0
 40
5.0
 40
5.0
 40
5.0
 40
6.0
 40
6.0
 40
6.0
 40
7.0
 40
7.0
 40
7.0
 40
7.0
 10
79.02790661001734
 20
-129.9524467991091
 10
79.02790661001734
 20
-129.9524467991091
 10
77.9235812522205
 20
-129.9524467991091
 10
77.9235812522205
 20
-129.9524467991091
 10
77.9235812522205
 20
-129.9524467991091
 10
77.9235812522205
 20
-130.282486946596
 10
77.9235812522205
 20
-130.282486946596
 10
77.9235812522205
 20
-130.282486946596
 10
77.77544214635475
 20
-130.282486946596
 10
77.77544214635475
 20
-130.282486946596
 10
77.76080049054244
 20
-129.950379741818
 10
77.59784747409013
 20
-129.9038709527671
 10
77.4836425587541
 20
-129.8742431315939
 10
77.4836425587541
 20
-129.8742431315939
 10
77.4836425587541
 20
-129.7281710830194
 10
77.4836425587541
 20
-129.7281710830194
 10
77.4836425587541
 20
-129.7281710830194
 10
79.02790661001734
 20
-129.7281710830194
 10
79.02790661001734
 20
-129.7281710830194
 10
79.02790661001734
 20
-129.7281710830194
 10
79.02790661001734
 20
-129.9524467991091
 10
79.02790661001734
 20
-129.9524467991091
 97
        0
 97
        0
 75
     2
 76
     1
 98
        0
  0
POLYLINE
  5
AC
330
A6
100
AcDbEntity
  8
_U+30EC_U+30A4_U+30E4_U+30FC 1
370
     0
100
AcDb2dPolyline
 66
     1
 10
0.0
 20
0.0
 30
0.0
  0
VERTEX
  5
AD
330
AC
100
AcDbEntity
  8
_U+30EC_U+30A4_U+30E4_U+30FC 1
370
     0
100
AcDbVertex
100
AcDb2dVertex
 10
78.68098549465267
 20
-128.3949191302277
 30
0.0
  0
VERTEX
  5
AE
330
AC
100
AcDbEntity
  8
_U+30EC_U+30A4_U+30E4_U+30FC 1
370
     0
100
AcDbVertex
100
AcDb2dVertex
 10
79.02790661001734
 20
-128.3949191302277
 30
0.0
  0
VERTEX
  5
AF
330
AC
100
AcDbEntity
  8
_U+30EC_U+30A4_U+30E4_U+30FC 1
370
     0
100
AcDbVertex
100
AcDb2dVertex
 10
79.02790661001734
 20
-128.6128214196697
 30
0.0
  0
VERTEX
  5
B0
330
AC
100
AcDbEntity
  8
_U+30EC_U+30A4_U+30E4_U+30FC 1
370
     0
100
AcDbVertex
100
AcDb2dVertex
 10
78.68098549465267
 20
-128.6128214196697
 30
0.0
  0
VERTEX
  5
B1
330
AC
100
AcDbEntity
  8
_U+30EC_U+30A4_U+30E4_U+30FC 1
370
     0
100
AcDbVertex
100
AcDb2dVertex
 10
78.68098549465267
 20
-129.268595345287
 30
0.0
  0
VERTEX
  5
B2
330
AC
100
AcDbEntity
  8
_U+30EC_U+30A4_U+30E4_U+30FC 1
370
     0
100
AcDbVertex
100
AcDb2dVertex
 10
78.45670977856291
 20
-129.268595345287
 30
0.0
  0
VERTEX
  5
B3
330
AC
100
AcDbEntity
  8
_U+30EC_U+30A4_U+30E4_U+30FC 1
370
     0
100
AcDbVertex
100
AcDb2dVertex
 10
77.4836425587541
 20
-128.5895670251443
 30
0.0
  0
VERTEX
  5
B4
330
AC
100
AcDbEntity
  8
_U+30EC_U+30A4_U+30E4_U+30FC 1
370
     0
100
AcDbVertex
100
AcDb2dVertex
 10
77.4836425587541
 20
-128.3949191302277
 30
0.0
  0
VERTEX
  5
B5
330
AC
100
AcDbEntity
  8
_U+30EC_U+30A4_U+30E4_U+30FC 1
370
     0
100
AcDbVertex
100
AcDb2dVertex
 10
78.48203123037949
 20
-128.3949191302277
 30
0.0
  0
VERTEX
  5
B6
330
AC
100
AcDbEntity
  8
_U+30EC_U+30A4_U+30E4_U+30FC 1
370
     0
100
AcDbVertex
100
AcDb2dVertex
 10
78.48203123037949
 20
-128.1875243820156
 30
0.0
  0
VERTEX
  5
B7
330
AC
100
AcDbEntity
  8
_U+30EC_U+30A4_U+30E4_U+30FC 1
370
     0
100
AcDbVertex
100
AcDb2dVertex
 10
78.68098549465267
 20
-128.1875243820156
 30
0.0
  0
VERTEX
  5
B8
330
AC
100
AcDbEntity
  8
_U+30EC_U+30A4_U+30E4_U+30FC 1
370
     0
100
AcDbVertex
100
AcDb2dVertex
 10
78.68098549465267
 20
-128.3949191302277
 30
0.0
  0
SEQEND
  5
B9
330
AC
100
AcDbEntity
  8
_U+30EC_U+30A4_U+30E4_U+30FC 1
370
     0
  0
POLYLINE
  5
BA
330
A6
100
AcDbEntity
  8
_U+30EC_U+30A4_U+30E4_U+30FC 1
370
     0
100
AcDb2dPolyline
 66
     1
 10
0.0
 20
0.0
 30
0.0
  0
VERTEX
  5
BB
330
BA
100
AcDbEntity
  8
_U+30EC_U+30A4_U+30E4_U+30FC 1
370
     0
100
AcDbVertex
100
AcDb2dVertex
 10
77.8262573047622
 20
-128.6128214196697
 30
0.0
  0
VERTEX
  5
BC
330
BA
100
AcDbEntity
  8
_U+30EC_U+30A4_U+30E4_U+30FC 1
370
     0
100
AcDbVertex
100
AcDb2dVertex
 10
78.48203123037949
 20
-129.0694688262396
 30
0.0
  0
VERTEX
  5
BD
330
BA
100
AcDbEntity
  8
_U+30EC_U+30A4_U+30E4_U+30FC 1
370
     0
100
AcDbVertex
100
AcDb2dVertex
 10
78.48203123037949
 20
-128.6128214196697
 30
0.0
  0
VERTEX
  5
BE
330
BA
100
AcDbEntity
  8
_U+30EC_U+30A4_U+30E4_U+30FC 1
370
     0
100
AcDbVertex
100
AcDb2dVertex
 10
77.8262573047622
 20
-128.6128214196697
 30
0.0
  0
SEQEND
  5
BF
330
BA
100
AcDbEntity
  8
_U+30EC_U+30A4_U+30E4_U+30FC 1
370
     0
  0
HATCH
  5
C0
330
A6
100
AcDbEntity
  8
_U+30EC_U+30A4_U+30E4_U+30FC 1
 62
     7
420
 16777215
100
AcDbHatch
 10
0.0
 20
0.0
 30
0.0
210
0.0
220
0.0
230
1.0
  2
SOLID
 70
     1
 71
     0
 91
        2
 92
        1
 93
       11
 72
     1
 10
78.68098549465267
 20
-128.3949191302277
 11
79.02790661001734
 21
-128.3949191302277
 72
     1
 10
79.02790661001734
 20
-128.3949191302277
 11
79.02790661001734
 21
-128.6128214196697
 72
     1
 10
79.02790661001734
 20
-128.6128214196697
 11
78.68098549465267
 21
-128.6128214196697
 72
     1
 10
78.68098549465267
 20
-128.6128214196697
 11
78.68098549465267
 21
-129.268595345287
 72
     1
 10
78.68098549465267
 20
-129.268595345287
 11
78.45670977856291
 21
-129.268595345287
 72
     1
 10
78.45670977856291
 20
-129.268595345287
 11
77.4836425587541
 21
-128.5895670251443
 72
     1
 10
77.4836425587541
 20
-128.5895670251443
 11
77.4836425587541
 21
-128.3949191302277
 72
     1
 10
77.4836425587541
 20
-128.3949191302277
 11
78.48203123037949
 21
-128.3949191302277
 72
     1
 10
78.48203123037949
 20
-128.3949191302277
 11
78.48203123037949
 21
-128.1875243820156
 72
     1
 10
78.48203123037949
 20
-128.1875243820156
 11
78.68098549465267
 21
-128.1875243820156
 72
     1
 10
78.68098549465267
 20
-128.1875243820156
 11
78.68098549465267
 21
-128.3949191302277
 97
        0
 92
        1
 93
        3
 72
     1
 10
77.8262573047622
 20
-128.6128214196697
 11
78.48203123037949
 21
-129.0694688262396
 72
     1
 10
78.48203123037949
 20
-129.0694688262396
 11
78.48203123037949
 21
-128.6128214196697
 72
     1
 10
78.48203123037949
 20
-128.6128214196697
 11
77.8262573047622
 21
-128.6128214196697
 97
        0
 75
     2
 76
     1
 98
        0
  0
POLYLINE
  5
C1
330
A6
100
AcDbEntity
  8
_U+30EC_U+30A4_U+30E4_U+30FC 1
370
     0
100
AcDb2dPolyline
 66
     1
 10
0.0
 20
0.0
 30
0.0
  0
VERTEX
  5
C2
330
C1
100
AcDbEntity
  8
_U+30EC_U+30A4_U+30E4_U+30FC 1
370
     0
100
AcDbVertex
100
AcDb2dVertex
 10
79.02790661001734
 20
-127.9901204107108
 30
0.0
  0
VERTEX
  5
C3
330
C1
100
AcDbEntity
  8
_U+30EC_U+30A4_U+30E4_U+30FC 1
370
     0
100
AcDbVertex
100
AcDb2dVertex
 10
78.77624238481984
 20
-127.9901204107108
 30
0.0
  0
VERTEX
  5
C4
330
C1
100
AcDbEntity
  8
_U+30EC_U+30A4_U+30E4_U+30FC 1
370
     0
100
AcDbVertex
100
AcDb2dVertex
 10
78.77624238481984
 20
-127.7384561855133
 30
0.0
  0
VERTEX
  5
C5
330
C1
100
AcDbEntity
  8
_U+30EC_U+30A4_U+30E4_U+30FC 1
370
     0
100
AcDbVertex
100
AcDb2dVertex
 10
79.02790661001734
 20
-127.7384561855133
 30
0.0
  0
VERTEX
  5
C6
330
C1
100
AcDbEntity
  8
_U+30EC_U+30A4_U+30E4_U+30FC 1
370
     0
100
AcDbVertex
100
AcDb2dVertex
 10
79.02790661001734
 20
-127.9901204107108
 30
0.0
  0
SEQEND
  5
C7
330
C1
100
AcDbEntity
  8
_U+30EC_U+30A4_U+30E4_U+30FC 1
370
     0
  0
HATCH
  5
C8
330
A6
100
AcDbEntity
  8
_U+30EC_U+30A4_U+30E4_U+30FC 1
 62
     7
420
 16777215
100
AcDbHatch
 10
0.0
 20
0.0
 30
0.0
210
0.0
220
0.0
230
1.0
  2
SOLID
 70
     1
 71
     0
 91
        1
 92
        1
 93
        4
 72
     1
 10
79.02790661001734
 20
-127.9901204107108
 11
78.77624238481984
 21
-127.9901204107108
 72
     1
 10
78.77624238481984
 20
-127.9901204107108
 11
78.77624238481984
 21
-127.7384561855133
 72
     1
 10
78.77624238481984
 20
-127.7384561855133
 11
79.02790661001734
 21
-127.7384561855133
 72
     1
 10
79.02790661001734
 20
-127.7384561855133
 11
79.02790661001734
 21
-127.9901204107108
 97
        0
 75
     2
 76
     1
 98
        0
  0
SPLINE
  5
C9
330
A6
100
AcDbEntity
  8
_U+30EC_U+30A4_U+30E4_U+30FC 1
370
     0
100
AcDbSpline
210
0.0
220
0.0
230
1.0
 70
    11
 71
     3
 72
    53
 73
    49
 74
     0
 42
0.0000000001
 43
0.0000000001
 12
1.0
 22
0.0
 32
0.0
 13
1.0
 23
0.0
 33
0.0
 40
0.0
 40
0.0
 40
0.0
 40
0.0
 40
1.0
 40
1.0
 40
1.0
 40
2.0
 40
2.0
 40
2.0
 40
3.0
 40
3.0
 40
3.0
 40
4.0
 40
4.0
 40
4.0
 40
5.0
 40
5.0
 40
5.0
 40
6.0
 40
6.0
 40
6.0
 40
7.0
 40
7.0
 40
7.0
 40
8.0
 40
8.0
 40
8.0
 40
9.0
 40
9.0
 40
9.0
 40
10.0
 40
10.0
 40
10.0
 40
11.0
 40
11.0
 40
11.0
 40
12.0
 40
12.0
 40
12.0
 40
13.0
 40
13.0
 40
13.0
 40
14.0
 40
14.0
 40
14.0
 40
15.0
 40
15.0
 40
15.0
 40
16.0
 40
16.0
 40
16.0
 40
16.0
 10
79.07872176842477
 20
-127.0208427959358
 30
0.0
 10
79.07872176842477
 20
-127.0992187182252
 30
0.0
 10
79.06184080054705
 20
-127.2006767802658
 30
0.0
 10
78.99827878884419
 20
-127.3023070970807
 30
0.0
 10
78.88820798809046
 20
-127.475767654763
 30
0.0
 10
78.7571221048767
 20
-127.4969549919973
 30
0.0
 10
78.64929061618838
 20
-127.5159030171662
 30
0.0
 10
78.64929061618838
 20
-127.5159030171662
 30
0.0
 10
78.64929061618838
 20
-127.2938666131418
 30
0.0
 10
78.64929061618838
 20
-127.2938666131418
 30
0.0
 10
78.8480726256873
 20
-127.2387450853778
 30
0.0
 10
78.87770044686044
 20
-127.1117933167464
 30
0.0
 10
78.87770044686044
 20
-127.0187757386446
 30
0.0
 10
78.87770044686044
 20
-126.8790771167177
 30
0.0
 10
78.77830944211098
 20
-126.7268038962697
 30
0.0
 10
78.54559324208236
 20
-126.7268038962697
 30
0.0
 10
78.28962264752829
 20
-126.7268038962697
 30
0.0
 10
78.21985946395198
 20
-126.9066378805997
 30
0.0
 10
78.21985946395198
 20
-127.0272162225835
 30
0.0
 10
78.21985946395198
 20
-127.0589111010478
 30
0.0
 10
78.21985946395198
 20
-127.2006767802658
 30
0.0
 10
78.34887828987459
 20
-127.2895602437853
 30
0.0
 10
78.34887828987459
 20
-127.2895602437853
 30
0.0
 10
78.32975800993145
 20
-127.4650878587587
 30
0.0
 10
78.32975800993145
 20
-127.4650878587587
 30
0.0
 10
78.32975800993145
 20
-127.4650878587587
 30
0.0
 10
77.4836425587541
 20
-127.344509516775
 30
0.0
 10
77.4836425587541
 20
-127.344509516775
 30
0.0
 10
77.4836425587541
 20
-127.344509516775
 30
0.0
 10
77.4836425587541
 20
-126.5660901918828
 30
0.0
 10
77.4836425587541
 20
-126.5660901918828
 30
0.0
 10
77.4836425587541
 20
-126.5660901918828
 30
0.0
 10
77.67829045367071
 20
-126.5660901918828
 30
0.0
 10
77.67829045367071
 20
-126.5660901918828
 30
0.0
 10
77.67829045367071
 20
-126.5660901918828
 30
0.0
 10
77.67829045367071
 20
-127.1817287550969
 30
0.0
 10
77.67829045367071
 20
-127.1817287550969
 30
0.0
 10
77.67829045367071
 20
-127.1817287550969
 30
0.0
 10
78.10134817925939
 20
-127.2471855693167
 30
0.0
 10
78.10134817925939
 20
-127.2471855693167
 30
0.0
 10
78.06741398872968
 20
-127.1858628696792
 30
0.0
 10
78.02727862632652
 20
-127.1033528328075
 30
0.0
 10
78.02727862632652
 20
-126.9850138028892
 30
0.0
 10
78.02727862632652
 20
-126.7311102656263
 30
0.0
 10
78.21348603730426
 20
-126.4940876962411
 30
0.0
 10
78.52647296213922
 20
-126.4940876962411
 30
0.0
 10
78.843938511105
 20
-126.4940876962411
 30
0.0
 10
79.07872176842477
 20
-126.7183634123308
 30
0.0
 10
79.07872176842477
 20
-127.0208427959358
 30
0.0
  0
HATCH
  5
CA
330
A6
100
AcDbEntity
  8
_U+30EC_U+30A4_U+30E4_U+30FC 1
 62
     7
420
 16777215
100
AcDbHatch
 10
0.0
 20
0.0
 30
0.0
210
0.0
220
0.0
230
1.0
  2
SOLID
 70
     1
 71
     0
 91
        1
 92
        1
 93
        1
 72
     4
 94
        3
 73
     0
 74
     1
 95
       53
 96
       49
 40
0.0
 40
0.0
 40
0.0
 40
0.0
 40
1.0
 40
1.0
 40
1.0
 40
2.0
 40
2.0
 40
2.0
 40
3.0
 40
3.0
 40
3.0
 40
4.0
 40
4.0
 40
4.0
 40
5.0
 40
5.0
 40
5.0
 40
6.0
 40
6.0
 40
6.0
 40
7.0
 40
7.0
 40
7.0
 40
8.0
 40
8.0
 40
8.0
 40
9.0
 40
9.0
 40
9.0
 40
10.0
 40
10.0
 40
10.0
 40
11.0
 40
11.0
 40
11.0
 40
12.0
 40
12.0
 40
12.0
 40
13.0
 40
13.0
 40
13.0
 40
14.0
 40
14.0
 40
14.0
 40
15.0
 40
15.0
 40
15.0
 40
16.0
 40
16.0
 40
16.0
 40
16.0
 10
79.07872176842477
 20
-127.0208427959358
 10
79.07872176842477
 20
-127.0992187182252
 10
79.06184080054705
 20
-127.2006767802658
 10
78.99827878884419
 20
-127.3023070970807
 10
78.88820798809046
 20
-127.475767654763
 10
78.7571221048767
 20
-127.4969549919973
 10
78.64929061618838
 20
-127.5159030171662
 10
78.64929061618838
 20
-127.5159030171662
 10
78.64929061618838
 20
-127.2938666131418
 10
78.64929061618838
 20
-127.2938666131418
 10
78.8480726256873
 20
-127.2387450853778
 10
78.87770044686044
 20
-127.1117933167464
 10
78.87770044686044
 20
-127.0187757386446
 10
78.87770044686044
 20
-126.8790771167177
 10
78.77830944211098
 20
-126.7268038962697
 10
78.54559324208236
 20
-126.7268038962697
 10
78.28962264752829
 20
-126.7268038962697
 10
78.21985946395198
 20
-126.9066378805997
 10
78.21985946395198
 20
-127.0272162225835
 10
78.21985946395198
 20
-127.0589111010478
 10
78.21985946395198
 20
-127.2006767802658
 10
78.34887828987459
 20
-127.2895602437853
 10
78.34887828987459
 20
-127.2895602437853
 10
78.32975800993145
 20
-127.4650878587587
 10
78.32975800993145
 20
-127.4650878587587
 10
78.32975800993145
 20
-127.4650878587587
 10
77.4836425587541
 20
-127.344509516775
 10
77.4836425587541
 20
-127.344509516775
 10
77.4836425587541
 20
-127.344509516775
 10
77.4836425587541
 20
-126.5660901918828
 10
77.4836425587541
 20
-126.5660901918828
 10
77.4836425587541
 20
-126.5660901918828
 10
77.67829045367071
 20
-126.5660901918828
 10
77.67829045367071
 20
-126.5660901918828
 10
77.67829045367071
 20
-126.5660901918828
 10
77.67829045367071
 20
-127.1817287550969
 10
77.67829045367071
 20
-127.1817287550969
 10
77.67829045367071
 20
-127.1817287550969
 10
78.10134817925939
 20
-127.2471855693167
 10
78.10134817925939
 20
-127.2471855693167
 10
78.06741398872968
 20
-127.1858628696792
 10
78.02727862632652
 20
-127.1033528328075
 10
78.02727862632652
 20
-126.9850138028892
 10
78.02727862632652
 20
-126.7311102656263
 10
78.21348603730426
 20
-126.4940876962411
 10
78.52647296213922
 20
-126.4940876962411
 10
78.843938511105
 20
-126.4940876962411
 10
79.07872176842477
 20
-126.7183634123308
 10
79.07872176842477
 20
-127.0208427959358
 97
        0
 97
        0
 75
     2
 76
     1
 98
        0
  0
ENDBLK
  5
A9
330
A6
100
AcDbEntity
  8
0
100
AcDbBlockEnd
  0
BLOCK
  5
D9
330
D7
100
AcDbEntity
  8
0
100
AcDbBlockBegin
  2
block 7
 70
     0
 10
0.0
 20
0.0
 30
0.0
  3
block 7
  1

  0
SPLINE
  5
DB
330
D7
100
AcDbEntity
  8
_U+30EC_U+30A4_U+30E4_U+30FC 1
370
     0
100
AcDbSpline
210
0.0
220
0.0
230
1.0
 70
    11
 71
     3
 72
    26
 73
    22
 74
     0
 42
0.0000000001
 43
0.0000000001
 12
1.0
 22
0.0
 32
0.0
 13
1.0
 23
0.0
 33
0.0
 40
0.0
 40
0.0
 40
0.0
 40
0.0
 40
1.0
 40
1.0
 40
1.0
 40
2.0
 40
2.0
 40
2.0
 40
3.0
 40
3.0
 40
3.0
 40
4.0
 40
4.0
 40
4.0
 40
5.0
 40
5.0
 40
5.0
 40
6.0
 40
6.0
 40
6.0
 40
7.0
 40
7.0
 40
7.0
 40
7.0
 10
90.91124672206386
 20
-138.9207193663115
 30
0.0
 10
90.91124672206386
 20
-138.9207193663115
 30
0.0
 10
90.91124672206386
 20
-137.8165662632889
 30
0.0
 10
90.91124672206386
 20
-137.8165662632889
 30
0.0
 10
90.91124672206386
 20
-137.8165662632889
 30
0.0
 10
90.58120657457692
 20
-137.8165662632889
 30
0.0
 10
90.58120657457692
 20
-137.8165662632889
 30
0.0
 10
90.58120657457692
 20
-137.8165662632889
 30
0.0
 10
90.58120657457692
 20
-137.6684271574232
 30
0.0
 10
90.58120657457692
 20
-137.6684271574232
 30
0.0
 10
90.91331377935501
 20
-137.6536132468366
 30
0.0
 10
90.95982256840588
 20
-137.4906602303843
 30
0.0
 10
90.98945038957903
 20
-137.376283060274
 30
0.0
 10
90.98945038957903
 20
-137.376283060274
 30
0.0
 10
91.13552243815363
 20
-137.376283060274
 30
0.0
 10
91.13552243815363
 20
-137.376283060274
 30
0.0
 10
91.13552243815363
 20
-137.376283060274
 30
0.0
 10
91.13552243815363
 20
-138.9207193663115
 30
0.0
 10
91.13552243815363
 20
-138.9207193663115
 30
0.0
 10
91.13552243815363
 20
-138.9207193663115
 30
0.0
 10
90.91124672206386
 20
-138.9207193663115
 30
0.0
 10
90.91124672206386
 20
-138.9207193663115
 30
0.0
  0
HATCH
  5
DC
330
D7
100
AcDbEntity
  8
_U+30EC_U+30A4_U+30E4_U+30FC 1
 62
     7
420
 16777215
100
AcDbHatch
 10
0.0
 20
0.0
 30
0.0
210
0.0
220
0.0
230
1.0
  2
SOLID
 70
     1
 71
     0
 91
        1
 92
        1
 93
        1
 72
     4
 94
        3
 73
     0
 74
     1
 95
       26
 96
       22
 40
0.0
 40
0.0
 40
0.0
 40
0.0
 40
1.0
 40
1.0
 40
1.0
 40
2.0
 40
2.0
 40
2.0
 40
3.0
 40
3.0
 40
3.0
 40
4.0
 40
4.0
 40
4.0
 40
5.0
 40
5.0
 40
5.0
 40
6.0
 40
6.0
 40
6.0
 40
7.0
 40
7.0
 40
7.0
 40
7.0
 10
90.91124672206386
 20
-138.9207193663115
 10
90.91124672206386
 20
-138.9207193663115
 10
90.91124672206386
 20
-137.8165662632889
 10
90.91124672206386
 20
-137.8165662632889
 10
90.91124672206386
 20
-137.8165662632889
 10
90.58120657457692
 20
-137.8165662632889
 10
90.58120657457692
 20
-137.8165662632889
 10
90.58120657457692
 20
-137.8165662632889
 10
90.58120657457692
 20
-137.6684271574232
 10
90.58120657457692
 20
-137.6684271574232
 10
90.91331377935501
 20
-137.6536132468366
 10
90.95982256840588
 20
-137.4906602303843
 10
90.98945038957903
 20
-137.376283060274
 10
90.98945038957903
 20
-137.376283060274
 10
91.13552243815363
 20
-137.376283060274
 10
91.13552243815363
 20
-137.376283060274
 10
91.13552243815363
 20
-137.376283060274
 10
91.13552243815363
 20
-138.9207193663115
 10
91.13552243815363
 20
-138.9207193663115
 10
91.13552243815363
 20
-138.9207193663115
 10
90.91124672206386
 20
-138.9207193663115
 10
90.91124672206386
 20
-138.9207193663115
 97
        0
 97
        0
 75
     2
 76
     1
 98
        0
  0
SPLINE
  5
DD
330
D7
100
AcDbEntity
  8
_U+30EC_U+30A4_U+30E4_U+30FC 1
370
     0
100
AcDbSpline
210
0.0
220
0.0
230
1.0
 70
    11
 71
     3
 72
    32
 73
    28
 74
     0
 42
0.0000000001
 43
0.0000000001
 12
1.0
 22
0.0
 32
0.0
 13
1.0
 23
0.0
 33
0.0
 40
0.0
 40
0.0
 40
0.0
 40
0.0
 40
1.0
 40
1.0
 40
1.0
 40
2.0
 40
2.0
 40
2.0
 40
3.0
 40
3.0
 40
3.0
 40
4.0
 40
4.0
 40
4.0
 40
5.0
 40
5.0
 40
5.0
 40
6.0
 40
6.0
 40
6.0
 40
7.0
 40
7.0
 40
7.0
 40
8.0
 40
8.0
 40
8.0
 40
9.0
 40
9.0
 40
9.0
 40
9.0
 10
92.14080130074953
 20
-138.9713622699447
 30
0.0
 10
91.6247259970591
 20
-138.9713622699447
 30
0.0
 10
91.6164577678945
 20
-138.4173909159165
 30
0.0
 10
91.6164577678945
 20
-138.2034504862825
 30
0.0
 10
91.6164577678945
 20
-137.9729735983193
 30
0.0
 10
91.63540579306337
 20
-137.3256401566408
 30
0.0
 10
92.1790418606358
 20
-137.3256401566408
 30
0.0
 10
92.35233016354387
 20
-137.3256401566408
 30
0.0
 10
92.59796547164218
 20
-137.3955755949914
 30
0.0
 10
92.63586152197993
 20
-137.7276827997695
 30
0.0
 10
92.63586152197993
 20
-137.7276827997695
 30
0.0
 10
92.42226560189444
 20
-137.7276827997695
 30
0.0
 10
92.42226560189444
 20
-137.7276827997695
 30
0.0
 10
92.41158580589017
 20
-137.6704942147143
 30
0.0
 10
92.37989092742586
 20
-137.5223551088486
 30
0.0
 10
92.17697480334465
 20
-137.5223551088486
 30
0.0
 10
91.88483070619546
 20
-137.5223551088486
 30
0.0
 10
91.84486759856657
 20
-137.8503281990444
 30
0.0
 10
91.83212074527114
 20
-138.0553113804167
 30
0.0
 10
91.92513832337289
 20
-137.9771077129016
 30
0.0
 10
91.9930067044323
 20
-137.9178520705553
 30
0.0
 10
92.1749077460535
 20
-137.9178520705553
 30
0.0
 10
92.35474173038354
 20
-137.9178520705553
 30
0.0
 10
92.65722111398847
 20
-138.0260280687921
 30
0.0
 10
92.65722111398847
 20
-138.4322048265031
 30
0.0
 10
92.65722111398847
 20
-138.7515651779857
 30
0.0
 10
92.45809459494103
 20
-138.9713622699447
 30
0.0
 10
92.14080130074953
 20
-138.9713622699447
 30
0.0
  0
SPLINE
  5
DE
330
D7
100
AcDbEntity
  8
_U+30EC_U+30A4_U+30E4_U+30FC 1
370
     0
100
AcDbSpline
210
0.0
220
0.0
230
1.0
 70
    11
 71
     3
 72
    17
 73
    13
 74
     0
 42
0.0000000001
 43
0.0000000001
 12
1.0
 22
0.0
 32
0.0
 13
1.0
 23
0.0
 33
0.0
 40
0.0
 40
0.0
 40
0.0
 40
0.0
 40
1.0
 40
1.0
 40
1.0
 40
2.0
 40
2.0
 40
2.0
 40
3.0
 40
3.0
 40
3.0
 40
4.0
 40
4.0
 40
4.0
 40
4.0
 10
92.15802677817578
 20
-138.1124999654719
 30
0.0
 10
91.89551050219974
 20
-138.1124999654719
 30
0.0
 10
91.85761445186199
 20
-138.3240288282662
 30
0.0
 10
91.85761445186199
 20
-138.4404730556677
 30
0.0
 10
91.85761445186199
 20
-138.6161729254154
 30
0.0
 10
91.95269908725489
 20
-138.7791259418677
 30
0.0
 10
92.13666718616723
 20
-138.7791259418677
 30
0.0
 10
92.25724552815097
 20
-138.7791259418677
 30
0.0
 10
92.4329453978987
 20
-138.7198702995214
 30
0.0
 10
92.4329453978987
 20
-138.4342718837942
 30
0.0
 10
92.4329453978987
 20
-138.2099961677044
 30
0.0
 10
92.29307452119757
 20
-138.1124999654719
 30
0.0
 10
92.15802677817578
 20
-138.1124999654719
 30
0.0
  0
HATCH
  5
DF
330
D7
100
AcDbEntity
  8
_U+30EC_U+30A4_U+30E4_U+30FC 1
 62
     7
420
 16777215
100
AcDbHatch
 10
0.0
 20
0.0
 30
0.0
210
0.0
220
0.0
230
1.0
  2
SOLID
 70
     1
 71
     0
 91
        2
 92
        1
 93
        1
 72
     4
 94
        3
 73
     0
 74
     1
 95
       32
 96
       28
 40
0.0
 40
0.0
 40
0.0
 40
0.0
 40
1.0
 40
1.0
 40
1.0
 40
2.0
 40
2.0
 40
2.0
 40
3.0
 40
3.0
 40
3.0
 40
4.0
 40
4.0
 40
4.0
 40
5.0
 40
5.0
 40
5.0
 40
6.0
 40
6.0
 40
6.0
 40
7.0
 40
7.0
 40
7.0
 40
8.0
 40
8.0
 40
8.0
 40
9.0
 40
9.0
 40
9.0
 40
9.0
 10
92.14080130074953
 20
-138.9713622699447
 10
91.6247259970591
 20
-138.9713622699447
 10
91.6164577678945
 20
-138.4173909159165
 10
91.6164577678945
 20
-138.2034504862825
 10
91.6164577678945
 20
-137.9729735983193
 10
91.63540579306337
 20
-137.3256401566408
 10
92.1790418606358
 20
-137.3256401566408
 10
92.35233016354387
 20
-137.3256401566408
 10
92.59796547164218
 20
-137.3955755949914
 10
92.63586152197993
 20
-137.7276827997695
 10
92.63586152197993
 20
-137.7276827997695
 10
92.42226560189444
 20
-137.7276827997695
 10
92.42226560189444
 20
-137.7276827997695
 10
92.41158580589017
 20
-137.6704942147143
 10
92.37989092742586
 20
-137.5223551088486
 10
92.17697480334465
 20
-137.5223551088486
 10
91.88483070619546
 20
-137.5223551088486
 10
91.84486759856657
 20
-137.8503281990444
 10
91.83212074527114
 20
-138.0553113804167
 10
91.92513832337289
 20
-137.9771077129016
 10
91.9930067044323
 20
-137.9178520705553
 10
92.1749077460535
 20
-137.9178520705553
 10
92.35474173038354
 20
-137.9178520705553
 10
92.65722111398847
 20
-138.0260280687921
 10
92.65722111398847
 20
-138.4322048265031
 10
92.65722111398847
 20
-138.7515651779857
 10
92.45809459494103
 20
-138.9713622699447
 10
92.14080130074953
 20
-138.9713622699447
 97
        0
 97
        0
 92
        1
 93
        1
 72
     4
 94
        3
 73
     0
 74
     1
 95
       17
 96
       13
 40
0.0
 40
0.0
 40
0.0
 40
0.0
 40
1.0
 40
1.0
 40
1.0
 40
2.0
 40
2.0
 40
2.0
 40
3.0
 40
3.0
 40
3.0
 40
4.0
 40
4.0
 40
4.0
 40
4.0
 10
92.15802677817578
 20
-138.1124999654719
 10
91.89551050219974
 20
-138.1124999654719
 10
91.85761445186199
 20
-138.3240288282662
 10
91.85761445186199
 20
-138.4404730556677
 10
91.85761445186199
 20
-138.6161729254154
 10
91.95269908725489
 20
-138.7791259418677
 10
92.13666718616723
 20
-138.7791259418677
 10
92.25724552815097
 20
-138.7791259418677
 10
92.4329453978987
 20
-138.7198702995214
 10
92.4329453978987
 20
-138.4342718837942
 10
92.4329453978987
 20
-138.2099961677044
 10
92.29307452119757
 20
-138.1124999654719
 10
92.15802677817578
 20
-138.1124999654719
 97
        0
 97
        0
 75
     2
 76
     1
 98
        0
  0
ENDBLK
  5
DA
330
D7
100
AcDbEntity
  8
0
100
AcDbBlockEnd
  0
ENDSEC
  0
SECTION
  2
ENTITIES
  0
POLYLINE
  5
41
330
1F
100
AcDbEntity
  8
_U+30EC_U+30A4_U+30E4_U+30FC 1
 62
     7
420
 16777215
370
     9
100
AcDb2dPolyline
 66
     1
 10
0.0
 20
0.0
 30
0.0
  0
VERTEX
  5
42
330
41
100
AcDbEntity
  8
_U+30EC_U+30A4_U+30E4_U+30FC 1
 62
     7
420
 16777215
370
     9
100
AcDbVertex
100
AcDb2dVertex
 10
97.16893224323623
 20
-129.015384134413
 30
0.0
  0
VERTEX
  5
43
330
41
100
AcDbEntity
  8
_U+30EC_U+30A4_U+30E4_U+30FC 1
 62
     7
420
 16777215
370
     9
100
AcDbVertex
100
AcDb2dVertex
 10
104.6289120529163
 20
-129.015384134413
 30
0.0
  0
SEQEND
  5
44
330
41
100
AcDbEntity
  8
_U+30EC_U+30A4_U+30E4_U+30FC 1
 62
     7
420
 16777215
370
     9
  0
SPLINE
  5
45
330
1F
100
AcDbEntity
  8
_U+30EC_U+30A4_U+30E4_U+30FC 1
 62
     7
420
 16777215
370
    25
100
AcDbSpline
210
0.0
220
0.0
230
1.0
 70
    11
 71
     3
 72
    62
 73
    58
 74
     0
 42
0.0000000001
 43
0.0000000001
 12
1.0
 22
0.0
 32
0.0
 13
1.0
 23
0.0
 33
0.0
 40
0.0
 40
0.0
 40
0.0
 40
0.0
 40
1.0
 40
1.0
 40
1.0
 40
2.0
 40
2.0
 40
2.0
 40
3.0
 40
3.0
 40
3.0
 40
4.0
 40
4.0
 40
4.0
 40
5.0
 40
5.0
 40
5.0
 40
6.0
 40
6.0
 40
6.0
 40
7.0
 40
7.0
 40
7.0
 40
8.0
 40
8.0
 40
8.0
 40
9.0
 40
9.0
 40
9.0
 40
10.0
 40
10.0
 40
10.0
 40
11.0
 40
11.0
 40
11.0
 40
12.0
 40
12.0
 40
12.0
 40
13.0
 40
13.0
 40
13.0
 40
14.0
 40
14.0
 40
14.0
 40
15.0
 40
15.0
 40
15.0
 40
16.0
 40
16.0
 40
16.0
 40
17.0
 40
17.0
 40
17.0
 40
18.0
 40
18.0
 40
18.0
 40
19.0
 40
19.0
 40
19.0
 40
19.0
 10
98.82843414534325
 20
-134.7170138552096
 30
0.0
 10
99.27007663407602
 20
-134.7170138552096
 30
0.0
 10
99.62835773604662
 20
-135.0752949662314
 30
0.0
 10
99.62835773604662
 20
-135.5169727438983
 30
0.0
 10
99.62835773604662
 20
-135.5169727438983
 30
0.0
 10
91.82762987950422
 20
-135.5155969105654
 30
0.0
 10
91.82762987950422
 20
-135.5155969105654
 30
0.0
 10
91.82762987950422
 20
-135.5155969105654
 30
0.0
 10
91.62746377349976
 20
-135.3150780217266
 30
0.0
 10
91.62746377349976
 20
-135.3150780217266
 30
0.0
 10
91.62746377349976
 20
-135.3150780217266
 30
0.0
 10
91.42765275492118
 20
-135.5155969105654
 30
0.0
 10
91.42765275492118
 20
-135.5155969105654
 30
0.0
 10
91.42765275492118
 20
-135.5155969105654
 30
0.0
 10
84.82859164545947
 20
-135.5162671883434
 30
0.0
 10
84.82859164545947
 20
-135.5162671883434
 30
0.0
 10
84.82859164545947
 20
-135.5162671883434
 30
0.0
 10
84.62807061873582
 20
-135.3164538550595
 30
0.0
 10
84.62807061873582
 20
-135.3164538550595
 30
0.0
 10
84.62807061873582
 20
-135.3164538550595
 30
0.0
 10
84.42825729050016
 20
-135.5162671883434
 30
0.0
 10
84.42825729050016
 20
-135.5162671883434
 30
0.0
 10
84.42825729050016
 20
-135.5162671883434
 30
0.0
 10
84.4234242350679
 20
-135.5162671883434
 30
0.0
 10
84.4234242350679
 20
-135.5162671883434
 30
0.0
 10
83.9666123022777
 20
-135.4246507994772
 30
0.0
 10
83.62177203329753
 20
-135.0208613551339
 30
0.0
 10
83.62177203329753
 20
-134.5082399663729
 30
0.0
 10
83.62177203329753
 20
-134.5082399663729
 30
0.0
 10
83.62177203329753
 20
-120.9889841364194
 30
0.0
 10
83.62177203329753
 20
-120.9889841364194
 30
0.0
 10
84.17471590807965
 20
-121.0167477475236
 30
0.0
 10
84.52403645472329
 20
-121.4008521918719
 30
0.0
 10
84.61706395234997
 20
-121.9152021917435
 30
0.0
 10
84.61706395234997
 20
-121.9152021917435
 30
0.0
 10
84.61706395234997
 20
-128.015259134663
 30
0.0
 10
84.61706395234997
 20
-128.015259134663
 30
0.0
 10
84.61706395234997
 20
-128.015259134663
 30
0.0
 10
90.67732740885087
 20
-128.015259134663
 30
0.0
 10
90.67732740885087
 20
-128.015259134663
 30
0.0
 10
91.22921295032666
 20
-128.015259134663
 30
0.0
 10
91.62679349573908
 20
-128.4663913567721
 30
0.0
 10
91.62679349573908
 20
-129.0188413566343
 30
0.0
 10
91.62679349573908
 20
-129.0188413566343
 30
0.0
 10
84.62602450767692
 20
-129.0188413566343
 30
0.0
 10
84.62602450767692
 20
-129.0188413566343
 30
0.0
 10
84.62602450767692
 20
-129.0188413566343
 30
0.0
 10
84.62602450767692
 20
-134.5172005219264
 30
0.0
 10
84.62602450767692
 20
-134.5172005219264
 30
0.0
 10
84.62602450767692
 20
-134.5172005219264
 30
0.0
 10
91.62679349573908
 20
-134.5172005219264
 30
0.0
 10
91.62679349573908
 20
-134.5172005219264
 30
0.0
 10
91.62679349573908
 20
-134.5172005219264
 30
0.0
 10
91.97371515355505
 20
-134.7170138552096
 30
0.0
 10
91.97371515355505
 20
-134.7170138552096
 30
0.0
 10
91.97371515355505
 20
-134.7170138552096
 30
0.0
 10
98.82843414534325
 20
-134.7170138552096
 30
0.0
 10
98.82843414534325
 20
-134.7170138552096
 30
0.0
  0
HATCH
  5
46
330
1F
100
AcDbEntity
  8
_U+30EC_U+30A4_U+30E4_U+30FC 1
 62
   253
420
 11711154
100
AcDbHatch
 10
0.0
 20
0.0
 30
0.0
210
0.0
220
0.0
230
1.0
  2
SOLID
 70
     1
 71
     0
 91
        1
 92
        1
 93
        2
 72
     4
 94
        3
 73
     0
 74
     0
 95
       62
 96
       58
 40
0.0
 40
0.0
 40
0.0
 40
0.0
 40
0.3527777776895833
 40
0.3527777776895833
 40
0.3527777776895833
 40
0.7055555553791667
 40
0.7055555553791667
 40
0.7055555553791667
 40
1.05833333306875
 40
1.05833333306875
 40
1.05833333306875
 40
1.411111110758333
 40
1.411111110758333
 40
1.411111110758333
 40
1.763888888447917
 40
1.763888888447917
 40
1.763888888447917
 40
2.1166666661375
 40
2.1166666661375
 40
2.1166666661375
 40
2.469444443827083
 40
2.469444443827083
 40
2.469444443827083
 40
2.822222221516667
 40
2.822222221516667
 40
2.822222221516667
 40
3.17499999920625
 40
3.17499999920625
 40
3.17499999920625
 40
3.527777776895833
 40
3.527777776895833
 40
3.527777776895833
 40
3.880555554585417
 40
3.880555554585417
 40
3.880555554585417
 40
4.233333332275
 40
4.233333332275
 40
4.233333332275
 40
4.586111109964584
 40
4.586111109964584
 40
4.586111109964584
 40
4.938888887654167
 40
4.938888887654167
 40
4.938888887654167
 40
5.29166666534375
 40
5.29166666534375
 40
5.29166666534375
 40
5.644444443033334
 40
5.644444443033334
 40
5.644444443033334
 40
5.997222220722917
 40
5.997222220722917
 40
5.997222220722917
 40
6.349999998412501
 40
6.349999998412501
 40
6.349999998412501
 40
6.702777776102083
 40
6.702777776102083
 40
6.702777776102083
 40
6.702777776102083
 10
98.82843414534325
 20
-134.7170138552096
 10
99.27007663407602
 20
-134.7170138552096
 10
99.62835773604662
 20
-135.0752949662314
 10
99.62835773604662
 20
-135.5169727438983
 10
99.62835773604662
 20
-135.5169727438983
 10
91.82762987950422
 20
-135.5155969105654
 10
91.82762987950422
 20
-135.5155969105654
 10
91.82762987950422
 20
-135.5155969105654
 10
91.62746377349976
 20
-135.3150780217266
 10
91.62746377349976
 20
-135.3150780217266
 10
91.62746377349976
 20
-135.3150780217266
 10
91.42765275492118
 20
-135.5155969105654
 10
91.42765275492118
 20
-135.5155969105654
 10
91.42765275492118
 20
-135.5155969105654
 10
84.82859164545947
 20
-135.5162671883434
 10
84.82859164545947
 20
-135.5162671883434
 10
84.82859164545947
 20
-135.5162671883434
 10
84.62807061873582
 20
-135.3164538550595
 10
84.62807061873582
 20
-135.3164538550595
 10
84.62807061873582
 20
-135.3164538550595
 10
84.42825729050016
 20
-135.5162671883434
 10
84.42825729050016
 20
-135.5162671883434
 10
84.42825729050016
 20
-135.5162671883434
 10
84.4234242350679
 20
-135.5162671883434
 10
84.4234242350679
 20
-135.5162671883434
 10
83.9666123022777
 20
-135.4246507994772
 10
83.62177203329753
 20
-135.0208613551339
 10
83.62177203329753
 20
-134.5082399663729
 10
83.62177203329753
 20
-134.5082399663729
 10
83.62177203329753
 20
-120.9889841364194
 10
83.62177203329753
 20
-120.9889841364194
 10
84.17471590807965
 20
-121.0167477475236
 10
84.52403645472329
 20
-121.4008521918719
 10
84.61706395234997
 20
-121.9152021917435
 10
84.61706395234997
 20
-121.9152021917435
 10
84.61706395234997
 20
-128.015259134663
 10
84.61706395234997
 20
-128.015259134663
 10
84.61706395234997
 20
-128.015259134663
 10
90.67732740885087
 20
-128.015259134663
 10
90.67732740885087
 20
-128.015259134663
 10
91.22921295032666
 20
-128.015259134663
 10
91.62679349573908
 20
-128.4663913567721
 10
91.62679349573908
 20
-129.0188413566343
 10
91.62679349573908
 20
-129.0188413566343
 10
84.62602450767692
 20
-129.0188413566343
 10
84.62602450767692
 20
-129.0188413566343
 10
84.62602450767692
 20
-129.0188413566343
 10
84.62602450767692
 20
-134.5172005219264
 10
84.62602450767692
 20
-134.5172005219264
 10
84.62602450767692
 20
-134.5172005219264
 10
91.62679349573908
 20
-134.5172005219264
 10
91.62679349573908
 20
-134.5172005219264
 10
91.62679349573908
 20
-134.5172005219264
 10
91.97371515355505
 20
-134.7170138552096
 10
91.97371515355505
 20
-134.7170138552096
 10
91.97371515355505
 20
-134.7170138552096
 10
98.82843414534325
 20
-134.7170138552096
 10
98.82843414534325
 20
-134.7170138552096
 97
        0
 72
     1
 10
98.82843414534325
 20
-134.7170138552096
 11
98.82843414534325
 21
-134.7170138552096
 97
        0
 75
     2
 76
     1
 98
        0
  0
SPLINE
  5
47
330
1F
100
AcDbEntity
  8
_U+30EC_U+30A4_U+30E4_U+30FC 1
 62
     7
420
 16777215
370
    25
100
AcDbSpline
210
0.0
220
0.0
230
1.0
 70
    11
 71
     3
 72
    62
 73
    58
 74
     0
 42
0.0000000001
 43
0.0000000001
 12
1.0
 22
0.0
 32
0.0
 13
1.0
 23
0.0
 33
0.0
 40
0.0
 40
0.0
 40
0.0
 40
0.0
 40
1.0
 40
1.0
 40
1.0
 40
2.0
 40
2.0
 40
2.0
 40
3.0
 40
3.0
 40
3.0
 40
4.0
 40
4.0
 40
4.0
 40
5.0
 40
5.0
 40
5.0
 40
6.0
 40
6.0
 40
6.0
 40
7.0
 40
7.0
 40
7.0
 40
8.0
 40
8.0
 40
8.0
 40
9.0
 40
9.0
 40
9.0
 40
10.0
 40
10.0
 40
10.0
 40
11.0
 40
11.0
 40
11.0
 40
12.0
 40
12.0
 40
12.0
 40
13.0
 40
13.0
 40
13.0
 40
14.0
 40
14.0
 40
14.0
 40
15.0
 40
15.0
 40
15.0
 40
16.0
 40
16.0
 40
16.0
 40
17.0
 40
17.0
 40
17.0
 40
18.0
 40
18.0
 40
18.0
 40
19.0
 40
19.0
 40
19.0
 40
19.0
 10
98.82843414534325
 20
-134.7170138552096
 30
0.0
 10
99.27007663407602
 20
-134.7170138552096
 30
0.0
 10
99.62835773604662
 20
-135.0752949662314
 30
0.0
 10
99.62835773604662
 20
-135.5169727438983
 30
0.0
 10
99.62835773604662
 20
-135.5169727438983
 30
0.0
 10
91.82762987950422
 20
-135.5155969105654
 30
0.0
 10
91.82762987950422
 20
-135.5155969105654
 30
0.0
 10
91.82762987950422
 20
-135.5155969105654
 30
0.0
 10
91.62746377349976
 20
-135.3150780217266
 30
0.0
 10
91.62746377349976
 20
-135.3150780217266
 30
0.0
 10
91.62746377349976
 20
-135.3150780217266
 30
0.0
 10
91.42765275492118
 20
-135.5155969105654
 30
0.0
 10
91.42765275492118
 20
-135.5155969105654
 30
0.0
 10
91.42765275492118
 20
-135.5155969105654
 30
0.0
 10
84.82859164545947
 20
-135.5162671883434
 30
0.0
 10
84.82859164545947
 20
-135.5162671883434
 30
0.0
 10
84.82859164545947
 20
-135.5162671883434
 30
0.0
 10
84.62807061873582
 20
-135.3164538550595
 30
0.0
 10
84.62807061873582
 20
-135.3164538550595
 30
0.0
 10
84.62807061873582
 20
-135.3164538550595
 30
0.0
 10
84.42825729050016
 20
-135.5162671883434
 30
0.0
 10
84.42825729050016
 20
-135.5162671883434
 30
0.0
 10
84.42825729050016
 20
-135.5162671883434
 30
0.0
 10
84.4234242350679
 20
-135.5162671883434
 30
0.0
 10
84.4234242350679
 20
-135.5162671883434
 30
0.0
 10
83.9666123022777
 20
-135.4246507994772
 30
0.0
 10
83.62177203329753
 20
-135.0208613551339
 30
0.0
 10
83.62177203329753
 20
-134.5082399663729
 30
0.0
 10
83.62177203329753
 20
-134.5082399663729
 30
0.0
 10
83.62177203329753
 20
-120.9889841364194
 30
0.0
 10
83.62177203329753
 20
-120.9889841364194
 30
0.0
 10
84.17471590807965
 20
-121.0167477475236
 30
0.0
 10
84.52403645472329
 20
-121.4008521918719
 30
0.0
 10
84.61706395234997
 20
-121.9152021917435
 30
0.0
 10
84.61706395234997
 20
-121.9152021917435
 30
0.0
 10
84.61706395234997
 20
-128.015259134663
 30
0.0
 10
84.61706395234997
 20
-128.015259134663
 30
0.0
 10
84.61706395234997
 20
-128.015259134663
 30
0.0
 10
90.67732740885087
 20
-128.015259134663
 30
0.0
 10
90.67732740885087
 20
-128.015259134663
 30
0.0
 10
91.22921295032666
 20
-128.015259134663
 30
0.0
 10
91.62679349573908
 20
-128.4663913567721
 30
0.0
 10
91.62679349573908
 20
-129.0188413566343
 30
0.0
 10
91.62679349573908
 20
-129.0188413566343
 30
0.0
 10
84.62602450767692
 20
-129.0188413566343
 30
0.0
 10
84.62602450767692
 20
-129.0188413566343
 30
0.0
 10
84.62602450767692
 20
-129.0188413566343
 30
0.0
 10
84.62602450767692
 20
-134.5172005219264
 30
0.0
 10
84.62602450767692
 20
-134.5172005219264
 30
0.0
 10
84.62602450767692
 20
-134.5172005219264
 30
0.0
 10
91.62679349573908
 20
-134.5172005219264
 30
0.0
 10
91.62679349573908
 20
-134.5172005219264
 30
0.0
 10
91.62679349573908
 20
-134.5172005219264
 30
0.0
 10
91.97371515355505
 20
-134.7170138552096
 30
0.0
 10
91.97371515355505
 20
-134.7170138552096
 30
0.0
 10
91.97371515355505
 20
-134.7170138552096
 30
0.0
 10
98.82843414534325
 20
-134.7170138552096
 30
0.0
 10
98.82843414534325
 20
-134.7170138552096
 30
0.0
  0
SPLINE
  5
48
330
1F
100
AcDbEntity
  8
_U+30EC_U+30A4_U+30E4_U+30FC 1
 62
     7
420
 16777215
370
     9
100
AcDbSpline
210
0.0
220
0.0
230
1.0
 70
    11
 71
     3
 72
    17
 73
    13
 74
     0
 42
0.0000000001
 43
0.0000000001
 12
1.0
 22
0.0
 32
0.0
 13
1.0
 23
0.0
 33
0.0
 40
0.0
 40
0.0
 40
0.0
 40
0.0
 40
1.0
 40
1.0
 40
1.0
 40
2.0
 40
2.0
 40
2.0
 40
3.0
 40
3.0
 40
3.0
 40
4.0
 40
4.0
 40
4.0
 40
4.0
 10
91.7273704376176
 20
-118.8411671925118
 30
0.0
 10
91.7273704376176
 20
-118.7860280258591
 30
0.0
 10
91.68260293875971
 20
-118.7412605258702
 30
0.0
 10
91.62746377349976
 20
-118.7412605258702
 30
0.0
 10
91.57165433047913
 20
-118.7412605258702
 30
0.0
 10
91.52688683162125
 20
-118.7860280258591
 30
0.0
 10
91.52688683162125
 20
-118.8411671925118
 30
0.0
 10
91.52688683162125
 20
-118.8962710813871
 30
0.0
 10
91.57165433047913
 20
-118.9410738591538
 30
0.0
 10
91.62746377349976
 20
-118.9410738591538
 30
0.0
 10
91.68260293875971
 20
-118.9410738591538
 30
0.0
 10
91.7273704376176
 20
-118.8962710813871
 30
0.0
 10
91.7273704376176
 20
-118.8411671925118
 30
0.0
  0
SPLINE
  5
49
330
1F
100
AcDbEntity
  8
_U+30EC_U+30A4_U+30E4_U+30FC 1
 62
     7
420
 16777215
370
     9
100
AcDbSpline
210
0.0
220
0.0
230
1.0
 70
    11
 71
     3
 72
    17
 73
    13
 74
     0
 42
0.0000000001
 43
0.0000000001
 12
1.0
 22
0.0
 32
0.0
 13
1.0
 23
0.0
 33
0.0
 40
0.0
 40
0.0
 40
0.0
 40
0.0
 40
1.0
 40
1.0
 40
1.0
 40
2.0
 40
2.0
 40
2.0
 40
3.0
 40
3.0
 40
3.0
 40
4.0
 40
4.0
 40
4.0
 40
4.0
 10
84.72522775659654
 20
-118.8411671925118
 30
0.0
 10
84.72522775659654
 20
-118.7860280258591
 30
0.0
 10
84.68045811739931
 20
-118.7412605258702
 30
0.0
 10
84.62531895213935
 20
-118.7412605258702
 30
0.0
 10
84.57021506465628
 20
-118.7412605258702
 30
0.0
 10
84.52541228802153
 20
-118.7860280258591
 30
0.0
 10
84.52541228802153
 20
-118.8411671925118
 30
0.0
 10
84.52541228802153
 20
-118.8962710813871
 30
0.0
 10
84.57021506465628
 20
-118.9410738591538
 30
0.0
 10
84.62531895213935
 20
-118.9410738591538
 30
0.0
 10
84.68045811739931
 20
-118.9410738591538
 30
0.0
 10
84.72522775659654
 20
-118.8962710813871
 30
0.0
 10
84.72522775659654
 20
-118.8411671925118
 30
0.0
  0
POLYLINE
  5
4A
330
1F
100
AcDbEntity
  8
_U+30EC_U+30A4_U+30E4_U+30FC 1
 62
     7
420
 16777215
370
     9
100
AcDb2dPolyline
 66
     1
 10
0.0
 20
0.0
 30
0.0
  0
VERTEX
  5
4B
330
4A
100
AcDbEntity
  8
_U+30EC_U+30A4_U+30E4_U+30FC 1
 62
     7
420
 16777215
370
     9
100
AcDbVertex
100
AcDb2dVertex
 10
84.62531895213935
 20
-120.4152263587851
 30
0.0
  0
VERTEX
  5
4C
330
4A
100
AcDbEntity
  8
_U+30EC_U+30A4_U+30E4_U+30FC 1
 62
     7
420
 16777215
370
     9
100
AcDbVertex
100
AcDb2dVertex
 10
84.62531895213935
 20
-117.8413949705396
 30
0.0
  0
SEQEND
  5
4D
330
4A
100
AcDbEntity
  8
_U+30EC_U+30A4_U+30E4_U+30FC 1
 62
     7
420
 16777215
370
     9
  0
POLYLINE
  5
4E
330
1F
100
AcDbEntity
  8
_U+30EC_U+30A4_U+30E4_U+30FC 1
 62
     7
420
 16777215
370
     9
100
AcDb2dPolyline
 66
     1
 10
0.0
 20
0.0
 30
0.0
  0
VERTEX
  5
4F
330
4E
100
AcDbEntity
  8
_U+30EC_U+30A4_U+30E4_U+30FC 1
 62
     7
420
 16777215
370
     9
100
AcDbVertex
100
AcDb2dVertex
 10
84.62602450767692
 20
-118.8411671925118
 30
0.0
  0
VERTEX
  5
50
330
4E
100
AcDbEntity
  8
_U+30EC_U+30A4_U+30E4_U+30FC 1
 62
     7
420
 16777215
370
     9
100
AcDbVertex
100
AcDb2dVertex
 10
91.62746377349976
 20
-118.8411671925118
 30
0.0
  0
SEQEND
  5
51
330
4E
100
AcDbEntity
  8
_U+30EC_U+30A4_U+30E4_U+30FC 1
 62
     7
420
 16777215
370
     9
  0
POLYLINE
  5
52
330
1F
100
AcDbEntity
  8
_U+30EC_U+30A4_U+30E4_U+30FC 1
 62
     7
420
 16777215
370
     9
100
AcDb2dPolyline
 66
     1
 10
0.0
 20
0.0
 30
0.0
  0
VERTEX
  5
53
330
52
100
AcDbEntity
  8
_U+30EC_U+30A4_U+30E4_U+30FC 1
 62
     7
420
 16777215
370
     9
100
AcDbVertex
100
AcDb2dVertex
 10
91.62746377349976
 20
-126.5168355239264
 30
0.0
  0
VERTEX
  5
54
330
52
100
AcDbEntity
  8
_U+30EC_U+30A4_U+30E4_U+30FC 1
 62
     7
420
 16777215
370
     9
100
AcDbVertex
100
AcDb2dVertex
 10
91.62746377349976
 20
-117.8413949705396
 30
0.0
  0
SEQEND
  5
55
330
52
100
AcDbEntity
  8
_U+30EC_U+30A4_U+30E4_U+30FC 1
 62
     7
420
 16777215
370
     9
  0
INSERT
  5
57
330
1F
100
AcDbEntity
  8
_U+30EC_U+30A4_U+30E4_U+30FC 1
100
AcDbBlockReference
  2
block 2
 10
0.0
 20
0.0
 30
0.0
  0
SPLINE
  5
5C
330
1F
100
AcDbEntity
  8
_U+30EC_U+30A4_U+30E4_U+30FC 1
 62
     7
420
 16777215
370
     9
100
AcDbSpline
210
0.0
220
0.0
230
1.0
 70
    11
 71
     3
 72
    17
 73
    13
 74
     0
 42
0.0000000001
 43
0.0000000001
 12
1.0
 22
0.0
 32
0.0
 13
1.0
 23
0.0
 33
0.0
 40
0.0
 40
0.0
 40
0.0
 40
0.0
 40
1.0
 40
1.0
 40
1.0
 40
2.0
 40
2.0
 40
2.0
 40
3.0
 40
3.0
 40
3.0
 40
4.0
 40
4.0
 40
4.0
 40
4.0
 10
83.72580831240175
 20
-125.0168244131901
 30
0.0
 10
83.72580831240175
 20
-124.9617205243152
 30
0.0
 10
83.68103869845218
 20
-124.9169177465485
 30
0.0
 10
83.62522925543155
 20
-124.9169177465485
 30
0.0
 10
83.5700900901716
 20
-124.9169177465485
 30
0.0
 10
83.52528731353684
 20
-124.9617205243152
 30
0.0
 10
83.52528731353684
 20
-125.0168244131901
 30
0.0
 10
83.52528731353684
 20
-125.0719635798432
 30
0.0
 10
83.5700900901716
 20
-125.1167310798321
 30
0.0
 10
83.62522925543155
 20
-125.1167310798321
 30
0.0
 10
83.68103869845218
 20
-125.1167310798321
 30
0.0
 10
83.72580831240175
 20
-125.0719635798432
 30
0.0
 10
83.72580831240175
 20
-125.0168244131901
 30
0.0
  0
SPLINE
  5
5D
330
1F
100
AcDbEntity
  8
_U+30EC_U+30A4_U+30E4_U+30FC 1
 62
     7
420
 16777215
370
     9
100
AcDbSpline
210
0.0
220
0.0
230
1.0
 70
    11
 71
     3
 72
    17
 73
    13
 74
     0
 42
0.0000000001
 43
0.0000000001
 12
1.0
 22
0.0
 32
0.0
 13
1.0
 23
0.0
 33
0.0
 40
0.0
 40
0.0
 40
0.0
 40
0.0
 40
1.0
 40
1.0
 40
1.0
 40
2.0
 40
2.0
 40
2.0
 40
3.0
 40
3.0
 40
3.0
 40
4.0
 40
4.0
 40
4.0
 40
4.0
 10
84.72593331215174
 20
-125.0168244131901
 30
0.0
 10
84.72593331215174
 20
-124.9617205243152
 30
0.0
 10
84.68113053438533
 20
-124.9169177465485
 30
0.0
 10
84.62602450767692
 20
-124.9169177465485
 30
0.0
 10
84.57088534241697
 20
-124.9169177465485
 30
0.0
 10
84.52611784355908
 20
-124.9617205243152
 30
0.0
 10
84.52611784355908
 20
-125.0168244131901
 30
0.0
 10
84.52611784355908
 20
-125.0719635798432
 30
0.0
 10
84.57088534241697
 20
-125.1167310798321
 30
0.0
 10
84.62602450767692
 20
-125.1167310798321
 30
0.0
 10
84.68113053438533
 20
-125.1167310798321
 30
0.0
 10
84.72593331215174
 20
-125.0719635798432
 30
0.0
 10
84.72593331215174
 20
-125.0168244131901
 30
0.0
  0
SPLINE
  5
5E
330
1F
100
AcDbEntity
  8
_U+30EC_U+30A4_U+30E4_U+30FC 1
 62
     7
420
 16777215
370
     9
100
AcDbSpline
210
0.0
220
0.0
230
1.0
 70
    11
 71
     3
 72
    17
 73
    13
 74
     0
 42
0.0000000001
 43
0.0000000001
 12
1.0
 22
0.0
 32
0.0
 13
1.0
 23
0.0
 33
0.0
 40
0.0
 40
0.0
 40
0.0
 40
0.0
 40
1.0
 40
1.0
 40
1.0
 40
2.0
 40
2.0
 40
2.0
 40
3.0
 40
3.0
 40
3.0
 40
4.0
 40
4.0
 40
4.0
 40
4.0
 10
99.72826440016445
 20
-139.5167319095652
 30
0.0
 10
99.72826440016445
 20
-139.4615927429121
 30
0.0
 10
99.68349690130657
 20
-139.4168252429235
 30
0.0
 10
99.62835773604662
 20
-139.4168252429235
 30
0.0
 10
99.57325384856355
 20
-139.4168252429235
 30
0.0
 10
99.52845107192879
 20
-139.4615927429121
 30
0.0
 10
99.52845107192879
 20
-139.5167319095652
 30
0.0
 10
99.52845107192879
 20
-139.5718357984401
 30
0.0
 10
99.57325384856355
 20
-139.6166385762068
 30
0.0
 10
99.62835773604662
 20
-139.6166385762068
 30
0.0
 10
99.68349690130657
 20
-139.6166385762068
 30
0.0
 10
99.72826440016445
 20
-139.5718357984401
 30
0.0
 10
99.72826440016445
 20
-139.5167319095652
 30
0.0
  0
SPLINE
  5
5F
330
1F
100
AcDbEntity
  8
_U+30EC_U+30A4_U+30E4_U+30FC 1
 62
     7
420
 16777215
370
     9
100
AcDbSpline
210
0.0
220
0.0
230
1.0
 70
    11
 71
     3
 72
    17
 73
    13
 74
     0
 42
0.0000000001
 43
0.0000000001
 12
1.0
 22
0.0
 32
0.0
 13
1.0
 23
0.0
 33
0.0
 40
0.0
 40
0.0
 40
0.0
 40
0.0
 40
1.0
 40
1.0
 40
1.0
 40
2.0
 40
2.0
 40
2.0
 40
3.0
 40
3.0
 40
3.0
 40
4.0
 40
4.0
 40
4.0
 40
4.0
 10
83.72580831240175
 20
-139.5167319095652
 30
0.0
 10
83.72580831240175
 20
-139.4615927429121
 30
0.0
 10
83.68103869845218
 20
-139.4168252429235
 30
0.0
 10
83.62522925543155
 20
-139.4168252429235
 30
0.0
 10
83.5700900901716
 20
-139.4168252429235
 30
0.0
 10
83.52528731353684
 20
-139.4615927429121
 30
0.0
 10
83.52528731353684
 20
-139.5167319095652
 30
0.0
 10
83.52528731353684
 20
-139.5718357984401
 30
0.0
 10
83.5700900901716
 20
-139.6166385762068
 30
0.0
 10
83.62522925543155
 20
-139.6166385762068
 30
0.0
 10
83.68103869845218
 20
-139.6166385762068
 30
0.0
 10
83.72580831240175
 20
-139.5718357984401
 30
0.0
 10
83.72580831240175
 20
-139.5167319095652
 30
0.0
  0
SPLINE
  5
60
330
1F
100
AcDbEntity
  8
_U+30EC_U+30A4_U+30E4_U+30FC 1
 62
     7
420
 16777215
370
     9
100
AcDbSpline
210
0.0
220
0.0
230
1.0
 70
    11
 71
     3
 72
    17
 73
    13
 74
     0
 42
0.0000000001
 43
0.0000000001
 12
1.0
 22
0.0
 32
0.0
 13
1.0
 23
0.0
 33
0.0
 40
0.0
 40
0.0
 40
0.0
 40
0.0
 40
1.0
 40
1.0
 40
1.0
 40
2.0
 40
2.0
 40
2.0
 40
3.0
 40
3.0
 40
3.0
 40
4.0
 40
4.0
 40
4.0
 40
4.0
 10
79.72467129938752
 20
-121.0170652475235
 30
0.0
 10
79.72467129938752
 20
-120.9619613586483
 30
0.0
 10
79.67990380052963
 20
-120.9171585808819
 30
0.0
 10
79.62476664676035
 20
-120.9171585808819
 30
0.0
 10
79.56966074778661
 20
-120.9171585808819
 30
0.0
 10
79.52485797115185
 20
-120.9619613586483
 30
0.0
 10
79.52485797115185
 20
-121.0170652475235
 30
0.0
 10
79.52485797115185
 20
-121.0722044141763
 30
0.0
 10
79.56966074778661
 20
-121.1169719141652
 30
0.0
 10
79.62476664676035
 20
-121.1169719141652
 30
0.0
 10
79.67990380052963
 20
-121.1169719141652
 30
0.0
 10
79.72467129938752
 20
-121.0722044141763
 30
0.0
 10
79.72467129938752
 20
-121.0170652475235
 30
0.0
  0
SPLINE
  5
61
330
1F
100
AcDbEntity
  8
_U+30EC_U+30A4_U+30E4_U+30FC 1
 62
     7
420
 16777215
370
     9
100
AcDbSpline
210
0.0
220
0.0
230
1.0
 70
    11
 71
     3
 72
    17
 73
    13
 74
     0
 42
0.0000000001
 43
0.0000000001
 12
1.0
 22
0.0
 32
0.0
 13
1.0
 23
0.0
 33
0.0
 40
0.0
 40
0.0
 40
0.0
 40
0.0
 40
1.0
 40
1.0
 40
1.0
 40
2.0
 40
2.0
 40
2.0
 40
3.0
 40
3.0
 40
3.0
 40
4.0
 40
4.0
 40
4.0
 40
4.0
 10
79.72467129938752
 20
-135.5169727438983
 30
0.0
 10
79.72467129938752
 20
-135.4618335772458
 30
0.0
 10
79.67990380052963
 20
-135.4170660772566
 30
0.0
 10
79.62476664676035
 20
-135.4170660772566
 30
0.0
 10
79.56966074778661
 20
-135.4170660772566
 30
0.0
 10
79.52485797115185
 20
-135.4618335772458
 30
0.0
 10
79.52485797115185
 20
-135.5169727438983
 30
0.0
 10
79.52485797115185
 20
-135.5727821883293
 30
0.0
 10
79.56966074778661
 20
-135.6175496883179
 30
0.0
 10
79.62476664676035
 20
-135.6175496883179
 30
0.0
 10
79.67990380052963
 20
-135.6175496883179
 30
0.0
 10
79.72467129938752
 20
-135.5727821883293
 30
0.0
 10
79.72467129938752
 20
-135.5169727438983
 30
0.0
  0
SPLINE
  5
62
330
1F
100
AcDbEntity
  8
_U+30EC_U+30A4_U+30E4_U+30FC 1
 62
     7
420
 16777215
370
     9
100
AcDbSpline
210
0.0
220
0.0
230
1.0
 70
    11
 71
     3
 72
    17
 73
    13
 74
     0
 42
0.0000000001
 43
0.0000000001
 12
1.0
 22
0.0
 32
0.0
 13
1.0
 23
0.0
 33
0.0
 40
0.0
 40
0.0
 40
0.0
 40
0.0
 40
1.0
 40
1.0
 40
1.0
 40
2.0
 40
2.0
 40
2.0
 40
3.0
 40
3.0
 40
3.0
 40
4.0
 40
4.0
 40
4.0
 40
4.0
 10
103.7287290203263
 20
-121.0170652475235
 30
0.0
 10
103.7287290203263
 20
-120.9619613586483
 30
0.0
 10
103.6839262436916
 20
-120.9171585808819
 30
0.0
 10
103.6288249740929
 20
-120.9171585808819
 30
0.0
 10
103.5736831909485
 20
-120.9171585808819
 30
0.0
 10
103.5289156920906
 20
-120.9619613586483
 30
0.0
 10
103.5289156920906
 20
-121.0170652475235
 30
0.0
 10
103.5289156920906
 20
-121.0722044141763
 30
0.0
 10
103.5736831909485
 20
-121.1169719141652
 30
0.0
 10
103.6288249740929
 20
-121.1169719141652
 30
0.0
 10
103.6839262436916
 20
-121.1169719141652
 30
0.0
 10
103.7287290203263
 20
-121.0722044141763
 30
0.0
 10
103.7287290203263
 20
-121.0170652475235
 30
0.0
  0
SPLINE
  5
63
330
1F
100
AcDbEntity
  8
_U+30EC_U+30A4_U+30E4_U+30FC 1
 62
     7
420
 16777215
370
     9
100
AcDbSpline
210
0.0
220
0.0
230
1.0
 70
    11
 71
     3
 72
    17
 73
    13
 74
     0
 42
0.0000000001
 43
0.0000000001
 12
1.0
 22
0.0
 32
0.0
 13
1.0
 23
0.0
 33
0.0
 40
0.0
 40
0.0
 40
0.0
 40
0.0
 40
1.0
 40
1.0
 40
1.0
 40
2.0
 40
2.0
 40
2.0
 40
3.0
 40
3.0
 40
3.0
 40
4.0
 40
4.0
 40
4.0
 40
4.0
 10
103.7287290203263
 20
-134.5172005219264
 30
0.0
 10
103.7287290203263
 20
-134.4620613552733
 30
0.0
 10
103.6839262436916
 20
-134.4172938552847
 30
0.0
 10
103.6288249740929
 20
-134.4172938552847
 30
0.0
 10
103.5736831909485
 20
-134.4172938552847
 30
0.0
 10
103.5289156920906
 20
-134.4620613552733
 30
0.0
 10
103.5289156920906
 20
-134.5172005219264
 30
0.0
 10
103.5289156920906
 20
-134.5723044108013
 30
0.0
 10
103.5736831909485
 20
-134.617107188568
 30
0.0
 10
103.6288249740929
 20
-134.617107188568
 30
0.0
 10
103.6839262436916
 20
-134.617107188568
 30
0.0
 10
103.7287290203263
 20
-134.5723044108013
 30
0.0
 10
103.7287290203263
 20
-134.5172005219264
 30
0.0
  0
POLYLINE
  5
64
330
1F
100
AcDbEntity
  8
_U+30EC_U+30A4_U+30E4_U+30FC 1
 62
     7
420
 16777215
370
     9
100
AcDb2dPolyline
 66
     1
 10
0.0
 20
0.0
 30
0.0
  0
VERTEX
  5
65
330
64
100
AcDbEntity
  8
_U+30EC_U+30A4_U+30E4_U+30FC 1
 62
     7
420
 16777215
370
     9
100
AcDbVertex
100
AcDb2dVertex
 10
84.62602450767692
 20
-125.0168244131901
 30
0.0
  0
VERTEX
  5
66
330
64
100
AcDbEntity
  8
_U+30EC_U+30A4_U+30E4_U+30FC 1
 62
     7
420
 16777215
370
     9
100
AcDbVertex
100
AcDb2dVertex
 10
88.39700718924891
 20
-125.0168244131901
 30
0.0
  0
SEQEND
  5
67
330
64
100
AcDbEntity
  8
_U+30EC_U+30A4_U+30E4_U+30FC 1
 62
     7
420
 16777215
370
     9
  0
POLYLINE
  5
68
330
1F
100
AcDbEntity
  8
_U+30EC_U+30A4_U+30E4_U+30FC 1
 62
     7
420
 16777215
370
     9
100
AcDb2dPolyline
 66
     1
 10
0.0
 20
0.0
 30
0.0
  0
VERTEX
  5
69
330
68
100
AcDbEntity
  8
_U+30EC_U+30A4_U+30E4_U+30FC 1
 62
     7
420
 16777215
370
     9
100
AcDbVertex
100
AcDb2dVertex
 10
82.62545705871564
 20
-125.0168244131901
 30
0.0
  0
VERTEX
  5
6A
330
68
100
AcDbEntity
  8
_U+30EC_U+30A4_U+30E4_U+30FC 1
 62
     7
420
 16777215
370
     9
100
AcDbVertex
100
AcDb2dVertex
 10
84.62602450767692
 20
-125.0168244131901
 30
0.0
  0
SEQEND
  5
6B
330
68
100
AcDbEntity
  8
_U+30EC_U+30A4_U+30E4_U+30FC 1
 62
     7
420
 16777215
370
     9
  0
INSERT
  5
6D
330
1F
100
AcDbEntity
  8
_U+30EC_U+30A4_U+30E4_U+30FC 1
100
AcDbBlockReference
  2
block 3
 10
0.0
 20
0.0
 30
0.0
  0
POLYLINE
  5
72
330
1F
100
AcDbEntity
  8
_U+30EC_U+30A4_U+30E4_U+30FC 1
 62
     7
420
 16777215
370
     9
100
AcDb2dPolyline
 66
     1
 10
0.0
 20
0.0
 30
0.0
  0
VERTEX
  5
73
330
72
100
AcDbEntity
  8
_U+30EC_U+30A4_U+30E4_U+30FC 1
 62
     7
420
 16777215
370
     9
100
AcDbVertex
100
AcDb2dVertex
 10
97.16752113216113
 20
-134.5172005219264
 30
0.0
  0
VERTEX
  5
74
330
72
100
AcDbEntity
  8
_U+30EC_U+30A4_U+30E4_U+30FC 1
 62
     7
420
 16777215
370
     9
100
AcDbVertex
100
AcDb2dVertex
 10
104.6289120529163
 20
-134.5172005219264
 30
0.0
  0
SEQEND
  5
75
330
72
100
AcDbEntity
  8
_U+30EC_U+30A4_U+30E4_U+30FC 1
 62
     7
420
 16777215
370
     9
  0
SPLINE
  5
76
330
1F
100
AcDbEntity
  8
_U+30EC_U+30A4_U+30E4_U+30FC 1
 62
     7
420
 16777215
370
     9
100
AcDbSpline
210
0.0
220
0.0
230
1.0
 70
    11
 71
     3
 72
    17
 73
    13
 74
     0
 42
0.0000000001
 43
0.0000000001
 12
1.0
 22
0.0
 32
0.0
 13
1.0
 23
0.0
 33
0.0
 40
0.0
 40
0.0
 40
0.0
 40
0.0
 40
1.0
 40
1.0
 40
1.0
 40
2.0
 40
2.0
 40
2.0
 40
3.0
 40
3.0
 40
3.0
 40
4.0
 40
4.0
 40
4.0
 40
4.0
 10
103.7287290203263
 20
-129.015384134413
 30
0.0
 10
103.7287290203263
 20
-128.9595746899825
 30
0.0
 10
103.6839262436916
 20
-128.9147719122158
 30
0.0
 10
103.6288249740929
 20
-128.9147719122158
 30
0.0
 10
103.5736831909485
 20
-128.9147719122158
 30
0.0
 10
103.5289156920906
 20
-128.9595746899825
 30
0.0
 10
103.5289156920906
 20
-129.015384134413
 30
0.0
 10
103.5289156920906
 20
-129.0704880232879
 30
0.0
 10
103.5736831909485
 20
-129.1152908010546
 30
0.0
 10
103.6288249740929
 20
-129.1152908010546
 30
0.0
 10
103.6839262436916
 20
-129.1152908010546
 30
0.0
 10
103.7287290203263
 20
-129.0704880232879
 30
0.0
 10
103.7287290203263
 20
-129.015384134413
 30
0.0
  0
SPLINE
  5
77
330
1F
100
AcDbEntity
  8
_U+30EC_U+30A4_U+30E4_U+30FC 1
 62
     7
420
 16777215
370
     9
100
AcDbSpline
210
0.0
220
0.0
230
1.0
 70
    11
 71
     3
 72
    17
 73
    13
 74
     0
 42
0.0000000001
 43
0.0000000001
 12
1.0
 22
0.0
 32
0.0
 13
1.0
 23
0.0
 33
0.0
 40
0.0
 40
0.0
 40
0.0
 40
0.0
 40
1.0
 40
1.0
 40
1.0
 40
2.0
 40
2.0
 40
2.0
 40
3.0
 40
3.0
 40
3.0
 40
4.0
 40
4.0
 40
4.0
 40
4.0
 10
103.7287290203263
 20
-128.0150827457741
 30
0.0
 10
103.7287290203263
 20
-127.9599788568989
 30
0.0
 10
103.6839262436916
 20
-127.9151760791322
 30
0.0
 10
103.6288249740929
 20
-127.9151760791322
 30
0.0
 10
103.5736831909485
 20
-127.9151760791322
 30
0.0
 10
103.5289156920906
 20
-127.9599788568989
 30
0.0
 10
103.5289156920906
 20
-128.0150827457741
 30
0.0
 10
103.5289156920906
 20
-128.0702219124269
 30
0.0
 10
103.5736831909485
 20
-128.1149894124158
 30
0.0
 10
103.6288249740929
 20
-128.1149894124158
 30
0.0
 10
103.6839262436916
 20
-128.1149894124158
 30
0.0
 10
103.7287290203263
 20
-128.0702219124269
 30
0.0
 10
103.7287290203263
 20
-128.0150827457741
 30
0.0
  0
POLYLINE
  5
78
330
1F
100
AcDbEntity
  8
_U+30EC_U+30A4_U+30E4_U+30FC 1
 62
     7
420
 16777215
370
     9
100
AcDb2dPolyline
 66
     1
 10
0.0
 20
0.0
 30
0.0
  0
VERTEX
  5
79
330
78
100
AcDbEntity
  8
_U+30EC_U+30A4_U+30E4_U+30FC 1
 62
     7
420
 16777215
370
     9
100
AcDbVertex
100
AcDb2dVertex
 10
97.16893224323623
 20
-128.0188927457732
 30
0.0
  0
VERTEX
  5
7A
330
78
100
AcDbEntity
  8
_U+30EC_U+30A4_U+30E4_U+30FC 1
 62
     7
420
 16777215
370
     9
100
AcDbVertex
100
AcDb2dVertex
 10
104.6289120529163
 20
-128.0188927457732
 30
0.0
  0
SEQEND
  5
7B
330
78
100
AcDbEntity
  8
_U+30EC_U+30A4_U+30E4_U+30FC 1
 62
     7
420
 16777215
370
     9
  0
INSERT
  5
7D
330
1F
100
AcDbEntity
  8
_U+30EC_U+30A4_U+30E4_U+30FC 1
100
AcDbBlockReference
  2
block 4
 10
0.0
 20
0.0
 30
0.0
  0
POLYLINE
  5
8C
330
1F
100
AcDbEntity
  8
_U+30EC_U+30A4_U+30E4_U+30FC 1
 62
     7
420
 16777215
370
     9
100
AcDb2dPolyline
 66
     1
 10
0.0
 20
0.0
 30
0.0
  0
VERTEX
  5
8D
330
8C
100
AcDbEntity
  8
_U+30EC_U+30A4_U+30E4_U+30FC 1
 62
     7
420
 16777215
370
     9
100
AcDbVertex
100
AcDb2dVertex
 10
103.6288249740929
 20
-129.015384134413
 30
0.0
  0
VERTEX
  5
8E
330
8C
100
AcDbEntity
  8
_U+30EC_U+30A4_U+30E4_U+30FC 1
 62
     7
420
 16777215
370
     9
100
AcDbVertex
100
AcDb2dVertex
 10
103.6288249740929
 20
-121.0170652475235
 30
0.0
  0
SEQEND
  5
8F
330
8C
100
AcDbEntity
  8
_U+30EC_U+30A4_U+30E4_U+30FC 1
 62
     7
420
 16777215
370
     9
  0
POLYLINE
  5
90
330
1F
100
AcDbEntity
  8
_U+30EC_U+30A4_U+30E4_U+30FC 1
 62
     7
420
 16777215
370
     9
100
AcDb2dPolyline
 66
     1
 10
0.0
 20
0.0
 30
0.0
  0
VERTEX
  5
91
330
90
100
AcDbEntity
  8
_U+30EC_U+30A4_U+30E4_U+30FC 1
 62
     7
420
 16777215
370
     9
100
AcDbVertex
100
AcDb2dVertex
 10
86.16632497845849
 20
-121.0170652475235
 30
0.0
  0
VERTEX
  5
92
330
90
100
AcDbEntity
  8
_U+30EC_U+30A4_U+30E4_U+30FC 1
 62
     7
420
 16777215
370
     9
100
AcDbVertex
100
AcDb2dVertex
 10
104.6289120529163
 20
-121.0170652475235
 30
0.0
  0
SEQEND
  5
93
330
90
100
AcDbEntity
  8
_U+30EC_U+30A4_U+30E4_U+30FC 1
 62
     7
420
 16777215
370
     9
  0
INSERT
  5
95
330
1F
100
AcDbEntity
  8
_U+30EC_U+30A4_U+30E4_U+30FC 1
100
AcDbBlockReference
  2
block 5
 10
0.0
 20
0.0
 30
0.0
  0
POLYLINE
  5
9A
330
1F
100
AcDbEntity
  8
_U+30EC_U+30A4_U+30E4_U+30FC 1
 62
     7
420
 16777215
370
     9
100
AcDb2dPolyline
 66
     1
 10
0.0
 20
0.0
 30
0.0
  0
VERTEX
  5
9B
330
9A
100
AcDbEntity
  8
_U+30EC_U+30A4_U+30E4_U+30FC 1
 62
     7
420
 16777215
370
     9
100
AcDbVertex
100
AcDb2dVertex
 10
79.62476664676035
 20
-135.5162671883434
 30
0.0
  0
VERTEX
  5
9C
330
9A
100
AcDbEntity
  8
_U+30EC_U+30A4_U+30E4_U+30FC 1
 62
     7
420
 16777215
370
     9
100
AcDbVertex
100
AcDb2dVertex
 10
79.62476664676035
 20
-121.0170652475235
 30
0.0
  0
SEQEND
  5
9D
330
9A
100
AcDbEntity
  8
_U+30EC_U+30A4_U+30E4_U+30FC 1
 62
     7
420
 16777215
370
     9
  0
POLYLINE
  5
9E
330
1F
100
AcDbEntity
  8
_U+30EC_U+30A4_U+30E4_U+30FC 1
 62
     7
420
 16777215
370
     9
100
AcDb2dPolyline
 66
     1
 10
0.0
 20
0.0
 30
0.0
  0
VERTEX
  5
9F
330
9E
100
AcDbEntity
  8
_U+30EC_U+30A4_U+30E4_U+30FC 1
 62
     7
420
 16777215
370
     9
100
AcDbVertex
100
AcDb2dVertex
 10
82.0852484613864
 20
-135.5169727438983
 30
0.0
  0
VERTEX
  5
A0
330
9E
100
AcDbEntity
  8
_U+30EC_U+30A4_U+30E4_U+30FC 1
 62
     7
420
 16777215
370
     9
100
AcDbVertex
100
AcDb2dVertex
 10
78.62499442478813
 20
-135.5169727438983
 30
0.0
  0
SEQEND
  5
A1
330
9E
100
AcDbEntity
  8
_U+30EC_U+30A4_U+30E4_U+30FC 1
 62
     7
420
 16777215
370
     9
  0
POLYLINE
  5
A2
330
1F
100
AcDbEntity
  8
_U+30EC_U+30A4_U+30E4_U+30FC 1
 62
     7
420
 16777215
370
     9
100
AcDb2dPolyline
 66
     1
 10
0.0
 20
0.0
 30
0.0
  0
VERTEX
  5
A3
330
A2
100
AcDbEntity
  8
_U+30EC_U+30A4_U+30E4_U+30FC 1
 62
     7
420
 16777215
370
     9
100
AcDbVertex
100
AcDb2dVertex
 10
82.0852484613864
 20
-121.0170652475235
 30
0.0
  0
VERTEX
  5
A4
330
A2
100
AcDbEntity
  8
_U+30EC_U+30A4_U+30E4_U+30FC 1
 62
     7
420
 16777215
370
     9
100
AcDbVertex
100
AcDb2dVertex
 10
78.62499442478813
 20
-121.0170652475235
 30
0.0
  0
SEQEND
  5
A5
330
A2
100
AcDbEntity
  8
_U+30EC_U+30A4_U+30E4_U+30FC 1
 62
     7
420
 16777215
370
     9
  0
INSERT
  5
A7
330
1F
100
AcDbEntity
  8
_U+30EC_U+30A4_U+30E4_U+30FC 1
100
AcDbBlockReference
  2
block 6
 10
0.0
 20
0.0
 30
0.0
  0
POLYLINE
  5
CB
330
1F
100
AcDbEntity
  8
_U+30EC_U+30A4_U+30E4_U+30FC 1
 62
     7
420
 16777215
370
     9
100
AcDb2dPolyline
 66
     1
 10
0.0
 20
0.0
 30
0.0
  0
VERTEX
  5
CC
330
CB
100
AcDbEntity
  8
_U+30EC_U+30A4_U+30E4_U+30FC 1
 62
     7
420
 16777215
370
     9
100
AcDbVertex
100
AcDb2dVertex
 10
83.62522925543155
 20
-139.5167319095652
 30
0.0
  0
VERTEX
  5
CD
330
CB
100
AcDbEntity
  8
_U+30EC_U+30A4_U+30E4_U+30FC 1
 62
     7
420
 16777215
370
     9
100
AcDbVertex
100
AcDb2dVertex
 10
99.62835773604662
 20
-139.5167319095652
 30
0.0
  0
SEQEND
  5
CE
330
CB
100
AcDbEntity
  8
_U+30EC_U+30A4_U+30E4_U+30FC 1
 62
     7
420
 16777215
370
     9
  0
POLYLINE
  5
CF
330
1F
100
AcDbEntity
  8
_U+30EC_U+30A4_U+30E4_U+30FC 1
 62
     7
420
 16777215
370
     9
100
AcDb2dPolyline
 66
     1
 10
0.0
 20
0.0
 30
0.0
  0
VERTEX
  5
D0
330
CF
100
AcDbEntity
  8
_U+30EC_U+30A4_U+30E4_U+30FC 1
 62
     7
420
 16777215
370
     9
100
AcDbVertex
100
AcDb2dVertex
 10
83.62522925543155
 20
-137.0562480212915
 30
0.0
  0
VERTEX
  5
D1
330
CF
100
AcDbEntity
  8
_U+30EC_U+30A4_U+30E4_U+30FC 1
 62
     7
420
 16777215
370
     9
100
AcDbVertex
100
AcDb2dVertex
 10
83.62522925543155
 20
-140.5165041315377
 30
0.0
  0
SEQEND
  5
D2
330
CF
100
AcDbEntity
  8
_U+30EC_U+30A4_U+30E4_U+30FC 1
 62
     7
420
 16777215
370
     9
  0
POLYLINE
  5
D3
330
1F
100
AcDbEntity
  8
_U+30EC_U+30A4_U+30E4_U+30FC 1
 62
     7
420
 16777215
370
     9
100
AcDb2dPolyline
 66
     1
 10
0.0
 20
0.0
 30
0.0
  0
VERTEX
  5
D4
330
D3
100
AcDbEntity
  8
_U+30EC_U+30A4_U+30E4_U+30FC 1
 62
     7
420
 16777215
370
     9
100
AcDbVertex
100
AcDb2dVertex
 10
99.62835773604662
 20
-138.0566905210414
 30
0.0
  0
VERTEX
  5
D5
330
D3
100
AcDbEntity
  8
_U+30EC_U+30A4_U+30E4_U+30FC 1
 62
     7
420
 16777215
370
     9
100
AcDbVertex
100
AcDb2dVertex
 10
99.62835773604662
 20
-140.5165041315377
 30
0.0
  0
SEQEND
  5
D6
330
D3
100
AcDbEntity
  8
_U+30EC_U+30A4_U+30E4_U+30FC 1
 62
     7
420
 16777215
370
     9
  0
INSERT
  5
D8
330
1F
100
AcDbEntity
  8
_U+30EC_U+30A4_U+30E4_U+30FC 1
100
AcDbBlockReference
  2
block 7
 10
0.0
 20
0.0
 30
0.0
  0
POLYLINE
  5
E0
330
1F
100
AcDbEntity
  8
_U+30EC_U+30A4_U+30E4_U+30FC 1
 62
     7
420
 16777215
370
     9
100
AcDb2dPolyline
 66
     1
 10
0.0
 20
0.0
 30
0.0
  0
VERTEX
  5
E1
330
E0
100
AcDbEntity
  8
_U+30EC_U+30A4_U+30E4_U+30FC 1
 62
     7
420
 16777215
370
     9
100
AcDbVertex
100
AcDb2dVertex
 10
103.6288249740929
 20
-134.5172005219264
 30
0.0
  0
VERTEX
  5
E2
330
E0
100
AcDbEntity
  8
_U+30EC_U+30A4_U+30E4_U+30FC 1
 62
     7
420
 16777215
370
     9
100
AcDbVertex
100
AcDb2dVertex
 10
103.6288249740929
 20
-129.0167599677459
 30
0.0
  0
SEQEND
  5
E3
330
E0
100
AcDbEntity
  8
_U+30EC_U+30A4_U+30E4_U+30FC 1
 62
     7
420
 16777215
370
     9
  0
POLYLINE
  5
E4
330
1F
100
AcDbEntity
  8
_U+30EC_U+30A4_U+30E4_U+30FC 1
  6
AI-Linetype-1
 62
   251
420
  5855577
370
    25
100
AcDb2dPolyline
 66
     1
 10
0.0
 20
0.0
 30
0.0
  0
VERTEX
  5
E5
330
E4
100
AcDbEntity
  8
_U+30EC_U+30A4_U+30E4_U+30FC 1
  6
AI-Linetype-1
 62
   251
420
  5855577
370
    25
100
AcDbVertex
100
AcDb2dVertex
 10
83.5521689795177
 20
-120.4241869143385
 30
0.0
  0
VERTEX
  5
E6
330
E4
100
AcDbEntity
  8
_U+30EC_U+30A4_U+30E4_U+30FC 1
  6
AI-Linetype-1
 62
   251
420
  5855577
370
    25
100
AcDbVertex
100
AcDb2dVertex
 10
85.34604393375213
 20
-120.4241869143385
 30
0.0
  0
VERTEX
  5
E7
330
E4
100
AcDbEntity
  8
_U+30EC_U+30A4_U+30E4_U+30FC 1
  6
AI-Linetype-1
 62
   251
420
  5855577
370
    25
100
AcDbVertex
100
AcDb2dVertex
 10
85.34604393375213
 20
-127.3033535792854
 30
0.0
  0
VERTEX
  5
E8
330
E4
100
AcDbEntity
  8
_U+30EC_U+30A4_U+30E4_U+30FC 1
  6
AI-Linetype-1
 62
   251
420
  5855577
370
    25
100
AcDbVertex
100
AcDb2dVertex
 10
92.22658625821488
 20
-127.3033535792854
 30
0.0
  0
VERTEX
  5
E9
330
E4
100
AcDbEntity
  8
_U+30EC_U+30A4_U+30E4_U+30FC 1
  6
AI-Linetype-1
 62
   251
420
  5855577
370
    25
100
AcDbVertex
100
AcDb2dVertex
 10
92.22658625821488
 20
-129.0553538566249
 30
0.0
  0
SEQEND
  5
EB
330
E4
100
AcDbEntity
  8
_U+30EC_U+30A4_U+30E4_U+30FC 1
  6
AI-Linetype-1
 62
   251
420
  5855577
370
    25
  0
ENDSEC
  0
SECTION
  2
OBJECTS
  0
DICTIONARY
  5
C
330
0
100
AcDbDictionary
281
     1
  3
ACAD_GROUP
350
D
  3
ACAD_LAYOUT
350
1A
  3
ACAD_MATERIAL
350
3B
  3
ACAD_MLEADERSTYLE
350
ED
  3
ACAD_MLINESTYLE
350
17
  3
ACAD_PLOTSETTINGS
350
19
  3
ACAD_PLOTSTYLENAME
350
E
  3
ACAD_TABLESTYLE
350
EC
  3
ACAD_VISUALSTYLE
350
2A
  0
SUN
  5
3F
330
29
100
AcDbSun
 90
        1
290
     0
 63
     7
421
 16777215
 40
1.0
291
     1
 91
  2455826
 92
 54000000
292
     0
 70
     2
 71
   256
280
     1
  0
DICTIONARY
  5
D
102
{ACAD_REACTORS
330
C
102
}
330
C
100
AcDbDictionary
281
     1
  0
DICTIONARY
  5
1A
102
{ACAD_REACTORS
330
C
102
}
330
C
100
AcDbDictionary
281
     1
  3
Layout1
350
1E
  3
Layout2
350
26
  3
Model
350
22
  0
DICTIONARY
  5
3B
102
{ACAD_REACTORS
330
C
102
}
330
C
100
AcDbDictionary
281
     1
  3
ByBlock
350
3D
  3
ByLayer
350
3C
  3
Global
350
3E
  0
DICTIONARY
  5
ED
102
{ACAD_REACTORS
330
C
102
}
330
C
100
AcDbDictionary
281
     1
  0
DICTIONARY
  5
17
102
{ACAD_REACTORS
330
C
102
}
330
C
100
AcDbDictionary
281
     1
  3
Standard
350
18
  0
DICTIONARY
  5
19
102
{ACAD_REACTORS
330
C
102
}
330
C
100
AcDbDictionary
281
     1
  0
ACDBDICTIONARYWDFLT
  5
E
102
{ACAD_REACTORS
330
C
102
}
330
C
100
AcDbDictionary
281
     1
  3
Normal
350
F
100
AcDbDictionaryWithDefault
340
F
  0
DICTIONARY
  5
EC
102
{ACAD_REACTORS
330
C
102
}
330
C
100
AcDbDictionary
281
     1
  0
DICTIONARY
  5
2A
102
{ACAD_REACTORS
330
C
102
}
330
C
100
AcDbDictionary
281
     1
  3
2dWireframe
350
2F
  3
3D Hidden
350
31
  3
3dWireframe
350
30
  3
Basic
350
32
  3
Brighten
350
36
  3
ColorChange
350
3A
  3
Conceptual
350
34
  3
Dim
350
35
  3
Facepattern
350
39
  3
Flat
350
2B
  3
FlatWithEdges
350
2C
  3
Gouraud
350
2D
  3
GouraudWithEdges
350
2E
  3
Linepattern
350
38
  3
Realistic
350
33
  3
Thicken
350
37
  0
LAYOUT
  5
1E
102
{ACAD_REACTORS
330
1A
102
}
330
1A
100
AcDbPlotSettings
  1

  2
none_device
  4

  6

 40
0.0
 41
0.0
 42
0.0
 43
0.0
 44
0.0
 45
0.0
 46
0.0
 47
0.0
 48
0.0
 49
0.0
140
0.0
141
0.0
142
1.0
143
1.0
 70
   688
 72
     0
 73
     0
 74
     5
  7

 75
    16
 76
     0
 77
     2
 78
   300
147
1.0
148
0.0
149
0.0
100
AcDbLayout
  1
Layout1
 70
     1
 71
     1
 10
0.0
 20
0.0
 11
12.0
 21
9.0
 12
0.0
 22
0.0
 32
0.0
 14
1.000000000000000E+20
 24
1.000000000000000E+20
 34
1.000000000000000E+20
 15
-1.000000000000000E+20
 25
-1.000000000000000E+20
 35
-1.000000000000000E+20
146
0.0
 13
0.0
 23
0.0
 33
0.0
 16
1.0
 26
0.0
 36
0.0
 17
0.0
 27
1.0
 37
0.0
 76
     0
330
1B
  0
LAYOUT
  5
26
102
{ACAD_REACTORS
330
1A
102
}
330
1A
100
AcDbPlotSettings
  1

  2
none_device
  4

  6

 40
0.0
 41
0.0
 42
0.0
 43
0.0
 44
0.0
 45
0.0
 46
0.0
 47
0.0
 48
0.0
 49
0.0
140
0.0
141
0.0
142
1.0
143
1.0
 70
   688
 72
     0
 73
     0
 74
     5
  7

 75
    16
 76
     0
 77
     2
 78
   300
147
1.0
148
0.0
149
0.0
100
AcDbLayout
  1
Layout2
 70
     1
 71
     2
 10
0.0
 20
0.0
 11
0.0
 21
0.0
 12
0.0
 22
0.0
 32
0.0
 14
0.0
 24
0.0
 34
0.0
 15
0.0
 25
0.0
 35
0.0
146
0.0
 13
0.0
 23
0.0
 33
0.0
 16
1.0
 26
0.0
 36
0.0
 17
0.0
 27
1.0
 37
0.0
 76
     0
330
23
  0
LAYOUT
  5
22
102
{ACAD_REACTORS
330
1A
102
}
330
1A
100
AcDbPlotSettings
  1

  2
none_device
  4

  6

 40
0.0
 41
0.0
 42
0.0
 43
0.0
 44
0.0
 45
0.0
 46
0.0
 47
0.0
 48
0.0
 49
0.0
140
0.0
141
0.0
142
1.0
143
1.0
 70
  1712
 72
     0
 73
     0
 74
     0
  7

 75
     0
 76
     0
 77
     2
 78
   300
147
1.0
148
0.0
149
0.0
100
AcDbLayout
  1
Model
 70
     1
 71
     0
 10
0.0
 20
0.0
 11
12.0
 21
9.0
 12
0.0
 22
0.0
 32
0.0
 14
1.000000000000000E+20
 24
1.000000000000000E+20
 34
1.000000000000000E+20
 15
-1.000000000000000E+20
 25
-1.000000000000000E+20
 35
-1.000000000000000E+20
146
0.0
 13
0.0
 23
0.0
 33
0.0
 16
1.0
 26
0.0
 36
0.0
 17
0.0
 27
1.0
 37
0.0
 76
     0
330
1F
331
29
  0
MATERIAL
  5
3D
102
{ACAD_REACTORS
330
3B
102
}
330
3B
100
AcDbMaterial
  1
ByBlock
 72
     1
 94
      127
  0
MATERIAL
  5
3C
102
{ACAD_REACTORS
330
3B
102
}
330
3B
100
AcDbMaterial
  1
ByLayer
 72
     1
 94
      127
  0
MATERIAL
  5
3E
102
{ACAD_REACTORS
330
3B
102
}
330
3B
100
AcDbMaterial
  1
Global
 72
     1
 94
      127
  0
MLINESTYLE
  5
18
102
{ACAD_REACTORS
330
17
102
}
330
17
100
AcDbMlineStyle
  2
Standard
 70
     0
  3

 62
   256
 51
90.0
 52
90.0
 71
     2
 49
0.5
 62
   256
  6
BYLAYER
 49
-0.5
 62
   256
  6
BYLAYER
  0
ACDBPLACEHOLDER
  5
F
102
{ACAD_REACTORS
330
E
102
}
330
E
  0
VISUALSTYLE
  5
2F
102
{ACAD_REACTORS
330
2A
102
}
330
2A
100
AcDbVisualStyle
  2
2dWireframe
 70
     4
177
     2
291
     0
 71
     0
176
     1
 72
     2
176
     1
 73
     0
176
     1
 90
        0
176
     1
 40
-0.6
176
     1
 41
-30.0
176
     1
 62
     5
 63
     7
421
 16777215
176
     1
 74
     1
176
     1
 91
        4
176
     1
 64
     7
176
     1
 65
   257
176
     1
 75
     1
176
     1
175
     1
176
     1
 42
1.0
176
     1
 92
        0
176
     1
 66
   257
176
     1
 43
1.0
176
     1
 76
     1
176
     1
 77
     6
176
     1
 78
     2
176
     1
 67
     7
176
     1
 79
     5
176
     1
170
     0
176
     1
171
     0
176
     1
290
     0
176
     1
 93
        1
176
     1
 44
0.0
176
     1
173
     0
176
     1
  0
VISUALSTYLE
  5
31
102
{ACAD_REACTORS
330
2A
102
}
330
2A
100
AcDbVisualStyle
  2
3D Hidden
 70
     6
177
     2
291
     0
 71
     1
176
     1
 72
     2
176
     1
 73
     2
176
     1
 90
        0
176
     1
 40
-0.6
176
     1
 41
-30.0
176
     1
 62
     5
 63
     7
421
 16777215
176
     1
 74
     2
176
     1
 91
        2
176
     1
 64
     7
176
     1
 65
   257
176
     1
 75
     2
176
     1
175
     1
176
     1
 42
40.0
176
     1
 92
        0
176
     1
 66
   257
176
     1
 43
1.0
176
     1
 76
     1
176
     1
 77
     6
176
     1
 78
     2
176
     1
 67
     7
176
     1
 79
     3
176
     1
170
     0
176
     1
171
     0
176
     1
290
     0
176
     1
 93
        1
176
     1
 44
0.0
176
     1
173
     0
176
     1
  0
VISUALSTYLE
  5
30
102
{ACAD_REACTORS
330
2A
102
}
330
2A
100
AcDbVisualStyle
  2
3dWireframe
 70
     5
177
     2
291
     0
 71
     0
176
     1
 72
     2
176
     1
 73
     0
176
     1
 90
        0
176
     1
 40
-0.6
176
     1
 41
-30.0
176
     1
 62
     5
 63
     7
421
 16777215
176
     1
 74
     1
176
     1
 91
        4
176
     1
 64
     7
176
     1
 65
   257
176
     1
 75
     1
176
     1
175
     1
176
     1
 42
1.0
176
     1
 92
        0
176
     1
 66
   257
176
     1
 43
1.0
176
     1
 76
     1
176
     1
 77
     6
176
     1
 78
     2
176
     1
 67
     7
176
     1
 79
     5
176
     1
170
     0
176
     1
171
     0
176
     1
290
     0
176
     1
 93
        1
176
     1
 44
0.0
176
     1
173
     0
176
     1
  0
VISUALSTYLE
  5
32
102
{ACAD_REACTORS
330
2A
102
}
330
2A
100
AcDbVisualStyle
  2
Basic
 70
     7
177
     2
291
     1
 71
     1
176
     1
 72
     0
176
     1
 73
     1
176
     1
 90
        0
176
     1
 40
-0.6
176
     1
 41
-30.0
176
     1
 62
     5
 63
     7
421
 16777215
176
     1
 74
     0
176
     1
 91
        4
176
     1
 64
     7
176
     1
 65
   257
176
     1
 75
     1
176
     1
175
     1
176
     1
 42
1.0
176
     1
 92
        8
176
     1
 66
     7
176
     1
 43
1.0
176
     1
 76
     1
176
     1
 77
     6
176
     1
 78
     2
176
     1
 67
     7
176
     1
 79
     5
176
     1
170
     0
176
     1
171
     0
176
     1
290
     0
176
     1
 93
        1
176
     1
 44
0.0
176
     1
173
     0
176
     1
  0
VISUALSTYLE
  5
36
102
{ACAD_REACTORS
330
2A
102
}
330
2A
100
AcDbVisualStyle
  2
Brighten
 70
    12
177
     2
291
     1
 71
     2
176
     1
 72
     2
176
     1
 73
     0
176
     1
 90
        0
176
     1
 40
-0.6
176
     1
 41
-30.0
176
     1
 62
     5
 63
     7
421
 16777215
176
     1
 74
     1
176
     1
 91
        4
176
     1
 64
     7
176
     1
 65
   257
176
     1
 75
     1
176
     1
175
     1
176
     1
 42
1.0
176
     1
 92
        8
176
     1
 66
     7
176
     1
 43
1.0
176
     1
 76
     1
176
     1
 77
     6
176
     1
 78
     2
176
     1
 67
     7
176
     1
 79
     5
176
     1
170
     0
176
     1
171
     0
176
     1
290
     0
176
     1
 93
        1
176
     1
 44
50.0
176
     1
173
     0
176
     1
  0
VISUALSTYLE
  5
3A
102
{ACAD_REACTORS
330
2A
102
}
330
2A
100
AcDbVisualStyle
  2
ColorChange
 70
    16
177
     2
291
     1
 71
     2
176
     1
 72
     2
176
     1
 73
     3
176
     1
 90
        0
176
     1
 40
-0.6
176
     1
 41
-30.0
176
     1
 62
     5
 63
     8
421
  8421504
176
     1
 74
     1
176
     1
 91
        4
176
     1
 64
     7
176
     1
 65
   257
176
     1
 75
     1
176
     1
175
     1
176
     1
 42
1.0
176
     1
 92
        8
176
     1
 66
     8
424
  8421504
176
     1
 43
1.0
176
     1
 76
     1
176
     1
 77
     6
176
     1
 78
     2
176
     1
 67
     7
176
     1
 79
     5
176
     1
170
     0
176
     1
171
     0
176
     1
290
     0
176
     1
 93
        1
176
     1
 44
0.0
176
     1
173
     0
176
     1
  0
VISUALSTYLE
  5
34
102
{ACAD_REACTORS
330
2A
102
}
330
2A
100
AcDbVisualStyle
  2
Conceptual
 70
     9
177
     2
291
     0
 71
     3
176
     1
 72
     2
176
     1
 73
     0
176
     1
 90
        0
176
     1
 40
-0.6
176
     1
 41
-30.0
176
     1
 62
     5
 63
     7
421
 16777215
176
     1
 74
     2
176
     1
 91
        2
176
     1
 64
     7
176
     1
 65
   257
176
     1
 75
     1
176
     1
175
     1
176
     1
 42
40.0
176
     1
 92
        8
176
     1
 66
     7
176
     1
 43
1.0
176
     1
 76
     1
176
     1
 77
     6
176
     1
 78
     2
176
     1
 67
     7
176
     1
 79
     3
176
     1
170
     0
176
     1
171
     0
176
     1
290
     0
176
     1
 93
        1
176
     1
 44
0.0
176
     1
173
     0
176
     1
  0
VISUALSTYLE
  5
35
102
{ACAD_REACTORS
330
2A
102
}
330
2A
100
AcDbVisualStyle
  2
Dim
 70
    11
177
     2
291
     1
 71
     2
176
     1
 72
     2
176
     1
 73
     0
176
     1
 90
        0
176
     1
 40
-0.6
176
     1
 41
-30.0
176
     1
 62
     5
 63
     7
421
 16777215
176
     1
 74
     1
176
     1
 91
        4
176
     1
 64
     7
176
     1
 65
   257
176
     1
 75
     1
176
     1
175
     1
176
     1
 42
1.0
176
     1
 92
        8
176
     1
 66
     7
176
     1
 43
1.0
176
     1
 76
     1
176
     1
 77
     6
176
     1
 78
     2
176
     1
 67
     7
176
     1
 79
     5
176
     1
170
     0
176
     1
171
     0
176
     1
290
     0
176
     1
 93
        1
176
     1
 44
-50.0
176
     1
173
     0
176
     1
  0
VISUALSTYLE
  5
39
102
{ACAD_REACTORS
330
2A
102
}
330
2A
100
AcDbVisualStyle
  2
Facepattern
 70
    15
177
     2
291
     1
 71
     2
176
     1
 72
     2
176
     1
 73
     0
176
     1
 90
        0
176
     1
 40
-0.6
176
     1
 41
-30.0
176
     1
 62
     5
 63
     7
421
 16777215
176
     1
 74
     1
176
     1
 91
        4
176
     1
 64
     7
176
     1
 65
   257
176
     1
 75
     1
176
     1
175
     1
176
     1
 42
1.0
176
     1
 92
        8
176
     1
 66
     7
176
     1
 43
1.0
176
     1
 76
     1
176
     1
 77
     6
176
     1
 78
     2
176
     1
 67
     7
176
     1
 79
     5
176
     1
170
     0
176
     1
171
     0
176
     1
290
     0
176
     1
 93
        1
176
     1
 44
0.0
176
     1
173
     0
176
     1
  0
VISUALSTYLE
  5
2B
102
{ACAD_REACTORS
330
2A
102
}
330
2A
100
AcDbVisualStyle
  2
Flat
 70
     0
177
     2
291
     1
 71
     2
176
     1
 72
     1
176
     1
 73
     1
176
     1
 90
        2
176
     1
 40
-0.6
176
     1
 41
30.0
176
     1
 62
     5
 63
     7
421
 16777215
176
     1
 74
     0
176
     1
 91
        4
176
     1
 64
     7
176
     1
 65
   257
176
     1
 75
     1
176
     1
175
     1
176
     1
 42
1.0
176
     1
 92
        8
176
     1
 66
     7
176
     1
 43
1.0
176
     1
 76
     1
176
     1
 77
     6
176
     1
 78
     2
176
     1
 67
     7
176
     1
 79
     5
176
     1
170
     0
176
     1
171
     0
176
     1
290
     0
176
     1
 93
       13
176
     1
 44
0.0
176
     1
173
     0
176
     1
  0
VISUALSTYLE
  5
2C
102
{ACAD_REACTORS
330
2A
102
}
330
2A
100
AcDbVisualStyle
  2
FlatWithEdges
 70
     1
177
     2
291
     1
 71
     2
176
     1
 72
     1
176
     1
 73
     1
176
     1
 90
        2
176
     1
 40
-0.6
176
     1
 41
30.0
176
     1
 62
     5
 63
     7
421
 16777215
176
     1
 74
     1
176
     1
 91
        4
176
     1
 64
     7
176
     1
 65
   257
176
     1
 75
     1
176
     1
175
     1
176
     1
 42
1.0
176
     1
 92
        0
176
     1
 66
   257
176
     1
 43
1.0
176
     1
 76
     1
176
     1
 77
     6
176
     1
 78
     2
176
     1
 67
     7
176
     1
 79
     5
176
     1
170
     0
176
     1
171
     0
176
     1
290
     0
176
     1
 93
       13
176
     1
 44
0.0
176
     1
173
     0
176
     1
  0
VISUALSTYLE
  5
2D
102
{ACAD_REACTORS
330
2A
102
}
330
2A
100
AcDbVisualStyle
  2
Gouraud
 70
     2
177
     2
291
     1
 71
     2
176
     1
 72
     2
176
     1
 73
     1
176
     1
 90
        2
176
     1
 40
-0.6
176
     1
 41
30.0
176
     1
 62
     5
 63
     7
421
 16777215
176
     1
 74
     0
176
     1
 91
        4
176
     1
 64
     7
176
     1
 65
   257
176
     1
 75
     1
176
     1
175
     1
176
     1
 42
1.0
176
     1
 92
        0
176
     1
 66
     7
176
     1
 43
1.0
176
     1
 76
     1
176
     1
 77
     6
176
     1
 78
     2
176
     1
 67
     7
176
     1
 79
     5
176
     1
170
     0
176
     1
171
     0
176
     1
290
     0
176
     1
 93
       13
176
     1
 44
0.0
176
     1
173
     0
176
     1
  0
VISUALSTYLE
  5
2E
102
{ACAD_REACTORS
330
2A
102
}
330
2A
100
AcDbVisualStyle
  2
GouraudWithEdges
 70
     3
177
     2
291
     1
 71
     2
176
     1
 72
     2
176
     1
 73
     1
176
     1
 90
        2
176
     1
 40
-0.6
176
     1
 41
30.0
176
     1
 62
     5
 63
     7
421
 16777215
176
     1
 74
     1
176
     1
 91
        4
176
     1
 64
     7
176
     1
 65
   257
176
     1
 75
     1
176
     1
175
     1
176
     1
 42
1.0
176
     1
 92
        0
176
     1
 66
   257
176
     1
 43
1.0
176
     1
 76
     1
176
     1
 77
     6
176
     1
 78
     2
176
     1
 67
     7
176
     1
 79
     5
176
     1
170
     0
176
     1
171
     0
176
     1
290
     0
176
     1
 93
       13
176
     1
 44
0.0
176
     1
173
     0
176
     1
  0
VISUALSTYLE
  5
38
102
{ACAD_REACTORS
330
2A
102
}
330
2A
100
AcDbVisualStyle
  2
Linepattern
 70
    14
177
     2
291
     1
 71
     2
176
     1
 72
     2
176
     1
 73
     0
176
     1
 90
        0
176
     1
 40
-0.6
176
     1
 41
-30.0
176
     1
 62
     5
 63
     7
421
 16777215
176
     1
 74
     1
176
     1
 91
        4
176
     1
 64
     7
176
     1
 65
   257
176
     1
 75
     7
176
     1
175
     7
176
     1
 42
1.0
176
     1
 92
        8
176
     1
 66
     7
176
     1
 43
1.0
176
     1
 76
     1
176
     1
 77
     6
176
     1
 78
     2
176
     1
 67
     7
176
     1
 79
     5
176
     1
170
     0
176
     1
171
     0
176
     1
290
     0
176
     1
 93
        1
176
     1
 44
0.0
176
     1
173
     0
176
     1
  0
VISUALSTYLE
  5
33
102
{ACAD_REACTORS
330
2A
102
}
330
2A
100
AcDbVisualStyle
  2
Realistic
 70
     8
177
     2
291
     0
 71
     2
176
     1
 72
     2
176
     1
 73
     0
176
     1
 90
        0
176
     1
 40
-0.6
176
     1
 41
-30.0
176
     1
 62
     5
 63
     7
421
 16777215
176
     1
 74
     1
176
     1
 91
        0
176
     1
 64
     7
176
     1
 65
   257
176
     1
 75
     1
176
     1
175
     1
176
     1
 42
1.0
176
     1
 92
        8
176
     1
 66
     8
424
  7895160
176
     1
 43
1.0
176
     1
 76
     1
176
     1
 77
     6
176
     1
 78
     2
176
     1
 67
     7
176
     1
 79
     5
176
     1
170
     0
176
     1
171
     0
176
     1
290
     0
176
     1
 93
       13
176
     1
 44
0.0
176
     1
173
     0
176
     1
  0
VISUALSTYLE
  5
37
102
{ACAD_REACTORS
330
2A
102
}
330
2A
100
AcDbVisualStyle
  2
Thicken
 70
    13
177
     2
291
     1
 71
     2
176
     1
 72
     2
176
     1
 73
     0
176
     1
 90
        0
176
     1
 40
-0.6
176
     1
 41
-30.0
176
     1
 62
     5
 63
     7
421
 16777215
176
     1
 74
     1
176
     1
 91
        4
176
     1
 64
     7
176
     1
 65
   257
176
     1
 75
     1
176
     1
175
     1
176
     1
 42
1.0
176
     1
 92
       12
176
     1
 66
     7
176
     1
 43
1.0
176
     1
 76
     1
176
     1
 77
     6
176
     1
 78
     2
176
     1
 67
     7
176
     1
 79
     5
176
     1
170
     0
176
     1
171
     0
176
     1
290
     0
176
     1
 93
        1
176
     1
 44
0.0
176
     1
173
     0
176
     1
  0
ENDSEC
  0
EOF
