  0
SECTION
  2
HEADER
  9
$ACADVER
  1
AC1024
  9
$ACADMAINTVER
 70
     6
  9
$DWGCODEPAGE
  3
UNDEFINED
  9
$INSBASE
 10
0.0
 20
0.0
 30
0.0
  9
$EXTMIN
 10
1.000000000000000E+20
 20
1.000000000000000E+20
 30
1.000000000000000E+20
  9
$EXTMAX
 10
-1.000000000000000E+20
 20
-1.000000000000000E+20
 30
-1.000000000000000E+20
  9
$LIMMIN
 10
0.0
 20
0.0
  9
$LIMMAX
 10
12.0
 20
9.0
  9
$ORTHOMODE
 70
     0
  9
$REGENMODE
 70
     1
  9
$FILLMODE
 70
     1
  9
$QTEXTMODE
 70
     0
  9
$MIRRTEXT
 70
     1
  9
$LTSCALE
 40
1.0
  9
$ATTMODE
 70
     1
  9
$TEXTSIZE
 40
0.2
  9
$TRACEWID
 40
0.05
  9
$TEXTSTYLE
  7
Standard
  9
$CLAYER
  8
0
  9
$CELTYPE
  6
ByLayer
  9
$CECOLOR
 62
   256
  9
$CELTSCALE
 40
1.0
  9
$DISPSILH
 70
     0
  9
$DIMSCALE
 40
1.0
  9
$DIMASZ
 40
0.18
  9
$DIMEXO
 40
0.0625
  9
$DIMDLI
 40
0.38
  9
$DIMRND
 40
0.0
  9
$DIMDLE
 40
0.0
  9
$DIMEXE
 40
0.18
  9
$DIMTP
 40
0.0
  9
$DIMTM
 40
0.0
  9
$DIMTXT
 40
0.18
  9
$DIMCEN
 40
0.09
  9
$DIMTSZ
 40
0.0
  9
$DIMTOL
 70
     0
  9
$DIMLIM
 70
     0
  9
$DIMTIH
 70
     1
  9
$DIMTOH
 70
     1
  9
$DIMSE1
 70
     0
  9
$DIMSE2
 70
     0
  9
$DIMTAD
 70
     0
  9
$DIMZIN
 70
     0
  9
$DIMBLK
  1

  9
$DIMASO
 70
     1
  9
$DIMSHO
 70
     1
  9
$DIMPOST
  1

  9
$DIMAPOST
  1

  9
$DIMALT
 70
     0
  9
$DIMALTD
 70
     2
  9
$DIMALTF
 40
25.4
  9
$DIMLFAC
 40
1.0
  9
$DIMTOFL
 70
     0
  9
$DIMTVP
 40
0.0
  9
$DIMTIX
 70
     0
  9
$DIMSOXD
 70
     0
  9
$DIMSAH
 70
     0
  9
$DIMBLK1
  1

  9
$DIMBLK2
  1

  9
$DIMSTYLE
  2
Standard
  9
$DIMCLRD
 70
     0
  9
$DIMCLRE
 70
     0
  9
$DIMCLRT
 70
     0
  9
$DIMTFAC
 40
1.0
  9
$DIMGAP
 40
0.09
  9
$DIMJUST
 70
     0
  9
$DIMSD1
 70
     0
  9
$DIMSD2
 70
     0
  9
$DIMTOLJ
 70
     1
  9
$DIMTZIN
 70
     0
  9
$DIMALTZ
 70
     0
  9
$DIMALTTZ
 70
     0
  9
$DIMUPT
 70
     0
  9
$DIMDEC
 70
     4
  9
$DIMTDEC
 70
     4
  9
$DIMALTU
 70
     2
  9
$DIMALTTD
 70
     2
  9
$DIMTXSTY
  7
Standard
  9
$DIMAUNIT
 70
     0
  9
$DIMADEC
 70
     0
  9
$DIMALTRND
 40
0.0
  9
$DIMAZIN
 70
     0
  9
$DIMDSEP
 70
    46
  9
$DIMATFIT
 70
     3
  9
$DIMFRAC
 70
     0
  9
$DIMLDRBLK
  1

  9
$DIMLUNIT
 70
     2
  9
$DIMLWD
 70
    -2
  9
$DIMLWE
 70
    -2
  9
$DIMTMOVE
 70
     0
  9
$DIMFXL
 40
1.0
  9
$DIMFXLON
 70
     0
  9
$DIMJOGANG
 40
0.7853981633974483
  9
$DIMTFILL
 70
     0
  9
$DIMTFILLCLR
 70
     0
  9
$DIMARCSYM
 70
     0
  9
$DIMLTYPE
  6

  9
$DIMLTEX1
  6

  9
$DIMLTEX2
  6

  9
$DIMTXTDIRECTION
 70
     0
  9
$LUNITS
 70
     2
  9
$LUPREC
 70
     4
  9
$SKETCHINC
 40
0.1
  9
$FILLETRAD
 40
0.5
  9
$AUNITS
 70
     0
  9
$AUPREC
 70
     0
  9
$MENU
  1
.
  9
$ELEVATION
 40
0.0
  9
$PELEVATION
 40
0.0
  9
$THICKNESS
 40
0.0
  9
$LIMCHECK
 70
     0
  9
$CHAMFERA
 40
0.5
  9
$CHAMFERB
 40
0.5
  9
$CHAMFERC
 40
1.0
  9
$CHAMFERD
 40
0.0
  9
$SKPOLY
 70
     0
  9
$TDCREATE
 40
2457917.622418982
  9
$TDUCREATE
 40
2457917.247418982
  9
$TDUPDATE
 40
2457917.622418982
  9
$TDUUPDATE
 40
2457917.247418982
  9
$TDINDWG
 40
0.0000000116
  9
$TDUSRTIMER
 40
0.0000000116
  9
$USRTIMER
 70
     1
  9
$ANGBASE
 50
0.0
  9
$ANGDIR
 70
     0
  9
$PDMODE
 70
     0
  9
$PDSIZE
 40
0.0
  9
$PLINEWID
 40
0.0
  9
$SPLFRAME
 70
     0
  9
$SPLINETYPE
 70
     6
  9
$SPLINESEGS
 70
     8
  9
$HANDSEED
  5
D7
  9
$SURFTAB1
 70
     6
  9
$SURFTAB2
 70
     6
  9
$SURFTYPE
 70
     6
  9
$SURFU
 70
     6
  9
$SURFV
 70
     6
  9
$UCSBASE
  2

  9
$UCSNAME
  2

  9
$UCSORG
 10
0.0
 20
0.0
 30
0.0
  9
$UCSXDIR
 10
1.0
 20
0.0
 30
0.0
  9
$UCSYDIR
 10
0.0
 20
1.0
 30
0.0
  9
$UCSORTHOREF
  2

  9
$UCSORTHOVIEW
 70
     0
  9
$UCSORGTOP
 10
0.0
 20
0.0
 30
0.0
  9
$UCSORGBOTTOM
 10
0.0
 20
0.0
 30
0.0
  9
$UCSORGLEFT
 10
0.0
 20
0.0
 30
0.0
  9
$UCSORGRIGHT
 10
0.0
 20
0.0
 30
0.0
  9
$UCSORGFRONT
 10
0.0
 20
0.0
 30
0.0
  9
$UCSORGBACK
 10
0.0
 20
0.0
 30
0.0
  9
$PUCSBASE
  2

  9
$PUCSNAME
  2

  9
$PUCSORG
 10
0.0
 20
0.0
 30
0.0
  9
$PUCSXDIR
 10
1.0
 20
0.0
 30
0.0
  9
$PUCSYDIR
 10
0.0
 20
1.0
 30
0.0
  9
$PUCSORTHOREF
  2

  9
$PUCSORTHOVIEW
 70
     0
  9
$PUCSORGTOP
 10
0.0
 20
0.0
 30
0.0
  9
$PUCSORGBOTTOM
 10
0.0
 20
0.0
 30
0.0
  9
$PUCSORGLEFT
 10
0.0
 20
0.0
 30
0.0
  9
$PUCSORGRIGHT
 10
0.0
 20
0.0
 30
0.0
  9
$PUCSORGFRONT
 10
0.0
 20
0.0
 30
0.0
  9
$PUCSORGBACK
 10
0.0
 20
0.0
 30
0.0
  9
$USERI1
 70
     0
  9
$USERI2
 70
     0
  9
$USERI3
 70
     0
  9
$USERI4
 70
     0
  9
$USERI5
 70
     0
  9
$USERR1
 40
0.0
  9
$USERR2
 40
0.0
  9
$USERR3
 40
0.0
  9
$USERR4
 40
0.0
  9
$USERR5
 40
0.0
  9
$WORLDVIEW
 70
     1
  9
$SHADEDGE
 70
     3
  9
$SHADEDIF
 70
    70
  9
$TILEMODE
 70
     1
  9
$MAXACTVP
 70
    64
  9
$PINSBASE
 10
0.0
 20
0.0
 30
0.0
  9
$PLIMCHECK
 70
     0
  9
$PEXTMIN
 10
1.000000000000000E+20
 20
1.000000000000000E+20
 30
1.000000000000000E+20
  9
$PEXTMAX
 10
-1.000000000000000E+20
 20
-1.000000000000000E+20
 30
-1.000000000000000E+20
  9
$PLIMMIN
 10
0.0
 20
0.0
  9
$PLIMMAX
 10
12.0
 20
9.0
  9
$UNITMODE
 70
     0
  9
$VISRETAIN
 70
     1
  9
$PLINEGEN
 70
     0
  9
$PSLTSCALE
 70
     1
  9
$TREEDEPTH
 70
  3020
  9
$CMLSTYLE
  2
Standard
  9
$CMLJUST
 70
     0
  9
$CMLSCALE
 40
1.0
  9
$PROXYGRAPHICS
 70
     1
  9
$MEASUREMENT
 70
     0
  9
$CELWEIGHT
370
    -1
  9
$ENDCAPS
280
     0
  9
$JOINSTYLE
280
     0
  9
$LWDISPLAY
290
     1
  9
$INSUNITS
 70
     1
  9
$HYPERLINKBASE
  1

  9
$STYLESHEET
  1

  9
$XEDIT
290
     1
  9
$CEPSNTYPE
380
     0
  9
$PSTYLEMODE
290
     1
  9
$FINGERPRINTGUID
  2
{BC63BB5B-B2C0-9954-271B-A1808F3F9B20}
  9
$VERSIONGUID
  2
{FAEB1C32-E019-11D5-929B-00C0DF256EC4}
  9
$EXTNAMES
290
     1
  9
$PSVPSCALE
 40
0.0
  9
$OLESTARTUP
290
     0
  9
$SORTENTS
280
   127
  9
$INDEXCTL
280
     0
  9
$HIDETEXT
280
     1
  9
$XCLIPFRAME
280
     2
  9
$HALOGAP
280
     0
  9
$OBSCOLOR
 70
   257
  9
$OBSLTYPE
280
     0
  9
$INTERSECTIONDISPLAY
280
     0
  9
$INTERSECTIONCOLOR
 70
   257
  9
$DIMASSOC
280
     2
  9
$PROJECTNAME
  1

  9
$CAMERADISPLAY
290
     0
  9
$LENSLENGTH
 40
50.0
  9
$CAMERAHEIGHT
 40
0.0
  9
$STEPSPERSEC
 40
2.0
  9
$STEPSIZE
 40
6.0
  9
$3DDWFPREC
 40
2.0
  9
$PSOLWIDTH
 40
0.25
  9
$PSOLHEIGHT
 40
4.0
  9
$LOFTANG1
 40
1.570796326794897
  9
$LOFTANG2
 40
1.570796326794897
  9
$LOFTMAG1
 40
0.0
  9
$LOFTMAG2
 40
0.0
  9
$LOFTPARAM
 70
     7
  9
$LOFTNORMALS
280
     1
  9
$LATITUDE
 40
37.795
  9
$LONGITUDE
 40
-122.394
  9
$NORTHDIRECTION
 40
0.0
  9
$TIMEZONE
 70
 -8000
  9
$LIGHTGLYPHDISPLAY
280
     1
  9
$TILEMODELIGHTSYNCH
280
     1
  9
$CMATERIAL
347
3C
  9
$SOLIDHIST
280
     1
  9
$SHOWHIST
280
     1
  9
$DWFFRAME
280
     2
  9
$DGNFRAME
280
     2
  9
$REALWORLDSCALE
290
     1
  9
$INTERFERECOLOR
 62
   256
  9
$CSHADOW
280
     0
  9
$SHADOWPLANELOCATION
 40
0.0
  0
ENDSEC
  0
SECTION
  2
CLASSES
  0
CLASS
  1
ACDBDICTIONARYWDFLT
  2
AcDbDictionaryWithDefault
  3
ObjectDBX Classes
 90
        0
 91
        4
280
     0
281
     0
  0
CLASS
  1
VISUALSTYLE
  2
AcDbVisualStyle
  3
ObjectDBX Classes
 90
     4095
 91
        4
280
     0
281
     0
  0
CLASS
  1
MATERIAL
  2
AcDbMaterial
  3
ObjectDBX Classes
 90
     1153
 91
        4
280
     0
281
     0
  0
CLASS
  1
SUN
  2
AcDbSun
  3
SCENEOE
 90
     1024
 91
        4
280
     0
281
     0
  0
ENDSEC
  0
SECTION
  2
TABLES
  0
TABLE
  2
VPORT
  5
8
330
0
100
AcDbSymbolTable
 70
     1
  0
VPORT
  5
29
330
8
100
AcDbSymbolTableRecord
100
AcDbViewportTableRecord
  2
*Active
 70
     0
 10
0.0
 20
0.0
 11
1.0
 21
1.0
 12
0.0
 22
0.0
 13
0.0
 23
0.0
 14
0.5
 24
0.5
 15
0.5
 25
0.5
 16
0.0
 26
0.0
 36
1.0
 17
91.00082462281999
 27
-128.4993055234307
 37
0.0
 40
256.9986110468615
 41
0.7081814508812795
 42
50.0
 43
0.0
 44
0.0
 50
0.0
 51
0.0
 71
     0
 72
   100
 73
     1
 74
     3
 75
     0
 76
     0
 77
     0
 78
     0
281
     0
 65
     1
110
0.0
120
0.0
130
0.0
111
1.0
121
0.0
131
0.0
112
0.0
122
1.0
132
0.0
 79
     0
146
0.0
 60
     3
 61
     5
292
     1
282
     1
141
0.0
142
0.0
 63
   250
361
3F
  0
ENDTAB
  0
TABLE
  2
LTYPE
  5
5
330
0
100
AcDbSymbolTable
 70
     1
  0
LTYPE
  5
14
330
5
100
AcDbSymbolTableRecord
100
AcDbLinetypeTableRecord
  2
ByBlock
 70
     0
  3

 72
    65
 73
     0
 40
0.0
  0
LTYPE
  5
15
330
5
100
AcDbSymbolTableRecord
100
AcDbLinetypeTableRecord
  2
ByLayer
 70
     0
  3

 72
    65
 73
     0
 40
0.0
  0
LTYPE
  5
16
330
5
100
AcDbSymbolTableRecord
100
AcDbLinetypeTableRecord
  2
Continuous
 70
     0
  3
Solid line
 72
    65
 73
     0
 40
0.0
  0
ENDTAB
  0
TABLE
  2
LAYER
  5
2
330
0
100
AcDbSymbolTable
 70
     2
  0
LAYER
  5
10
330
2
100
AcDbSymbolTableRecord
100
AcDbLayerTableRecord
  2
0
 70
     0
 62
     7
  6
Continuous
370
    -3
390
F
347
3E
  0
LAYER
  5
40
330
2
100
AcDbSymbolTableRecord
100
AcDbLayerTableRecord
  2
_U+30EC_U+30A4_U+30E4_U+30FC 1
 70
     0
 62
     7
  6
Continuous
370
    -3
390
F
347
3E
  0
ENDTAB
  0
TABLE
  2
STYLE
  5
3
330
0
100
AcDbSymbolTable
 70
     1
  0
STYLE
  5
11
330
3
100
AcDbSymbolTableRecord
100
AcDbTextStyleTableRecord
  2
Standard
 70
     0
 40
0.0
 41
1.0
 50
0.0
 71
     0
 42
0.2
  3
txt
  4

  0
ENDTAB
  0
TABLE
  2
VIEW
  5
6
330
0
100
AcDbSymbolTable
 70
     0
  0
ENDTAB
  0
TABLE
  2
UCS
  5
7
330
0
100
AcDbSymbolTable
 70
     0
  0
ENDTAB
  0
TABLE
  2
APPID
  5
9
330
0
100
AcDbSymbolTable
 70
     1
  0
APPID
  5
12
330
9
100
AcDbSymbolTableRecord
100
AcDbRegAppTableRecord
  2
ACAD
 70
     0
  0
ENDTAB
  0
TABLE
  2
DIMSTYLE
  5
A
330
0
100
AcDbSymbolTable
 70
     1
100
AcDbDimStyleTable
  0
DIMSTYLE
105
27
330
A
100
AcDbSymbolTableRecord
100
AcDbDimStyleTableRecord
  2
Standard
 70
     0
178
     0
340
11
  0
ENDTAB
  0
TABLE
  2
BLOCK_RECORD
  5
1
330
0
100
AcDbSymbolTable
 70
     6
  0
BLOCK_RECORD
  5
1F
330
1
100
AcDbSymbolTableRecord
100
AcDbBlockTableRecord
  2
*Model_Space
340
22
 70
     0
280
     1
281
     0
  0
BLOCK_RECORD
  5
1B
330
1
100
AcDbSymbolTableRecord
100
AcDbBlockTableRecord
  2
*Paper_Space
340
1E
 70
     0
280
     1
281
     0
  0
BLOCK_RECORD
  5
23
330
1
100
AcDbSymbolTableRecord
100
AcDbBlockTableRecord
  2
*Paper_Space0
340
26
 70
     0
280
     1
281
     0
  0
BLOCK_RECORD
  5
5A
330
1
100
AcDbSymbolTableRecord
100
AcDbBlockTableRecord
  2
block 2
340
0
102
{BLKREFS
331
5B
102
}
 70
     0
280
     1
281
     0
  0
BLOCK_RECORD
  5
76
330
1
100
AcDbSymbolTableRecord
100
AcDbBlockTableRecord
  2
block 3
340
0
102
{BLKREFS
331
77
102
}
 70
     0
280
     1
281
     0
  0
BLOCK_RECORD
  5
92
330
1
100
AcDbSymbolTableRecord
100
AcDbBlockTableRecord
  2
block 4
340
0
102
{BLKREFS
331
93
102
}
 70
     0
280
     1
281
     0
  0
BLOCK_RECORD
  5
C3
330
1
100
AcDbSymbolTableRecord
100
AcDbBlockTableRecord
  2
block 5
340
0
102
{BLKREFS
331
C4
102
}
 70
     0
280
     1
281
     0
  0
BLOCK_RECORD
  5
CC
330
1
100
AcDbSymbolTableRecord
100
AcDbBlockTableRecord
  2
block 6
340
0
102
{BLKREFS
331
CD
102
}
 70
     0
280
     1
281
     0
  0
ENDTAB
  0
ENDSEC
  0
SECTION
  2
BLOCKS
  0
BLOCK
  5
20
330
1F
100
AcDbEntity
  8
0
100
AcDbBlockBegin
  2
*Model_Space
 70
     0
 10
0.0
 20
0.0
 30
0.0
  3
*Model_Space
  1

  0
ENDBLK
  5
21
330
1F
100
AcDbEntity
  8
0
100
AcDbBlockEnd
  0
BLOCK
  5
1C
330
1B
100
AcDbEntity
 67
     1
  8
0
100
AcDbBlockBegin
  2
*Paper_Space
 70
     0
 10
0.0
 20
0.0
 30
0.0
  3
*Paper_Space
  1

  0
ENDBLK
  5
1D
330
1B
100
AcDbEntity
 67
     1
  8
0
100
AcDbBlockEnd
  0
BLOCK
  5
24
330
23
100
AcDbEntity
  8
0
100
AcDbBlockBegin
  2
*Paper_Space0
 70
     0
 10
0.0
 20
0.0
 30
0.0
  3
*Paper_Space0
  1

  0
ENDBLK
  5
25
330
23
100
AcDbEntity
  8
0
100
AcDbBlockEnd
  0
BLOCK
  5
5C
330
5A
100
AcDbEntity
  8
0
100
AcDbBlockBegin
  2
block 2
 70
     0
 10
0.0
 20
0.0
 30
0.0
  3
block 2
  1

  0
SPLINE
  5
5E
330
5A
100
AcDbEntity
  8
_U+30EC_U+30A4_U+30E4_U+30FC 1
370
     0
100
AcDbSpline
210
0.0
220
0.0
230
1.0
 70
    11
 71
     3
 72
    44
 73
    40
 74
     0
 42
0.0000000001
 43
0.0000000001
 12
1.0
 22
0.0
 32
0.0
 13
1.0
 23
0.0
 33
0.0
 40
0.0
 40
0.0
 40
0.0
 40
0.0
 40
1.0
 40
1.0
 40
1.0
 40
2.0
 40
2.0
 40
2.0
 40
3.0
 40
3.0
 40
3.0
 40
4.0
 40
4.0
 40
4.0
 40
5.0
 40
5.0
 40
5.0
 40
6.0
 40
6.0
 40
6.0
 40
7.0
 40
7.0
 40
7.0
 40
8.0
 40
8.0
 40
8.0
 40
9.0
 40
9.0
 40
9.0
 40
10.0
 40
10.0
 40
10.0
 40
11.0
 40
11.0
 40
11.0
 40
12.0
 40
12.0
 40
12.0
 40
13.0
 40
13.0
 40
13.0
 40
13.0
 10
65.40961641159899
 20
-148.5077310826647
 30
0.0
 10
65.19171412215694
 20
-148.6665499845348
 30
0.0
 10
65.09852428928093
 20
-148.7406195374676
 30
0.0
 10
65.0499484429389
 20
-148.8842800192025
 30
0.0
 10
65.0499484429389
 20
-148.8842800192025
 30
0.0
 10
65.82836776783111
 20
-148.8842800192025
 30
0.0
 10
65.82836776783111
 20
-148.8842800192025
 30
0.0
 10
65.82836776783111
 20
-148.8842800192025
 30
0.0
 10
65.82836776783111
 20
-149.0896077101234
 30
0.0
 10
65.82836776783111
 20
-149.0896077101234
 30
0.0
 10
65.82836776783111
 20
-149.0896077101234
 30
0.0
 10
64.80035127503255
 20
-149.0896077101234
 30
0.0
 10
64.80035127503255
 20
-149.0896077101234
 30
0.0
 10
64.83204615349685
 20
-148.7320067987545
 30
0.0
 10
64.89767522249086
 20
-148.6538031312393
 30
0.0
 10
65.28266464296753
 20
-148.3554578622167
 30
0.0
 10
65.53863523752159
 20
-148.1566758527178
 30
0.0
 10
65.60409205174135
 20
-148.0888074716584
 30
0.0
 10
65.60409205174135
 20
-147.9513481617969
 30
0.0
 10
65.60409205174135
 20
-147.8328368771043
 30
0.0
 10
65.53226181087388
 20
-147.7019232486648
 30
0.0
 10
65.33554685866612
 20
-147.7019232486648
 30
0.0
 10
65.0752698947555
 20
-147.7019232486648
 30
0.0
 10
65.06682941081662
 20
-147.932400136628
 30
0.0
 10
65.06252304146007
 20
-148.0488443640295
 30
0.0
 10
65.06252304146007
 20
-148.0488443640295
 30
0.0
 10
64.83841958014456
 20
-148.0488443640295
 30
0.0
 10
64.83841958014456
 20
-148.0488443640295
 30
0.0
 10
64.84686006408343
 20
-147.9217203406238
 30
0.0
 10
64.85736760531344
 20
-147.8097547373531
 30
0.0
 10
64.93781058489402
 20
-147.6912434526605
 30
0.0
 10
65.04770913087349
 20
-147.5303574934994
 30
0.0
 10
65.23391654185124
 20
-147.4965955577439
 30
0.0
 10
65.35036076925269
 20
-147.4965955577439
 30
0.0
 10
65.62751870104104
 20
-147.4965955577439
 30
0.0
 10
65.83474119447882
 20
-147.6805636566563
 30
0.0
 10
65.83474119447882
 20
-147.953415219088
 30
0.0
 10
65.83474119447882
 20
-148.1821695593086
 30
0.0
 10
65.71846922185163
 20
-148.2813883092838
 30
0.0
 10
65.40961641159899
 20
-148.5077310826647
 30
0.0
  0
HATCH
  5
5F
330
5A
100
AcDbEntity
  8
_U+30EC_U+30A4_U+30E4_U+30FC 1
 62
     7
420
 16777215
100
AcDbHatch
 10
0.0
 20
0.0
 30
0.0
210
0.0
220
0.0
230
1.0
  2
SOLID
 70
     1
 71
     0
 91
        1
 92
        1
 93
        1
 72
     4
 94
        3
 73
     0
 74
     1
 95
       44
 96
       40
 40
0.0
 40
0.0
 40
0.0
 40
0.0
 40
1.0
 40
1.0
 40
1.0
 40
2.0
 40
2.0
 40
2.0
 40
3.0
 40
3.0
 40
3.0
 40
4.0
 40
4.0
 40
4.0
 40
5.0
 40
5.0
 40
5.0
 40
6.0
 40
6.0
 40
6.0
 40
7.0
 40
7.0
 40
7.0
 40
8.0
 40
8.0
 40
8.0
 40
9.0
 40
9.0
 40
9.0
 40
10.0
 40
10.0
 40
10.0
 40
11.0
 40
11.0
 40
11.0
 40
12.0
 40
12.0
 40
12.0
 40
13.0
 40
13.0
 40
13.0
 40
13.0
 10
65.40961641159899
 20
-148.5077310826647
 10
65.19171412215694
 20
-148.6665499845348
 10
65.09852428928093
 20
-148.7406195374676
 10
65.0499484429389
 20
-148.8842800192025
 10
65.0499484429389
 20
-148.8842800192025
 10
65.82836776783111
 20
-148.8842800192025
 10
65.82836776783111
 20
-148.8842800192025
 10
65.82836776783111
 20
-148.8842800192025
 10
65.82836776783111
 20
-149.0896077101234
 10
65.82836776783111
 20
-149.0896077101234
 10
65.82836776783111
 20
-149.0896077101234
 10
64.80035127503255
 20
-149.0896077101234
 10
64.80035127503255
 20
-149.0896077101234
 10
64.83204615349685
 20
-148.7320067987545
 10
64.89767522249086
 20
-148.6538031312393
 10
65.28266464296753
 20
-148.3554578622167
 10
65.53863523752159
 20
-148.1566758527178
 10
65.60409205174135
 20
-148.0888074716584
 10
65.60409205174135
 20
-147.9513481617969
 10
65.60409205174135
 20
-147.8328368771043
 10
65.53226181087388
 20
-147.7019232486648
 10
65.33554685866612
 20
-147.7019232486648
 10
65.0752698947555
 20
-147.7019232486648
 10
65.06682941081662
 20
-147.932400136628
 10
65.06252304146007
 20
-148.0488443640295
 10
65.06252304146007
 20
-148.0488443640295
 10
64.83841958014456
 20
-148.0488443640295
 10
64.83841958014456
 20
-148.0488443640295
 10
64.84686006408343
 20
-147.9217203406238
 10
64.85736760531344
 20
-147.8097547373531
 10
64.93781058489402
 20
-147.6912434526605
 10
65.04770913087349
 20
-147.5303574934994
 10
65.23391654185124
 20
-147.4965955577439
 10
65.35036076925269
 20
-147.4965955577439
 10
65.62751870104104
 20
-147.4965955577439
 10
65.83474119447882
 20
-147.6805636566563
 10
65.83474119447882
 20
-147.953415219088
 10
65.83474119447882
 20
-148.1821695593086
 10
65.71846922185163
 20
-148.2813883092838
 10
65.40961641159899
 20
-148.5077310826647
 97
        0
 97
        0
 75
     2
 76
     1
 98
        0
  0
SPLINE
  5
60
330
5A
100
AcDbEntity
  8
_U+30EC_U+30A4_U+30E4_U+30FC 1
370
     0
100
AcDbSpline
210
0.0
220
0.0
230
1.0
 70
    11
 71
     3
 72
    29
 73
    25
 74
     0
 42
0.0000000001
 43
0.0000000001
 12
1.0
 22
0.0
 32
0.0
 13
1.0
 23
0.0
 33
0.0
 40
0.0
 40
0.0
 40
0.0
 40
0.0
 40
1.0
 40
1.0
 40
1.0
 40
2.0
 40
2.0
 40
2.0
 40
3.0
 40
3.0
 40
3.0
 40
4.0
 40
4.0
 40
4.0
 40
5.0
 40
5.0
 40
5.0
 40
6.0
 40
6.0
 40
6.0
 40
7.0
 40
7.0
 40
7.0
 40
8.0
 40
8.0
 40
8.0
 40
8.0
 10
66.89100747025641
 20
-148.9118407830846
 30
0.0
 10
66.78317598156809
 20
-149.1213025885877
 30
0.0
 10
66.60971542388577
 20
-149.1402506137566
 30
0.0
 10
66.49327119648433
 20
-149.1402506137566
 30
0.0
 10
66.33255749209742
 20
-149.1402506137566
 30
0.0
 10
66.19079181287938
 20
-149.0937418247057
 30
0.0
 10
66.09553492271223
 20
-148.9118407830846
 30
0.0
 10
65.99200980338047
 20
-148.7171928881679
 30
0.0
 10
65.97288952343733
 20
-148.4801703187827
 30
0.0
 10
65.97288952343733
 20
-148.317561811879
 30
0.0
 10
65.97288952343733
 20
-148.1735568205955
 30
0.0
 10
65.98977049131506
 20
-147.9217203406238
 30
0.0
 10
66.09553492271223
 20
-147.7229383311248
 30
0.0
 10
66.20353866617481
 20
-147.5200222070436
 30
0.0
 10
66.36425237056172
 20
-147.4965955577439
 30
0.0
 10
66.49327119648433
 20
-147.4965955577439
 30
0.0
 10
66.65191784358008
 20
-147.4965955577439
 30
0.0
 10
66.79575058008926
 20
-147.5410372895036
 30
0.0
 10
66.89100747025641
 20
-147.7229383311248
 30
0.0
 10
66.99039847500588
 20
-147.9155191687503
 30
0.0
 10
67.01365286953131
 20
-148.1439289994224
 30
0.0
 10
67.01365286953131
 20
-148.317561811879
 30
0.0
 10
67.01365286953131
 20
-148.4887830574959
 30
0.0
 10
66.99263778707129
 20
-148.7192599454591
 30
0.0
 10
66.89100747025641
 20
-148.9118407830846
 30
0.0
  0
SPLINE
  5
61
330
5A
100
AcDbEntity
  8
_U+30EC_U+30A4_U+30E4_U+30FC 1
370
     0
100
AcDbSpline
210
0.0
220
0.0
230
1.0
 70
    11
 71
     3
 72
    17
 73
    13
 74
     0
 42
0.0000000001
 43
0.0000000001
 12
1.0
 22
0.0
 32
0.0
 13
1.0
 23
0.0
 33
0.0
 40
0.0
 40
0.0
 40
0.0
 40
0.0
 40
1.0
 40
1.0
 40
1.0
 40
2.0
 40
2.0
 40
2.0
 40
3.0
 40
3.0
 40
3.0
 40
4.0
 40
4.0
 40
4.0
 40
4.0
 10
66.49327119648433
 20
-147.6891763953694
 30
0.0
 10
66.24367402857797
 20
-147.6891763953694
 30
0.0
 10
66.1971652395271
 20
-147.9727077538055
 30
0.0
 10
66.1971652395271
 20
-148.317561811879
 30
0.0
 10
66.1971652395271
 20
-148.6369221633616
 30
0.0
 10
66.23316648734796
 20
-148.94560271884
 30
0.0
 10
66.49327119648433
 20
-148.94560271884
 30
0.0
 10
66.74080130709953
 20
-148.94560271884
 30
0.0
 10
66.7895494082158
 20
-148.6644829272436
 30
0.0
 10
66.7895494082158
 20
-148.317561811879
 30
0.0
 10
66.7895494082158
 20
-147.9978569508478
 30
0.0
 10
66.7514811031038
 20
-147.6891763953694
 30
0.0
 10
66.49327119648433
 20
-147.6891763953694
 30
0.0
  0
HATCH
  5
62
330
5A
100
AcDbEntity
  8
_U+30EC_U+30A4_U+30E4_U+30FC 1
 62
     7
420
 16777215
100
AcDbHatch
 10
0.0
 20
0.0
 30
0.0
210
0.0
220
0.0
230
1.0
  2
SOLID
 70
     1
 71
     0
 91
        2
 92
        1
 93
        1
 72
     4
 94
        3
 73
     0
 74
     1
 95
       29
 96
       25
 40
0.0
 40
0.0
 40
0.0
 40
0.0
 40
1.0
 40
1.0
 40
1.0
 40
2.0
 40
2.0
 40
2.0
 40
3.0
 40
3.0
 40
3.0
 40
4.0
 40
4.0
 40
4.0
 40
5.0
 40
5.0
 40
5.0
 40
6.0
 40
6.0
 40
6.0
 40
7.0
 40
7.0
 40
7.0
 40
8.0
 40
8.0
 40
8.0
 40
8.0
 10
66.89100747025641
 20
-148.9118407830846
 10
66.78317598156809
 20
-149.1213025885877
 10
66.60971542388577
 20
-149.1402506137566
 10
66.49327119648433
 20
-149.1402506137566
 10
66.33255749209742
 20
-149.1402506137566
 10
66.19079181287938
 20
-149.0937418247057
 10
66.09553492271223
 20
-148.9118407830846
 10
65.99200980338047
 20
-148.7171928881679
 10
65.97288952343733
 20
-148.4801703187827
 10
65.97288952343733
 20
-148.317561811879
 10
65.97288952343733
 20
-148.1735568205955
 10
65.98977049131506
 20
-147.9217203406238
 10
66.09553492271223
 20
-147.7229383311248
 10
66.20353866617481
 20
-147.5200222070436
 10
66.36425237056172
 20
-147.4965955577439
 10
66.49327119648433
 20
-147.4965955577439
 10
66.65191784358008
 20
-147.4965955577439
 10
66.79575058008926
 20
-147.5410372895036
 10
66.89100747025641
 20
-147.7229383311248
 10
66.99039847500588
 20
-147.9155191687503
 10
67.01365286953131
 20
-148.1439289994224
 10
67.01365286953131
 20
-148.317561811879
 10
67.01365286953131
 20
-148.4887830574959
 10
66.99263778707129
 20
-148.7192599454591
 10
66.89100747025641
 20
-148.9118407830846
 97
        0
 97
        0
 92
        1
 93
        1
 72
     4
 94
        3
 73
     0
 74
     1
 95
       17
 96
       13
 40
0.0
 40
0.0
 40
0.0
 40
0.0
 40
1.0
 40
1.0
 40
1.0
 40
2.0
 40
2.0
 40
2.0
 40
3.0
 40
3.0
 40
3.0
 40
4.0
 40
4.0
 40
4.0
 40
4.0
 10
66.49327119648433
 20
-147.6891763953694
 10
66.24367402857797
 20
-147.6891763953694
 10
66.1971652395271
 20
-147.9727077538055
 10
66.1971652395271
 20
-148.317561811879
 10
66.1971652395271
 20
-148.6369221633616
 10
66.23316648734796
 20
-148.94560271884
 10
66.49327119648433
 20
-148.94560271884
 10
66.74080130709953
 20
-148.94560271884
 10
66.7895494082158
 20
-148.6644829272436
 10
66.7895494082158
 20
-148.317561811879
 10
66.7895494082158
 20
-147.9978569508478
 10
66.7514811031038
 20
-147.6891763953694
 10
66.49327119648433
 20
-147.6891763953694
 97
        0
 97
        0
 75
     2
 76
     1
 98
        0
  0
SPLINE
  5
63
330
5A
100
AcDbEntity
  8
_U+30EC_U+30A4_U+30E4_U+30FC 1
370
     0
100
AcDbSpline
210
0.0
220
0.0
230
1.0
 70
    11
 71
     3
 72
    44
 73
    40
 74
     0
 42
0.0000000001
 43
0.0000000001
 12
1.0
 22
0.0
 32
0.0
 13
1.0
 23
0.0
 33
0.0
 40
0.0
 40
0.0
 40
0.0
 40
0.0
 40
1.0
 40
1.0
 40
1.0
 40
2.0
 40
2.0
 40
2.0
 40
3.0
 40
3.0
 40
3.0
 40
4.0
 40
4.0
 40
4.0
 40
5.0
 40
5.0
 40
5.0
 40
6.0
 40
6.0
 40
6.0
 40
7.0
 40
7.0
 40
7.0
 40
8.0
 40
8.0
 40
8.0
 40
9.0
 40
9.0
 40
9.0
 40
10.0
 40
10.0
 40
10.0
 40
11.0
 40
11.0
 40
11.0
 40
12.0
 40
12.0
 40
12.0
 40
13.0
 40
13.0
 40
13.0
 40
13.0
 10
68.1842963154192
 20
-149.0896077101234
 30
0.0
 10
68.16086966611951
 20
-149.0451659783637
 30
0.0
 10
68.13985458365948
 20
-148.9924560174394
 30
0.0
 10
68.13761527159407
 20
-148.7616346199277
 30
0.0
 10
68.13348115701177
 20
-148.518410878669
 30
0.0
 10
68.07422551466547
 20
-148.4484754403184
 30
0.0
 10
67.89645858762658
 20
-148.4484754403184
 30
0.0
 10
67.89645858762658
 20
-148.4484754403184
 30
0.0
 10
67.48821477262447
 20
-148.4484754403184
 30
0.0
 10
67.48821477262447
 20
-148.4484754403184
 30
0.0
 10
67.48821477262447
 20
-148.4484754403184
 30
0.0
 10
67.48821477262447
 20
-149.0896077101234
 30
0.0
 10
67.48821477262447
 20
-149.0896077101234
 30
0.0
 10
67.48821477262447
 20
-149.0896077101234
 30
0.0
 10
67.2534315153047
 20
-149.0896077101234
 30
0.0
 10
67.2534315153047
 20
-149.0896077101234
 30
0.0
 10
67.2534315153047
 20
-149.0896077101234
 30
0.0
 10
67.2534315153047
 20
-147.5451714040859
 30
0.0
 10
67.2534315153047
 20
-147.5451714040859
 30
0.0
 10
67.2534315153047
 20
-147.5451714040859
 30
0.0
 10
67.92832572086515
 20
-147.5451714040859
 30
0.0
 10
67.92832572086515
 20
-147.5451714040859
 30
0.0
 10
68.23493921905238
 20
-147.5451714040859
 30
0.0
 10
68.402026350087
 20
-147.7167371592514
 30
0.0
 10
68.402026350087
 20
-147.9727077538055
 30
0.0
 10
68.402026350087
 20
-148.0233506574386
 30
0.0
 10
68.39358586614813
 20
-148.1060329490846
 30
0.0
 10
68.34914413438841
 20
-148.1863036738909
 30
0.0
 10
68.29006074681638
 20
-148.290001047997
 30
0.0
 10
68.22443167782237
 20
-148.3089490731658
 30
0.0
 10
68.16310897818492
 20
-148.3258300410436
 30
0.0
 10
68.30056828804639
 20
-148.3682047155121
 30
0.0
 10
68.36826441433155
 20
-148.4167805618542
 30
0.0
 10
68.3725707836881
 20
-148.7320067987545
 30
0.0
 10
68.3767048982704
 20
-149.0027913038952
 30
0.0
 10
68.41270614609127
 20
-149.0344861823594
 30
0.0
 10
68.48040227237642
 20
-149.0896077101234
 30
0.0
 10
68.48040227237642
 20
-149.0896077101234
 30
0.0
 10
68.1842963154192
 20
-149.0896077101234
 30
0.0
 10
68.1842963154192
 20
-149.0896077101234
 30
0.0
  0
SPLINE
  5
64
330
5A
100
AcDbEntity
  8
_U+30EC_U+30A4_U+30E4_U+30FC 1
370
     0
100
AcDbSpline
210
0.0
220
0.0
230
1.0
 70
    11
 71
     3
 72
    20
 73
    16
 74
     0
 42
0.0000000001
 43
0.0000000001
 12
1.0
 22
0.0
 32
0.0
 13
1.0
 23
0.0
 33
0.0
 40
0.0
 40
0.0
 40
0.0
 40
0.0
 40
1.0
 40
1.0
 40
1.0
 40
2.0
 40
2.0
 40
2.0
 40
3.0
 40
3.0
 40
3.0
 40
4.0
 40
4.0
 40
4.0
 40
5.0
 40
5.0
 40
5.0
 40
5.0
 10
67.93245983544745
 20
-147.7567002668803
 30
0.0
 10
67.93245983544745
 20
-147.7567002668803
 30
0.0
 10
67.48821477262447
 20
-147.7567002668803
 30
0.0
 10
67.48821477262447
 20
-147.7567002668803
 30
0.0
 10
67.48821477262447
 20
-147.7567002668803
 30
0.0
 10
67.48821477262447
 20
-148.2369465775241
 30
0.0
 10
67.48821477262447
 20
-148.2369465775241
 30
0.0
 10
67.48821477262447
 20
-148.2369465775241
 30
0.0
 10
67.93039277815629
 20
-148.2369465775241
 30
0.0
 10
67.93039277815629
 20
-148.2369465775241
 30
0.0
 10
68.02978378290575
 20
-148.2369465775241
 30
0.0
 10
68.16517603547607
 20
-148.1608099673001
 30
0.0
 10
68.16517603547607
 20
-147.9895887216832
 30
0.0
 10
68.16517603547607
 20
-147.911385054168
 30
0.0
 10
68.13124184494636
 20
-147.7567002668803
 30
0.0
 10
67.93245983544745
 20
-147.7567002668803
 30
0.0
  0
HATCH
  5
65
330
5A
100
AcDbEntity
  8
_U+30EC_U+30A4_U+30E4_U+30FC 1
 62
     7
420
 16777215
100
AcDbHatch
 10
0.0
 20
0.0
 30
0.0
210
0.0
220
0.0
230
1.0
  2
SOLID
 70
     1
 71
     0
 91
        2
 92
        1
 93
        1
 72
     4
 94
        3
 73
     0
 74
     1
 95
       44
 96
       40
 40
0.0
 40
0.0
 40
0.0
 40
0.0
 40
1.0
 40
1.0
 40
1.0
 40
2.0
 40
2.0
 40
2.0
 40
3.0
 40
3.0
 40
3.0
 40
4.0
 40
4.0
 40
4.0
 40
5.0
 40
5.0
 40
5.0
 40
6.0
 40
6.0
 40
6.0
 40
7.0
 40
7.0
 40
7.0
 40
8.0
 40
8.0
 40
8.0
 40
9.0
 40
9.0
 40
9.0
 40
10.0
 40
10.0
 40
10.0
 40
11.0
 40
11.0
 40
11.0
 40
12.0
 40
12.0
 40
12.0
 40
13.0
 40
13.0
 40
13.0
 40
13.0
 10
68.1842963154192
 20
-149.0896077101234
 10
68.16086966611951
 20
-149.0451659783637
 10
68.13985458365948
 20
-148.9924560174394
 10
68.13761527159407
 20
-148.7616346199277
 10
68.13348115701177
 20
-148.518410878669
 10
68.07422551466547
 20
-148.4484754403184
 10
67.89645858762658
 20
-148.4484754403184
 10
67.89645858762658
 20
-148.4484754403184
 10
67.48821477262447
 20
-148.4484754403184
 10
67.48821477262447
 20
-148.4484754403184
 10
67.48821477262447
 20
-148.4484754403184
 10
67.48821477262447
 20
-149.0896077101234
 10
67.48821477262447
 20
-149.0896077101234
 10
67.48821477262447
 20
-149.0896077101234
 10
67.2534315153047
 20
-149.0896077101234
 10
67.2534315153047
 20
-149.0896077101234
 10
67.2534315153047
 20
-149.0896077101234
 10
67.2534315153047
 20
-147.5451714040859
 10
67.2534315153047
 20
-147.5451714040859
 10
67.2534315153047
 20
-147.5451714040859
 10
67.92832572086515
 20
-147.5451714040859
 10
67.92832572086515
 20
-147.5451714040859
 10
68.23493921905238
 20
-147.5451714040859
 10
68.402026350087
 20
-147.7167371592514
 10
68.402026350087
 20
-147.9727077538055
 10
68.402026350087
 20
-148.0233506574386
 10
68.39358586614813
 20
-148.1060329490846
 10
68.34914413438841
 20
-148.1863036738909
 10
68.29006074681638
 20
-148.290001047997
 10
68.22443167782237
 20
-148.3089490731658
 10
68.16310897818492
 20
-148.3258300410436
 10
68.30056828804639
 20
-148.3682047155121
 10
68.36826441433155
 20
-148.4167805618542
 10
68.3725707836881
 20
-148.7320067987545
 10
68.3767048982704
 20
-149.0027913038952
 10
68.41270614609127
 20
-149.0344861823594
 10
68.48040227237642
 20
-149.0896077101234
 10
68.48040227237642
 20
-149.0896077101234
 10
68.1842963154192
 20
-149.0896077101234
 10
68.1842963154192
 20
-149.0896077101234
 97
        0
 97
        0
 92
        1
 93
        1
 72
     4
 94
        3
 73
     0
 74
     1
 95
       20
 96
       16
 40
0.0
 40
0.0
 40
0.0
 40
0.0
 40
1.0
 40
1.0
 40
1.0
 40
2.0
 40
2.0
 40
2.0
 40
3.0
 40
3.0
 40
3.0
 40
4.0
 40
4.0
 40
4.0
 40
5.0
 40
5.0
 40
5.0
 40
5.0
 10
67.93245983544745
 20
-147.7567002668803
 10
67.93245983544745
 20
-147.7567002668803
 10
67.48821477262447
 20
-147.7567002668803
 10
67.48821477262447
 20
-147.7567002668803
 10
67.48821477262447
 20
-147.7567002668803
 10
67.48821477262447
 20
-148.2369465775241
 10
67.48821477262447
 20
-148.2369465775241
 10
67.48821477262447
 20
-148.2369465775241
 10
67.93039277815629
 20
-148.2369465775241
 10
67.93039277815629
 20
-148.2369465775241
 10
68.02978378290575
 20
-148.2369465775241
 10
68.16517603547607
 20
-148.1608099673001
 10
68.16517603547607
 20
-147.9895887216832
 10
68.16517603547607
 20
-147.911385054168
 10
68.13124184494636
 20
-147.7567002668803
 10
67.93245983544745
 20
-147.7567002668803
 97
        0
 97
        0
 75
     2
 76
     1
 98
        0
  0
ENDBLK
  5
5D
330
5A
100
AcDbEntity
  8
0
100
AcDbBlockEnd
  0
BLOCK
  5
78
330
76
100
AcDbEntity
  8
0
100
AcDbBlockBegin
  2
block 3
 70
     0
 10
0.0
 20
0.0
 30
0.0
  3
block 3
  1

  0
SPLINE
  5
7A
330
76
100
AcDbEntity
  8
_U+30EC_U+30A4_U+30E4_U+30FC 1
370
     0
100
AcDbSpline
210
0.0
220
0.0
230
1.0
 70
    11
 71
     3
 72
    26
 73
    22
 74
     0
 42
0.0000000001
 43
0.0000000001
 12
1.0
 22
0.0
 32
0.0
 13
1.0
 23
0.0
 33
0.0
 40
0.0
 40
0.0
 40
0.0
 40
0.0
 40
1.0
 40
1.0
 40
1.0
 40
2.0
 40
2.0
 40
2.0
 40
3.0
 40
3.0
 40
3.0
 40
4.0
 40
4.0
 40
4.0
 40
5.0
 40
5.0
 40
5.0
 40
6.0
 40
6.0
 40
6.0
 40
7.0
 40
7.0
 40
7.0
 40
7.0
 10
115.9033474102603
 20
-142.4664116397306
 30
0.0
 10
115.9033474102603
 20
-142.4664116397306
 30
0.0
 10
114.7991943072377
 20
-142.4664116397306
 30
0.0
 10
114.7991943072377
 20
-142.4664116397306
 30
0.0
 10
114.7991943072377
 20
-142.4664116397306
 30
0.0
 10
114.7991943072377
 20
-142.7964517872176
 30
0.0
 10
114.7991943072377
 20
-142.7964517872176
 30
0.0
 10
114.7991943072377
 20
-142.7964517872176
 30
0.0
 10
114.651055201372
 20
-142.7964517872176
 30
0.0
 10
114.651055201372
 20
-142.7964517872176
 30
0.0
 10
114.6362412907854
 20
-142.4643445824395
 30
0.0
 10
114.4732882743331
 20
-142.4178357933886
 30
0.0
 10
114.3589111042228
 20
-142.3882079722155
 30
0.0
 10
114.3589111042228
 20
-142.3882079722155
 30
0.0
 10
114.3589111042228
 20
-142.2421359236409
 30
0.0
 10
114.3589111042228
 20
-142.2421359236409
 30
0.0
 10
114.3589111042228
 20
-142.2421359236409
 30
0.0
 10
115.9033474102603
 20
-142.2421359236409
 30
0.0
 10
115.9033474102603
 20
-142.2421359236409
 30
0.0
 10
115.9033474102603
 20
-142.2421359236409
 30
0.0
 10
115.9033474102603
 20
-142.4664116397306
 30
0.0
 10
115.9033474102603
 20
-142.4664116397306
 30
0.0
  0
HATCH
  5
7B
330
76
100
AcDbEntity
  8
_U+30EC_U+30A4_U+30E4_U+30FC 1
 62
     7
420
 16777215
100
AcDbHatch
 10
0.0
 20
0.0
 30
0.0
210
0.0
220
0.0
230
1.0
  2
SOLID
 70
     1
 71
     0
 91
        1
 92
        1
 93
        1
 72
     4
 94
        3
 73
     0
 74
     1
 95
       26
 96
       22
 40
0.0
 40
0.0
 40
0.0
 40
0.0
 40
1.0
 40
1.0
 40
1.0
 40
2.0
 40
2.0
 40
2.0
 40
3.0
 40
3.0
 40
3.0
 40
4.0
 40
4.0
 40
4.0
 40
5.0
 40
5.0
 40
5.0
 40
6.0
 40
6.0
 40
6.0
 40
7.0
 40
7.0
 40
7.0
 40
7.0
 10
115.9033474102603
 20
-142.4664116397306
 10
115.9033474102603
 20
-142.4664116397306
 10
114.7991943072377
 20
-142.4664116397306
 10
114.7991943072377
 20
-142.4664116397306
 10
114.7991943072377
 20
-142.4664116397306
 10
114.7991943072377
 20
-142.7964517872176
 10
114.7991943072377
 20
-142.7964517872176
 10
114.7991943072377
 20
-142.7964517872176
 10
114.651055201372
 20
-142.7964517872176
 10
114.651055201372
 20
-142.7964517872176
 10
114.6362412907854
 20
-142.4643445824395
 10
114.4732882743331
 20
-142.4178357933886
 10
114.3589111042228
 20
-142.3882079722155
 10
114.3589111042228
 20
-142.3882079722155
 10
114.3589111042228
 20
-142.2421359236409
 10
114.3589111042228
 20
-142.2421359236409
 10
114.3589111042228
 20
-142.2421359236409
 10
115.9033474102603
 20
-142.2421359236409
 10
115.9033474102603
 20
-142.2421359236409
 10
115.9033474102603
 20
-142.2421359236409
 10
115.9033474102603
 20
-142.4664116397306
 10
115.9033474102603
 20
-142.4664116397306
 97
        0
 97
        0
 75
     2
 76
     1
 98
        0
  0
POLYLINE
  5
7C
330
76
100
AcDbEntity
  8
_U+30EC_U+30A4_U+30E4_U+30FC 1
370
     0
100
AcDb2dPolyline
 66
     1
 10
0.0
 20
0.0
 30
0.0
  0
VERTEX
  5
7D
330
7C
100
AcDbEntity
  8
_U+30EC_U+30A4_U+30E4_U+30FC 1
370
     0
100
AcDbVertex
100
AcDb2dVertex
 10
115.9033474102603
 20
-141.6809298690937
 30
0.0
  0
VERTEX
  5
7E
330
7C
100
AcDbEntity
  8
_U+30EC_U+30A4_U+30E4_U+30FC 1
370
     0
100
AcDbVertex
100
AcDb2dVertex
 10
115.6515109302885
 20
-141.6809298690937
 30
0.0
  0
VERTEX
  5
7F
330
7C
100
AcDbEntity
  8
_U+30EC_U+30A4_U+30E4_U+30FC 1
370
     0
100
AcDbVertex
100
AcDb2dVertex
 10
115.6515109302885
 20
-141.4290933891219
 30
0.0
  0
VERTEX
  5
80
330
7C
100
AcDbEntity
  8
_U+30EC_U+30A4_U+30E4_U+30FC 1
370
     0
100
AcDbVertex
100
AcDb2dVertex
 10
115.9033474102603
 20
-141.4290933891219
 30
0.0
  0
VERTEX
  5
81
330
7C
100
AcDbEntity
  8
_U+30EC_U+30A4_U+30E4_U+30FC 1
370
     0
100
AcDbVertex
100
AcDb2dVertex
 10
115.9033474102603
 20
-141.6809298690937
 30
0.0
  0
SEQEND
  5
82
330
7C
100
AcDbEntity
  8
_U+30EC_U+30A4_U+30E4_U+30FC 1
370
     0
  0
HATCH
  5
83
330
76
100
AcDbEntity
  8
_U+30EC_U+30A4_U+30E4_U+30FC 1
 62
     7
420
 16777215
100
AcDbHatch
 10
0.0
 20
0.0
 30
0.0
210
0.0
220
0.0
230
1.0
  2
SOLID
 70
     1
 71
     0
 91
        1
 92
        1
 93
        4
 72
     1
 10
115.9033474102603
 20
-141.6809298690937
 11
115.6515109302885
 21
-141.6809298690937
 72
     1
 10
115.6515109302885
 20
-141.6809298690937
 11
115.6515109302885
 21
-141.4290933891219
 72
     1
 10
115.6515109302885
 20
-141.4290933891219
 11
115.9033474102603
 21
-141.4290933891219
 72
     1
 10
115.9033474102603
 20
-141.4290933891219
 11
115.9033474102603
 21
-141.6809298690937
 97
        0
 75
     2
 76
     1
 98
        0
  0
SPLINE
  5
84
330
76
100
AcDbEntity
  8
_U+30EC_U+30A4_U+30E4_U+30FC 1
370
     0
100
AcDbSpline
210
0.0
220
0.0
230
1.0
 70
    11
 71
     3
 72
    44
 73
    40
 74
     0
 42
0.0000000001
 43
0.0000000001
 12
1.0
 22
0.0
 32
0.0
 13
1.0
 23
0.0
 33
0.0
 40
0.0
 40
0.0
 40
0.0
 40
0.0
 40
1.0
 40
1.0
 40
1.0
 40
2.0
 40
2.0
 40
2.0
 40
3.0
 40
3.0
 40
3.0
 40
4.0
 40
4.0
 40
4.0
 40
5.0
 40
5.0
 40
5.0
 40
6.0
 40
6.0
 40
6.0
 40
7.0
 40
7.0
 40
7.0
 40
8.0
 40
8.0
 40
8.0
 40
9.0
 40
9.0
 40
9.0
 40
10.0
 40
10.0
 40
10.0
 40
11.0
 40
11.0
 40
11.0
 40
12.0
 40
12.0
 40
12.0
 40
13.0
 40
13.0
 40
13.0
 40
13.0
 10
115.3214707828016
 20
-140.5998589058223
 30
0.0
 10
115.4802896846716
 20
-140.8175889404901
 30
0.0
 10
115.5543592376045
 20
-140.9106065185918
 30
0.0
 10
115.6980197193394
 20
-140.9595268744823
 30
0.0
 10
115.6980197193394
 20
-140.9595268744823
 30
0.0
 10
115.6980197193394
 20
-140.1809352948159
 30
0.0
 10
115.6980197193394
 20
-140.1809352948159
 30
0.0
 10
115.6980197193394
 20
-140.1809352948159
 30
0.0
 10
115.9033474102603
 20
-140.1809352948159
 30
0.0
 10
115.9033474102603
 20
-140.1809352948159
 30
0.0
 10
115.9033474102603
 20
-140.1809352948159
 30
0.0
 10
115.9033474102603
 20
-141.2089517876144
 30
0.0
 10
115.9033474102603
 20
-141.2089517876144
 30
0.0
 10
115.5457464988913
 20
-141.1772569091501
 30
0.0
 10
115.4675428313762
 20
-141.1118000949304
 30
0.0
 10
115.1691975623535
 20
-140.7266384196795
 30
0.0
 10
114.9704155528546
 20
-140.4706678251254
 30
0.0
 10
114.9025471717952
 20
-140.4052110109056
 30
0.0
 10
114.7650878619337
 20
-140.4052110109056
 30
0.0
 10
114.6465765772411
 20
-140.4052110109056
 30
0.0
 10
114.5156629488016
 20
-140.4772135065474
 30
0.0
 10
114.5156629488016
 20
-140.6739284587551
 30
0.0
 10
114.5156629488016
 20
-140.9340331678915
 30
0.0
 10
114.7461398367649
 20
-140.9423013970561
 30
0.0
 10
114.8625840641663
 20
-140.9467800211869
 30
0.0
 10
114.8625840641663
 20
-140.9467800211869
 30
0.0
 10
114.8625840641663
 20
-141.1710557372767
 30
0.0
 10
114.8625840641663
 20
-141.1710557372767
 30
0.0
 10
114.7354600407606
 20
-141.1624429985636
 30
0.0
 10
114.62349443749
 20
-141.1517632025593
 30
0.0
 10
114.5049831527974
 20
-141.071492477753
 30
0.0
 10
114.3440971936362
 20
-140.9615939317735
 30
0.0
 10
114.3103352578808
 20
-140.7752142660215
 30
0.0
 10
114.3103352578808
 20
-140.6591145481686
 30
0.0
 10
114.3103352578808
 20
-140.381784361606
 30
0.0
 10
114.4943033567931
 20
-140.1743896133939
 30
0.0
 10
114.7671549192249
 20
-140.1743896133939
 30
0.0
 10
114.9959092594455
 20
-140.1743896133939
 30
0.0
 10
115.0951280094207
 20
-140.2908338407954
 30
0.0
 10
115.3214707828016
 20
-140.5998589058223
 30
0.0
  0
HATCH
  5
85
330
76
100
AcDbEntity
  8
_U+30EC_U+30A4_U+30E4_U+30FC 1
 62
     7
420
 16777215
100
AcDbHatch
 10
0.0
 20
0.0
 30
0.0
210
0.0
220
0.0
230
1.0
  2
SOLID
 70
     1
 71
     0
 91
        1
 92
        1
 93
        1
 72
     4
 94
        3
 73
     0
 74
     1
 95
       44
 96
       40
 40
0.0
 40
0.0
 40
0.0
 40
0.0
 40
1.0
 40
1.0
 40
1.0
 40
2.0
 40
2.0
 40
2.0
 40
3.0
 40
3.0
 40
3.0
 40
4.0
 40
4.0
 40
4.0
 40
5.0
 40
5.0
 40
5.0
 40
6.0
 40
6.0
 40
6.0
 40
7.0
 40
7.0
 40
7.0
 40
8.0
 40
8.0
 40
8.0
 40
9.0
 40
9.0
 40
9.0
 40
10.0
 40
10.0
 40
10.0
 40
11.0
 40
11.0
 40
11.0
 40
12.0
 40
12.0
 40
12.0
 40
13.0
 40
13.0
 40
13.0
 40
13.0
 10
115.3214707828016
 20
-140.5998589058223
 10
115.4802896846716
 20
-140.8175889404901
 10
115.5543592376045
 20
-140.9106065185918
 10
115.6980197193394
 20
-140.9595268744823
 10
115.6980197193394
 20
-140.9595268744823
 10
115.6980197193394
 20
-140.1809352948159
 10
115.6980197193394
 20
-140.1809352948159
 10
115.6980197193394
 20
-140.1809352948159
 10
115.9033474102603
 20
-140.1809352948159
 10
115.9033474102603
 20
-140.1809352948159
 10
115.9033474102603
 20
-140.1809352948159
 10
115.9033474102603
 20
-141.2089517876144
 10
115.9033474102603
 20
-141.2089517876144
 10
115.5457464988913
 20
-141.1772569091501
 10
115.4675428313762
 20
-141.1118000949304
 10
115.1691975623535
 20
-140.7266384196795
 10
114.9704155528546
 20
-140.4706678251254
 10
114.9025471717952
 20
-140.4052110109056
 10
114.7650878619337
 20
-140.4052110109056
 10
114.6465765772411
 20
-140.4052110109056
 10
114.5156629488016
 20
-140.4772135065474
 10
114.5156629488016
 20
-140.6739284587551
 10
114.5156629488016
 20
-140.9340331678915
 10
114.7461398367649
 20
-140.9423013970561
 10
114.8625840641663
 20
-140.9467800211869
 10
114.8625840641663
 20
-140.9467800211869
 10
114.8625840641663
 20
-141.1710557372767
 10
114.8625840641663
 20
-141.1710557372767
 10
114.7354600407606
 20
-141.1624429985636
 10
114.62349443749
 20
-141.1517632025593
 10
114.5049831527974
 20
-141.071492477753
 10
114.3440971936362
 20
-140.9615939317735
 10
114.3103352578808
 20
-140.7752142660215
 10
114.3103352578808
 20
-140.6591145481686
 10
114.3103352578808
 20
-140.381784361606
 10
114.4943033567931
 20
-140.1743896133939
 10
114.7671549192249
 20
-140.1743896133939
 10
114.9959092594455
 20
-140.1743896133939
 10
115.0951280094207
 20
-140.2908338407954
 10
115.3214707828016
 20
-140.5998589058223
 97
        0
 97
        0
 75
     2
 76
     1
 98
        0
  0
ENDBLK
  5
79
330
76
100
AcDbEntity
  8
0
100
AcDbBlockEnd
  0
BLOCK
  5
94
330
92
100
AcDbEntity
  8
0
100
AcDbBlockBegin
  2
block 4
 70
     0
 10
0.0
 20
0.0
 30
0.0
  3
block 4
  1

  0
POLYLINE
  5
96
330
92
100
AcDbEntity
  8
_U+30EC_U+30A4_U+30E4_U+30FC 1
370
     0
100
AcDb2dPolyline
 66
     1
 10
0.0
 20
0.0
 30
0.0
  0
VERTEX
  5
97
330
96
100
AcDbEntity
  8
_U+30EC_U+30A4_U+30E4_U+30FC 1
370
     0
100
AcDbVertex
100
AcDb2dVertex
 10
69.27260197920963
 20
-126.0577663530342
 30
0.0
  0
VERTEX
  5
98
330
96
100
AcDbEntity
  8
_U+30EC_U+30A4_U+30E4_U+30FC 1
370
     0
100
AcDbVertex
100
AcDb2dVertex
 10
69.61952309457429
 20
-126.0577663530342
 30
0.0
  0
VERTEX
  5
99
330
96
100
AcDbEntity
  8
_U+30EC_U+30A4_U+30E4_U+30FC 1
370
     0
100
AcDbVertex
100
AcDb2dVertex
 10
69.61952309457429
 20
-126.275496387702
 30
0.0
  0
VERTEX
  5
9A
330
96
100
AcDbEntity
  8
_U+30EC_U+30A4_U+30E4_U+30FC 1
370
     0
100
AcDbVertex
100
AcDb2dVertex
 10
69.27260197920963
 20
-126.275496387702
 30
0.0
  0
VERTEX
  5
9B
330
96
100
AcDbEntity
  8
_U+30EC_U+30A4_U+30E4_U+30FC 1
370
     0
100
AcDbVertex
100
AcDb2dVertex
 10
69.27260197920963
 20
-126.9314425680935
 30
0.0
  0
VERTEX
  5
9C
330
96
100
AcDbEntity
  8
_U+30EC_U+30A4_U+30E4_U+30FC 1
370
     0
100
AcDbVertex
100
AcDb2dVertex
 10
69.04832626311986
 20
-126.9314425680935
 30
0.0
  0
VERTEX
  5
9D
330
96
100
AcDbEntity
  8
_U+30EC_U+30A4_U+30E4_U+30FC 1
370
     0
100
AcDbVertex
100
AcDb2dVertex
 10
68.07525904331105
 20
-126.2524142479508
 30
0.0
  0
VERTEX
  5
9E
330
96
100
AcDbEntity
  8
_U+30EC_U+30A4_U+30E4_U+30FC 1
370
     0
100
AcDbVertex
100
AcDb2dVertex
 10
68.07525904331105
 20
-126.0577663530342
 30
0.0
  0
VERTEX
  5
9F
330
96
100
AcDbEntity
  8
_U+30EC_U+30A4_U+30E4_U+30FC 1
370
     0
100
AcDbVertex
100
AcDb2dVertex
 10
69.07364771493646
 20
-126.0577663530342
 30
0.0
  0
VERTEX
  5
A0
330
96
100
AcDbEntity
  8
_U+30EC_U+30A4_U+30E4_U+30FC 1
370
     0
100
AcDbVertex
100
AcDb2dVertex
 10
69.07364771493646
 20
-125.8503716048221
 30
0.0
  0
VERTEX
  5
A1
330
96
100
AcDbEntity
  8
_U+30EC_U+30A4_U+30E4_U+30FC 1
370
     0
100
AcDbVertex
100
AcDb2dVertex
 10
69.27260197920963
 20
-125.8503716048221
 30
0.0
  0
VERTEX
  5
A2
330
96
100
AcDbEntity
  8
_U+30EC_U+30A4_U+30E4_U+30FC 1
370
     0
100
AcDbVertex
100
AcDb2dVertex
 10
69.27260197920963
 20
-126.0577663530342
 30
0.0
  0
SEQEND
  5
A3
330
96
100
AcDbEntity
  8
_U+30EC_U+30A4_U+30E4_U+30FC 1
370
     0
  0
POLYLINE
  5
A4
330
92
100
AcDbEntity
  8
_U+30EC_U+30A4_U+30E4_U+30FC 1
370
     0
100
AcDb2dPolyline
 66
     1
 10
0.0
 20
0.0
 30
0.0
  0
VERTEX
  5
A5
330
A4
100
AcDbEntity
  8
_U+30EC_U+30A4_U+30E4_U+30FC 1
370
     0
100
AcDbVertex
100
AcDb2dVertex
 10
68.41787378931915
 20
-126.275496387702
 30
0.0
  0
VERTEX
  5
A6
330
A4
100
AcDbEntity
  8
_U+30EC_U+30A4_U+30E4_U+30FC 1
370
     0
100
AcDbVertex
100
AcDb2dVertex
 10
69.07364771493646
 20
-126.7326605585946
 30
0.0
  0
VERTEX
  5
A7
330
A4
100
AcDbEntity
  8
_U+30EC_U+30A4_U+30E4_U+30FC 1
370
     0
100
AcDbVertex
100
AcDb2dVertex
 10
69.07364771493646
 20
-126.275496387702
 30
0.0
  0
VERTEX
  5
A8
330
A4
100
AcDbEntity
  8
_U+30EC_U+30A4_U+30E4_U+30FC 1
370
     0
100
AcDbVertex
100
AcDb2dVertex
 10
68.41787378931915
 20
-126.275496387702
 30
0.0
  0
SEQEND
  5
A9
330
A4
100
AcDbEntity
  8
_U+30EC_U+30A4_U+30E4_U+30FC 1
370
     0
  0
HATCH
  5
AA
330
92
100
AcDbEntity
  8
_U+30EC_U+30A4_U+30E4_U+30FC 1
 62
     7
420
 16777215
100
AcDbHatch
 10
0.0
 20
0.0
 30
0.0
210
0.0
220
0.0
230
1.0
  2
SOLID
 70
     1
 71
     0
 91
        2
 92
        1
 93
       11
 72
     1
 10
69.27260197920963
 20
-126.0577663530342
 11
69.61952309457429
 21
-126.0577663530342
 72
     1
 10
69.61952309457429
 20
-126.0577663530342
 11
69.61952309457429
 21
-126.275496387702
 72
     1
 10
69.61952309457429
 20
-126.275496387702
 11
69.27260197920963
 21
-126.275496387702
 72
     1
 10
69.27260197920963
 20
-126.275496387702
 11
69.27260197920963
 21
-126.9314425680935
 72
     1
 10
69.27260197920963
 20
-126.9314425680935
 11
69.04832626311986
 21
-126.9314425680935
 72
     1
 10
69.04832626311986
 20
-126.9314425680935
 11
68.07525904331105
 21
-126.2524142479508
 72
     1
 10
68.07525904331105
 20
-126.2524142479508
 11
68.07525904331105
 21
-126.0577663530342
 72
     1
 10
68.07525904331105
 20
-126.0577663530342
 11
69.07364771493646
 21
-126.0577663530342
 72
     1
 10
69.07364771493646
 20
-126.0577663530342
 11
69.07364771493646
 21
-125.8503716048221
 72
     1
 10
69.07364771493646
 20
-125.8503716048221
 11
69.27260197920963
 21
-125.8503716048221
 72
     1
 10
69.27260197920963
 20
-125.8503716048221
 11
69.27260197920963
 21
-126.0577663530342
 97
        0
 92
        1
 93
        3
 72
     1
 10
68.41787378931915
 20
-126.275496387702
 11
69.07364771493646
 21
-126.7326605585946
 72
     1
 10
69.07364771493646
 20
-126.7326605585946
 11
69.07364771493646
 21
-126.275496387702
 72
     1
 10
69.07364771493646
 20
-126.275496387702
 11
68.41787378931915
 21
-126.275496387702
 97
        0
 75
     2
 76
     1
 98
        0
  0
SPLINE
  5
AB
330
92
100
AcDbEntity
  8
_U+30EC_U+30A4_U+30E4_U+30FC 1
370
     0
100
AcDbSpline
210
0.0
220
0.0
230
1.0
 70
    11
 71
     3
 72
    29
 73
    25
 74
     0
 42
0.0000000001
 43
0.0000000001
 12
1.0
 22
0.0
 32
0.0
 13
1.0
 23
0.0
 33
0.0
 40
0.0
 40
0.0
 40
0.0
 40
0.0
 40
1.0
 40
1.0
 40
1.0
 40
2.0
 40
2.0
 40
2.0
 40
3.0
 40
3.0
 40
3.0
 40
4.0
 40
4.0
 40
4.0
 40
5.0
 40
5.0
 40
5.0
 40
6.0
 40
6.0
 40
6.0
 40
7.0
 40
7.0
 40
7.0
 40
8.0
 40
8.0
 40
8.0
 40
8.0
 10
69.4417561675354
 20
-124.8151204115046
 30
0.0
 10
69.65121797303858
 20
-124.9232964097414
 30
0.0
 10
69.67033825298172
 20
-125.0965847126495
 30
0.0
 10
69.67033825298172
 20
-125.2130289400509
 30
0.0
 10
69.67033825298172
 20
-125.3739148992121
 30
0.0
 10
69.62382946393085
 20
-125.5155083236559
 30
0.0
 10
69.4417561675354
 20
-125.6105929590487
 30
0.0
 10
69.24710827261877
 20
-125.7142903331548
 30
0.0
 10
69.01025795800786
 20
-125.7335828678722
 30
0.0
 10
68.84730494155554
 20
-125.7335828678722
 30
0.0
 10
68.70347220504635
 20
-125.7335828678722
 30
0.0
 10
68.45180797984885
 20
-125.7163573904459
 30
0.0
 10
68.25285371557568
 20
-125.6105929590487
 30
0.0
 10
68.0497653367202
 20
-125.5027614703604
 30
0.0
 10
68.02651094219476
 20
-125.3418755111993
 30
0.0
 10
68.02651094219476
 20
-125.2130289400509
 30
0.0
 10
68.02651094219476
 20
-125.0542100381809
 30
0.0
 10
68.0709526739545
 20
-124.910549556446
 30
0.0
 10
68.25285371557568
 20
-124.8151204115046
 30
0.0
 10
68.44543455320114
 20
-124.7159016615294
 30
0.0
 10
68.6738443838732
 20
-124.6924750122297
 30
0.0
 10
68.84730494155554
 20
-124.6924750122297
 30
0.0
 10
69.01869844194671
 20
-124.6924750122297
 30
0.0
 10
69.24934758468419
 20
-124.7138346042382
 30
0.0
 10
69.4417561675354
 20
-124.8151204115046
 30
0.0
  0
SPLINE
  5
AC
330
92
100
AcDbEntity
  8
_U+30EC_U+30A4_U+30E4_U+30FC 1
370
     0
100
AcDbSpline
210
0.0
220
0.0
230
1.0
 70
    11
 71
     3
 72
    17
 73
    13
 74
     0
 42
0.0000000001
 43
0.0000000001
 12
1.0
 22
0.0
 32
0.0
 13
1.0
 23
0.0
 33
0.0
 40
0.0
 40
0.0
 40
0.0
 40
0.0
 40
1.0
 40
1.0
 40
1.0
 40
2.0
 40
2.0
 40
2.0
 40
3.0
 40
3.0
 40
3.0
 40
4.0
 40
4.0
 40
4.0
 40
4.0
 10
68.21909177982023
 20
-125.2130289400509
 30
0.0
 10
68.21909177982023
 20
-125.4627983627315
 30
0.0
 10
68.5026231382563
 20
-125.5093071517824
 30
0.0
 10
68.84730494155554
 20
-125.5093071517824
 30
0.0
 10
69.16683754781246
 20
-125.5093071517824
 30
0.0
 10
69.47569035806511
 20
-125.4731336491873
 30
0.0
 10
69.47569035806511
 20
-125.2130289400509
 30
0.0
 10
69.47569035806511
 20
-124.9653265746614
 30
0.0
 10
69.1942260569202
 20
-124.9167507283194
 30
0.0
 10
68.84730494155554
 20
-124.9167507283194
 30
0.0
 10
68.52794459007288
 20
-124.9167507283194
 30
0.0
 10
68.21909177982023
 20
-124.9549912882057
 30
0.0
 10
68.21909177982023
 20
-125.2130289400509
 30
0.0
  0
HATCH
  5
AD
330
92
100
AcDbEntity
  8
_U+30EC_U+30A4_U+30E4_U+30FC 1
 62
     7
420
 16777215
100
AcDbHatch
 10
0.0
 20
0.0
 30
0.0
210
0.0
220
0.0
230
1.0
  2
SOLID
 70
     1
 71
     0
 91
        2
 92
        1
 93
        1
 72
     4
 94
        3
 73
     0
 74
     1
 95
       29
 96
       25
 40
0.0
 40
0.0
 40
0.0
 40
0.0
 40
1.0
 40
1.0
 40
1.0
 40
2.0
 40
2.0
 40
2.0
 40
3.0
 40
3.0
 40
3.0
 40
4.0
 40
4.0
 40
4.0
 40
5.0
 40
5.0
 40
5.0
 40
6.0
 40
6.0
 40
6.0
 40
7.0
 40
7.0
 40
7.0
 40
8.0
 40
8.0
 40
8.0
 40
8.0
 10
69.4417561675354
 20
-124.8151204115046
 10
69.65121797303858
 20
-124.9232964097414
 10
69.67033825298172
 20
-125.0965847126495
 10
69.67033825298172
 20
-125.2130289400509
 10
69.67033825298172
 20
-125.3739148992121
 10
69.62382946393085
 20
-125.5155083236559
 10
69.4417561675354
 20
-125.6105929590487
 10
69.24710827261877
 20
-125.7142903331548
 10
69.01025795800786
 20
-125.7335828678722
 10
68.84730494155554
 20
-125.7335828678722
 10
68.70347220504635
 20
-125.7335828678722
 10
68.45180797984885
 20
-125.7163573904459
 10
68.25285371557568
 20
-125.6105929590487
 10
68.0497653367202
 20
-125.5027614703604
 10
68.02651094219476
 20
-125.3418755111993
 10
68.02651094219476
 20
-125.2130289400509
 10
68.02651094219476
 20
-125.0542100381809
 10
68.0709526739545
 20
-124.910549556446
 10
68.25285371557568
 20
-124.8151204115046
 10
68.44543455320114
 20
-124.7159016615294
 10
68.6738443838732
 20
-124.6924750122297
 10
68.84730494155554
 20
-124.6924750122297
 10
69.01869844194671
 20
-124.6924750122297
 10
69.24934758468419
 20
-124.7138346042382
 10
69.4417561675354
 20
-124.8151204115046
 97
        0
 97
        0
 92
        1
 93
        1
 72
     4
 94
        3
 73
     0
 74
     1
 95
       17
 96
       13
 40
0.0
 40
0.0
 40
0.0
 40
0.0
 40
1.0
 40
1.0
 40
1.0
 40
2.0
 40
2.0
 40
2.0
 40
3.0
 40
3.0
 40
3.0
 40
4.0
 40
4.0
 40
4.0
 40
4.0
 10
68.21909177982023
 20
-125.2130289400509
 10
68.21909177982023
 20
-125.4627983627315
 10
68.5026231382563
 20
-125.5093071517824
 10
68.84730494155554
 20
-125.5093071517824
 10
69.16683754781246
 20
-125.5093071517824
 10
69.47569035806511
 20
-125.4731336491873
 10
69.47569035806511
 20
-125.2130289400509
 10
69.47569035806511
 20
-124.9653265746614
 10
69.1942260569202
 20
-124.9167507283194
 10
68.84730494155554
 20
-124.9167507283194
 10
68.52794459007288
 20
-124.9167507283194
 10
68.21909177982023
 20
-124.9549912882057
 10
68.21909177982023
 20
-125.2130289400509
 97
        0
 97
        0
 75
     2
 76
     1
 98
        0
  0
ENDBLK
  5
95
330
92
100
AcDbEntity
  8
0
100
AcDbBlockEnd
  0
BLOCK
  5
C5
330
C3
100
AcDbEntity
  8
0
100
AcDbBlockBegin
  2
block 5
 70
     0
 10
0.0
 20
0.0
 30
0.0
  3
block 5
  1

  0
SPLINE
  5
C7
330
C3
100
AcDbEntity
  8
_U+30EC_U+30A4_U+30E4_U+30FC 1
370
     0
100
AcDbSpline
210
0.0
220
0.0
230
1.0
 70
    11
 71
     3
 72
    44
 73
    40
 74
     0
 42
0.0000000001
 43
0.0000000001
 12
1.0
 22
0.0
 32
0.0
 13
1.0
 23
0.0
 33
0.0
 40
0.0
 40
0.0
 40
0.0
 40
0.0
 40
1.0
 40
1.0
 40
1.0
 40
2.0
 40
2.0
 40
2.0
 40
3.0
 40
3.0
 40
3.0
 40
4.0
 40
4.0
 40
4.0
 40
5.0
 40
5.0
 40
5.0
 40
6.0
 40
6.0
 40
6.0
 40
7.0
 40
7.0
 40
7.0
 40
8.0
 40
8.0
 40
8.0
 40
9.0
 40
9.0
 40
9.0
 40
10.0
 40
10.0
 40
10.0
 40
11.0
 40
11.0
 40
11.0
 40
12.0
 40
12.0
 40
12.0
 40
13.0
 40
13.0
 40
13.0
 40
13.0
 10
83.83760441697463
 20
-148.5073865731162
 30
0.0
 10
83.61987438230685
 20
-148.6662054749862
 30
0.0
 10
83.5268568042051
 20
-148.7402750279191
 30
0.0
 10
83.47793644831455
 20
-148.883935509654
 30
0.0
 10
83.47793644831455
 20
-148.883935509654
 30
0.0
 10
84.256528027981
 20
-148.883935509654
 30
0.0
 10
84.256528027981
 20
-148.883935509654
 30
0.0
 10
84.256528027981
 20
-148.883935509654
 30
0.0
 10
84.256528027981
 20
-149.0892632005749
 30
0.0
 10
84.256528027981
 20
-149.0892632005749
 30
0.0
 10
84.256528027981
 20
-149.0892632005749
 30
0.0
 10
83.22851153518246
 20
-149.0892632005749
 30
0.0
 10
83.22851153518246
 20
-149.0892632005749
 30
0.0
 10
83.26020641364676
 20
-148.731662289206
 30
0.0
 10
83.3256632278665
 20
-148.6534586216908
 30
0.0
 10
83.71082490311744
 20
-148.3551133526682
 30
0.0
 10
83.9667954976715
 20
-148.1563313431693
 30
0.0
 10
84.03225231189124
 20
-148.0884629621098
 30
0.0
 10
84.03225231189124
 20
-147.9510036522484
 30
0.0
 10
84.03225231189124
 20
-147.8324923675558
 30
0.0
 10
83.96024981624953
 20
-147.7015787391163
 30
0.0
 10
83.76353486404176
 20
-147.7015787391163
 30
0.0
 10
83.5034301549054
 20
-147.7015787391163
 30
0.0
 10
83.4951619257408
 20
-147.9320556270795
 30
0.0
 10
83.49068330160998
 20
-148.048499854481
 30
0.0
 10
83.49068330160998
 20
-148.048499854481
 30
0.0
 10
83.26640758552021
 20
-148.048499854481
 30
0.0
 10
83.26640758552021
 20
-148.048499854481
 30
0.0
 10
83.27502032423334
 20
-147.9213758310752
 30
0.0
 10
83.2857001202376
 20
-147.8094102278046
 30
0.0
 10
83.36597084504393
 20
-147.690898943112
 30
0.0
 10
83.4758693910234
 20
-147.5300129839508
 30
0.0
 10
83.66224905677541
 20
-147.4962510481954
 30
0.0
 10
83.77834877462833
 20
-147.4962510481954
 30
0.0
 10
84.05567896119095
 20
-147.4962510481954
 30
0.0
 10
84.26307370940299
 20
-147.6802191471077
 30
0.0
 10
84.26307370940299
 20
-147.9530707095395
 30
0.0
 10
84.26307370940299
 20
-148.1818250497601
 30
0.0
 10
84.14662948200154
 20
-148.2810437997353
 30
0.0
 10
83.83760441697463
 20
-148.5073865731162
 30
0.0
  0
HATCH
  5
C8
330
C3
100
AcDbEntity
  8
_U+30EC_U+30A4_U+30E4_U+30FC 1
 62
     7
420
 16777215
100
AcDbHatch
 10
0.0
 20
0.0
 30
0.0
210
0.0
220
0.0
230
1.0
  2
SOLID
 70
     1
 71
     0
 91
        1
 92
        1
 93
        1
 72
     4
 94
        3
 73
     0
 74
     1
 95
       44
 96
       40
 40
0.0
 40
0.0
 40
0.0
 40
0.0
 40
1.0
 40
1.0
 40
1.0
 40
2.0
 40
2.0
 40
2.0
 40
3.0
 40
3.0
 40
3.0
 40
4.0
 40
4.0
 40
4.0
 40
5.0
 40
5.0
 40
5.0
 40
6.0
 40
6.0
 40
6.0
 40
7.0
 40
7.0
 40
7.0
 40
8.0
 40
8.0
 40
8.0
 40
9.0
 40
9.0
 40
9.0
 40
10.0
 40
10.0
 40
10.0
 40
11.0
 40
11.0
 40
11.0
 40
12.0
 40
12.0
 40
12.0
 40
13.0
 40
13.0
 40
13.0
 40
13.0
 10
83.83760441697463
 20
-148.5073865731162
 10
83.61987438230685
 20
-148.6662054749862
 10
83.5268568042051
 20
-148.7402750279191
 10
83.47793644831455
 20
-148.883935509654
 10
83.47793644831455
 20
-148.883935509654
 10
84.256528027981
 20
-148.883935509654
 10
84.256528027981
 20
-148.883935509654
 10
84.256528027981
 20
-148.883935509654
 10
84.256528027981
 20
-149.0892632005749
 10
84.256528027981
 20
-149.0892632005749
 10
84.256528027981
 20
-149.0892632005749
 10
83.22851153518246
 20
-149.0892632005749
 10
83.22851153518246
 20
-149.0892632005749
 10
83.26020641364676
 20
-148.731662289206
 10
83.3256632278665
 20
-148.6534586216908
 10
83.71082490311744
 20
-148.3551133526682
 10
83.9667954976715
 20
-148.1563313431693
 10
84.03225231189124
 20
-148.0884629621098
 10
84.03225231189124
 20
-147.9510036522484
 10
84.03225231189124
 20
-147.8324923675558
 10
83.96024981624953
 20
-147.7015787391163
 10
83.76353486404176
 20
-147.7015787391163
 10
83.5034301549054
 20
-147.7015787391163
 10
83.4951619257408
 20
-147.9320556270795
 10
83.49068330160998
 20
-148.048499854481
 10
83.49068330160998
 20
-148.048499854481
 10
83.26640758552021
 20
-148.048499854481
 10
83.26640758552021
 20
-148.048499854481
 10
83.27502032423334
 20
-147.9213758310752
 10
83.2857001202376
 20
-147.8094102278046
 10
83.36597084504393
 20
-147.690898943112
 10
83.4758693910234
 20
-147.5300129839508
 10
83.66224905677541
 20
-147.4962510481954
 10
83.77834877462833
 20
-147.4962510481954
 10
84.05567896119095
 20
-147.4962510481954
 10
84.26307370940299
 20
-147.6802191471077
 10
84.26307370940299
 20
-147.9530707095395
 10
84.26307370940299
 20
-148.1818250497601
 10
84.14662948200154
 20
-148.2810437997353
 10
83.83760441697463
 20
-148.5073865731162
 97
        0
 97
        0
 75
     2
 76
     1
 98
        0
  0
SPLINE
  5
C9
330
C3
100
AcDbEntity
  8
_U+30EC_U+30A4_U+30E4_U+30FC 1
370
     0
100
AcDbSpline
210
0.0
220
0.0
230
1.0
 70
    11
 71
     3
 72
    29
 73
    25
 74
     0
 42
0.0000000001
 43
0.0000000001
 12
1.0
 22
0.0
 32
0.0
 13
1.0
 23
0.0
 33
0.0
 40
0.0
 40
0.0
 40
0.0
 40
0.0
 40
1.0
 40
1.0
 40
1.0
 40
2.0
 40
2.0
 40
2.0
 40
3.0
 40
3.0
 40
3.0
 40
4.0
 40
4.0
 40
4.0
 40
5.0
 40
5.0
 40
5.0
 40
6.0
 40
6.0
 40
6.0
 40
7.0
 40
7.0
 40
7.0
 40
8.0
 40
8.0
 40
8.0
 40
8.0
 10
85.31933998518059
 20
-148.911496273536
 30
0.0
 10
85.21116398694375
 20
-149.1209580790392
 30
0.0
 10
85.03787568403567
 20
-149.1399061042081
 30
0.0
 10
84.92143145663422
 20
-149.1399061042081
 30
0.0
 10
84.76054549747306
 20
-149.1399061042081
 30
0.0
 10
84.61895207302929
 20
-149.0933973151572
 30
0.0
 10
84.5238674376364
 20
-148.911496273536
 30
0.0
 10
84.42017006353038
 20
-148.7168483786194
 30
0.0
 10
84.40122203836151
 20
-148.4801703187827
 30
0.0
 10
84.40122203836151
 20
-148.3172173023304
 30
0.0
 10
84.40122203836151
 20
-148.173212311047
 30
0.0
 10
84.41810300623922
 20
-147.9213758310752
 30
0.0
 10
84.5238674376364
 20
-147.7225938215763
 30
0.0
 10
84.63169892632472
 20
-147.5196776974951
 30
0.0
 10
84.79258488548588
 20
-147.4962510481954
 30
0.0
 10
84.92143145663422
 20
-147.4962510481954
 30
0.0
 10
85.08025035850424
 20
-147.4962510481954
 30
0.0
 10
85.22391084023917
 20
-147.5406927799551
 30
0.0
 10
85.31933998518059
 20
-147.7225938215763
 30
0.0
 10
85.41855873515578
 20
-147.9151746592018
 30
0.0
 10
85.44198538445548
 20
-148.1435844898738
 30
0.0
 10
85.44198538445548
 20
-148.3172173023304
 30
0.0
 10
85.44198538445548
 20
-148.4884385479473
 30
0.0
 10
85.42062579244693
 20
-148.7189154359106
 30
0.0
 10
85.31933998518059
 20
-148.911496273536
 30
0.0
  0
SPLINE
  5
CA
330
C3
100
AcDbEntity
  8
_U+30EC_U+30A4_U+30E4_U+30FC 1
370
     0
100
AcDbSpline
210
0.0
220
0.0
230
1.0
 70
    11
 71
     3
 72
    17
 73
    13
 74
     0
 42
0.0000000001
 43
0.0000000001
 12
1.0
 22
0.0
 32
0.0
 13
1.0
 23
0.0
 33
0.0
 40
0.0
 40
0.0
 40
0.0
 40
0.0
 40
1.0
 40
1.0
 40
1.0
 40
2.0
 40
2.0
 40
2.0
 40
3.0
 40
3.0
 40
3.0
 40
4.0
 40
4.0
 40
4.0
 40
4.0
 10
84.92143145663422
 20
-147.6888318858209
 30
0.0
 10
84.67200654350214
 20
-147.6888318858209
 30
0.0
 10
84.62515324490275
 20
-147.9723632442569
 30
0.0
 10
84.62515324490275
 20
-148.3172173023304
 30
0.0
 10
84.62515324490275
 20
-148.6365776538131
 30
0.0
 10
84.66132674749787
 20
-148.9452582092915
 30
0.0
 10
84.92143145663422
 20
-148.9452582092915
 30
0.0
 10
85.1691338220237
 20
-148.9452582092915
 30
0.0
 10
85.21770966836571
 20
-148.6641384176951
 30
0.0
 10
85.21770966836571
 20
-148.3172173023304
 30
0.0
 10
85.21770966836571
 20
-147.9975124412992
 30
0.0
 10
85.17946910847944
 20
-147.6888318858209
 30
0.0
 10
84.92143145663422
 20
-147.6888318858209
 30
0.0
  0
HATCH
  5
CB
330
C3
100
AcDbEntity
  8
_U+30EC_U+30A4_U+30E4_U+30FC 1
 62
     7
420
 16777215
100
AcDbHatch
 10
0.0
 20
0.0
 30
0.0
210
0.0
220
0.0
230
1.0
  2
SOLID
 70
     1
 71
     0
 91
        2
 92
        1
 93
        1
 72
     4
 94
        3
 73
     0
 74
     1
 95
       29
 96
       25
 40
0.0
 40
0.0
 40
0.0
 40
0.0
 40
1.0
 40
1.0
 40
1.0
 40
2.0
 40
2.0
 40
2.0
 40
3.0
 40
3.0
 40
3.0
 40
4.0
 40
4.0
 40
4.0
 40
5.0
 40
5.0
 40
5.0
 40
6.0
 40
6.0
 40
6.0
 40
7.0
 40
7.0
 40
7.0
 40
8.0
 40
8.0
 40
8.0
 40
8.0
 10
85.31933998518059
 20
-148.911496273536
 10
85.21116398694375
 20
-149.1209580790392
 10
85.03787568403567
 20
-149.1399061042081
 10
84.92143145663422
 20
-149.1399061042081
 10
84.76054549747306
 20
-149.1399061042081
 10
84.61895207302929
 20
-149.0933973151572
 10
84.5238674376364
 20
-148.911496273536
 10
84.42017006353038
 20
-148.7168483786194
 10
84.40122203836151
 20
-148.4801703187827
 10
84.40122203836151
 20
-148.3172173023304
 10
84.40122203836151
 20
-148.173212311047
 10
84.41810300623922
 20
-147.9213758310752
 10
84.5238674376364
 20
-147.7225938215763
 10
84.63169892632472
 20
-147.5196776974951
 10
84.79258488548588
 20
-147.4962510481954
 10
84.92143145663422
 20
-147.4962510481954
 10
85.08025035850424
 20
-147.4962510481954
 10
85.22391084023917
 20
-147.5406927799551
 10
85.31933998518059
 20
-147.7225938215763
 10
85.41855873515578
 20
-147.9151746592018
 10
85.44198538445548
 20
-148.1435844898738
 10
85.44198538445548
 20
-148.3172173023304
 10
85.44198538445548
 20
-148.4884385479473
 10
85.42062579244693
 20
-148.7189154359106
 10
85.31933998518059
 20
-148.911496273536
 97
        0
 97
        0
 92
        1
 93
        1
 72
     4
 94
        3
 73
     0
 74
     1
 95
       17
 96
       13
 40
0.0
 40
0.0
 40
0.0
 40
0.0
 40
1.0
 40
1.0
 40
1.0
 40
2.0
 40
2.0
 40
2.0
 40
3.0
 40
3.0
 40
3.0
 40
4.0
 40
4.0
 40
4.0
 40
4.0
 10
84.92143145663422
 20
-147.6888318858209
 10
84.67200654350214
 20
-147.6888318858209
 10
84.62515324490275
 20
-147.9723632442569
 10
84.62515324490275
 20
-148.3172173023304
 10
84.62515324490275
 20
-148.6365776538131
 10
84.66132674749787
 20
-148.9452582092915
 10
84.92143145663422
 20
-148.9452582092915
 10
85.1691338220237
 20
-148.9452582092915
 10
85.21770966836571
 20
-148.6641384176951
 10
85.21770966836571
 20
-148.3172173023304
 10
85.21770966836571
 20
-147.9975124412992
 10
85.17946910847944
 20
-147.6888318858209
 10
84.92143145663422
 20
-147.6888318858209
 97
        0
 97
        0
 75
     2
 76
     1
 98
        0
  0
ENDBLK
  5
C6
330
C3
100
AcDbEntity
  8
0
100
AcDbBlockEnd
  0
BLOCK
  5
CE
330
CC
100
AcDbEntity
  8
0
100
AcDbBlockBegin
  2
block 6
 70
     0
 10
0.0
 20
0.0
 30
0.0
  3
block 6
  1

  0
SPLINE
  5
D0
330
CC
100
AcDbEntity
  8
_U+30EC_U+30A4_U+30E4_U+30FC 1
370
     0
100
AcDbSpline
210
0.0
220
0.0
230
1.0
 70
    11
 71
     3
 72
    44
 73
    40
 74
     0
 42
0.0000000001
 43
0.0000000001
 12
1.0
 22
0.0
 32
0.0
 13
1.0
 23
0.0
 33
0.0
 40
0.0
 40
0.0
 40
0.0
 40
0.0
 40
1.0
 40
1.0
 40
1.0
 40
2.0
 40
2.0
 40
2.0
 40
3.0
 40
3.0
 40
3.0
 40
4.0
 40
4.0
 40
4.0
 40
5.0
 40
5.0
 40
5.0
 40
6.0
 40
6.0
 40
6.0
 40
7.0
 40
7.0
 40
7.0
 40
8.0
 40
8.0
 40
8.0
 40
9.0
 40
9.0
 40
9.0
 40
10.0
 40
10.0
 40
10.0
 40
11.0
 40
11.0
 40
11.0
 40
12.0
 40
12.0
 40
12.0
 40
13.0
 40
13.0
 40
13.0
 40
13.0
 10
103.8375894922698
 20
-148.5073865731162
 30
0.0
 10
103.619859457602
 20
-148.6662054749862
 30
0.0
 10
103.5268418795002
 20
-148.7402750279191
 30
0.0
 10
103.4779215236097
 20
-148.883935509654
 30
0.0
 10
103.4779215236097
 20
-148.883935509654
 30
0.0
 10
104.2565131032761
 20
-148.883935509654
 30
0.0
 10
104.2565131032761
 20
-148.883935509654
 30
0.0
 10
104.2565131032761
 20
-148.883935509654
 30
0.0
 10
104.2565131032761
 20
-149.0892632005749
 30
0.0
 10
104.2565131032761
 20
-149.0892632005749
 30
0.0
 10
104.2565131032761
 20
-149.0892632005749
 30
0.0
 10
103.2284966104776
 20
-149.0892632005749
 30
0.0
 10
103.2284966104776
 20
-149.0892632005749
 30
0.0
 10
103.2601914889419
 20
-148.731662289206
 30
0.0
 10
103.3256483031616
 20
-148.6534586216908
 30
0.0
 10
103.7108099784126
 20
-148.3551133526682
 30
0.0
 10
103.9667805729666
 20
-148.1563313431693
 30
0.0
 10
104.0322373871864
 20
-148.0884629621098
 30
0.0
 10
104.0322373871864
 20
-147.9510036522484
 30
0.0
 10
104.0322373871864
 20
-147.8324923675558
 30
0.0
 10
103.9602348915447
 20
-147.7015787391163
 30
0.0
 10
103.7635199393369
 20
-147.7015787391163
 30
0.0
 10
103.5034152302005
 20
-147.7015787391163
 30
0.0
 10
103.4951470010359
 20
-147.9320556270795
 30
0.0
 10
103.4906683769051
 20
-148.048499854481
 30
0.0
 10
103.4906683769051
 20
-148.048499854481
 30
0.0
 10
103.2663926608154
 20
-148.048499854481
 30
0.0
 10
103.2663926608154
 20
-148.048499854481
 30
0.0
 10
103.2750053995285
 20
-147.9213758310752
 30
0.0
 10
103.2856851955327
 20
-147.8094102278046
 30
0.0
 10
103.3659559203391
 20
-147.690898943112
 30
0.0
 10
103.4758544663185
 20
-147.5300129839508
 30
0.0
 10
103.6622341320706
 20
-147.4962510481954
 30
0.0
 10
103.7783338499235
 20
-147.4962510481954
 30
0.0
 10
104.0556640364861
 20
-147.4962510481954
 30
0.0
 10
104.2630587846981
 20
-147.6802191471077
 30
0.0
 10
104.2630587846981
 20
-147.9530707095395
 30
0.0
 10
104.2630587846981
 20
-148.1818250497601
 30
0.0
 10
104.1466145572967
 20
-148.2810437997353
 30
0.0
 10
103.8375894922698
 20
-148.5073865731162
 30
0.0
  0
HATCH
  5
D1
330
CC
100
AcDbEntity
  8
_U+30EC_U+30A4_U+30E4_U+30FC 1
 62
     7
420
 16777215
100
AcDbHatch
 10
0.0
 20
0.0
 30
0.0
210
0.0
220
0.0
230
1.0
  2
SOLID
 70
     1
 71
     0
 91
        1
 92
        1
 93
        1
 72
     4
 94
        3
 73
     0
 74
     1
 95
       44
 96
       40
 40
0.0
 40
0.0
 40
0.0
 40
0.0
 40
1.0
 40
1.0
 40
1.0
 40
2.0
 40
2.0
 40
2.0
 40
3.0
 40
3.0
 40
3.0
 40
4.0
 40
4.0
 40
4.0
 40
5.0
 40
5.0
 40
5.0
 40
6.0
 40
6.0
 40
6.0
 40
7.0
 40
7.0
 40
7.0
 40
8.0
 40
8.0
 40
8.0
 40
9.0
 40
9.0
 40
9.0
 40
10.0
 40
10.0
 40
10.0
 40
11.0
 40
11.0
 40
11.0
 40
12.0
 40
12.0
 40
12.0
 40
13.0
 40
13.0
 40
13.0
 40
13.0
 10
103.8375894922698
 20
-148.5073865731162
 10
103.619859457602
 20
-148.6662054749862
 10
103.5268418795002
 20
-148.7402750279191
 10
103.4779215236097
 20
-148.883935509654
 10
103.4779215236097
 20
-148.883935509654
 10
104.2565131032761
 20
-148.883935509654
 10
104.2565131032761
 20
-148.883935509654
 10
104.2565131032761
 20
-148.883935509654
 10
104.2565131032761
 20
-149.0892632005749
 10
104.2565131032761
 20
-149.0892632005749
 10
104.2565131032761
 20
-149.0892632005749
 10
103.2284966104776
 20
-149.0892632005749
 10
103.2284966104776
 20
-149.0892632005749
 10
103.2601914889419
 20
-148.731662289206
 10
103.3256483031616
 20
-148.6534586216908
 10
103.7108099784126
 20
-148.3551133526682
 10
103.9667805729666
 20
-148.1563313431693
 10
104.0322373871864
 20
-148.0884629621098
 10
104.0322373871864
 20
-147.9510036522484
 10
104.0322373871864
 20
-147.8324923675558
 10
103.9602348915447
 20
-147.7015787391163
 10
103.7635199393369
 20
-147.7015787391163
 10
103.5034152302005
 20
-147.7015787391163
 10
103.4951470010359
 20
-147.9320556270795
 10
103.4906683769051
 20
-148.048499854481
 10
103.4906683769051
 20
-148.048499854481
 10
103.2663926608154
 20
-148.048499854481
 10
103.2663926608154
 20
-148.048499854481
 10
103.2750053995285
 20
-147.9213758310752
 10
103.2856851955327
 20
-147.8094102278046
 10
103.3659559203391
 20
-147.690898943112
 10
103.4758544663185
 20
-147.5300129839508
 10
103.6622341320706
 20
-147.4962510481954
 10
103.7783338499235
 20
-147.4962510481954
 10
104.0556640364861
 20
-147.4962510481954
 10
104.2630587846981
 20
-147.6802191471077
 10
104.2630587846981
 20
-147.9530707095395
 10
104.2630587846981
 20
-148.1818250497601
 10
104.1466145572967
 20
-148.2810437997353
 10
103.8375894922698
 20
-148.5073865731162
 97
        0
 97
        0
 75
     2
 76
     1
 98
        0
  0
SPLINE
  5
D2
330
CC
100
AcDbEntity
  8
_U+30EC_U+30A4_U+30E4_U+30FC 1
370
     0
100
AcDbSpline
210
0.0
220
0.0
230
1.0
 70
    11
 71
     3
 72
    29
 73
    25
 74
     0
 42
0.0000000001
 43
0.0000000001
 12
1.0
 22
0.0
 32
0.0
 13
1.0
 23
0.0
 33
0.0
 40
0.0
 40
0.0
 40
0.0
 40
0.0
 40
1.0
 40
1.0
 40
1.0
 40
2.0
 40
2.0
 40
2.0
 40
3.0
 40
3.0
 40
3.0
 40
4.0
 40
4.0
 40
4.0
 40
5.0
 40
5.0
 40
5.0
 40
6.0
 40
6.0
 40
6.0
 40
7.0
 40
7.0
 40
7.0
 40
8.0
 40
8.0
 40
8.0
 40
8.0
 10
105.3193250604757
 20
-148.911496273536
 30
0.0
 10
105.2111490622389
 20
-149.1209580790392
 30
0.0
 10
105.0378607593308
 20
-149.1399061042081
 30
0.0
 10
104.9214165319294
 20
-149.1399061042081
 30
0.0
 10
104.7605305727682
 20
-149.1399061042081
 30
0.0
 10
104.6189371483244
 20
-149.0933973151572
 30
0.0
 10
104.5238525129315
 20
-148.911496273536
 30
0.0
 10
104.4201551388255
 20
-148.7168483786194
 30
0.0
 10
104.4012071136567
 20
-148.4801703187827
 30
0.0
 10
104.4012071136567
 20
-148.3172173023304
 30
0.0
 10
104.4012071136567
 20
-148.173212311047
 30
0.0
 10
104.4180880815344
 20
-147.9213758310752
 30
0.0
 10
104.5238525129315
 20
-147.7225938215763
 30
0.0
 10
104.6316840016199
 20
-147.5196776974951
 30
0.0
 10
104.792569960781
 20
-147.4962510481954
 30
0.0
 10
104.9214165319294
 20
-147.4962510481954
 30
0.0
 10
105.0802354337994
 20
-147.4962510481954
 30
0.0
 10
105.2238959155343
 20
-147.5406927799551
 30
0.0
 10
105.3193250604757
 20
-147.7225938215763
 30
0.0
 10
105.4185438104509
 20
-147.9151746592018
 30
0.0
 10
105.4419704597506
 20
-148.1435844898738
 30
0.0
 10
105.4419704597506
 20
-148.3172173023304
 30
0.0
 10
105.4419704597506
 20
-148.4884385479473
 30
0.0
 10
105.4206108677421
 20
-148.7189154359106
 30
0.0
 10
105.3193250604757
 20
-148.911496273536
 30
0.0
  0
SPLINE
  5
D3
330
CC
100
AcDbEntity
  8
_U+30EC_U+30A4_U+30E4_U+30FC 1
370
     0
100
AcDbSpline
210
0.0
220
0.0
230
1.0
 70
    11
 71
     3
 72
    17
 73
    13
 74
     0
 42
0.0000000001
 43
0.0000000001
 12
1.0
 22
0.0
 32
0.0
 13
1.0
 23
0.0
 33
0.0
 40
0.0
 40
0.0
 40
0.0
 40
0.0
 40
1.0
 40
1.0
 40
1.0
 40
2.0
 40
2.0
 40
2.0
 40
3.0
 40
3.0
 40
3.0
 40
4.0
 40
4.0
 40
4.0
 40
4.0
 10
104.9214165319294
 20
-147.6888318858209
 30
0.0
 10
104.6719916187973
 20
-147.6888318858209
 30
0.0
 10
104.6251383201979
 20
-147.9723632442569
 30
0.0
 10
104.6251383201979
 20
-148.3172173023304
 30
0.0
 10
104.6251383201979
 20
-148.6365776538131
 30
0.0
 10
104.661311822793
 20
-148.9452582092915
 30
0.0
 10
104.9214165319294
 20
-148.9452582092915
 30
0.0
 10
105.1691188973188
 20
-148.9452582092915
 30
0.0
 10
105.2176947436609
 20
-148.6641384176951
 30
0.0
 10
105.2176947436609
 20
-148.3172173023304
 30
0.0
 10
105.2176947436609
 20
-147.9975124412992
 30
0.0
 10
105.1794541837746
 20
-147.6888318858209
 30
0.0
 10
104.9214165319294
 20
-147.6888318858209
 30
0.0
  0
HATCH
  5
D4
330
CC
100
AcDbEntity
  8
_U+30EC_U+30A4_U+30E4_U+30FC 1
 62
     7
420
 16777215
100
AcDbHatch
 10
0.0
 20
0.0
 30
0.0
210
0.0
220
0.0
230
1.0
  2
SOLID
 70
     1
 71
     0
 91
        2
 92
        1
 93
        1
 72
     4
 94
        3
 73
     0
 74
     1
 95
       29
 96
       25
 40
0.0
 40
0.0
 40
0.0
 40
0.0
 40
1.0
 40
1.0
 40
1.0
 40
2.0
 40
2.0
 40
2.0
 40
3.0
 40
3.0
 40
3.0
 40
4.0
 40
4.0
 40
4.0
 40
5.0
 40
5.0
 40
5.0
 40
6.0
 40
6.0
 40
6.0
 40
7.0
 40
7.0
 40
7.0
 40
8.0
 40
8.0
 40
8.0
 40
8.0
 10
105.3193250604757
 20
-148.911496273536
 10
105.2111490622389
 20
-149.1209580790392
 10
105.0378607593308
 20
-149.1399061042081
 10
104.9214165319294
 20
-149.1399061042081
 10
104.7605305727682
 20
-149.1399061042081
 10
104.6189371483244
 20
-149.0933973151572
 10
104.5238525129315
 20
-148.911496273536
 10
104.4201551388255
 20
-148.7168483786194
 10
104.4012071136567
 20
-148.4801703187827
 10
104.4012071136567
 20
-148.3172173023304
 10
104.4012071136567
 20
-148.173212311047
 10
104.4180880815344
 20
-147.9213758310752
 10
104.5238525129315
 20
-147.7225938215763
 10
104.6316840016199
 20
-147.5196776974951
 10
104.792569960781
 20
-147.4962510481954
 10
104.9214165319294
 20
-147.4962510481954
 10
105.0802354337994
 20
-147.4962510481954
 10
105.2238959155343
 20
-147.5406927799551
 10
105.3193250604757
 20
-147.7225938215763
 10
105.4185438104509
 20
-147.9151746592018
 10
105.4419704597506
 20
-148.1435844898738
 10
105.4419704597506
 20
-148.3172173023304
 10
105.4419704597506
 20
-148.4884385479473
 10
105.4206108677421
 20
-148.7189154359106
 10
105.3193250604757
 20
-148.911496273536
 97
        0
 97
        0
 92
        1
 93
        1
 72
     4
 94
        3
 73
     0
 74
     1
 95
       17
 96
       13
 40
0.0
 40
0.0
 40
0.0
 40
0.0
 40
1.0
 40
1.0
 40
1.0
 40
2.0
 40
2.0
 40
2.0
 40
3.0
 40
3.0
 40
3.0
 40
4.0
 40
4.0
 40
4.0
 40
4.0
 10
104.9214165319294
 20
-147.6888318858209
 10
104.6719916187973
 20
-147.6888318858209
 10
104.6251383201979
 20
-147.9723632442569
 10
104.6251383201979
 20
-148.3172173023304
 10
104.6251383201979
 20
-148.6365776538131
 10
104.661311822793
 20
-148.9452582092915
 10
104.9214165319294
 20
-148.9452582092915
 10
105.1691188973188
 20
-148.9452582092915
 10
105.2176947436609
 20
-148.6641384176951
 10
105.2176947436609
 20
-148.3172173023304
 10
105.2176947436609
 20
-147.9975124412992
 10
105.1794541837746
 20
-147.6888318858209
 10
104.9214165319294
 20
-147.6888318858209
 97
        0
 97
        0
 75
     2
 76
     1
 98
        0
  0
ENDBLK
  5
CF
330
CC
100
AcDbEntity
  8
0
100
AcDbBlockEnd
  0
ENDSEC
  0
SECTION
  2
ENTITIES
  0
SPLINE
  5
41
330
1F
100
AcDbEntity
  8
_U+30EC_U+30A4_U+30E4_U+30FC 1
370
     0
100
AcDbSpline
210
0.0
220
0.0
230
1.0
 70
    11
 71
     3
 72
    35
 73
    31
 74
     0
 42
0.0000000001
 43
0.0000000001
 12
1.0
 22
0.0
 32
0.0
 13
1.0
 23
0.0
 33
0.0
 40
0.0
 40
0.0
 40
0.0
 40
0.0
 40
1.0
 40
1.0
 40
1.0
 40
2.0
 40
2.0
 40
2.0
 40
3.0
 40
3.0
 40
3.0
 40
4.0
 40
4.0
 40
4.0
 40
5.0
 40
5.0
 40
5.0
 40
6.0
 40
6.0
 40
6.0
 40
7.0
 40
7.0
 40
7.0
 40
8.0
 40
8.0
 40
8.0
 40
9.0
 40
9.0
 40
9.0
 40
10.0
 40
10.0
 40
10.0
 40
10.0
 10
74.33274720363916
 20
-105.8013010846608
 30
0.0
 10
74.33274720363916
 20
-105.8013010846608
 30
0.0
 10
75.53268362855626
 20
-105.8013010846608
 30
0.0
 10
75.53268362855626
 20
-105.8013010846608
 30
0.0
 10
75.53268362855626
 20
-105.8013010846608
 30
0.0
 10
75.53268362855626
 20
-125.8014374685496
 30
0.0
 10
75.53268362855626
 20
-125.8014374685496
 30
0.0
 10
75.53268362855626
 20
-136.1849574659535
 30
0.0
 10
83.94974952493013
 20
-144.6020235749608
 30
0.0
 10
94.3329164822557
 20
-144.6020235749608
 30
0.0
 10
94.3329164822557
 20
-144.6020235749608
 30
0.0
 10
114.3330876386755
 20
-144.6020235749608
 30
0.0
 10
114.3330876386755
 20
-144.6020235749608
 30
0.0
 10
114.3330876386755
 20
-144.6020235749608
 30
0.0
 10
114.3330876386755
 20
-144.6013532971828
 30
0.0
 10
114.3330876386755
 20
-144.6013532971828
 30
0.0
 10
114.3330876386755
 20
-144.6013532971828
 30
0.0
 10
114.3330876386755
 20
-145.801609130216
 30
0.0
 10
114.3330876386755
 20
-145.801609130216
 30
0.0
 10
114.3330876386755
 20
-145.801609130216
 30
0.0
 10
95.24378868123962
 20
-145.7809363524439
 30
0.0
 10
95.24378868123962
 20
-145.7809363524439
 30
0.0
 10
94.63676397450389
 20
-145.8084882968811
 30
0.0
 10
94.0287162122387
 20
-145.8084882968811
 30
0.0
 10
93.42169150550298
 20
-145.7809363524439
 30
0.0
 10
82.38740262034447
 20
-145.2779457970138
 30
0.0
 10
73.85042756036307
 20
-135.9252071882412
 30
0.0
 10
74.35377088085505
 20
-124.890565246555
 30
0.0
 10
74.35377088085505
 20
-124.890565246555
 30
0.0
 10
74.33274720363916
 20
-105.8013010846608
 30
0.0
 10
74.33274720363916
 20
-105.8013010846608
 30
0.0
  0
HATCH
  5
42
330
1F
100
AcDbEntity
  8
_U+30EC_U+30A4_U+30E4_U+30FC 1
 62
   253
420
 11711154
100
AcDbHatch
 10
0.0
 20
0.0
 30
0.0
210
0.0
220
0.0
230
1.0
  2
SOLID
 70
     1
 71
     0
 91
        1
 92
        1
 93
        1
 72
     4
 94
        3
 73
     0
 74
     1
 95
       35
 96
       31
 40
0.0
 40
0.0
 40
0.0
 40
0.0
 40
1.0
 40
1.0
 40
1.0
 40
2.0
 40
2.0
 40
2.0
 40
3.0
 40
3.0
 40
3.0
 40
4.0
 40
4.0
 40
4.0
 40
5.0
 40
5.0
 40
5.0
 40
6.0
 40
6.0
 40
6.0
 40
7.0
 40
7.0
 40
7.0
 40
8.0
 40
8.0
 40
8.0
 40
9.0
 40
9.0
 40
9.0
 40
10.0
 40
10.0
 40
10.0
 40
10.0
 10
74.33274720363916
 20
-105.8013010846608
 10
74.33274720363916
 20
-105.8013010846608
 10
75.53268362855626
 20
-105.8013010846608
 10
75.53268362855626
 20
-105.8013010846608
 10
75.53268362855626
 20
-105.8013010846608
 10
75.53268362855626
 20
-125.8014374685496
 10
75.53268362855626
 20
-125.8014374685496
 10
75.53268362855626
 20
-136.1849574659535
 10
83.94974952493013
 20
-144.6020235749608
 10
94.3329164822557
 20
-144.6020235749608
 10
94.3329164822557
 20
-144.6020235749608
 10
114.3330876386755
 20
-144.6020235749608
 10
114.3330876386755
 20
-144.6020235749608
 10
114.3330876386755
 20
-144.6020235749608
 10
114.3330876386755
 20
-144.6013532971828
 10
114.3330876386755
 20
-144.6013532971828
 10
114.3330876386755
 20
-144.6013532971828
 10
114.3330876386755
 20
-145.801609130216
 10
114.3330876386755
 20
-145.801609130216
 10
114.3330876386755
 20
-145.801609130216
 10
95.24378868123962
 20
-145.7809363524439
 10
95.24378868123962
 20
-145.7809363524439
 10
94.63676397450389
 20
-145.8084882968811
 10
94.0287162122387
 20
-145.8084882968811
 10
93.42169150550298
 20
-145.7809363524439
 10
82.38740262034447
 20
-145.2779457970138
 10
73.85042756036307
 20
-135.9252071882412
 10
74.35377088085505
 20
-124.890565246555
 10
74.35377088085505
 20
-124.890565246555
 10
74.33274720363916
 20
-105.8013010846608
 10
74.33274720363916
 20
-105.8013010846608
 97
        0
 97
        0
 75
     2
 76
     1
 98
        0
  0
POLYLINE
  5
43
330
1F
100
AcDbEntity
  8
_U+30EC_U+30A4_U+30E4_U+30FC 1
 62
     7
420
 16777215
370
     9
100
AcDb2dPolyline
 66
     1
 10
0.0
 20
0.0
 30
0.0
  0
VERTEX
  5
44
330
43
100
AcDbEntity
  8
_U+30EC_U+30A4_U+30E4_U+30FC 1
 62
     7
420
 16777215
370
     9
100
AcDbVertex
100
AcDb2dVertex
 10
79.69055768914671
 20
-140.8096624647978
 30
0.0
  0
VERTEX
  5
45
330
43
100
AcDbEntity
  8
_U+30EC_U+30A4_U+30E4_U+30FC 1
 62
     7
420
 16777215
370
     9
100
AcDbVertex
100
AcDb2dVertex
 10
80.19079656527344
 20
-139.9435577427917
 30
0.0
  0
SEQEND
  5
46
330
43
100
AcDbEntity
  8
_U+30EC_U+30A4_U+30E4_U+30FC 1
 62
     7
420
 16777215
370
     9
  0
POLYLINE
  5
47
330
1F
100
AcDbEntity
  8
_U+30EC_U+30A4_U+30E4_U+30FC 1
 62
     7
420
 16777215
370
     9
100
AcDb2dPolyline
 66
     1
 10
0.0
 20
0.0
 30
0.0
  0
VERTEX
  5
48
330
47
100
AcDbEntity
  8
_U+30EC_U+30A4_U+30E4_U+30FC 1
 62
     7
420
 16777215
370
     9
100
AcDbVertex
100
AcDb2dVertex
 10
79.3246918651474
 20
-140.4437966315554
 30
0.0
  0
VERTEX
  5
49
330
47
100
AcDbEntity
  8
_U+30EC_U+30A4_U+30E4_U+30FC 1
 62
     7
420
 16777215
370
     9
100
AcDbVertex
100
AcDb2dVertex
 10
80.19079656527344
 20
-139.9435577427917
 30
0.0
  0
SEQEND
  5
4A
330
47
100
AcDbEntity
  8
_U+30EC_U+30A4_U+30E4_U+30FC 1
 62
     7
420
 16777215
370
     9
  0
POLYLINE
  5
4B
330
1F
100
AcDbEntity
  8
_U+30EC_U+30A4_U+30E4_U+30FC 1
 62
     7
420
 16777215
370
     9
100
AcDb2dPolyline
 66
     1
 10
0.0
 20
0.0
 30
0.0
  0
VERTEX
  5
4C
330
4B
100
AcDbEntity
  8
_U+30EC_U+30A4_U+30E4_U+30FC 1
 62
     7
420
 16777215
370
     9
100
AcDbVertex
100
AcDb2dVertex
 10
70.3326687612197
 20
-149.8020385736609
 30
0.0
  0
VERTEX
  5
4D
330
4B
100
AcDbEntity
  8
_U+30EC_U+30A4_U+30E4_U+30FC 1
 62
     7
420
 16777215
370
     9
100
AcDbVertex
100
AcDb2dVertex
 10
80.19079656527344
 20
-139.9435577427917
 30
0.0
  0
SEQEND
  5
4E
330
4B
100
AcDbEntity
  8
_U+30EC_U+30A4_U+30E4_U+30FC 1
 62
     7
420
 16777215
370
     9
  0
POLYLINE
  5
4F
330
1F
100
AcDbEntity
  8
_U+30EC_U+30A4_U+30E4_U+30FC 1
 62
     7
420
 16777215
370
     9
100
AcDb2dPolyline
 66
     1
 10
0.0
 20
0.0
 30
0.0
  0
VERTEX
  5
50
330
4F
100
AcDbEntity
  8
_U+30EC_U+30A4_U+30E4_U+30FC 1
 62
     7
420
 16777215
370
     9
100
AcDbVertex
100
AcDb2dVertex
 10
65.16708500411582
 20
-149.8020385736609
 30
0.0
  0
VERTEX
  5
51
330
4F
100
AcDbEntity
  8
_U+30EC_U+30A4_U+30E4_U+30FC 1
 62
     7
420
 16777215
370
     9
100
AcDbVertex
100
AcDb2dVertex
 10
70.3326687612197
 20
-149.8020385736609
 30
0.0
  0
SEQEND
  5
52
330
4F
100
AcDbEntity
  8
_U+30EC_U+30A4_U+30E4_U+30FC 1
 62
     7
420
 16777215
370
     9
  0
SPLINE
  5
53
330
1F
100
AcDbEntity
  8
_U+30EC_U+30A4_U+30E4_U+30FC 1
 62
     7
420
 16777215
370
     9
100
AcDbSpline
210
0.0
220
0.0
230
1.0
 70
    11
 71
     3
 72
    17
 73
    13
 74
     0
 42
0.0000000001
 43
0.0000000001
 12
1.0
 22
0.0
 32
0.0
 13
1.0
 23
0.0
 33
0.0
 40
0.0
 40
0.0
 40
0.0
 40
0.0
 40
1.0
 40
1.0
 40
1.0
 40
2.0
 40
2.0
 40
2.0
 40
3.0
 40
3.0
 40
3.0
 40
4.0
 40
4.0
 40
4.0
 40
4.0
 10
116.7163836889836
 20
-144.6020235749608
 30
0.0
 10
116.7163836889836
 20
-144.5462141305304
 30
0.0
 10
116.6716161901258
 20
-144.5014466305412
 30
0.0
 10
116.6164770248658
 20
-144.5014466305412
 30
0.0
 10
116.5606675818452
 20
-144.5014466305412
 30
0.0
 10
116.5159000829873
 20
-144.5462141305304
 30
0.0
 10
116.5159000829873
 20
-144.6020235749608
 30
0.0
 10
116.5159000829873
 20
-144.6571627416132
 30
0.0
 10
116.5606675818452
 20
-144.7019302416024
 30
0.0
 10
116.6164770248658
 20
-144.7019302416024
 30
0.0
 10
116.6716161901258
 20
-144.7019302416024
 30
0.0
 10
116.7163836889836
 20
-144.6571627416132
 30
0.0
 10
116.7163836889836
 20
-144.6020235749608
 30
0.0
  0
SPLINE
  5
54
330
1F
100
AcDbEntity
  8
_U+30EC_U+30A4_U+30E4_U+30FC 1
 62
     7
420
 16777215
370
     9
100
AcDbSpline
210
0.0
220
0.0
230
1.0
 70
    11
 71
     3
 72
    17
 73
    13
 74
     0
 42
0.0000000001
 43
0.0000000001
 12
1.0
 22
0.0
 32
0.0
 13
1.0
 23
0.0
 33
0.0
 40
0.0
 40
0.0
 40
0.0
 40
0.0
 40
1.0
 40
1.0
 40
1.0
 40
2.0
 40
2.0
 40
2.0
 40
3.0
 40
3.0
 40
3.0
 40
4.0
 40
4.0
 40
4.0
 40
4.0
 10
116.7163836889836
 20
-145.801609130216
 30
0.0
 10
116.7163836889836
 20
-145.7464699635635
 30
0.0
 10
116.6716161901258
 20
-145.7017024635743
 30
0.0
 10
116.6164770248658
 20
-145.7017024635743
 30
0.0
 10
116.5606675818452
 20
-145.7017024635743
 30
0.0
 10
116.5159000829873
 20
-145.7464699635635
 30
0.0
 10
116.5159000829873
 20
-145.801609130216
 30
0.0
 10
116.5159000829873
 20
-145.8567130190915
 30
0.0
 10
116.5606675818452
 20
-145.9015157968583
 30
0.0
 10
116.6164770248658
 20
-145.9015157968583
 30
0.0
 10
116.6716161901258
 20
-145.9015157968583
 30
0.0
 10
116.7163836889836
 20
-145.8567130190915
 30
0.0
 10
116.7163836889836
 20
-145.801609130216
 30
0.0
  0
SPLINE
  5
55
330
1F
100
AcDbEntity
  8
_U+30EC_U+30A4_U+30E4_U+30FC 1
 62
     7
420
 16777215
370
     9
100
AcDbSpline
210
0.0
220
0.0
230
1.0
 70
    11
 71
     3
 72
    17
 73
    13
 74
     0
 42
0.0000000001
 43
0.0000000001
 12
1.0
 22
0.0
 32
0.0
 13
1.0
 23
0.0
 33
0.0
 40
0.0
 40
0.0
 40
0.0
 40
0.0
 40
1.0
 40
1.0
 40
1.0
 40
2.0
 40
2.0
 40
2.0
 40
3.0
 40
3.0
 40
3.0
 40
4.0
 40
4.0
 40
4.0
 40
4.0
 10
114.4329971936141
 20
-149.8020385736609
 30
0.0
 10
114.4329971936141
 20
-149.7462291292304
 30
0.0
 10
114.3881944158474
 20
-149.7014616292412
 30
0.0
 10
114.3330876386755
 20
-149.7014616292412
 30
0.0
 10
114.2779484734155
 20
-149.7014616292412
 30
0.0
 10
114.2331456967808
 20
-149.7462291292304
 30
0.0
 10
114.2331456967808
 20
-149.8020385736609
 30
0.0
 10
114.2331456967808
 20
-149.8571777403133
 30
0.0
 10
114.2779484734155
 20
-149.9019452403025
 30
0.0
 10
114.3330876386755
 20
-149.9019452403025
 30
0.0
 10
114.3881944158474
 20
-149.9019452403025
 30
0.0
 10
114.4329971936141
 20
-149.8571777403133
 30
0.0
 10
114.4329971936141
 20
-149.8020385736609
 30
0.0
  0
SPLINE
  5
56
330
1F
100
AcDbEntity
  8
_U+30EC_U+30A4_U+30E4_U+30FC 1
 62
     7
420
 16777215
370
     9
100
AcDbSpline
210
0.0
220
0.0
230
1.0
 70
    11
 71
     3
 72
    17
 73
    13
 74
     0
 42
0.0000000001
 43
0.0000000001
 12
1.0
 22
0.0
 32
0.0
 13
1.0
 23
0.0
 33
0.0
 40
0.0
 40
0.0
 40
0.0
 40
0.0
 40
1.0
 40
1.0
 40
1.0
 40
2.0
 40
2.0
 40
2.0
 40
3.0
 40
3.0
 40
3.0
 40
4.0
 40
4.0
 40
4.0
 40
4.0
 10
74.43300476772251
 20
-149.8020385736609
 30
0.0
 10
74.43300476772251
 20
-149.7462291292304
 30
0.0
 10
74.38823726886463
 20
-149.7014616292412
 30
0.0
 10
74.33274720363916
 20
-149.7014616292412
 30
0.0
 10
74.27764143835283
 20
-149.7014616292412
 30
0.0
 10
74.23283866171806
 20
-149.7462291292304
 30
0.0
 10
74.23283866171806
 20
-149.8020385736609
 30
0.0
 10
74.23283866171806
 20
-149.8571777403133
 30
0.0
 10
74.27764143835283
 20
-149.9019452403025
 30
0.0
 10
74.33274720363916
 20
-149.9019452403025
 30
0.0
 10
74.38823726886463
 20
-149.9019452403025
 30
0.0
 10
74.43300476772251
 20
-149.8571777403133
 30
0.0
 10
74.43300476772251
 20
-149.8020385736609
 30
0.0
  0
SPLINE
  5
57
330
1F
100
AcDbEntity
  8
_U+30EC_U+30A4_U+30E4_U+30FC 1
 62
     7
420
 16777215
370
     9
100
AcDbSpline
210
0.0
220
0.0
230
1.0
 70
    11
 71
     3
 72
    17
 73
    13
 74
     0
 42
0.0000000001
 43
0.0000000001
 12
1.0
 22
0.0
 32
0.0
 13
1.0
 23
0.0
 33
0.0
 40
0.0
 40
0.0
 40
0.0
 40
0.0
 40
1.0
 40
1.0
 40
1.0
 40
2.0
 40
2.0
 40
2.0
 40
3.0
 40
3.0
 40
3.0
 40
4.0
 40
4.0
 40
4.0
 40
4.0
 10
70.43257542533752
 20
-105.8013010846608
 30
0.0
 10
70.43257542533752
 20
-105.7461619180081
 30
0.0
 10
70.38812542647153
 20
-105.7013944180192
 30
0.0
 10
70.3326687612197
 20
-105.7013944180192
 30
0.0
 10
70.27752959595973
 20
-105.7013944180192
 30
0.0
 10
70.23276387133072
 20
-105.7461619180081
 30
0.0
 10
70.23276387133072
 20
-105.8013010846608
 30
0.0
 10
70.23276387133072
 20
-105.8571105290912
 30
0.0
 10
70.27752959595973
 20
-105.9018780290801
 30
0.0
 10
70.3326687612197
 20
-105.9018780290801
 30
0.0
 10
70.38812542647153
 20
-105.9018780290801
 30
0.0
 10
70.43257542533752
 20
-105.8571105290912
 30
0.0
 10
70.43257542533752
 20
-105.8013010846608
 30
0.0
  0
SPLINE
  5
58
330
1F
100
AcDbEntity
  8
_U+30EC_U+30A4_U+30E4_U+30FC 1
 62
     7
420
 16777215
370
     9
100
AcDbSpline
210
0.0
220
0.0
230
1.0
 70
    11
 71
     3
 72
    17
 73
    13
 74
     0
 42
0.0000000001
 43
0.0000000001
 12
1.0
 22
0.0
 32
0.0
 13
1.0
 23
0.0
 33
0.0
 40
0.0
 40
0.0
 40
0.0
 40
0.0
 40
1.0
 40
1.0
 40
1.0
 40
2.0
 40
2.0
 40
2.0
 40
3.0
 40
3.0
 40
3.0
 40
4.0
 40
4.0
 40
4.0
 40
4.0
 10
70.43257542533752
 20
-145.801609130216
 30
0.0
 10
70.43257542533752
 20
-145.7464699635635
 30
0.0
 10
70.38812542647153
 20
-145.7017024635743
 30
0.0
 10
70.3326687612197
 20
-145.7017024635743
 30
0.0
 10
70.27752959595973
 20
-145.7017024635743
 30
0.0
 10
70.23276387133072
 20
-145.7464699635635
 30
0.0
 10
70.23276387133072
 20
-145.801609130216
 30
0.0
 10
70.23276387133072
 20
-145.8567130190915
 30
0.0
 10
70.27752959595973
 20
-145.9015157968583
 30
0.0
 10
70.3326687612197
 20
-145.9015157968583
 30
0.0
 10
70.38812542647153
 20
-145.9015157968583
 30
0.0
 10
70.43257542533752
 20
-145.8567130190915
 30
0.0
 10
70.43257542533752
 20
-145.801609130216
 30
0.0
  0
SPLINE
  5
59
330
1F
100
AcDbEntity
  8
_U+30EC_U+30A4_U+30E4_U+30FC 1
 62
     7
420
 16777215
370
    25
100
AcDbSpline
210
0.0
220
0.0
230
1.0
 70
    11
 71
     3
 72
    35
 73
    31
 74
     0
 42
0.0000000001
 43
0.0000000001
 12
1.0
 22
0.0
 32
0.0
 13
1.0
 23
0.0
 33
0.0
 40
0.0
 40
0.0
 40
0.0
 40
0.0
 40
1.0
 40
1.0
 40
1.0
 40
2.0
 40
2.0
 40
2.0
 40
3.0
 40
3.0
 40
3.0
 40
4.0
 40
4.0
 40
4.0
 40
5.0
 40
5.0
 40
5.0
 40
6.0
 40
6.0
 40
6.0
 40
7.0
 40
7.0
 40
7.0
 40
8.0
 40
8.0
 40
8.0
 40
9.0
 40
9.0
 40
9.0
 40
10.0
 40
10.0
 40
10.0
 40
10.0
 10
74.33274720363916
 20
-105.8013010846608
 30
0.0
 10
74.33274720363916
 20
-105.8013010846608
 30
0.0
 10
75.53268362855626
 20
-105.8013010846608
 30
0.0
 10
75.53268362855626
 20
-105.8013010846608
 30
0.0
 10
75.53268362855626
 20
-105.8013010846608
 30
0.0
 10
75.53268362855626
 20
-125.8014374685496
 30
0.0
 10
75.53268362855626
 20
-125.8014374685496
 30
0.0
 10
75.53268362855626
 20
-136.1849574659535
 30
0.0
 10
83.94974952493013
 20
-144.6020235749608
 30
0.0
 10
94.3329164822557
 20
-144.6020235749608
 30
0.0
 10
94.3329164822557
 20
-144.6020235749608
 30
0.0
 10
114.3330876386755
 20
-144.6020235749608
 30
0.0
 10
114.3330876386755
 20
-144.6020235749608
 30
0.0
 10
114.3330876386755
 20
-144.6020235749608
 30
0.0
 10
114.3330876386755
 20
-144.6013532971828
 30
0.0
 10
114.3330876386755
 20
-144.6013532971828
 30
0.0
 10
114.3330876386755
 20
-144.6013532971828
 30
0.0
 10
114.3330876386755
 20
-145.801609130216
 30
0.0
 10
114.3330876386755
 20
-145.801609130216
 30
0.0
 10
114.3330876386755
 20
-145.801609130216
 30
0.0
 10
95.24378868123962
 20
-145.7809363524439
 30
0.0
 10
95.24378868123962
 20
-145.7809363524439
 30
0.0
 10
94.63676397450389
 20
-145.8084882968811
 30
0.0
 10
94.0287162122387
 20
-145.8084882968811
 30
0.0
 10
93.42169150550298
 20
-145.7809363524439
 30
0.0
 10
82.38740262034447
 20
-145.2779457970138
 30
0.0
 10
73.85042756036307
 20
-135.9252071882412
 30
0.0
 10
74.35377088085505
 20
-124.890565246555
 30
0.0
 10
74.35377088085505
 20
-124.890565246555
 30
0.0
 10
74.33274720363916
 20
-105.8013010846608
 30
0.0
 10
74.33274720363916
 20
-105.8013010846608
 30
0.0
  0
INSERT
  5
5B
330
1F
100
AcDbEntity
  8
_U+30EC_U+30A4_U+30E4_U+30FC 1
100
AcDbBlockReference
  2
block 2
 10
0.0
 20
0.0
 30
0.0
  0
POLYLINE
  5
66
330
1F
100
AcDbEntity
  8
_U+30EC_U+30A4_U+30E4_U+30FC 1
 62
     7
420
 16777215
370
     9
100
AcDb2dPolyline
 66
     1
 10
0.0
 20
0.0
 30
0.0
  0
VERTEX
  5
67
330
66
100
AcDbEntity
  8
_U+30EC_U+30A4_U+30E4_U+30FC 1
 62
     7
420
 16777215
370
     9
100
AcDbVertex
100
AcDb2dVertex
 10
116.6164770248658
 20
-144.6020235749608
 30
0.0
  0
VERTEX
  5
68
330
66
100
AcDbEntity
  8
_U+30EC_U+30A4_U+30E4_U+30FC 1
 62
     7
420
 16777215
370
     9
100
AcDbVertex
100
AcDb2dVertex
 10
116.6164770248658
 20
-139.3441177429419
 30
0.0
  0
SEQEND
  5
69
330
66
100
AcDbEntity
  8
_U+30EC_U+30A4_U+30E4_U+30FC 1
 62
     7
420
 16777215
370
     9
  0
POLYLINE
  5
6A
330
1F
100
AcDbEntity
  8
_U+30EC_U+30A4_U+30E4_U+30FC 1
 62
     7
420
 16777215
370
     9
100
AcDb2dPolyline
 66
     1
 10
0.0
 20
0.0
 30
0.0
  0
VERTEX
  5
6B
330
6A
100
AcDbEntity
  8
_U+30EC_U+30A4_U+30E4_U+30FC 1
 62
     7
420
 16777215
370
     9
100
AcDbVertex
100
AcDb2dVertex
 10
116.6164770248658
 20
-144.6020235749608
 30
0.0
  0
VERTEX
  5
6C
330
6A
100
AcDbEntity
  8
_U+30EC_U+30A4_U+30E4_U+30FC 1
 62
     7
420
 16777215
370
     9
100
AcDbVertex
100
AcDb2dVertex
 10
116.6164770248658
 20
-146.8020516299659
 30
0.0
  0
SEQEND
  5
6D
330
6A
100
AcDbEntity
  8
_U+30EC_U+30A4_U+30E4_U+30FC 1
 62
     7
420
 16777215
370
     9
  0
POLYLINE
  5
6E
330
1F
100
AcDbEntity
  8
_U+30EC_U+30A4_U+30E4_U+30FC 1
 62
     7
420
 16777215
370
     9
100
AcDb2dPolyline
 66
     1
 10
0.0
 20
0.0
 30
0.0
  0
VERTEX
  5
6F
330
6E
100
AcDbEntity
  8
_U+30EC_U+30A4_U+30E4_U+30FC 1
 62
     7
420
 16777215
370
     9
100
AcDbVertex
100
AcDb2dVertex
 10
115.1564356732257
 20
-144.6020235749608
 30
0.0
  0
VERTEX
  5
70
330
6E
100
AcDbEntity
  8
_U+30EC_U+30A4_U+30E4_U+30FC 1
 62
     7
420
 16777215
370
     9
100
AcDbVertex
100
AcDb2dVertex
 10
117.6162492215817
 20
-144.6020235749608
 30
0.0
  0
SEQEND
  5
71
330
6E
100
AcDbEntity
  8
_U+30EC_U+30A4_U+30E4_U+30FC 1
 62
     7
420
 16777215
370
     9
  0
POLYLINE
  5
72
330
1F
100
AcDbEntity
  8
_U+30EC_U+30A4_U+30E4_U+30FC 1
 62
     7
420
 16777215
370
     9
100
AcDb2dPolyline
 66
     1
 10
0.0
 20
0.0
 30
0.0
  0
VERTEX
  5
73
330
72
100
AcDbEntity
  8
_U+30EC_U+30A4_U+30E4_U+30FC 1
 62
     7
420
 16777215
370
     9
100
AcDbVertex
100
AcDb2dVertex
 10
115.1564356732257
 20
-145.801609130216
 30
0.0
  0
VERTEX
  5
74
330
72
100
AcDbEntity
  8
_U+30EC_U+30A4_U+30E4_U+30FC 1
 62
     7
420
 16777215
370
     9
100
AcDbVertex
100
AcDb2dVertex
 10
117.6162492215817
 20
-145.801609130216
 30
0.0
  0
SEQEND
  5
75
330
72
100
AcDbEntity
  8
_U+30EC_U+30A4_U+30E4_U+30FC 1
 62
     7
420
 16777215
370
     9
  0
INSERT
  5
77
330
1F
100
AcDbEntity
  8
_U+30EC_U+30A4_U+30E4_U+30FC 1
100
AcDbBlockReference
  2
block 3
 10
0.0
 20
0.0
 30
0.0
  0
POLYLINE
  5
86
330
1F
100
AcDbEntity
  8
_U+30EC_U+30A4_U+30E4_U+30FC 1
 62
     7
420
 16777215
370
     9
100
AcDb2dPolyline
 66
     1
 10
0.0
 20
0.0
 30
0.0
  0
VERTEX
  5
87
330
86
100
AcDbEntity
  8
_U+30EC_U+30A4_U+30E4_U+30FC 1
 62
     7
420
 16777215
370
     9
100
AcDbVertex
100
AcDb2dVertex
 10
70.3326687612197
 20
-105.8013010846608
 30
0.0
  0
VERTEX
  5
88
330
86
100
AcDbEntity
  8
_U+30EC_U+30A4_U+30E4_U+30FC 1
 62
     7
420
 16777215
370
     9
100
AcDbVertex
100
AcDb2dVertex
 10
70.3326687612197
 20
-145.801609130216
 30
0.0
  0
SEQEND
  5
89
330
86
100
AcDbEntity
  8
_U+30EC_U+30A4_U+30E4_U+30FC 1
 62
     7
420
 16777215
370
     9
  0
POLYLINE
  5
8A
330
1F
100
AcDbEntity
  8
_U+30EC_U+30A4_U+30E4_U+30FC 1
 62
     7
420
 16777215
370
     9
100
AcDb2dPolyline
 66
     1
 10
0.0
 20
0.0
 30
0.0
  0
VERTEX
  5
8B
330
8A
100
AcDbEntity
  8
_U+30EC_U+30A4_U+30E4_U+30FC 1
 62
     7
420
 16777215
370
     9
100
AcDbVertex
100
AcDb2dVertex
 10
72.59263370356318
 20
-105.8013010846608
 30
0.0
  0
VERTEX
  5
8C
330
8A
100
AcDbEntity
  8
_U+30EC_U+30A4_U+30E4_U+30FC 1
 62
     7
420
 16777215
370
     9
100
AcDbVertex
100
AcDb2dVertex
 10
69.33289656450378
 20
-105.8013010846608
 30
0.0
  0
SEQEND
  5
8D
330
8A
100
AcDbEntity
  8
_U+30EC_U+30A4_U+30E4_U+30FC 1
 62
     7
420
 16777215
370
     9
  0
POLYLINE
  5
8E
330
1F
100
AcDbEntity
  8
_U+30EC_U+30A4_U+30E4_U+30FC 1
 62
     7
420
 16777215
370
     9
100
AcDb2dPolyline
 66
     1
 10
0.0
 20
0.0
 30
0.0
  0
VERTEX
  5
8F
330
8E
100
AcDbEntity
  8
_U+30EC_U+30A4_U+30E4_U+30FC 1
 62
     7
420
 16777215
370
     9
100
AcDbVertex
100
AcDb2dVertex
 10
91.79284599150273
 20
-145.801609130216
 30
0.0
  0
VERTEX
  5
90
330
8E
100
AcDbEntity
  8
_U+30EC_U+30A4_U+30E4_U+30FC 1
 62
     7
420
 16777215
370
     9
100
AcDbVertex
100
AcDb2dVertex
 10
69.33289656450378
 20
-145.801609130216
 30
0.0
  0
SEQEND
  5
91
330
8E
100
AcDbEntity
  8
_U+30EC_U+30A4_U+30E4_U+30FC 1
 62
     7
420
 16777215
370
     9
  0
INSERT
  5
93
330
1F
100
AcDbEntity
  8
_U+30EC_U+30A4_U+30E4_U+30FC 1
100
AcDbBlockReference
  2
block 4
 10
0.0
 20
0.0
 30
0.0
  0
POLYLINE
  5
AE
330
1F
100
AcDbEntity
  8
_U+30EC_U+30A4_U+30E4_U+30FC 1
 62
     7
420
 16777215
370
     9
100
AcDb2dPolyline
 66
     1
 10
0.0
 20
0.0
 30
0.0
  0
VERTEX
  5
AF
330
AE
100
AcDbEntity
  8
_U+30EC_U+30A4_U+30E4_U+30FC 1
 62
     7
420
 16777215
370
     9
100
AcDbVertex
100
AcDb2dVertex
 10
114.3330876386755
 20
-149.8020385736609
 30
0.0
  0
VERTEX
  5
B0
330
AE
100
AcDbEntity
  8
_U+30EC_U+30A4_U+30E4_U+30FC 1
 62
     7
420
 16777215
370
     9
100
AcDbVertex
100
AcDb2dVertex
 10
94.3329164822557
 20
-149.8020385736609
 30
0.0
  0
SEQEND
  5
B1
330
AE
100
AcDbEntity
  8
_U+30EC_U+30A4_U+30E4_U+30FC 1
 62
     7
420
 16777215
370
     9
  0
POLYLINE
  5
B2
330
1F
100
AcDbEntity
  8
_U+30EC_U+30A4_U+30E4_U+30FC 1
 62
     7
420
 16777215
370
     9
100
AcDb2dPolyline
 66
     1
 10
0.0
 20
0.0
 30
0.0
  0
VERTEX
  5
B3
330
B2
100
AcDbEntity
  8
_U+30EC_U+30A4_U+30E4_U+30FC 1
 62
     7
420
 16777215
370
     9
100
AcDbVertex
100
AcDb2dVertex
 10
94.3329164822557
 20
-149.8020385736609
 30
0.0
  0
VERTEX
  5
B4
330
B2
100
AcDbEntity
  8
_U+30EC_U+30A4_U+30E4_U+30FC 1
 62
     7
420
 16777215
370
     9
100
AcDbVertex
100
AcDb2dVertex
 10
74.33274720363916
 20
-149.8020385736609
 30
0.0
  0
SEQEND
  5
B5
330
B2
100
AcDbEntity
  8
_U+30EC_U+30A4_U+30E4_U+30FC 1
 62
     7
420
 16777215
370
     9
  0
POLYLINE
  5
B6
330
1F
100
AcDbEntity
  8
_U+30EC_U+30A4_U+30E4_U+30FC 1
 62
     7
420
 16777215
370
     9
100
AcDb2dPolyline
 66
     1
 10
0.0
 20
0.0
 30
0.0
  0
VERTEX
  5
B7
330
B6
100
AcDbEntity
  8
_U+30EC_U+30A4_U+30E4_U+30FC 1
 62
     7
420
 16777215
370
     9
100
AcDbVertex
100
AcDb2dVertex
 10
114.3330876386755
 20
-147.5420735742254
 30
0.0
  0
VERTEX
  5
B8
330
B6
100
AcDbEntity
  8
_U+30EC_U+30A4_U+30E4_U+30FC 1
 62
     7
420
 16777215
370
     9
100
AcDbVertex
100
AcDb2dVertex
 10
114.3330876386755
 20
-150.8018107956328
 30
0.0
  0
SEQEND
  5
B9
330
B6
100
AcDbEntity
  8
_U+30EC_U+30A4_U+30E4_U+30FC 1
 62
     7
420
 16777215
370
     9
  0
SPLINE
  5
BA
330
1F
100
AcDbEntity
  8
_U+30EC_U+30A4_U+30E4_U+30FC 1
 62
     7
420
 16777215
370
     9
100
AcDbSpline
210
0.0
220
0.0
230
1.0
 70
    11
 71
     3
 72
    17
 73
    13
 74
     0
 42
0.0000000001
 43
0.0000000001
 12
1.0
 22
0.0
 32
0.0
 13
1.0
 23
0.0
 33
0.0
 40
0.0
 40
0.0
 40
0.0
 40
0.0
 40
1.0
 40
1.0
 40
1.0
 40
2.0
 40
2.0
 40
2.0
 40
3.0
 40
3.0
 40
3.0
 40
4.0
 40
4.0
 40
4.0
 40
4.0
 10
94.43282314637352
 20
-149.8020385736609
 30
0.0
 10
94.43282314637352
 20
-149.7462291292304
 30
0.0
 10
94.38802036973877
 20
-149.7014616292412
 30
0.0
 10
94.3329164822557
 20
-149.7014616292412
 30
0.0
 10
94.27777731699574
 20
-149.7014616292412
 30
0.0
 10
94.23300981813786
 20
-149.7462291292304
 30
0.0
 10
94.23300981813786
 20
-149.8020385736609
 30
0.0
 10
94.23300981813786
 20
-149.8571777403133
 30
0.0
 10
94.27777731699574
 20
-149.9019452403025
 30
0.0
 10
94.3329164822557
 20
-149.9019452403025
 30
0.0
 10
94.38802036973877
 20
-149.9019452403025
 30
0.0
 10
94.43282314637352
 20
-149.8571777403133
 30
0.0
 10
94.43282314637352
 20
-149.8020385736609
 30
0.0
  0
POLYLINE
  5
BB
330
1F
100
AcDbEntity
  8
_U+30EC_U+30A4_U+30E4_U+30FC 1
 62
     7
420
 16777215
370
     9
100
AcDb2dPolyline
 66
     1
 10
0.0
 20
0.0
 30
0.0
  0
VERTEX
  5
BC
330
BB
100
AcDbEntity
  8
_U+30EC_U+30A4_U+30E4_U+30FC 1
 62
     7
420
 16777215
370
     9
100
AcDbVertex
100
AcDb2dVertex
 10
94.3329164822557
 20
-147.5420735742254
 30
0.0
  0
VERTEX
  5
BD
330
BB
100
AcDbEntity
  8
_U+30EC_U+30A4_U+30E4_U+30FC 1
 62
     7
420
 16777215
370
     9
100
AcDbVertex
100
AcDb2dVertex
 10
94.3329164822557
 20
-150.8018107956328
 30
0.0
  0
SEQEND
  5
BE
330
BB
100
AcDbEntity
  8
_U+30EC_U+30A4_U+30E4_U+30FC 1
 62
     7
420
 16777215
370
     9
  0
POLYLINE
  5
BF
330
1F
100
AcDbEntity
  8
_U+30EC_U+30A4_U+30E4_U+30FC 1
 62
     7
420
 16777215
370
     9
100
AcDb2dPolyline
 66
     1
 10
0.0
 20
0.0
 30
0.0
  0
VERTEX
  5
C0
330
BF
100
AcDbEntity
  8
_U+30EC_U+30A4_U+30E4_U+30FC 1
 62
     7
420
 16777215
370
     9
100
AcDbVertex
100
AcDb2dVertex
 10
74.33274720363916
 20
-128.3411905234703
 30
0.0
  0
VERTEX
  5
C1
330
BF
100
AcDbEntity
  8
_U+30EC_U+30A4_U+30E4_U+30FC 1
 62
     7
420
 16777215
370
     9
100
AcDbVertex
100
AcDb2dVertex
 10
74.33274720363916
 20
-150.8018107956328
 30
0.0
  0
SEQEND
  5
C2
330
BF
100
AcDbEntity
  8
_U+30EC_U+30A4_U+30E4_U+30FC 1
 62
     7
420
 16777215
370
     9
  0
INSERT
  5
C4
330
1F
100
AcDbEntity
  8
_U+30EC_U+30A4_U+30E4_U+30FC 1
100
AcDbBlockReference
  2
block 5
 10
0.0
 20
0.0
 30
0.0
  0
INSERT
  5
CD
330
1F
100
AcDbEntity
  8
_U+30EC_U+30A4_U+30E4_U+30FC 1
100
AcDbBlockReference
  2
block 6
 10
0.0
 20
0.0
 30
0.0
  0
ENDSEC
  0
SECTION
  2
OBJECTS
  0
DICTIONARY
  5
C
330
0
100
AcDbDictionary
281
     1
  3
ACAD_GROUP
350
D
  3
ACAD_LAYOUT
350
1A
  3
ACAD_MATERIAL
350
3B
  3
ACAD_MLEADERSTYLE
350
D6
  3
ACAD_MLINESTYLE
350
17
  3
ACAD_PLOTSETTINGS
350
19
  3
ACAD_PLOTSTYLENAME
350
E
  3
ACAD_TABLESTYLE
350
D5
  3
ACAD_VISUALSTYLE
350
2A
  0
SUN
  5
3F
330
29
100
AcDbSun
 90
        1
290
     0
 63
     7
421
 16777215
 40
1.0
291
     1
 91
  2455826
 92
 54000000
292
     0
 70
     2
 71
   256
280
     1
  0
DICTIONARY
  5
D
102
{ACAD_REACTORS
330
C
102
}
330
C
100
AcDbDictionary
281
     1
  0
DICTIONARY
  5
1A
102
{ACAD_REACTORS
330
C
102
}
330
C
100
AcDbDictionary
281
     1
  3
Layout1
350
1E
  3
Layout2
350
26
  3
Model
350
22
  0
DICTIONARY
  5
3B
102
{ACAD_REACTORS
330
C
102
}
330
C
100
AcDbDictionary
281
     1
  3
ByBlock
350
3D
  3
ByLayer
350
3C
  3
Global
350
3E
  0
DICTIONARY
  5
D6
102
{ACAD_REACTORS
330
C
102
}
330
C
100
AcDbDictionary
281
     1
  0
DICTIONARY
  5
17
102
{ACAD_REACTORS
330
C
102
}
330
C
100
AcDbDictionary
281
     1
  3
Standard
350
18
  0
DICTIONARY
  5
19
102
{ACAD_REACTORS
330
C
102
}
330
C
100
AcDbDictionary
281
     1
  0
ACDBDICTIONARYWDFLT
  5
E
102
{ACAD_REACTORS
330
C
102
}
330
C
100
AcDbDictionary
281
     1
  3
Normal
350
F
100
AcDbDictionaryWithDefault
340
F
  0
DICTIONARY
  5
D5
102
{ACAD_REACTORS
330
C
102
}
330
C
100
AcDbDictionary
281
     1
  0
DICTIONARY
  5
2A
102
{ACAD_REACTORS
330
C
102
}
330
C
100
AcDbDictionary
281
     1
  3
2dWireframe
350
2F
  3
3D Hidden
350
31
  3
3dWireframe
350
30
  3
Basic
350
32
  3
Brighten
350
36
  3
ColorChange
350
3A
  3
Conceptual
350
34
  3
Dim
350
35
  3
Facepattern
350
39
  3
Flat
350
2B
  3
FlatWithEdges
350
2C
  3
Gouraud
350
2D
  3
GouraudWithEdges
350
2E
  3
Linepattern
350
38
  3
Realistic
350
33
  3
Thicken
350
37
  0
LAYOUT
  5
1E
102
{ACAD_REACTORS
330
1A
102
}
330
1A
100
AcDbPlotSettings
  1

  2
none_device
  4

  6

 40
0.0
 41
0.0
 42
0.0
 43
0.0
 44
0.0
 45
0.0
 46
0.0
 47
0.0
 48
0.0
 49
0.0
140
0.0
141
0.0
142
1.0
143
1.0
 70
   688
 72
     0
 73
     0
 74
     5
  7

 75
    16
 76
     0
 77
     2
 78
   300
147
1.0
148
0.0
149
0.0
100
AcDbLayout
  1
Layout1
 70
     1
 71
     1
 10
0.0
 20
0.0
 11
12.0
 21
9.0
 12
0.0
 22
0.0
 32
0.0
 14
1.000000000000000E+20
 24
1.000000000000000E+20
 34
1.000000000000000E+20
 15
-1.000000000000000E+20
 25
-1.000000000000000E+20
 35
-1.000000000000000E+20
146
0.0
 13
0.0
 23
0.0
 33
0.0
 16
1.0
 26
0.0
 36
0.0
 17
0.0
 27
1.0
 37
0.0
 76
     0
330
1B
  0
LAYOUT
  5
26
102
{ACAD_REACTORS
330
1A
102
}
330
1A
100
AcDbPlotSettings
  1

  2
none_device
  4

  6

 40
0.0
 41
0.0
 42
0.0
 43
0.0
 44
0.0
 45
0.0
 46
0.0
 47
0.0
 48
0.0
 49
0.0
140
0.0
141
0.0
142
1.0
143
1.0
 70
   688
 72
     0
 73
     0
 74
     5
  7

 75
    16
 76
     0
 77
     2
 78
   300
147
1.0
148
0.0
149
0.0
100
AcDbLayout
  1
Layout2
 70
     1
 71
     2
 10
0.0
 20
0.0
 11
0.0
 21
0.0
 12
0.0
 22
0.0
 32
0.0
 14
0.0
 24
0.0
 34
0.0
 15
0.0
 25
0.0
 35
0.0
146
0.0
 13
0.0
 23
0.0
 33
0.0
 16
1.0
 26
0.0
 36
0.0
 17
0.0
 27
1.0
 37
0.0
 76
     0
330
23
  0
LAYOUT
  5
22
102
{ACAD_REACTORS
330
1A
102
}
330
1A
100
AcDbPlotSettings
  1

  2
none_device
  4

  6

 40
0.0
 41
0.0
 42
0.0
 43
0.0
 44
0.0
 45
0.0
 46
0.0
 47
0.0
 48
0.0
 49
0.0
140
0.0
141
0.0
142
1.0
143
1.0
 70
  1712
 72
     0
 73
     0
 74
     0
  7

 75
     0
 76
     0
 77
     2
 78
   300
147
1.0
148
0.0
149
0.0
100
AcDbLayout
  1
Model
 70
     1
 71
     0
 10
0.0
 20
0.0
 11
12.0
 21
9.0
 12
0.0
 22
0.0
 32
0.0
 14
1.000000000000000E+20
 24
1.000000000000000E+20
 34
1.000000000000000E+20
 15
-1.000000000000000E+20
 25
-1.000000000000000E+20
 35
-1.000000000000000E+20
146
0.0
 13
0.0
 23
0.0
 33
0.0
 16
1.0
 26
0.0
 36
0.0
 17
0.0
 27
1.0
 37
0.0
 76
     0
330
1F
331
29
  0
MATERIAL
  5
3D
102
{ACAD_REACTORS
330
3B
102
}
330
3B
100
AcDbMaterial
  1
ByBlock
 72
     1
 94
      127
  0
MATERIAL
  5
3C
102
{ACAD_REACTORS
330
3B
102
}
330
3B
100
AcDbMaterial
  1
ByLayer
 72
     1
 94
      127
  0
MATERIAL
  5
3E
102
{ACAD_REACTORS
330
3B
102
}
330
3B
100
AcDbMaterial
  1
Global
 72
     1
 94
      127
  0
MLINESTYLE
  5
18
102
{ACAD_REACTORS
330
17
102
}
330
17
100
AcDbMlineStyle
  2
Standard
 70
     0
  3

 62
   256
 51
90.0
 52
90.0
 71
     2
 49
0.5
 62
   256
  6
BYLAYER
 49
-0.5
 62
   256
  6
BYLAYER
  0
ACDBPLACEHOLDER
  5
F
102
{ACAD_REACTORS
330
E
102
}
330
E
  0
VISUALSTYLE
  5
2F
102
{ACAD_REACTORS
330
2A
102
}
330
2A
100
AcDbVisualStyle
  2
2dWireframe
 70
     4
177
     2
291
     0
 71
     0
176
     1
 72
     2
176
     1
 73
     0
176
     1
 90
        0
176
     1
 40
-0.6
176
     1
 41
-30.0
176
     1
 62
     5
 63
     7
421
 16777215
176
     1
 74
     1
176
     1
 91
        4
176
     1
 64
     7
176
     1
 65
   257
176
     1
 75
     1
176
     1
175
     1
176
     1
 42
1.0
176
     1
 92
        0
176
     1
 66
   257
176
     1
 43
1.0
176
     1
 76
     1
176
     1
 77
     6
176
     1
 78
     2
176
     1
 67
     7
176
     1
 79
     5
176
     1
170
     0
176
     1
171
     0
176
     1
290
     0
176
     1
 93
        1
176
     1
 44
0.0
176
     1
173
     0
176
     1
  0
VISUALSTYLE
  5
31
102
{ACAD_REACTORS
330
2A
102
}
330
2A
100
AcDbVisualStyle
  2
3D Hidden
 70
     6
177
     2
291
     0
 71
     1
176
     1
 72
     2
176
     1
 73
     2
176
     1
 90
        0
176
     1
 40
-0.6
176
     1
 41
-30.0
176
     1
 62
     5
 63
     7
421
 16777215
176
     1
 74
     2
176
     1
 91
        2
176
     1
 64
     7
176
     1
 65
   257
176
     1
 75
     2
176
     1
175
     1
176
     1
 42
40.0
176
     1
 92
        0
176
     1
 66
   257
176
     1
 43
1.0
176
     1
 76
     1
176
     1
 77
     6
176
     1
 78
     2
176
     1
 67
     7
176
     1
 79
     3
176
     1
170
     0
176
     1
171
     0
176
     1
290
     0
176
     1
 93
        1
176
     1
 44
0.0
176
     1
173
     0
176
     1
  0
VISUALSTYLE
  5
30
102
{ACAD_REACTORS
330
2A
102
}
330
2A
100
AcDbVisualStyle
  2
3dWireframe
 70
     5
177
     2
291
     0
 71
     0
176
     1
 72
     2
176
     1
 73
     0
176
     1
 90
        0
176
     1
 40
-0.6
176
     1
 41
-30.0
176
     1
 62
     5
 63
     7
421
 16777215
176
     1
 74
     1
176
     1
 91
        4
176
     1
 64
     7
176
     1
 65
   257
176
     1
 75
     1
176
     1
175
     1
176
     1
 42
1.0
176
     1
 92
        0
176
     1
 66
   257
176
     1
 43
1.0
176
     1
 76
     1
176
     1
 77
     6
176
     1
 78
     2
176
     1
 67
     7
176
     1
 79
     5
176
     1
170
     0
176
     1
171
     0
176
     1
290
     0
176
     1
 93
        1
176
     1
 44
0.0
176
     1
173
     0
176
     1
  0
VISUALSTYLE
  5
32
102
{ACAD_REACTORS
330
2A
102
}
330
2A
100
AcDbVisualStyle
  2
Basic
 70
     7
177
     2
291
     1
 71
     1
176
     1
 72
     0
176
     1
 73
     1
176
     1
 90
        0
176
     1
 40
-0.6
176
     1
 41
-30.0
176
     1
 62
     5
 63
     7
421
 16777215
176
     1
 74
     0
176
     1
 91
        4
176
     1
 64
     7
176
     1
 65
   257
176
     1
 75
     1
176
     1
175
     1
176
     1
 42
1.0
176
     1
 92
        8
176
     1
 66
     7
176
     1
 43
1.0
176
     1
 76
     1
176
     1
 77
     6
176
     1
 78
     2
176
     1
 67
     7
176
     1
 79
     5
176
     1
170
     0
176
     1
171
     0
176
     1
290
     0
176
     1
 93
        1
176
     1
 44
0.0
176
     1
173
     0
176
     1
  0
VISUALSTYLE
  5
36
102
{ACAD_REACTORS
330
2A
102
}
330
2A
100
AcDbVisualStyle
  2
Brighten
 70
    12
177
     2
291
     1
 71
     2
176
     1
 72
     2
176
     1
 73
     0
176
     1
 90
        0
176
     1
 40
-0.6
176
     1
 41
-30.0
176
     1
 62
     5
 63
     7
421
 16777215
176
     1
 74
     1
176
     1
 91
        4
176
     1
 64
     7
176
     1
 65
   257
176
     1
 75
     1
176
     1
175
     1
176
     1
 42
1.0
176
     1
 92
        8
176
     1
 66
     7
176
     1
 43
1.0
176
     1
 76
     1
176
     1
 77
     6
176
     1
 78
     2
176
     1
 67
     7
176
     1
 79
     5
176
     1
170
     0
176
     1
171
     0
176
     1
290
     0
176
     1
 93
        1
176
     1
 44
50.0
176
     1
173
     0
176
     1
  0
VISUALSTYLE
  5
3A
102
{ACAD_REACTORS
330
2A
102
}
330
2A
100
AcDbVisualStyle
  2
ColorChange
 70
    16
177
     2
291
     1
 71
     2
176
     1
 72
     2
176
     1
 73
     3
176
     1
 90
        0
176
     1
 40
-0.6
176
     1
 41
-30.0
176
     1
 62
     5
 63
     8
421
  8421504
176
     1
 74
     1
176
     1
 91
        4
176
     1
 64
     7
176
     1
 65
   257
176
     1
 75
     1
176
     1
175
     1
176
     1
 42
1.0
176
     1
 92
        8
176
     1
 66
     8
424
  8421504
176
     1
 43
1.0
176
     1
 76
     1
176
     1
 77
     6
176
     1
 78
     2
176
     1
 67
     7
176
     1
 79
     5
176
     1
170
     0
176
     1
171
     0
176
     1
290
     0
176
     1
 93
        1
176
     1
 44
0.0
176
     1
173
     0
176
     1
  0
VISUALSTYLE
  5
34
102
{ACAD_REACTORS
330
2A
102
}
330
2A
100
AcDbVisualStyle
  2
Conceptual
 70
     9
177
     2
291
     0
 71
     3
176
     1
 72
     2
176
     1
 73
     0
176
     1
 90
        0
176
     1
 40
-0.6
176
     1
 41
-30.0
176
     1
 62
     5
 63
     7
421
 16777215
176
     1
 74
     2
176
     1
 91
        2
176
     1
 64
     7
176
     1
 65
   257
176
     1
 75
     1
176
     1
175
     1
176
     1
 42
40.0
176
     1
 92
        8
176
     1
 66
     7
176
     1
 43
1.0
176
     1
 76
     1
176
     1
 77
     6
176
     1
 78
     2
176
     1
 67
     7
176
     1
 79
     3
176
     1
170
     0
176
     1
171
     0
176
     1
290
     0
176
     1
 93
        1
176
     1
 44
0.0
176
     1
173
     0
176
     1
  0
VISUALSTYLE
  5
35
102
{ACAD_REACTORS
330
2A
102
}
330
2A
100
AcDbVisualStyle
  2
Dim
 70
    11
177
     2
291
     1
 71
     2
176
     1
 72
     2
176
     1
 73
     0
176
     1
 90
        0
176
     1
 40
-0.6
176
     1
 41
-30.0
176
     1
 62
     5
 63
     7
421
 16777215
176
     1
 74
     1
176
     1
 91
        4
176
     1
 64
     7
176
     1
 65
   257
176
     1
 75
     1
176
     1
175
     1
176
     1
 42
1.0
176
     1
 92
        8
176
     1
 66
     7
176
     1
 43
1.0
176
     1
 76
     1
176
     1
 77
     6
176
     1
 78
     2
176
     1
 67
     7
176
     1
 79
     5
176
     1
170
     0
176
     1
171
     0
176
     1
290
     0
176
     1
 93
        1
176
     1
 44
-50.0
176
     1
173
     0
176
     1
  0
VISUALSTYLE
  5
39
102
{ACAD_REACTORS
330
2A
102
}
330
2A
100
AcDbVisualStyle
  2
Facepattern
 70
    15
177
     2
291
     1
 71
     2
176
     1
 72
     2
176
     1
 73
     0
176
     1
 90
        0
176
     1
 40
-0.6
176
     1
 41
-30.0
176
     1
 62
     5
 63
     7
421
 16777215
176
     1
 74
     1
176
     1
 91
        4
176
     1
 64
     7
176
     1
 65
   257
176
     1
 75
     1
176
     1
175
     1
176
     1
 42
1.0
176
     1
 92
        8
176
     1
 66
     7
176
     1
 43
1.0
176
     1
 76
     1
176
     1
 77
     6
176
     1
 78
     2
176
     1
 67
     7
176
     1
 79
     5
176
     1
170
     0
176
     1
171
     0
176
     1
290
     0
176
     1
 93
        1
176
     1
 44
0.0
176
     1
173
     0
176
     1
  0
VISUALSTYLE
  5
2B
102
{ACAD_REACTORS
330
2A
102
}
330
2A
100
AcDbVisualStyle
  2
Flat
 70
     0
177
     2
291
     1
 71
     2
176
     1
 72
     1
176
     1
 73
     1
176
     1
 90
        2
176
     1
 40
-0.6
176
     1
 41
30.0
176
     1
 62
     5
 63
     7
421
 16777215
176
     1
 74
     0
176
     1
 91
        4
176
     1
 64
     7
176
     1
 65
   257
176
     1
 75
     1
176
     1
175
     1
176
     1
 42
1.0
176
     1
 92
        8
176
     1
 66
     7
176
     1
 43
1.0
176
     1
 76
     1
176
     1
 77
     6
176
     1
 78
     2
176
     1
 67
     7
176
     1
 79
     5
176
     1
170
     0
176
     1
171
     0
176
     1
290
     0
176
     1
 93
       13
176
     1
 44
0.0
176
     1
173
     0
176
     1
  0
VISUALSTYLE
  5
2C
102
{ACAD_REACTORS
330
2A
102
}
330
2A
100
AcDbVisualStyle
  2
FlatWithEdges
 70
     1
177
     2
291
     1
 71
     2
176
     1
 72
     1
176
     1
 73
     1
176
     1
 90
        2
176
     1
 40
-0.6
176
     1
 41
30.0
176
     1
 62
     5
 63
     7
421
 16777215
176
     1
 74
     1
176
     1
 91
        4
176
     1
 64
     7
176
     1
 65
   257
176
     1
 75
     1
176
     1
175
     1
176
     1
 42
1.0
176
     1
 92
        0
176
     1
 66
   257
176
     1
 43
1.0
176
     1
 76
     1
176
     1
 77
     6
176
     1
 78
     2
176
     1
 67
     7
176
     1
 79
     5
176
     1
170
     0
176
     1
171
     0
176
     1
290
     0
176
     1
 93
       13
176
     1
 44
0.0
176
     1
173
     0
176
     1
  0
VISUALSTYLE
  5
2D
102
{ACAD_REACTORS
330
2A
102
}
330
2A
100
AcDbVisualStyle
  2
Gouraud
 70
     2
177
     2
291
     1
 71
     2
176
     1
 72
     2
176
     1
 73
     1
176
     1
 90
        2
176
     1
 40
-0.6
176
     1
 41
30.0
176
     1
 62
     5
 63
     7
421
 16777215
176
     1
 74
     0
176
     1
 91
        4
176
     1
 64
     7
176
     1
 65
   257
176
     1
 75
     1
176
     1
175
     1
176
     1
 42
1.0
176
     1
 92
        0
176
     1
 66
     7
176
     1
 43
1.0
176
     1
 76
     1
176
     1
 77
     6
176
     1
 78
     2
176
     1
 67
     7
176
     1
 79
     5
176
     1
170
     0
176
     1
171
     0
176
     1
290
     0
176
     1
 93
       13
176
     1
 44
0.0
176
     1
173
     0
176
     1
  0
VISUALSTYLE
  5
2E
102
{ACAD_REACTORS
330
2A
102
}
330
2A
100
AcDbVisualStyle
  2
GouraudWithEdges
 70
     3
177
     2
291
     1
 71
     2
176
     1
 72
     2
176
     1
 73
     1
176
     1
 90
        2
176
     1
 40
-0.6
176
     1
 41
30.0
176
     1
 62
     5
 63
     7
421
 16777215
176
     1
 74
     1
176
     1
 91
        4
176
     1
 64
     7
176
     1
 65
   257
176
     1
 75
     1
176
     1
175
     1
176
     1
 42
1.0
176
     1
 92
        0
176
     1
 66
   257
176
     1
 43
1.0
176
     1
 76
     1
176
     1
 77
     6
176
     1
 78
     2
176
     1
 67
     7
176
     1
 79
     5
176
     1
170
     0
176
     1
171
     0
176
     1
290
     0
176
     1
 93
       13
176
     1
 44
0.0
176
     1
173
     0
176
     1
  0
VISUALSTYLE
  5
38
102
{ACAD_REACTORS
330
2A
102
}
330
2A
100
AcDbVisualStyle
  2
Linepattern
 70
    14
177
     2
291
     1
 71
     2
176
     1
 72
     2
176
     1
 73
     0
176
     1
 90
        0
176
     1
 40
-0.6
176
     1
 41
-30.0
176
     1
 62
     5
 63
     7
421
 16777215
176
     1
 74
     1
176
     1
 91
        4
176
     1
 64
     7
176
     1
 65
   257
176
     1
 75
     7
176
     1
175
     7
176
     1
 42
1.0
176
     1
 92
        8
176
     1
 66
     7
176
     1
 43
1.0
176
     1
 76
     1
176
     1
 77
     6
176
     1
 78
     2
176
     1
 67
     7
176
     1
 79
     5
176
     1
170
     0
176
     1
171
     0
176
     1
290
     0
176
     1
 93
        1
176
     1
 44
0.0
176
     1
173
     0
176
     1
  0
VISUALSTYLE
  5
33
102
{ACAD_REACTORS
330
2A
102
}
330
2A
100
AcDbVisualStyle
  2
Realistic
 70
     8
177
     2
291
     0
 71
     2
176
     1
 72
     2
176
     1
 73
     0
176
     1
 90
        0
176
     1
 40
-0.6
176
     1
 41
-30.0
176
     1
 62
     5
 63
     7
421
 16777215
176
     1
 74
     1
176
     1
 91
        0
176
     1
 64
     7
176
     1
 65
   257
176
     1
 75
     1
176
     1
175
     1
176
     1
 42
1.0
176
     1
 92
        8
176
     1
 66
     8
424
  7895160
176
     1
 43
1.0
176
     1
 76
     1
176
     1
 77
     6
176
     1
 78
     2
176
     1
 67
     7
176
     1
 79
     5
176
     1
170
     0
176
     1
171
     0
176
     1
290
     0
176
     1
 93
       13
176
     1
 44
0.0
176
     1
173
     0
176
     1
  0
VISUALSTYLE
  5
37
102
{ACAD_REACTORS
330
2A
102
}
330
2A
100
AcDbVisualStyle
  2
Thicken
 70
    13
177
     2
291
     1
 71
     2
176
     1
 72
     2
176
     1
 73
     0
176
     1
 90
        0
176
     1
 40
-0.6
176
     1
 41
-30.0
176
     1
 62
     5
 63
     7
421
 16777215
176
     1
 74
     1
176
     1
 91
        4
176
     1
 64
     7
176
     1
 65
   257
176
     1
 75
     1
176
     1
175
     1
176
     1
 42
1.0
176
     1
 92
       12
176
     1
 66
     7
176
     1
 43
1.0
176
     1
 76
     1
176
     1
 77
     6
176
     1
 78
     2
176
     1
 67
     7
176
     1
 79
     5
176
     1
170
     0
176
     1
171
     0
176
     1
290
     0
176
     1
 93
        1
176
     1
 44
0.0
176
     1
173
     0
176
     1
  0
ENDSEC
  0
EOF
