  0
SECTION
  2
HEADER
  9
$ACADVER
  1
AC1024
  9
$ACADMAINTVER
 70
     6
  9
$DWGCODEPAGE
  3
UNDEFINED
  9
$INSBASE
 10
0.0
 20
0.0
 30
0.0
  9
$EXTMIN
 10
1.000000000000000E+20
 20
1.000000000000000E+20
 30
1.000000000000000E+20
  9
$EXTMAX
 10
-1.000000000000000E+20
 20
-1.000000000000000E+20
 30
-1.000000000000000E+20
  9
$LIMMIN
 10
0.0
 20
0.0
  9
$LIMMAX
 10
12.0
 20
9.0
  9
$ORTHOMODE
 70
     0
  9
$REGENMODE
 70
     1
  9
$FILLMODE
 70
     1
  9
$QTEXTMODE
 70
     0
  9
$MIRRTEXT
 70
     1
  9
$LTSCALE
 40
1.0
  9
$ATTMODE
 70
     1
  9
$TEXTSIZE
 40
0.2
  9
$TRACEWID
 40
0.05
  9
$TEXTSTYLE
  7
Standard
  9
$CLAYER
  8
0
  9
$CELTYPE
  6
ByLayer
  9
$CECOLOR
 62
   256
  9
$CELTSCALE
 40
1.0
  9
$DISPSILH
 70
     0
  9
$DIMSCALE
 40
1.0
  9
$DIMASZ
 40
0.18
  9
$DIMEXO
 40
0.0625
  9
$DIMDLI
 40
0.38
  9
$DIMRND
 40
0.0
  9
$DIMDLE
 40
0.0
  9
$DIMEXE
 40
0.18
  9
$DIMTP
 40
0.0
  9
$DIMTM
 40
0.0
  9
$DIMTXT
 40
0.18
  9
$DIMCEN
 40
0.09
  9
$DIMTSZ
 40
0.0
  9
$DIMTOL
 70
     0
  9
$DIMLIM
 70
     0
  9
$DIMTIH
 70
     1
  9
$DIMTOH
 70
     1
  9
$DIMSE1
 70
     0
  9
$DIMSE2
 70
     0
  9
$DIMTAD
 70
     0
  9
$DIMZIN
 70
     0
  9
$DIMBLK
  1

  9
$DIMASO
 70
     1
  9
$DIMSHO
 70
     1
  9
$DIMPOST
  1

  9
$DIMAPOST
  1

  9
$DIMALT
 70
     0
  9
$DIMALTD
 70
     2
  9
$DIMALTF
 40
25.4
  9
$DIMLFAC
 40
1.0
  9
$DIMTOFL
 70
     0
  9
$DIMTVP
 40
0.0
  9
$DIMTIX
 70
     0
  9
$DIMSOXD
 70
     0
  9
$DIMSAH
 70
     0
  9
$DIMBLK1
  1

  9
$DIMBLK2
  1

  9
$DIMSTYLE
  2
Standard
  9
$DIMCLRD
 70
     0
  9
$DIMCLRE
 70
     0
  9
$DIMCLRT
 70
     0
  9
$DIMTFAC
 40
1.0
  9
$DIMGAP
 40
0.09
  9
$DIMJUST
 70
     0
  9
$DIMSD1
 70
     0
  9
$DIMSD2
 70
     0
  9
$DIMTOLJ
 70
     1
  9
$DIMTZIN
 70
     0
  9
$DIMALTZ
 70
     0
  9
$DIMALTTZ
 70
     0
  9
$DIMUPT
 70
     0
  9
$DIMDEC
 70
     4
  9
$DIMTDEC
 70
     4
  9
$DIMALTU
 70
     2
  9
$DIMALTTD
 70
     2
  9
$DIMTXSTY
  7
Standard
  9
$DIMAUNIT
 70
     0
  9
$DIMADEC
 70
     0
  9
$DIMALTRND
 40
0.0
  9
$DIMAZIN
 70
     0
  9
$DIMDSEP
 70
    46
  9
$DIMATFIT
 70
     3
  9
$DIMFRAC
 70
     0
  9
$DIMLDRBLK
  1

  9
$DIMLUNIT
 70
     2
  9
$DIMLWD
 70
    -2
  9
$DIMLWE
 70
    -2
  9
$DIMTMOVE
 70
     0
  9
$DIMFXL
 40
1.0
  9
$DIMFXLON
 70
     0
  9
$DIMJOGANG
 40
0.7853981633974483
  9
$DIMTFILL
 70
     0
  9
$DIMTFILLCLR
 70
     0
  9
$DIMARCSYM
 70
     0
  9
$DIMLTYPE
  6

  9
$DIMLTEX1
  6

  9
$DIMLTEX2
  6

  9
$DIMTXTDIRECTION
 70
     0
  9
$LUNITS
 70
     2
  9
$LUPREC
 70
     4
  9
$SKETCHINC
 40
0.1
  9
$FILLETRAD
 40
0.5
  9
$AUNITS
 70
     0
  9
$AUPREC
 70
     0
  9
$MENU
  1
.
  9
$ELEVATION
 40
0.0
  9
$PELEVATION
 40
0.0
  9
$THICKNESS
 40
0.0
  9
$LIMCHECK
 70
     0
  9
$CHAMFERA
 40
0.5
  9
$CHAMFERB
 40
0.5
  9
$CHAMFERC
 40
1.0
  9
$CHAMFERD
 40
0.0
  9
$SKPOLY
 70
     0
  9
$TDCREATE
 40
2457917.622349525
  9
$TDUCREATE
 40
2457917.247349537
  9
$TDUPDATE
 40
2457917.622349525
  9
$TDUUPDATE
 40
2457917.247349537
  9
$TDINDWG
 40
0.0000000116
  9
$TDUSRTIMER
 40
0.0000000116
  9
$USRTIMER
 70
     1
  9
$ANGBASE
 50
0.0
  9
$ANGDIR
 70
     0
  9
$PDMODE
 70
     0
  9
$PDSIZE
 40
0.0
  9
$PLINEWID
 40
0.0
  9
$SPLFRAME
 70
     0
  9
$SPLINETYPE
 70
     6
  9
$SPLINESEGS
 70
     8
  9
$HANDSEED
  5
C0
  9
$SURFTAB1
 70
     6
  9
$SURFTAB2
 70
     6
  9
$SURFTYPE
 70
     6
  9
$SURFU
 70
     6
  9
$SURFV
 70
     6
  9
$UCSBASE
  2

  9
$UCSNAME
  2

  9
$UCSORG
 10
0.0
 20
0.0
 30
0.0
  9
$UCSXDIR
 10
1.0
 20
0.0
 30
0.0
  9
$UCSYDIR
 10
0.0
 20
1.0
 30
0.0
  9
$UCSORTHOREF
  2

  9
$UCSORTHOVIEW
 70
     0
  9
$UCSORGTOP
 10
0.0
 20
0.0
 30
0.0
  9
$UCSORGBOTTOM
 10
0.0
 20
0.0
 30
0.0
  9
$UCSORGLEFT
 10
0.0
 20
0.0
 30
0.0
  9
$UCSORGRIGHT
 10
0.0
 20
0.0
 30
0.0
  9
$UCSORGFRONT
 10
0.0
 20
0.0
 30
0.0
  9
$UCSORGBACK
 10
0.0
 20
0.0
 30
0.0
  9
$PUCSBASE
  2

  9
$PUCSNAME
  2

  9
$PUCSORG
 10
0.0
 20
0.0
 30
0.0
  9
$PUCSXDIR
 10
1.0
 20
0.0
 30
0.0
  9
$PUCSYDIR
 10
0.0
 20
1.0
 30
0.0
  9
$PUCSORTHOREF
  2

  9
$PUCSORTHOVIEW
 70
     0
  9
$PUCSORGTOP
 10
0.0
 20
0.0
 30
0.0
  9
$PUCSORGBOTTOM
 10
0.0
 20
0.0
 30
0.0
  9
$PUCSORGLEFT
 10
0.0
 20
0.0
 30
0.0
  9
$PUCSORGRIGHT
 10
0.0
 20
0.0
 30
0.0
  9
$PUCSORGFRONT
 10
0.0
 20
0.0
 30
0.0
  9
$PUCSORGBACK
 10
0.0
 20
0.0
 30
0.0
  9
$USERI1
 70
     0
  9
$USERI2
 70
     0
  9
$USERI3
 70
     0
  9
$USERI4
 70
     0
  9
$USERI5
 70
     0
  9
$USERR1
 40
0.0
  9
$USERR2
 40
0.0
  9
$USERR3
 40
0.0
  9
$USERR4
 40
0.0
  9
$USERR5
 40
0.0
  9
$WORLDVIEW
 70
     1
  9
$SHADEDGE
 70
     3
  9
$SHADEDIF
 70
    70
  9
$TILEMODE
 70
     1
  9
$MAXACTVP
 70
    64
  9
$PINSBASE
 10
0.0
 20
0.0
 30
0.0
  9
$PLIMCHECK
 70
     0
  9
$PEXTMIN
 10
1.000000000000000E+20
 20
1.000000000000000E+20
 30
1.000000000000000E+20
  9
$PEXTMAX
 10
-1.000000000000000E+20
 20
-1.000000000000000E+20
 30
-1.000000000000000E+20
  9
$PLIMMIN
 10
0.0
 20
0.0
  9
$PLIMMAX
 10
12.0
 20
9.0
  9
$UNITMODE
 70
     0
  9
$VISRETAIN
 70
     1
  9
$PLINEGEN
 70
     0
  9
$PSLTSCALE
 70
     1
  9
$TREEDEPTH
 70
  3020
  9
$CMLSTYLE
  2
Standard
  9
$CMLJUST
 70
     0
  9
$CMLSCALE
 40
1.0
  9
$PROXYGRAPHICS
 70
     1
  9
$MEASUREMENT
 70
     0
  9
$CELWEIGHT
370
    -1
  9
$ENDCAPS
280
     0
  9
$JOINSTYLE
280
     0
  9
$LWDISPLAY
290
     1
  9
$INSUNITS
 70
     1
  9
$HYPERLINKBASE
  1

  9
$STYLESHEET
  1

  9
$XEDIT
290
     1
  9
$CEPSNTYPE
380
     0
  9
$PSTYLEMODE
290
     1
  9
$FINGERPRINTGUID
  2
{CBC50E39-2574-E779-1DC2-34C7686E2768}
  9
$VERSIONGUID
  2
{FAEB1C32-E019-11D5-929B-00C0DF256EC4}
  9
$EXTNAMES
290
     1
  9
$PSVPSCALE
 40
0.0
  9
$OLESTARTUP
290
     0
  9
$SORTENTS
280
   127
  9
$INDEXCTL
280
     0
  9
$HIDETEXT
280
     1
  9
$XCLIPFRAME
280
     2
  9
$HALOGAP
280
     0
  9
$OBSCOLOR
 70
   257
  9
$OBSLTYPE
280
     0
  9
$INTERSECTIONDISPLAY
280
     0
  9
$INTERSECTIONCOLOR
 70
   257
  9
$DIMASSOC
280
     2
  9
$PROJECTNAME
  1

  9
$CAMERADISPLAY
290
     0
  9
$LENSLENGTH
 40
50.0
  9
$CAMERAHEIGHT
 40
0.0
  9
$STEPSPERSEC
 40
2.0
  9
$STEPSIZE
 40
6.0
  9
$3DDWFPREC
 40
2.0
  9
$PSOLWIDTH
 40
0.25
  9
$PSOLHEIGHT
 40
4.0
  9
$LOFTANG1
 40
1.570796326794897
  9
$LOFTANG2
 40
1.570796326794897
  9
$LOFTMAG1
 40
0.0
  9
$LOFTMAG2
 40
0.0
  9
$LOFTPARAM
 70
     7
  9
$LOFTNORMALS
280
     1
  9
$LATITUDE
 40
37.795
  9
$LONGITUDE
 40
-122.394
  9
$NORTHDIRECTION
 40
0.0
  9
$TIMEZONE
 70
 -8000
  9
$LIGHTGLYPHDISPLAY
280
     1
  9
$TILEMODELIGHTSYNCH
280
     1
  9
$CMATERIAL
347
3C
  9
$SOLIDHIST
280
     1
  9
$SHOWHIST
280
     1
  9
$DWFFRAME
280
     2
  9
$DGNFRAME
280
     2
  9
$REALWORLDSCALE
290
     1
  9
$INTERFERECOLOR
 62
   256
  9
$CSHADOW
280
     0
  9
$SHADOWPLANELOCATION
 40
0.0
  0
ENDSEC
  0
SECTION
  2
CLASSES
  0
CLASS
  1
ACDBDICTIONARYWDFLT
  2
AcDbDictionaryWithDefault
  3
ObjectDBX Classes
 90
        0
 91
        4
280
     0
281
     0
  0
CLASS
  1
VISUALSTYLE
  2
AcDbVisualStyle
  3
ObjectDBX Classes
 90
     4095
 91
        4
280
     0
281
     0
  0
CLASS
  1
MATERIAL
  2
AcDbMaterial
  3
ObjectDBX Classes
 90
     1153
 91
        4
280
     0
281
     0
  0
CLASS
  1
SUN
  2
AcDbSun
  3
SCENEOE
 90
     1024
 91
        4
280
     0
281
     0
  0
ENDSEC
  0
SECTION
  2
TABLES
  0
TABLE
  2
VPORT
  5
8
330
0
100
AcDbSymbolTable
 70
     1
  0
VPORT
  5
29
330
8
100
AcDbSymbolTableRecord
100
AcDbViewportTableRecord
  2
*Active
 70
     0
 10
0.0
 20
0.0
 11
1.0
 21
1.0
 12
0.0
 22
0.0
 13
0.0
 23
0.0
 14
0.5
 24
0.5
 15
0.5
 25
0.5
 16
0.0
 26
0.0
 36
1.0
 17
91.00082462281999
 27
-128.4993055234307
 37
0.0
 40
256.9986110468615
 41
0.7081814508812795
 42
50.0
 43
0.0
 44
0.0
 50
0.0
 51
0.0
 71
     0
 72
   100
 73
     1
 74
     3
 75
     0
 76
     0
 77
     0
 78
     0
281
     0
 65
     1
110
0.0
120
0.0
130
0.0
111
1.0
121
0.0
131
0.0
112
0.0
122
1.0
132
0.0
 79
     0
146
0.0
 60
     3
 61
     5
292
     1
282
     1
141
0.0
142
0.0
 63
   250
361
3F
  0
ENDTAB
  0
TABLE
  2
LTYPE
  5
5
330
0
100
AcDbSymbolTable
 70
     1
  0
LTYPE
  5
14
330
5
100
AcDbSymbolTableRecord
100
AcDbLinetypeTableRecord
  2
ByBlock
 70
     0
  3

 72
    65
 73
     0
 40
0.0
  0
LTYPE
  5
15
330
5
100
AcDbSymbolTableRecord
100
AcDbLinetypeTableRecord
  2
ByLayer
 70
     0
  3

 72
    65
 73
     0
 40
0.0
  0
LTYPE
  5
16
330
5
100
AcDbSymbolTableRecord
100
AcDbLinetypeTableRecord
  2
Continuous
 70
     0
  3
Solid line
 72
    65
 73
     0
 40
0.0
  0
ENDTAB
  0
TABLE
  2
LAYER
  5
2
330
0
100
AcDbSymbolTable
 70
     2
  0
LAYER
  5
10
330
2
100
AcDbSymbolTableRecord
100
AcDbLayerTableRecord
  2
0
 70
     0
 62
     7
  6
Continuous
370
    -3
390
F
347
3E
  0
LAYER
  5
40
330
2
100
AcDbSymbolTableRecord
100
AcDbLayerTableRecord
  2
_U+30EC_U+30A4_U+30E4_U+30FC 1
 70
     0
 62
     7
  6
Continuous
370
    -3
390
F
347
3E
  0
ENDTAB
  0
TABLE
  2
STYLE
  5
3
330
0
100
AcDbSymbolTable
 70
     1
  0
STYLE
  5
11
330
3
100
AcDbSymbolTableRecord
100
AcDbTextStyleTableRecord
  2
Standard
 70
     0
 40
0.0
 41
1.0
 50
0.0
 71
     0
 42
0.2
  3
txt
  4

  0
ENDTAB
  0
TABLE
  2
VIEW
  5
6
330
0
100
AcDbSymbolTable
 70
     0
  0
ENDTAB
  0
TABLE
  2
UCS
  5
7
330
0
100
AcDbSymbolTable
 70
     0
  0
ENDTAB
  0
TABLE
  2
APPID
  5
9
330
0
100
AcDbSymbolTable
 70
     1
  0
APPID
  5
12
330
9
100
AcDbSymbolTableRecord
100
AcDbRegAppTableRecord
  2
ACAD
 70
     0
  0
ENDTAB
  0
TABLE
  2
DIMSTYLE
  5
A
330
0
100
AcDbSymbolTable
 70
     1
100
AcDbDimStyleTable
  0
DIMSTYLE
105
27
330
A
100
AcDbSymbolTableRecord
100
AcDbDimStyleTableRecord
  2
Standard
 70
     0
178
     0
340
11
  0
ENDTAB
  0
TABLE
  2
BLOCK_RECORD
  5
1
330
0
100
AcDbSymbolTable
 70
     6
  0
BLOCK_RECORD
  5
1F
330
1
100
AcDbSymbolTableRecord
100
AcDbBlockTableRecord
  2
*Model_Space
340
22
 70
     0
280
     1
281
     0
  0
BLOCK_RECORD
  5
1B
330
1
100
AcDbSymbolTableRecord
100
AcDbBlockTableRecord
  2
*Paper_Space
340
1E
 70
     0
280
     1
281
     0
  0
BLOCK_RECORD
  5
23
330
1
100
AcDbSymbolTableRecord
100
AcDbBlockTableRecord
  2
*Paper_Space0
340
26
 70
     0
280
     1
281
     0
  0
BLOCK_RECORD
  5
57
330
1
100
AcDbSymbolTableRecord
100
AcDbBlockTableRecord
  2
block 2
340
0
102
{BLKREFS
331
58
102
}
 70
     0
280
     1
281
     0
  0
BLOCK_RECORD
  5
6C
330
1
100
AcDbSymbolTableRecord
100
AcDbBlockTableRecord
  2
block 3
340
0
102
{BLKREFS
331
6D
102
}
 70
     0
280
     1
281
     0
  0
BLOCK_RECORD
  5
8A
330
1
100
AcDbSymbolTableRecord
100
AcDbBlockTableRecord
  2
block 4
340
0
102
{BLKREFS
331
8B
102
}
 70
     0
280
     1
281
     0
  0
BLOCK_RECORD
  5
A4
330
1
100
AcDbSymbolTableRecord
100
AcDbBlockTableRecord
  2
block 5
340
0
102
{BLKREFS
331
A5
102
}
 70
     0
280
     1
281
     0
  0
BLOCK_RECORD
  5
B8
330
1
100
AcDbSymbolTableRecord
100
AcDbBlockTableRecord
  2
block 6
340
0
102
{BLKREFS
331
B9
102
}
 70
     0
280
     1
281
     0
  0
ENDTAB
  0
ENDSEC
  0
SECTION
  2
BLOCKS
  0
BLOCK
  5
20
330
1F
100
AcDbEntity
  8
0
100
AcDbBlockBegin
  2
*Model_Space
 70
     0
 10
0.0
 20
0.0
 30
0.0
  3
*Model_Space
  1

  0
ENDBLK
  5
21
330
1F
100
AcDbEntity
  8
0
100
AcDbBlockEnd
  0
BLOCK
  5
1C
330
1B
100
AcDbEntity
 67
     1
  8
0
100
AcDbBlockBegin
  2
*Paper_Space
 70
     0
 10
0.0
 20
0.0
 30
0.0
  3
*Paper_Space
  1

  0
ENDBLK
  5
1D
330
1B
100
AcDbEntity
 67
     1
  8
0
100
AcDbBlockEnd
  0
BLOCK
  5
24
330
23
100
AcDbEntity
  8
0
100
AcDbBlockBegin
  2
*Paper_Space0
 70
     0
 10
0.0
 20
0.0
 30
0.0
  3
*Paper_Space0
  1

  0
ENDBLK
  5
25
330
23
100
AcDbEntity
  8
0
100
AcDbBlockEnd
  0
BLOCK
  5
59
330
57
100
AcDbEntity
  8
0
100
AcDbBlockBegin
  2
block 2
 70
     0
 10
0.0
 20
0.0
 30
0.0
  3
block 2
  1

  0
SPLINE
  5
5B
330
57
100
AcDbEntity
  8
_U+30EC_U+30A4_U+30E4_U+30FC 1
370
     0
100
AcDbSpline
210
0.0
220
0.0
230
1.0
 70
    11
 71
     3
 72
    44
 73
    40
 74
     0
 42
0.0000000001
 43
0.0000000001
 12
1.0
 22
0.0
 32
0.0
 13
1.0
 23
0.0
 33
0.0
 40
0.0
 40
0.0
 40
0.0
 40
0.0
 40
1.0
 40
1.0
 40
1.0
 40
2.0
 40
2.0
 40
2.0
 40
3.0
 40
3.0
 40
3.0
 40
4.0
 40
4.0
 40
4.0
 40
5.0
 40
5.0
 40
5.0
 40
6.0
 40
6.0
 40
6.0
 40
7.0
 40
7.0
 40
7.0
 40
8.0
 40
8.0
 40
8.0
 40
9.0
 40
9.0
 40
9.0
 40
10.0
 40
10.0
 40
10.0
 40
11.0
 40
11.0
 40
11.0
 40
12.0
 40
12.0
 40
12.0
 40
13.0
 40
13.0
 40
13.0
 40
13.0
 10
102.8460910116149
 20
-122.58097598932
 30
0.0
 10
102.613202556812
 20
-122.7397948911901
 30
0.0
 10
102.5136392972883
 20
-122.8138644441229
 30
0.0
 10
102.461618355461
 20
-122.9575249258578
 30
0.0
 10
102.461618355461
 20
-122.9575249258578
 30
0.0
 10
103.2939534246973
 20
-122.9575249258578
 30
0.0
 10
103.2939534246973
 20
-122.9575249258578
 30
0.0
 10
103.2939534246973
 20
-122.9575249258578
 30
0.0
 10
103.2939534246973
 20
-123.1628526167787
 30
0.0
 10
103.2939534246973
 20
-123.1628526167787
 30
0.0
 10
103.2939534246973
 20
-123.1628526167787
 30
0.0
 10
102.1949679649026
 20
-123.1628526167787
 30
0.0
 10
102.1949679649026
 20
-123.1628526167787
 30
0.0
 10
102.2290744102066
 20
-122.8052517054098
 30
0.0
 10
102.2990098485572
 20
-122.7270480378946
 30
0.0
 10
102.710354249496
 20
-122.428702768872
 30
0.0
 10
102.9838948310249
 20
-122.2299207593731
 30
0.0
 10
103.054174778924
 20
-122.1620523783137
 30
0.0
 10
103.054174778924
 20
-122.0245930684522
 30
0.0
 10
103.054174778924
 20
-121.9060817837596
 30
0.0
 10
102.9773491496029
 20
-121.7751681553201
 30
0.0
 10
102.7668538154541
 20
-121.7751681553201
 30
0.0
 10
102.4888346097945
 20
-121.7751681553201
 30
0.0
 10
102.4798773615328
 20
-122.0056450432833
 30
0.0
 10
102.475398737402
 20
-122.1220892706848
 30
0.0
 10
102.475398737402
 20
-122.1220892706848
 30
0.0
 10
102.2356200916286
 20
-122.1220892706848
 30
0.0
 10
102.2356200916286
 20
-122.1220892706848
 30
0.0
 10
102.2445773398903
 20
-121.994965247279
 30
0.0
 10
102.2559461549916
 20
-121.8829996440084
 30
0.0
 10
102.3420735421228
 20
-121.7644883593158
 30
0.0
 10
102.4595512981698
 20
-121.6036024001547
 30
0.0
 10
102.6583333076688
 20
-121.5698404643992
 30
0.0
 10
102.7827012546863
 20
-121.5698404643992
 30
0.0
 10
103.0789794664178
 20
-121.5698404643992
 30
0.0
 10
103.3004991061193
 20
-121.7538085633116
 30
0.0
 10
103.3004991061193
 20
-122.0266601257433
 30
0.0
 10
103.3004991061193
 20
-122.2554144659639
 30
0.0
 10
103.1761311591018
 20
-122.3546332159391
 30
0.0
 10
102.8460910116149
 20
-122.58097598932
 30
0.0
  0
HATCH
  5
5C
330
57
100
AcDbEntity
  8
_U+30EC_U+30A4_U+30E4_U+30FC 1
 62
     7
420
 16777215
100
AcDbHatch
 10
0.0
 20
0.0
 30
0.0
210
0.0
220
0.0
230
1.0
  2
SOLID
 70
     1
 71
     0
 91
        1
 92
        1
 93
        1
 72
     4
 94
        3
 73
     0
 74
     1
 95
       44
 96
       40
 40
0.0
 40
0.0
 40
0.0
 40
0.0
 40
1.0
 40
1.0
 40
1.0
 40
2.0
 40
2.0
 40
2.0
 40
3.0
 40
3.0
 40
3.0
 40
4.0
 40
4.0
 40
4.0
 40
5.0
 40
5.0
 40
5.0
 40
6.0
 40
6.0
 40
6.0
 40
7.0
 40
7.0
 40
7.0
 40
8.0
 40
8.0
 40
8.0
 40
9.0
 40
9.0
 40
9.0
 40
10.0
 40
10.0
 40
10.0
 40
11.0
 40
11.0
 40
11.0
 40
12.0
 40
12.0
 40
12.0
 40
13.0
 40
13.0
 40
13.0
 40
13.0
 10
102.8460910116149
 20
-122.58097598932
 10
102.613202556812
 20
-122.7397948911901
 10
102.5136392972883
 20
-122.8138644441229
 10
102.461618355461
 20
-122.9575249258578
 10
102.461618355461
 20
-122.9575249258578
 10
103.2939534246973
 20
-122.9575249258578
 10
103.2939534246973
 20
-122.9575249258578
 10
103.2939534246973
 20
-122.9575249258578
 10
103.2939534246973
 20
-123.1628526167787
 10
103.2939534246973
 20
-123.1628526167787
 10
103.2939534246973
 20
-123.1628526167787
 10
102.1949679649026
 20
-123.1628526167787
 10
102.1949679649026
 20
-123.1628526167787
 10
102.2290744102066
 20
-122.8052517054098
 10
102.2990098485572
 20
-122.7270480378946
 10
102.710354249496
 20
-122.428702768872
 10
102.9838948310249
 20
-122.2299207593731
 10
103.054174778924
 20
-122.1620523783137
 10
103.054174778924
 20
-122.0245930684522
 10
103.054174778924
 20
-121.9060817837596
 10
102.9773491496029
 20
-121.7751681553201
 10
102.7668538154541
 20
-121.7751681553201
 10
102.4888346097945
 20
-121.7751681553201
 10
102.4798773615328
 20
-122.0056450432833
 10
102.475398737402
 20
-122.1220892706848
 10
102.475398737402
 20
-122.1220892706848
 10
102.2356200916286
 20
-122.1220892706848
 10
102.2356200916286
 20
-122.1220892706848
 10
102.2445773398903
 20
-121.994965247279
 10
102.2559461549916
 20
-121.8829996440084
 10
102.3420735421228
 20
-121.7644883593158
 10
102.4595512981698
 20
-121.6036024001547
 10
102.6583333076688
 20
-121.5698404643992
 10
102.7827012546863
 20
-121.5698404643992
 10
103.0789794664178
 20
-121.5698404643992
 10
103.3004991061193
 20
-121.7538085633116
 10
103.3004991061193
 20
-122.0266601257433
 10
103.3004991061193
 20
-122.2554144659639
 10
103.1761311591018
 20
-122.3546332159391
 10
102.8460910116149
 20
-122.58097598932
 97
        0
 97
        0
 75
     2
 76
     1
 98
        0
  0
SPLINE
  5
5D
330
57
100
AcDbEntity
  8
_U+30EC_U+30A4_U+30E4_U+30FC 1
370
     0
100
AcDbSpline
210
0.0
220
0.0
230
1.0
 70
    11
 71
     3
 72
    29
 73
    25
 74
     0
 42
0.0000000001
 43
0.0000000001
 12
1.0
 22
0.0
 32
0.0
 13
1.0
 23
0.0
 33
0.0
 40
0.0
 40
0.0
 40
0.0
 40
0.0
 40
1.0
 40
1.0
 40
1.0
 40
2.0
 40
2.0
 40
2.0
 40
3.0
 40
3.0
 40
3.0
 40
4.0
 40
4.0
 40
4.0
 40
5.0
 40
5.0
 40
5.0
 40
6.0
 40
6.0
 40
6.0
 40
7.0
 40
7.0
 40
7.0
 40
8.0
 40
8.0
 40
8.0
 40
8.0
 10
104.4294568966357
 20
-122.9850856897398
 30
0.0
 10
104.3140461978798
 20
-123.194547495243
 30
0.0
 10
104.1287000607734
 20
-123.2134955204119
 30
0.0
 10
104.0043321137559
 20
-123.2134955204119
 30
0.0
 10
103.8327663585904
 20
-123.2134955204119
 30
0.0
 10
103.6811821572394
 20
-123.166986731361
 30
0.0
 10
103.5795518404246
 20
-122.9850856897398
 30
0.0
 10
103.4686197657995
 20
-122.7904377948232
 30
0.0
 10
103.4482937024365
 20
-122.5537597349866
 30
0.0
 10
103.4482937024365
 20
-122.3908067185343
 30
0.0
 10
103.4482937024365
 20
-122.2468017272508
 30
0.0
 10
103.4662081989598
 20
-121.994965247279
 30
0.0
 10
103.5795518404246
 20
-121.7961832377801
 30
0.0
 10
103.6946180296319
 20
-121.5932671136989
 30
0.0
 10
103.8665282943459
 20
-121.5698404643992
 30
0.0
 10
104.0043321137559
 20
-121.5698404643992
 30
0.0
 10
104.1741753211787
 20
-121.5698404643992
 30
0.0
 10
104.3278265798208
 20
-121.6142821961589
 30
0.0
 10
104.4294568966357
 20
-121.7961832377801
 30
0.0
 10
104.5359103471299
 20
-121.9887640754056
 30
0.0
 10
104.5607150346237
 20
-122.2171739060777
 30
0.0
 10
104.5607150346237
 20
-122.3908067185343
 30
0.0
 10
104.5607150346237
 20
-122.5620279641512
 30
0.0
 10
104.5379774044211
 20
-122.7925048521144
 30
0.0
 10
104.4294568966357
 20
-122.9850856897398
 30
0.0
  0
SPLINE
  5
5E
330
57
100
AcDbEntity
  8
_U+30EC_U+30A4_U+30E4_U+30FC 1
370
     0
100
AcDbSpline
210
0.0
220
0.0
230
1.0
 70
    11
 71
     3
 72
    17
 73
    13
 74
     0
 42
0.0000000001
 43
0.0000000001
 12
1.0
 22
0.0
 32
0.0
 13
1.0
 23
0.0
 33
0.0
 40
0.0
 40
0.0
 40
0.0
 40
0.0
 40
1.0
 40
1.0
 40
1.0
 40
2.0
 40
2.0
 40
2.0
 40
3.0
 40
3.0
 40
3.0
 40
4.0
 40
4.0
 40
4.0
 40
4.0
 10
104.0043321137559
 20
-121.7624213020247
 30
0.0
 10
103.7376817231975
 20
-121.7624213020247
 30
0.0
 10
103.6880723482099
 20
-122.0459526604607
 30
0.0
 10
103.6880723482099
 20
-122.3908067185343
 30
0.0
 10
103.6880723482099
 20
-122.7101670700169
 30
0.0
 10
103.7263129080962
 20
-123.0188476254953
 30
0.0
 10
104.0043321137559
 20
-123.0188476254953
 30
0.0
 10
104.268915447023
 20
-123.0188476254953
 30
0.0
 10
104.3209363888503
 20
-122.7377278338989
 30
0.0
 10
104.3209363888503
 20
-122.3908067185343
 30
0.0
 10
104.3209363888503
 20
-122.0711018575031
 30
0.0
 10
104.2802842621244
 20
-121.7624213020247
 30
0.0
 10
104.0043321137559
 20
-121.7624213020247
 30
0.0
  0
HATCH
  5
5F
330
57
100
AcDbEntity
  8
_U+30EC_U+30A4_U+30E4_U+30FC 1
 62
     7
420
 16777215
100
AcDbHatch
 10
0.0
 20
0.0
 30
0.0
210
0.0
220
0.0
230
1.0
  2
SOLID
 70
     1
 71
     0
 91
        2
 92
        1
 93
        1
 72
     4
 94
        3
 73
     0
 74
     1
 95
       29
 96
       25
 40
0.0
 40
0.0
 40
0.0
 40
0.0
 40
1.0
 40
1.0
 40
1.0
 40
2.0
 40
2.0
 40
2.0
 40
3.0
 40
3.0
 40
3.0
 40
4.0
 40
4.0
 40
4.0
 40
5.0
 40
5.0
 40
5.0
 40
6.0
 40
6.0
 40
6.0
 40
7.0
 40
7.0
 40
7.0
 40
8.0
 40
8.0
 40
8.0
 40
8.0
 10
104.4294568966357
 20
-122.9850856897398
 10
104.3140461978798
 20
-123.194547495243
 10
104.1287000607734
 20
-123.2134955204119
 10
104.0043321137559
 20
-123.2134955204119
 10
103.8327663585904
 20
-123.2134955204119
 10
103.6811821572394
 20
-123.166986731361
 10
103.5795518404246
 20
-122.9850856897398
 10
103.4686197657995
 20
-122.7904377948232
 10
103.4482937024365
 20
-122.5537597349866
 10
103.4482937024365
 20
-122.3908067185343
 10
103.4482937024365
 20
-122.2468017272508
 10
103.4662081989598
 20
-121.994965247279
 10
103.5795518404246
 20
-121.7961832377801
 10
103.6946180296319
 20
-121.5932671136989
 10
103.8665282943459
 20
-121.5698404643992
 10
104.0043321137559
 20
-121.5698404643992
 10
104.1741753211787
 20
-121.5698404643992
 10
104.3278265798208
 20
-121.6142821961589
 10
104.4294568966357
 20
-121.7961832377801
 10
104.5359103471299
 20
-121.9887640754056
 10
104.5607150346237
 20
-122.2171739060777
 10
104.5607150346237
 20
-122.3908067185343
 10
104.5607150346237
 20
-122.5620279641512
 10
104.5379774044211
 20
-122.7925048521144
 10
104.4294568966357
 20
-122.9850856897398
 97
        0
 97
        0
 92
        1
 93
        1
 72
     4
 94
        3
 73
     0
 74
     1
 95
       17
 96
       13
 40
0.0
 40
0.0
 40
0.0
 40
0.0
 40
1.0
 40
1.0
 40
1.0
 40
2.0
 40
2.0
 40
2.0
 40
3.0
 40
3.0
 40
3.0
 40
4.0
 40
4.0
 40
4.0
 40
4.0
 10
104.0043321137559
 20
-121.7624213020247
 10
103.7376817231975
 20
-121.7624213020247
 10
103.6880723482099
 20
-122.0459526604607
 10
103.6880723482099
 20
-122.3908067185343
 10
103.6880723482099
 20
-122.7101670700169
 10
103.7263129080962
 20
-123.0188476254953
 10
104.0043321137559
 20
-123.0188476254953
 10
104.268915447023
 20
-123.0188476254953
 10
104.3209363888503
 20
-122.7377278338989
 10
104.3209363888503
 20
-122.3908067185343
 10
104.3209363888503
 20
-122.0711018575031
 10
104.2802842621244
 20
-121.7624213020247
 10
104.0043321137559
 20
-121.7624213020247
 97
        0
 97
        0
 75
     2
 76
     1
 98
        0
  0
ENDBLK
  5
5A
330
57
100
AcDbEntity
  8
0
100
AcDbBlockEnd
  0
BLOCK
  5
6E
330
6C
100
AcDbEntity
  8
0
100
AcDbBlockBegin
  2
block 3
 70
     0
 10
0.0
 20
0.0
 30
0.0
  3
block 3
  1

  0
SPLINE
  5
70
330
6C
100
AcDbEntity
  8
_U+30EC_U+30A4_U+30E4_U+30FC 1
370
     0
100
AcDbSpline
210
0.0
220
0.0
230
1.0
 70
    11
 71
     3
 72
    44
 73
    40
 74
     0
 42
0.0000000001
 43
0.0000000001
 12
1.0
 22
0.0
 32
0.0
 13
1.0
 23
0.0
 33
0.0
 40
0.0
 40
0.0
 40
0.0
 40
0.0
 40
1.0
 40
1.0
 40
1.0
 40
2.0
 40
2.0
 40
2.0
 40
3.0
 40
3.0
 40
3.0
 40
4.0
 40
4.0
 40
4.0
 40
5.0
 40
5.0
 40
5.0
 40
6.0
 40
6.0
 40
6.0
 40
7.0
 40
7.0
 40
7.0
 40
8.0
 40
8.0
 40
8.0
 40
9.0
 40
9.0
 40
9.0
 40
10.0
 40
10.0
 40
10.0
 40
11.0
 40
11.0
 40
11.0
 40
12.0
 40
12.0
 40
12.0
 40
13.0
 40
13.0
 40
13.0
 40
13.0
 10
70.70317787945963
 20
-135.9610378349334
 30
0.0
 10
70.86182452655538
 20
-136.1939262897363
 30
0.0
 10
70.93589407948825
 20
-136.29348954926
 30
0.0
 10
71.07972681599743
 20
-136.3455104910873
 30
0.0
 10
71.07972681599743
 20
-136.3455104910873
 30
0.0
 10
71.07972681599743
 20
-135.5131754218509
 30
0.0
 10
71.07972681599743
 20
-135.5131754218509
 30
0.0
 10
71.07972681599743
 20
-135.5131754218509
 30
0.0
 10
71.28488225214406
 20
-135.5131754218509
 30
0.0
 10
71.28488225214406
 20
-135.5131754218509
 30
0.0
 10
71.28488225214406
 20
-135.5131754218509
 30
0.0
 10
71.28488225214406
 20
-136.6121608816456
 30
0.0
 10
71.28488225214406
 20
-136.6121608816456
 30
0.0
 10
70.92728134077512
 20
-136.5780544363416
 30
0.0
 10
70.84907767325996
 20
-136.508118997991
 30
0.0
 10
70.55073240423732
 20
-136.0967745970522
 30
0.0
 10
70.35195039473841
 20
-135.8232340155234
 30
0.0
 10
70.28425426845324
 20
-135.7529540676243
 30
0.0
 10
70.14679495859178
 20
-135.7529540676243
 30
0.0
 10
70.02828367389918
 20
-135.7529540676243
 30
0.0
 10
69.89702553591117
 20
-135.8297796969453
 30
0.0
 10
69.89702553591117
 20
-136.0402750310941
 30
0.0
 10
69.89702553591117
 20
-136.3182942367538
 30
0.0
 10
70.12767467864865
 20
-136.3272514850154
 30
0.0
 10
70.24411890605009
 20
-136.3317301091462
 30
0.0
 10
70.24411890605009
 20
-136.3317301091462
 30
0.0
 10
70.24411890605009
 20
-136.5715087549196
 30
0.0
 10
70.24411890605009
 20
-136.5715087549196
 30
0.0
 10
70.11716713741863
 20
-136.562551506658
 30
0.0
 10
70.00502927937374
 20
-136.5511826915566
 30
0.0
 10
69.88651799468116
 20
-136.4650553044254
 30
0.0
 10
69.72580429029425
 20
-136.3475775483784
 30
0.0
 10
69.69187009976453
 20
-136.1487955388795
 30
0.0
 10
69.69187009976453
 20
-136.024427591862
 30
0.0
 10
69.69187009976453
 20
-135.7281493801305
 30
0.0
 10
69.87601045345114
 20
-135.5066297404289
 30
0.0
 10
70.14886201588293
 20
-135.5066297404289
 30
0.0
 10
70.37727184655499
 20
-135.5066297404289
 30
0.0
 10
70.47683510607871
 20
-135.6309976874464
 30
0.0
 10
70.70317787945963
 20
-135.9610378349334
 30
0.0
  0
HATCH
  5
71
330
6C
100
AcDbEntity
  8
_U+30EC_U+30A4_U+30E4_U+30FC 1
 62
     7
420
 16777215
100
AcDbHatch
 10
0.0
 20
0.0
 30
0.0
210
0.0
220
0.0
230
1.0
  2
SOLID
 70
     1
 71
     0
 91
        1
 92
        1
 93
        1
 72
     4
 94
        3
 73
     0
 74
     1
 95
       44
 96
       40
 40
0.0
 40
0.0
 40
0.0
 40
0.0
 40
1.0
 40
1.0
 40
1.0
 40
2.0
 40
2.0
 40
2.0
 40
3.0
 40
3.0
 40
3.0
 40
4.0
 40
4.0
 40
4.0
 40
5.0
 40
5.0
 40
5.0
 40
6.0
 40
6.0
 40
6.0
 40
7.0
 40
7.0
 40
7.0
 40
8.0
 40
8.0
 40
8.0
 40
9.0
 40
9.0
 40
9.0
 40
10.0
 40
10.0
 40
10.0
 40
11.0
 40
11.0
 40
11.0
 40
12.0
 40
12.0
 40
12.0
 40
13.0
 40
13.0
 40
13.0
 40
13.0
 10
70.70317787945963
 20
-135.9610378349334
 10
70.86182452655538
 20
-136.1939262897363
 10
70.93589407948825
 20
-136.29348954926
 10
71.07972681599743
 20
-136.3455104910873
 10
71.07972681599743
 20
-136.3455104910873
 10
71.07972681599743
 20
-135.5131754218509
 10
71.07972681599743
 20
-135.5131754218509
 10
71.07972681599743
 20
-135.5131754218509
 10
71.28488225214406
 20
-135.5131754218509
 10
71.28488225214406
 20
-135.5131754218509
 10
71.28488225214406
 20
-135.5131754218509
 10
71.28488225214406
 20
-136.6121608816456
 10
71.28488225214406
 20
-136.6121608816456
 10
70.92728134077512
 20
-136.5780544363416
 10
70.84907767325996
 20
-136.508118997991
 10
70.55073240423732
 20
-136.0967745970522
 10
70.35195039473841
 20
-135.8232340155234
 10
70.28425426845324
 20
-135.7529540676243
 10
70.14679495859178
 20
-135.7529540676243
 10
70.02828367389918
 20
-135.7529540676243
 10
69.89702553591117
 20
-135.8297796969453
 10
69.89702553591117
 20
-136.0402750310941
 10
69.89702553591117
 20
-136.3182942367538
 10
70.12767467864865
 20
-136.3272514850154
 10
70.24411890605009
 20
-136.3317301091462
 10
70.24411890605009
 20
-136.3317301091462
 10
70.24411890605009
 20
-136.5715087549196
 10
70.24411890605009
 20
-136.5715087549196
 10
70.11716713741863
 20
-136.562551506658
 10
70.00502927937374
 20
-136.5511826915566
 10
69.88651799468116
 20
-136.4650553044254
 10
69.72580429029425
 20
-136.3475775483784
 10
69.69187009976453
 20
-136.1487955388795
 10
69.69187009976453
 20
-136.024427591862
 10
69.69187009976453
 20
-135.7281493801305
 10
69.87601045345114
 20
-135.5066297404289
 10
70.14886201588293
 20
-135.5066297404289
 10
70.37727184655499
 20
-135.5066297404289
 10
70.47683510607871
 20
-135.6309976874464
 10
70.70317787945963
 20
-135.9610378349334
 97
        0
 97
        0
 75
     2
 76
     1
 98
        0
  0
SPLINE
  5
72
330
6C
100
AcDbEntity
  8
_U+30EC_U+30A4_U+30E4_U+30FC 1
370
     0
100
AcDbSpline
210
0.0
220
0.0
230
1.0
 70
    11
 71
     3
 72
    26
 73
    22
 74
     0
 42
0.0000000001
 43
0.0000000001
 12
1.0
 22
0.0
 32
0.0
 13
1.0
 23
0.0
 33
0.0
 40
0.0
 40
0.0
 40
0.0
 40
0.0
 40
1.0
 40
1.0
 40
1.0
 40
2.0
 40
2.0
 40
2.0
 40
3.0
 40
3.0
 40
3.0
 40
4.0
 40
4.0
 40
4.0
 40
5.0
 40
5.0
 40
5.0
 40
6.0
 40
6.0
 40
6.0
 40
7.0
 40
7.0
 40
7.0
 40
7.0
 10
71.28488225214406
 20
-134.8548176746196
 30
0.0
 10
71.28488225214406
 20
-134.8548176746196
 30
0.0
 10
70.18055689434722
 20
-134.8548176746196
 30
0.0
 10
70.18055689434722
 20
-134.8548176746196
 30
0.0
 10
70.18055689434722
 20
-134.8548176746196
 30
0.0
 10
70.18055689434722
 20
-135.2072509427607
 30
0.0
 10
70.18055689434722
 20
-135.2072509427607
 30
0.0
 10
70.18055689434722
 20
-135.2072509427607
 30
0.0
 10
70.03241778848148
 20
-135.2072509427607
 30
0.0
 10
70.03241778848148
 20
-135.2072509427607
 30
0.0
 10
70.01777613266917
 20
-134.85240610778
 30
0.0
 10
69.85482311621685
 20
-134.8027967327924
 30
0.0
 10
69.74061820088082
 20
-134.7711018543281
 30
0.0
 10
69.74061820088082
 20
-134.7711018543281
 30
0.0
 10
69.74061820088082
 20
-134.6150390288462
 30
0.0
 10
69.74061820088082
 20
-134.6150390288462
 30
0.0
 10
69.74061820088082
 20
-134.6150390288462
 30
0.0
 10
71.28488225214406
 20
-134.6150390288462
 30
0.0
 10
71.28488225214406
 20
-134.6150390288462
 30
0.0
 10
71.28488225214406
 20
-134.6150390288462
 30
0.0
 10
71.28488225214406
 20
-134.8548176746196
 30
0.0
 10
71.28488225214406
 20
-134.8548176746196
 30
0.0
  0
HATCH
  5
73
330
6C
100
AcDbEntity
  8
_U+30EC_U+30A4_U+30E4_U+30FC 1
 62
     7
420
 16777215
100
AcDbHatch
 10
0.0
 20
0.0
 30
0.0
210
0.0
220
0.0
230
1.0
  2
SOLID
 70
     1
 71
     0
 91
        1
 92
        1
 93
        1
 72
     4
 94
        3
 73
     0
 74
     1
 95
       26
 96
       22
 40
0.0
 40
0.0
 40
0.0
 40
0.0
 40
1.0
 40
1.0
 40
1.0
 40
2.0
 40
2.0
 40
2.0
 40
3.0
 40
3.0
 40
3.0
 40
4.0
 40
4.0
 40
4.0
 40
5.0
 40
5.0
 40
5.0
 40
6.0
 40
6.0
 40
6.0
 40
7.0
 40
7.0
 40
7.0
 40
7.0
 10
71.28488225214406
 20
-134.8548176746196
 10
71.28488225214406
 20
-134.8548176746196
 10
70.18055689434722
 20
-134.8548176746196
 10
70.18055689434722
 20
-134.8548176746196
 10
70.18055689434722
 20
-134.8548176746196
 10
70.18055689434722
 20
-135.2072509427607
 10
70.18055689434722
 20
-135.2072509427607
 10
70.18055689434722
 20
-135.2072509427607
 10
70.03241778848148
 20
-135.2072509427607
 10
70.03241778848148
 20
-135.2072509427607
 10
70.01777613266917
 20
-134.85240610778
 10
69.85482311621685
 20
-134.8027967327924
 10
69.74061820088082
 20
-134.7711018543281
 10
69.74061820088082
 20
-134.7711018543281
 10
69.74061820088082
 20
-134.6150390288462
 10
69.74061820088082
 20
-134.6150390288462
 10
69.74061820088082
 20
-134.6150390288462
 10
71.28488225214406
 20
-134.6150390288462
 10
71.28488225214406
 20
-134.6150390288462
 10
71.28488225214406
 20
-134.6150390288462
 10
71.28488225214406
 20
-134.8548176746196
 10
71.28488225214406
 20
-134.8548176746196
 97
        0
 97
        0
 75
     2
 76
     1
 98
        0
  0
POLYLINE
  5
74
330
6C
100
AcDbEntity
  8
_U+30EC_U+30A4_U+30E4_U+30FC 1
370
     0
100
AcDb2dPolyline
 66
     1
 10
0.0
 20
0.0
 30
0.0
  0
VERTEX
  5
75
330
74
100
AcDbEntity
  8
_U+30EC_U+30A4_U+30E4_U+30FC 1
370
     0
100
AcDbVertex
100
AcDb2dVertex
 10
71.28488225214406
 20
-134.0152479048643
 30
0.0
  0
VERTEX
  5
76
330
74
100
AcDbEntity
  8
_U+30EC_U+30A4_U+30E4_U+30FC 1
370
     0
100
AcDbVertex
100
AcDb2dVertex
 10
71.03321802694656
 20
-134.0152479048643
 30
0.0
  0
VERTEX
  5
77
330
74
100
AcDbEntity
  8
_U+30EC_U+30A4_U+30E4_U+30FC 1
370
     0
100
AcDbVertex
100
AcDb2dVertex
 10
71.03321802694656
 20
-133.7461859474662
 30
0.0
  0
VERTEX
  5
78
330
74
100
AcDbEntity
  8
_U+30EC_U+30A4_U+30E4_U+30FC 1
370
     0
100
AcDbVertex
100
AcDb2dVertex
 10
71.28488225214406
 20
-133.7461859474662
 30
0.0
  0
VERTEX
  5
79
330
74
100
AcDbEntity
  8
_U+30EC_U+30A4_U+30E4_U+30FC 1
370
     0
100
AcDbVertex
100
AcDb2dVertex
 10
71.28488225214406
 20
-134.0152479048643
 30
0.0
  0
SEQEND
  5
7A
330
74
100
AcDbEntity
  8
_U+30EC_U+30A4_U+30E4_U+30FC 1
370
     0
  0
HATCH
  5
7B
330
6C
100
AcDbEntity
  8
_U+30EC_U+30A4_U+30E4_U+30FC 1
 62
     7
420
 16777215
100
AcDbHatch
 10
0.0
 20
0.0
 30
0.0
210
0.0
220
0.0
230
1.0
  2
SOLID
 70
     1
 71
     0
 91
        1
 92
        1
 93
        4
 72
     1
 10
71.28488225214406
 20
-134.0152479048643
 11
71.03321802694656
 21
-134.0152479048643
 72
     1
 10
71.03321802694656
 20
-134.0152479048643
 11
71.03321802694656
 21
-133.7461859474662
 72
     1
 10
71.03321802694656
 20
-133.7461859474662
 11
71.28488225214406
 21
-133.7461859474662
 72
     1
 10
71.28488225214406
 20
-133.7461859474662
 11
71.28488225214406
 21
-134.0152479048643
 97
        0
 75
     2
 76
     1
 98
        0
  0
SPLINE
  5
7C
330
6C
100
AcDbEntity
  8
_U+30EC_U+30A4_U+30E4_U+30FC 1
370
     0
100
AcDbSpline
210
0.0
220
0.0
230
1.0
 70
    11
 71
     3
 72
    53
 73
    49
 74
     0
 42
0.0000000001
 43
0.0000000001
 12
1.0
 22
0.0
 32
0.0
 13
1.0
 23
0.0
 33
0.0
 40
0.0
 40
0.0
 40
0.0
 40
0.0
 40
1.0
 40
1.0
 40
1.0
 40
2.0
 40
2.0
 40
2.0
 40
3.0
 40
3.0
 40
3.0
 40
4.0
 40
4.0
 40
4.0
 40
5.0
 40
5.0
 40
5.0
 40
6.0
 40
6.0
 40
6.0
 40
7.0
 40
7.0
 40
7.0
 40
8.0
 40
8.0
 40
8.0
 40
9.0
 40
9.0
 40
9.0
 40
10.0
 40
10.0
 40
10.0
 40
11.0
 40
11.0
 40
11.0
 40
12.0
 40
12.0
 40
12.0
 40
13.0
 40
13.0
 40
13.0
 40
14.0
 40
14.0
 40
14.0
 40
15.0
 40
15.0
 40
15.0
 40
16.0
 40
16.0
 40
16.0
 40
16.0
 10
71.33569741055149
 20
-132.9793076924496
 30
0.0
 10
71.33569741055149
 20
-133.0630235127412
 30
0.0
 10
71.31881644267376
 20
-133.171199510978
 30
0.0
 10
71.25525443097091
 20
-133.2800645283119
 30
0.0
 10
71.14518363021718
 20
-133.4654106654184
 30
0.0
 10
71.01409774700342
 20
-133.4878037860725
 30
0.0
 10
70.9062662583151
 20
-133.5081298494355
 30
0.0
 10
70.9062662583151
 20
-133.5081298494355
 30
0.0
 10
70.9062662583151
 20
-133.2707627705018
 30
0.0
 10
70.9062662583151
 20
-133.2707627705018
 30
0.0
 10
71.10504826781401
 20
-133.2121961472525
 30
0.0
 10
71.13467608898716
 20
-133.0764593851337
 30
0.0
 10
71.13467608898716
 20
-132.97689612561
 30
0.0
 10
71.13467608898716
 20
-132.8277234910986
 30
0.0
 10
71.03528508423771
 20
-132.6647704746463
 30
0.0
 10
70.80256888420908
 20
-132.6647704746463
 30
0.0
 10
70.54659828965502
 20
-132.6647704746463
 30
0.0
 10
70.47683510607871
 20
-132.8570068027232
 30
0.0
 10
70.47683510607871
 20
-132.9858533738716
 30
0.0
 10
70.47683510607871
 20
-133.0199598191756
 30
0.0
 10
70.47683510607871
 20
-133.171199510978
 30
0.0
 10
70.60585393200132
 20
-133.2662841463709
 30
0.0
 10
70.60585393200132
 20
-133.2662841463709
 30
0.0
 10
70.58673365205819
 20
-133.4540418503171
 30
0.0
 10
70.58673365205819
 20
-133.4540418503171
 30
0.0
 10
70.58673365205819
 20
-133.4540418503171
 30
0.0
 10
69.74061820088082
 20
-133.3251952791687
 30
0.0
 10
69.74061820088082
 20
-133.3251952791687
 30
0.0
 10
69.74061820088082
 20
-133.3251952791687
 30
0.0
 10
69.74061820088082
 20
-132.4932047194809
 30
0.0
 10
69.74061820088082
 20
-132.4932047194809
 30
0.0
 10
69.74061820088082
 20
-132.4932047194809
 30
0.0
 10
69.93526609579743
 20
-132.4932047194809
 30
0.0
 10
69.93526609579743
 20
-132.4932047194809
 30
0.0
 10
69.93526609579743
 20
-132.4932047194809
 30
0.0
 10
69.93526609579743
 20
-133.1508734476151
 30
0.0
 10
69.93526609579743
 20
-133.1508734476151
 30
0.0
 10
69.93526609579743
 20
-133.1508734476151
 30
0.0
 10
70.35832382138612
 20
-133.2211533955142
 30
0.0
 10
70.35832382138612
 20
-133.2211533955142
 30
0.0
 10
70.3243896308564
 20
-133.1556965812944
 30
0.0
 10
70.28425426845324
 20
-133.067502136872
 30
0.0
 10
70.28425426845324
 20
-132.9407226230148
 30
0.0
 10
70.28425426845324
 20
-132.6695936083257
 30
0.0
 10
70.470461679431
 20
-132.4163790901598
 30
0.0
 10
70.78344860426594
 20
-132.4163790901598
 30
0.0
 10
71.10091415323171
 20
-132.4163790901598
 30
0.0
 10
71.33569741055149
 20
-132.6558132263847
 30
0.0
 10
71.33569741055149
 20
-132.9793076924496
 30
0.0
  0
HATCH
  5
7D
330
6C
100
AcDbEntity
  8
_U+30EC_U+30A4_U+30E4_U+30FC 1
 62
     7
420
 16777215
100
AcDbHatch
 10
0.0
 20
0.0
 30
0.0
210
0.0
220
0.0
230
1.0
  2
SOLID
 70
     1
 71
     0
 91
        1
 92
        1
 93
        1
 72
     4
 94
        3
 73
     0
 74
     1
 95
       53
 96
       49
 40
0.0
 40
0.0
 40
0.0
 40
0.0
 40
1.0
 40
1.0
 40
1.0
 40
2.0
 40
2.0
 40
2.0
 40
3.0
 40
3.0
 40
3.0
 40
4.0
 40
4.0
 40
4.0
 40
5.0
 40
5.0
 40
5.0
 40
6.0
 40
6.0
 40
6.0
 40
7.0
 40
7.0
 40
7.0
 40
8.0
 40
8.0
 40
8.0
 40
9.0
 40
9.0
 40
9.0
 40
10.0
 40
10.0
 40
10.0
 40
11.0
 40
11.0
 40
11.0
 40
12.0
 40
12.0
 40
12.0
 40
13.0
 40
13.0
 40
13.0
 40
14.0
 40
14.0
 40
14.0
 40
15.0
 40
15.0
 40
15.0
 40
16.0
 40
16.0
 40
16.0
 40
16.0
 10
71.33569741055149
 20
-132.9793076924496
 10
71.33569741055149
 20
-133.0630235127412
 10
71.31881644267376
 20
-133.171199510978
 10
71.25525443097091
 20
-133.2800645283119
 10
71.14518363021718
 20
-133.4654106654184
 10
71.01409774700342
 20
-133.4878037860725
 10
70.9062662583151
 20
-133.5081298494355
 10
70.9062662583151
 20
-133.5081298494355
 10
70.9062662583151
 20
-133.2707627705018
 10
70.9062662583151
 20
-133.2707627705018
 10
71.10504826781401
 20
-133.2121961472525
 10
71.13467608898716
 20
-133.0764593851337
 10
71.13467608898716
 20
-132.97689612561
 10
71.13467608898716
 20
-132.8277234910986
 10
71.03528508423771
 20
-132.6647704746463
 10
70.80256888420908
 20
-132.6647704746463
 10
70.54659828965502
 20
-132.6647704746463
 10
70.47683510607871
 20
-132.8570068027232
 10
70.47683510607871
 20
-132.9858533738716
 10
70.47683510607871
 20
-133.0199598191756
 10
70.47683510607871
 20
-133.171199510978
 10
70.60585393200132
 20
-133.2662841463709
 10
70.60585393200132
 20
-133.2662841463709
 10
70.58673365205819
 20
-133.4540418503171
 10
70.58673365205819
 20
-133.4540418503171
 10
70.58673365205819
 20
-133.4540418503171
 10
69.74061820088082
 20
-133.3251952791687
 10
69.74061820088082
 20
-133.3251952791687
 10
69.74061820088082
 20
-133.3251952791687
 10
69.74061820088082
 20
-132.4932047194809
 10
69.74061820088082
 20
-132.4932047194809
 10
69.74061820088082
 20
-132.4932047194809
 10
69.93526609579743
 20
-132.4932047194809
 10
69.93526609579743
 20
-132.4932047194809
 10
69.93526609579743
 20
-132.4932047194809
 10
69.93526609579743
 20
-133.1508734476151
 10
69.93526609579743
 20
-133.1508734476151
 10
69.93526609579743
 20
-133.1508734476151
 10
70.35832382138612
 20
-133.2211533955142
 10
70.35832382138612
 20
-133.2211533955142
 10
70.3243896308564
 20
-133.1556965812944
 10
70.28425426845324
 20
-133.067502136872
 10
70.28425426845324
 20
-132.9407226230148
 10
70.28425426845324
 20
-132.6695936083257
 10
70.470461679431
 20
-132.4163790901598
 10
70.78344860426594
 20
-132.4163790901598
 10
71.10091415323171
 20
-132.4163790901598
 10
71.33569741055149
 20
-132.6558132263847
 10
71.33569741055149
 20
-132.9793076924496
 97
        0
 97
        0
 75
     2
 76
     1
 98
        0
  0
ENDBLK
  5
6F
330
6C
100
AcDbEntity
  8
0
100
AcDbBlockEnd
  0
BLOCK
  5
8C
330
8A
100
AcDbEntity
  8
0
100
AcDbBlockBegin
  2
block 4
 70
     0
 10
0.0
 20
0.0
 30
0.0
  3
block 4
  1

  0
SPLINE
  5
8E
330
8A
100
AcDbEntity
  8
_U+30EC_U+30A4_U+30E4_U+30FC 1
370
     0
100
AcDbSpline
210
0.0
220
0.0
230
1.0
 70
    11
 71
     3
 72
    26
 73
    22
 74
     0
 42
0.0000000001
 43
0.0000000001
 12
1.0
 22
0.0
 32
0.0
 13
1.0
 23
0.0
 33
0.0
 40
0.0
 40
0.0
 40
0.0
 40
0.0
 40
1.0
 40
1.0
 40
1.0
 40
2.0
 40
2.0
 40
2.0
 40
3.0
 40
3.0
 40
3.0
 40
4.0
 40
4.0
 40
4.0
 40
5.0
 40
5.0
 40
5.0
 40
6.0
 40
6.0
 40
6.0
 40
7.0
 40
7.0
 40
7.0
 40
7.0
 10
83.02662893974681
 20
-119.1630967584037
 30
0.0
 10
83.02662893974681
 20
-119.1630967584037
 30
0.0
 10
83.02662893974681
 20
-118.0587714006068
 30
0.0
 10
83.02662893974681
 20
-118.0587714006068
 30
0.0
 10
83.02662893974681
 20
-118.0587714006068
 30
0.0
 10
82.67419567160576
 20
-118.0587714006068
 30
0.0
 10
82.67419567160576
 20
-118.0587714006068
 30
0.0
 10
82.67419567160576
 20
-118.0587714006068
 30
0.0
 10
82.67419567160576
 20
-117.9108045495154
 30
0.0
 10
82.67419567160576
 20
-117.9108045495154
 30
0.0
 10
83.0290405065865
 20
-117.8959906389288
 30
0.0
 10
83.0786498815741
 20
-117.7330376224765
 30
0.0
 10
83.11034476003839
 20
-117.6188327071404
 30
0.0
 10
83.11034476003839
 20
-117.6188327071404
 30
0.0
 10
83.26640758552021
 20
-117.6188327071404
 30
0.0
 10
83.26640758552021
 20
-117.6188327071404
 30
0.0
 10
83.26640758552021
 20
-117.6188327071404
 30
0.0
 10
83.26640758552021
 20
-119.1630967584037
 30
0.0
 10
83.26640758552021
 20
-119.1630967584037
 30
0.0
 10
83.26640758552021
 20
-119.1630967584037
 30
0.0
 10
83.02662893974681
 20
-119.1630967584037
 30
0.0
 10
83.02662893974681
 20
-119.1630967584037
 30
0.0
  0
HATCH
  5
8F
330
8A
100
AcDbEntity
  8
_U+30EC_U+30A4_U+30E4_U+30FC 1
 62
     7
420
 16777215
100
AcDbHatch
 10
0.0
 20
0.0
 30
0.0
210
0.0
220
0.0
230
1.0
  2
SOLID
 70
     1
 71
     0
 91
        1
 92
        1
 93
        1
 72
     4
 94
        3
 73
     0
 74
     1
 95
       26
 96
       22
 40
0.0
 40
0.0
 40
0.0
 40
0.0
 40
1.0
 40
1.0
 40
1.0
 40
2.0
 40
2.0
 40
2.0
 40
3.0
 40
3.0
 40
3.0
 40
4.0
 40
4.0
 40
4.0
 40
5.0
 40
5.0
 40
5.0
 40
6.0
 40
6.0
 40
6.0
 40
7.0
 40
7.0
 40
7.0
 40
7.0
 10
83.02662893974681
 20
-119.1630967584037
 10
83.02662893974681
 20
-119.1630967584037
 10
83.02662893974681
 20
-118.0587714006068
 10
83.02662893974681
 20
-118.0587714006068
 10
83.02662893974681
 20
-118.0587714006068
 10
82.67419567160576
 20
-118.0587714006068
 10
82.67419567160576
 20
-118.0587714006068
 10
82.67419567160576
 20
-118.0587714006068
 10
82.67419567160576
 20
-117.9108045495154
 10
82.67419567160576
 20
-117.9108045495154
 10
83.0290405065865
 20
-117.8959906389288
 10
83.0786498815741
 20
-117.7330376224765
 10
83.11034476003839
 20
-117.6188327071404
 10
83.11034476003839
 20
-117.6188327071404
 10
83.26640758552021
 20
-117.6188327071404
 10
83.26640758552021
 20
-117.6188327071404
 10
83.26640758552021
 20
-117.6188327071404
 10
83.26640758552021
 20
-119.1630967584037
 10
83.26640758552021
 20
-119.1630967584037
 10
83.26640758552021
 20
-119.1630967584037
 10
83.02662893974681
 20
-119.1630967584037
 10
83.02662893974681
 20
-119.1630967584037
 97
        0
 97
        0
 75
     2
 76
     1
 98
        0
  0
SPLINE
  5
90
330
8A
100
AcDbEntity
  8
_U+30EC_U+30A4_U+30E4_U+30FC 1
370
     0
100
AcDbSpline
210
0.0
220
0.0
230
1.0
 70
    11
 71
     3
 72
    53
 73
    49
 74
     0
 42
0.0000000001
 43
0.0000000001
 12
1.0
 22
0.0
 32
0.0
 13
1.0
 23
0.0
 33
0.0
 40
0.0
 40
0.0
 40
0.0
 40
0.0
 40
1.0
 40
1.0
 40
1.0
 40
2.0
 40
2.0
 40
2.0
 40
3.0
 40
3.0
 40
3.0
 40
4.0
 40
4.0
 40
4.0
 40
5.0
 40
5.0
 40
5.0
 40
6.0
 40
6.0
 40
6.0
 40
7.0
 40
7.0
 40
7.0
 40
8.0
 40
8.0
 40
8.0
 40
9.0
 40
9.0
 40
9.0
 40
10.0
 40
10.0
 40
10.0
 40
11.0
 40
11.0
 40
11.0
 40
12.0
 40
12.0
 40
12.0
 40
13.0
 40
13.0
 40
13.0
 40
14.0
 40
14.0
 40
14.0
 40
15.0
 40
15.0
 40
15.0
 40
16.0
 40
16.0
 40
16.0
 40
16.0
 10
84.31612817987583
 20
-119.2139119168111
 30
0.0
 10
84.23241235958426
 20
-119.2139119168111
 30
0.0
 10
84.12423636134741
 20
-119.1968586941591
 30
0.0
 10
84.01537134401352
 20
-119.1334689372305
 30
0.0
 10
83.83002520690708
 20
-119.0233981364768
 30
0.0
 10
83.80763208625295
 20
-118.892312253263
 30
0.0
 10
83.78730602288998
 20
-118.7844807645747
 30
0.0
 10
83.78730602288998
 20
-118.7844807645747
 30
0.0
 10
84.0246731018237
 20
-118.7844807645747
 30
0.0
 10
84.0246731018237
 20
-118.7844807645747
 30
0.0
 10
84.08323972507294
 20
-118.9832627740736
 30
0.0
 10
84.21897648719178
 20
-119.0128905952468
 30
0.0
 10
84.3185397467155
 20
-119.0128905952468
 30
0.0
 10
84.46771238122683
 20
-119.0128905952468
 30
0.0
 10
84.63066539767914
 20
-118.9134995904973
 30
0.0
 10
84.63066539767914
 20
-118.6807833904687
 30
0.0
 10
84.63066539767914
 20
-118.4248127959146
 30
0.0
 10
84.43842906960221
 20
-118.3550496123383
 30
0.0
 10
84.30958249845386
 20
-118.3550496123383
 30
0.0
 10
84.27547605314989
 20
-118.3550496123383
 30
0.0
 10
84.12423636134741
 20
-118.3550496123383
 30
0.0
 10
84.02915172595452
 20
-118.4840684382609
 30
0.0
 10
84.02915172595452
 20
-118.4840684382609
 30
0.0
 10
83.8413940220084
 20
-118.4649481583178
 30
0.0
 10
83.8413940220084
 20
-118.4649481583178
 30
0.0
 10
83.8413940220084
 20
-118.4649481583178
 30
0.0
 10
83.97024059315675
 20
-117.6188327071404
 30
0.0
 10
83.97024059315675
 20
-117.6188327071404
 30
0.0
 10
83.97024059315675
 20
-117.6188327071404
 30
0.0
 10
84.80223115284458
 20
-117.6188327071404
 30
0.0
 10
84.80223115284458
 20
-117.6188327071404
 30
0.0
 10
84.80223115284458
 20
-117.6188327071404
 30
0.0
 10
84.80223115284458
 20
-117.8134806020571
 30
0.0
 10
84.80223115284458
 20
-117.8134806020571
 30
0.0
 10
84.80223115284458
 20
-117.8134806020571
 30
0.0
 10
84.14456242471039
 20
-117.8134806020571
 30
0.0
 10
84.14456242471039
 20
-117.8134806020571
 30
0.0
 10
84.14456242471039
 20
-117.8134806020571
 30
0.0
 10
84.07428247681129
 20
-118.2365383276457
 30
0.0
 10
84.07428247681129
 20
-118.2365383276457
 30
0.0
 10
84.13973929103103
 20
-118.202604137116
 30
0.0
 10
84.22793373545343
 20
-118.1624687747129
 30
0.0
 10
84.35471324931063
 20
-118.1624687747129
 30
0.0
 10
84.6258422639998
 20
-118.1624687747129
 30
0.0
 10
84.87905678216566
 20
-118.3486761856906
 30
0.0
 10
84.87905678216566
 20
-118.6616631105256
 30
0.0
 10
84.87905678216566
 20
-118.9791286594913
 30
0.0
 10
84.63962264594079
 20
-119.2139119168111
 30
0.0
 10
84.31612817987583
 20
-119.2139119168111
 30
0.0
  0
HATCH
  5
91
330
8A
100
AcDbEntity
  8
_U+30EC_U+30A4_U+30E4_U+30FC 1
 62
     7
420
 16777215
100
AcDbHatch
 10
0.0
 20
0.0
 30
0.0
210
0.0
220
0.0
230
1.0
  2
SOLID
 70
     1
 71
     0
 91
        1
 92
        1
 93
        1
 72
     4
 94
        3
 73
     0
 74
     1
 95
       53
 96
       49
 40
0.0
 40
0.0
 40
0.0
 40
0.0
 40
1.0
 40
1.0
 40
1.0
 40
2.0
 40
2.0
 40
2.0
 40
3.0
 40
3.0
 40
3.0
 40
4.0
 40
4.0
 40
4.0
 40
5.0
 40
5.0
 40
5.0
 40
6.0
 40
6.0
 40
6.0
 40
7.0
 40
7.0
 40
7.0
 40
8.0
 40
8.0
 40
8.0
 40
9.0
 40
9.0
 40
9.0
 40
10.0
 40
10.0
 40
10.0
 40
11.0
 40
11.0
 40
11.0
 40
12.0
 40
12.0
 40
12.0
 40
13.0
 40
13.0
 40
13.0
 40
14.0
 40
14.0
 40
14.0
 40
15.0
 40
15.0
 40
15.0
 40
16.0
 40
16.0
 40
16.0
 40
16.0
 10
84.31612817987583
 20
-119.2139119168111
 10
84.23241235958426
 20
-119.2139119168111
 10
84.12423636134741
 20
-119.1968586941591
 10
84.01537134401352
 20
-119.1334689372305
 10
83.83002520690708
 20
-119.0233981364768
 10
83.80763208625295
 20
-118.892312253263
 10
83.78730602288998
 20
-118.7844807645747
 10
83.78730602288998
 20
-118.7844807645747
 10
84.0246731018237
 20
-118.7844807645747
 10
84.0246731018237
 20
-118.7844807645747
 10
84.08323972507294
 20
-118.9832627740736
 10
84.21897648719178
 20
-119.0128905952468
 10
84.3185397467155
 20
-119.0128905952468
 10
84.46771238122683
 20
-119.0128905952468
 10
84.63066539767914
 20
-118.9134995904973
 10
84.63066539767914
 20
-118.6807833904687
 10
84.63066539767914
 20
-118.4248127959146
 10
84.43842906960221
 20
-118.3550496123383
 10
84.30958249845386
 20
-118.3550496123383
 10
84.27547605314989
 20
-118.3550496123383
 10
84.12423636134741
 20
-118.3550496123383
 10
84.02915172595452
 20
-118.4840684382609
 10
84.02915172595452
 20
-118.4840684382609
 10
83.8413940220084
 20
-118.4649481583178
 10
83.8413940220084
 20
-118.4649481583178
 10
83.8413940220084
 20
-118.4649481583178
 10
83.97024059315675
 20
-117.6188327071404
 10
83.97024059315675
 20
-117.6188327071404
 10
83.97024059315675
 20
-117.6188327071404
 10
84.80223115284458
 20
-117.6188327071404
 10
84.80223115284458
 20
-117.6188327071404
 10
84.80223115284458
 20
-117.6188327071404
 10
84.80223115284458
 20
-117.8134806020571
 10
84.80223115284458
 20
-117.8134806020571
 10
84.80223115284458
 20
-117.8134806020571
 10
84.14456242471039
 20
-117.8134806020571
 10
84.14456242471039
 20
-117.8134806020571
 10
84.14456242471039
 20
-117.8134806020571
 10
84.07428247681129
 20
-118.2365383276457
 10
84.07428247681129
 20
-118.2365383276457
 10
84.13973929103103
 20
-118.202604137116
 10
84.22793373545343
 20
-118.1624687747129
 10
84.35471324931063
 20
-118.1624687747129
 10
84.6258422639998
 20
-118.1624687747129
 10
84.87905678216566
 20
-118.3486761856906
 10
84.87905678216566
 20
-118.6616631105256
 10
84.87905678216566
 20
-118.9791286594913
 10
84.63962264594079
 20
-119.2139119168111
 10
84.31612817987583
 20
-119.2139119168111
 97
        0
 97
        0
 75
     2
 76
     1
 98
        0
  0
POLYLINE
  5
92
330
8A
100
AcDbEntity
  8
_U+30EC_U+30A4_U+30E4_U+30FC 1
370
     0
100
AcDb2dPolyline
 66
     1
 10
0.0
 20
0.0
 30
0.0
  0
VERTEX
  5
93
330
92
100
AcDbEntity
  8
_U+30EC_U+30A4_U+30E4_U+30FC 1
370
     0
100
AcDbVertex
100
AcDb2dVertex
 10
85.12400307116692
 20
-119.1630967584037
 30
0.0
  0
VERTEX
  5
94
330
92
100
AcDbEntity
  8
_U+30EC_U+30A4_U+30E4_U+30FC 1
370
     0
100
AcDbVertex
100
AcDb2dVertex
 10
85.12400307116692
 20
-118.9114325332062
 30
0.0
  0
VERTEX
  5
95
330
92
100
AcDbEntity
  8
_U+30EC_U+30A4_U+30E4_U+30FC 1
370
     0
100
AcDbVertex
100
AcDb2dVertex
 10
85.39306502856493
 20
-118.9114325332062
 30
0.0
  0
VERTEX
  5
96
330
92
100
AcDbEntity
  8
_U+30EC_U+30A4_U+30E4_U+30FC 1
370
     0
100
AcDbVertex
100
AcDb2dVertex
 10
85.39306502856493
 20
-119.1630967584037
 30
0.0
  0
VERTEX
  5
97
330
92
100
AcDbEntity
  8
_U+30EC_U+30A4_U+30E4_U+30FC 1
370
     0
100
AcDbVertex
100
AcDb2dVertex
 10
85.12400307116692
 20
-119.1630967584037
 30
0.0
  0
SEQEND
  5
98
330
92
100
AcDbEntity
  8
_U+30EC_U+30A4_U+30E4_U+30FC 1
370
     0
  0
HATCH
  5
99
330
8A
100
AcDbEntity
  8
_U+30EC_U+30A4_U+30E4_U+30FC 1
 62
     7
420
 16777215
100
AcDbHatch
 10
0.0
 20
0.0
 30
0.0
210
0.0
220
0.0
230
1.0
  2
SOLID
 70
     1
 71
     0
 91
        1
 92
        1
 93
        4
 72
     1
 10
85.12400307116692
 20
-119.1630967584037
 11
85.12400307116692
 21
-118.9114325332062
 72
     1
 10
85.12400307116692
 20
-118.9114325332062
 11
85.39306502856493
 21
-118.9114325332062
 72
     1
 10
85.39306502856493
 20
-118.9114325332062
 11
85.39306502856493
 21
-119.1630967584037
 72
     1
 10
85.39306502856493
 20
-119.1630967584037
 11
85.12400307116692
 21
-119.1630967584037
 97
        0
 75
     2
 76
     1
 98
        0
  0
SPLINE
  5
9A
330
8A
100
AcDbEntity
  8
_U+30EC_U+30A4_U+30E4_U+30FC 1
370
     0
100
AcDbSpline
210
0.0
220
0.0
230
1.0
 70
    11
 71
     3
 72
    53
 73
    49
 74
     0
 42
0.0000000001
 43
0.0000000001
 12
1.0
 22
0.0
 32
0.0
 13
1.0
 23
0.0
 33
0.0
 40
0.0
 40
0.0
 40
0.0
 40
0.0
 40
1.0
 40
1.0
 40
1.0
 40
2.0
 40
2.0
 40
2.0
 40
3.0
 40
3.0
 40
3.0
 40
4.0
 40
4.0
 40
4.0
 40
5.0
 40
5.0
 40
5.0
 40
6.0
 40
6.0
 40
6.0
 40
7.0
 40
7.0
 40
7.0
 40
8.0
 40
8.0
 40
8.0
 40
9.0
 40
9.0
 40
9.0
 40
10.0
 40
10.0
 40
10.0
 40
11.0
 40
11.0
 40
11.0
 40
12.0
 40
12.0
 40
12.0
 40
13.0
 40
13.0
 40
13.0
 40
14.0
 40
14.0
 40
14.0
 40
15.0
 40
15.0
 40
15.0
 40
16.0
 40
16.0
 40
16.0
 40
16.0
 10
86.15994328358154
 20
-119.2139119168111
 30
0.0
 10
86.07622746328998
 20
-119.2139119168111
 30
0.0
 10
85.96805146505314
 20
-119.1968586941591
 30
0.0
 10
85.85918644771924
 20
-119.1334689372305
 30
0.0
 10
85.67384031061279
 20
-119.0233981364768
 30
0.0
 10
85.65144718995867
 20
-118.892312253263
 30
0.0
 10
85.6311211265957
 20
-118.7844807645747
 30
0.0
 10
85.6311211265957
 20
-118.7844807645747
 30
0.0
 10
85.86848820552942
 20
-118.7844807645747
 30
0.0
 10
85.86848820552942
 20
-118.7844807645747
 30
0.0
 10
85.92705482877865
 20
-118.9832627740736
 30
0.0
 10
86.0627915908975
 20
-119.0128905952468
 30
0.0
 10
86.16235485042122
 20
-119.0128905952468
 30
0.0
 10
86.31152748493254
 20
-119.0128905952468
 30
0.0
 10
86.47448050138486
 20
-118.9134995904973
 30
0.0
 10
86.47448050138486
 20
-118.6807833904687
 30
0.0
 10
86.47448050138486
 20
-118.4248127959146
 30
0.0
 10
86.28224417330792
 20
-118.3550496123383
 30
0.0
 10
86.15339760215957
 20
-118.3550496123383
 30
0.0
 10
86.1192911568556
 20
-118.3550496123383
 30
0.0
 10
85.96805146505314
 20
-118.3550496123383
 30
0.0
 10
85.87296682966023
 20
-118.4840684382609
 30
0.0
 10
85.87296682966023
 20
-118.4840684382609
 30
0.0
 10
85.68520912571412
 20
-118.4649481583178
 30
0.0
 10
85.68520912571412
 20
-118.4649481583178
 30
0.0
 10
85.68520912571412
 20
-118.4649481583178
 30
0.0
 10
85.81405569686247
 20
-117.6188327071404
 30
0.0
 10
85.81405569686247
 20
-117.6188327071404
 30
0.0
 10
85.81405569686247
 20
-117.6188327071404
 30
0.0
 10
86.64604625655029
 20
-117.6188327071404
 30
0.0
 10
86.64604625655029
 20
-117.6188327071404
 30
0.0
 10
86.64604625655029
 20
-117.6188327071404
 30
0.0
 10
86.64604625655029
 20
-117.8134806020571
 30
0.0
 10
86.64604625655029
 20
-117.8134806020571
 30
0.0
 10
86.64604625655029
 20
-117.8134806020571
 30
0.0
 10
85.98837752841611
 20
-117.8134806020571
 30
0.0
 10
85.98837752841611
 20
-117.8134806020571
 30
0.0
 10
85.98837752841611
 20
-117.8134806020571
 30
0.0
 10
85.91809758051701
 20
-118.2365383276457
 30
0.0
 10
85.91809758051701
 20
-118.2365383276457
 30
0.0
 10
85.98355439473676
 20
-118.202604137116
 30
0.0
 10
86.07174883915916
 20
-118.1624687747129
 30
0.0
 10
86.19852835301634
 20
-118.1624687747129
 30
0.0
 10
86.46965736770551
 20
-118.1624687747129
 30
0.0
 10
86.72287188587137
 20
-118.3486761856906
 30
0.0
 10
86.72287188587137
 20
-118.6616631105256
 30
0.0
 10
86.72287188587137
 20
-118.9791286594913
 30
0.0
 10
86.48343774964651
 20
-119.2139119168111
 30
0.0
 10
86.15994328358154
 20
-119.2139119168111
 30
0.0
  0
HATCH
  5
9B
330
8A
100
AcDbEntity
  8
_U+30EC_U+30A4_U+30E4_U+30FC 1
 62
     7
420
 16777215
100
AcDbHatch
 10
0.0
 20
0.0
 30
0.0
210
0.0
220
0.0
230
1.0
  2
SOLID
 70
     1
 71
     0
 91
        1
 92
        1
 93
        1
 72
     4
 94
        3
 73
     0
 74
     1
 95
       53
 96
       49
 40
0.0
 40
0.0
 40
0.0
 40
0.0
 40
1.0
 40
1.0
 40
1.0
 40
2.0
 40
2.0
 40
2.0
 40
3.0
 40
3.0
 40
3.0
 40
4.0
 40
4.0
 40
4.0
 40
5.0
 40
5.0
 40
5.0
 40
6.0
 40
6.0
 40
6.0
 40
7.0
 40
7.0
 40
7.0
 40
8.0
 40
8.0
 40
8.0
 40
9.0
 40
9.0
 40
9.0
 40
10.0
 40
10.0
 40
10.0
 40
11.0
 40
11.0
 40
11.0
 40
12.0
 40
12.0
 40
12.0
 40
13.0
 40
13.0
 40
13.0
 40
14.0
 40
14.0
 40
14.0
 40
15.0
 40
15.0
 40
15.0
 40
16.0
 40
16.0
 40
16.0
 40
16.0
 10
86.15994328358154
 20
-119.2139119168111
 10
86.07622746328998
 20
-119.2139119168111
 10
85.96805146505314
 20
-119.1968586941591
 10
85.85918644771924
 20
-119.1334689372305
 10
85.67384031061279
 20
-119.0233981364768
 10
85.65144718995867
 20
-118.892312253263
 10
85.6311211265957
 20
-118.7844807645747
 10
85.6311211265957
 20
-118.7844807645747
 10
85.86848820552942
 20
-118.7844807645747
 10
85.86848820552942
 20
-118.7844807645747
 10
85.92705482877865
 20
-118.9832627740736
 10
86.0627915908975
 20
-119.0128905952468
 10
86.16235485042122
 20
-119.0128905952468
 10
86.31152748493254
 20
-119.0128905952468
 10
86.47448050138486
 20
-118.9134995904973
 10
86.47448050138486
 20
-118.6807833904687
 10
86.47448050138486
 20
-118.4248127959146
 10
86.28224417330792
 20
-118.3550496123383
 10
86.15339760215957
 20
-118.3550496123383
 10
86.1192911568556
 20
-118.3550496123383
 10
85.96805146505314
 20
-118.3550496123383
 10
85.87296682966023
 20
-118.4840684382609
 10
85.87296682966023
 20
-118.4840684382609
 10
85.68520912571412
 20
-118.4649481583178
 10
85.68520912571412
 20
-118.4649481583178
 10
85.68520912571412
 20
-118.4649481583178
 10
85.81405569686247
 20
-117.6188327071404
 10
85.81405569686247
 20
-117.6188327071404
 10
85.81405569686247
 20
-117.6188327071404
 10
86.64604625655029
 20
-117.6188327071404
 10
86.64604625655029
 20
-117.6188327071404
 10
86.64604625655029
 20
-117.6188327071404
 10
86.64604625655029
 20
-117.8134806020571
 10
86.64604625655029
 20
-117.8134806020571
 10
86.64604625655029
 20
-117.8134806020571
 10
85.98837752841611
 20
-117.8134806020571
 10
85.98837752841611
 20
-117.8134806020571
 10
85.98837752841611
 20
-117.8134806020571
 10
85.91809758051701
 20
-118.2365383276457
 10
85.91809758051701
 20
-118.2365383276457
 10
85.98355439473676
 20
-118.202604137116
 10
86.07174883915916
 20
-118.1624687747129
 10
86.19852835301634
 20
-118.1624687747129
 10
86.46965736770551
 20
-118.1624687747129
 10
86.72287188587137
 20
-118.3486761856906
 10
86.72287188587137
 20
-118.6616631105256
 10
86.72287188587137
 20
-118.9791286594913
 10
86.48343774964651
 20
-119.2139119168111
 10
86.15994328358154
 20
-119.2139119168111
 97
        0
 97
        0
 75
     2
 76
     1
 98
        0
  0
ENDBLK
  5
8D
330
8A
100
AcDbEntity
  8
0
100
AcDbBlockEnd
  0
BLOCK
  5
A6
330
A4
100
AcDbEntity
  8
0
100
AcDbBlockBegin
  2
block 5
 70
     0
 10
0.0
 20
0.0
 30
0.0
  3
block 5
  1

  0
SPLINE
  5
A8
330
A4
100
AcDbEntity
  8
_U+30EC_U+30A4_U+30E4_U+30FC 1
370
     0
100
AcDbSpline
210
0.0
220
0.0
230
1.0
 70
    11
 71
     3
 72
    44
 73
    40
 74
     0
 42
0.0000000001
 43
0.0000000001
 12
1.0
 22
0.0
 32
0.0
 13
1.0
 23
0.0
 33
0.0
 40
0.0
 40
0.0
 40
0.0
 40
0.0
 40
1.0
 40
1.0
 40
1.0
 40
2.0
 40
2.0
 40
2.0
 40
3.0
 40
3.0
 40
3.0
 40
4.0
 40
4.0
 40
4.0
 40
5.0
 40
5.0
 40
5.0
 40
6.0
 40
6.0
 40
6.0
 40
7.0
 40
7.0
 40
7.0
 40
8.0
 40
8.0
 40
8.0
 40
9.0
 40
9.0
 40
9.0
 40
10.0
 40
10.0
 40
10.0
 40
11.0
 40
11.0
 40
11.0
 40
12.0
 40
12.0
 40
12.0
 40
13.0
 40
13.0
 40
13.0
 40
13.0
 10
69.32617321400527
 20
-148.0801947329452
 30
0.0
 10
69.09328475920238
 20
-148.2390136348153
 30
0.0
 10
68.99389375445291
 20
-148.3130831877481
 30
0.0
 10
68.94187281262565
 20
-148.456743669483
 30
0.0
 10
68.94187281262565
 20
-148.456743669483
 30
0.0
 10
69.77386337231349
 20
-148.456743669483
 30
0.0
 10
69.77386337231349
 20
-148.456743669483
 30
0.0
 10
69.77386337231349
 20
-148.456743669483
 30
0.0
 10
69.77386337231349
 20
-148.6620713604039
 30
0.0
 10
69.77386337231349
 20
-148.6620713604039
 30
0.0
 10
69.77386337231349
 20
-148.6620713604039
 30
0.0
 10
68.67505016729305
 20
-148.6620713604039
 30
0.0
 10
68.67505016729305
 20
-148.6620713604039
 30
0.0
 10
68.70898435782276
 20
-148.304470449035
 30
0.0
 10
68.7790920509476
 20
-148.2262667815198
 30
0.0
 10
69.19060870666068
 20
-147.9279215124972
 30
0.0
 10
69.46414928818952
 20
-147.7291395029983
 30
0.0
 10
69.53425698131436
 20
-147.6612711219389
 30
0.0
 10
69.53425698131436
 20
-147.5238118120774
 30
0.0
 10
69.53425698131436
 20
-147.4053005273848
 30
0.0
 10
69.45743135199328
 20
-147.2743868989453
 30
0.0
 10
69.24710827261877
 20
-147.2743868989453
 30
0.0
 10
68.96891681218486
 20
-147.2743868989453
 30
0.0
 10
68.9599595639232
 20
-147.5048637869085
 30
0.0
 10
68.95548093979238
 20
-147.62130801431
 30
0.0
 10
68.95548093979238
 20
-147.62130801431
 30
0.0
 10
68.715702294019
 20
-147.62130801431
 30
0.0
 10
68.715702294019
 20
-147.62130801431
 30
0.0
 10
68.7248317970549
 20
-147.4941839909042
 30
0.0
 10
68.73620061215622
 20
-147.3822183876336
 30
0.0
 10
68.82198348973895
 20
-147.263707102941
 30
0.0
 10
68.93963350056023
 20
-147.1028211437799
 30
0.0
 10
69.13858776483342
 20
-147.0690592080244
 30
0.0
 10
69.26295571185094
 20
-147.0690592080244
 30
0.0
 10
69.55906166880816
 20
-147.0690592080244
 30
0.0
 10
69.78058130850972
 20
-147.2530273069368
 30
0.0
 10
69.78058130850972
 20
-147.5258788693685
 30
0.0
 10
69.78058130850972
 20
-147.7546332095891
 30
0.0
 10
69.6562133614922
 20
-147.8538519595643
 30
0.0
 10
69.32617321400527
 20
-148.0801947329452
 30
0.0
  0
HATCH
  5
A9
330
A4
100
AcDbEntity
  8
_U+30EC_U+30A4_U+30E4_U+30FC 1
 62
     7
420
 16777215
100
AcDbHatch
 10
0.0
 20
0.0
 30
0.0
210
0.0
220
0.0
230
1.0
  2
SOLID
 70
     1
 71
     0
 91
        1
 92
        1
 93
        1
 72
     4
 94
        3
 73
     0
 74
     1
 95
       44
 96
       40
 40
0.0
 40
0.0
 40
0.0
 40
0.0
 40
1.0
 40
1.0
 40
1.0
 40
2.0
 40
2.0
 40
2.0
 40
3.0
 40
3.0
 40
3.0
 40
4.0
 40
4.0
 40
4.0
 40
5.0
 40
5.0
 40
5.0
 40
6.0
 40
6.0
 40
6.0
 40
7.0
 40
7.0
 40
7.0
 40
8.0
 40
8.0
 40
8.0
 40
9.0
 40
9.0
 40
9.0
 40
10.0
 40
10.0
 40
10.0
 40
11.0
 40
11.0
 40
11.0
 40
12.0
 40
12.0
 40
12.0
 40
13.0
 40
13.0
 40
13.0
 40
13.0
 10
69.32617321400527
 20
-148.0801947329452
 10
69.09328475920238
 20
-148.2390136348153
 10
68.99389375445291
 20
-148.3130831877481
 10
68.94187281262565
 20
-148.456743669483
 10
68.94187281262565
 20
-148.456743669483
 10
69.77386337231349
 20
-148.456743669483
 10
69.77386337231349
 20
-148.456743669483
 10
69.77386337231349
 20
-148.456743669483
 10
69.77386337231349
 20
-148.6620713604039
 10
69.77386337231349
 20
-148.6620713604039
 10
69.77386337231349
 20
-148.6620713604039
 10
68.67505016729305
 20
-148.6620713604039
 10
68.67505016729305
 20
-148.6620713604039
 10
68.70898435782276
 20
-148.304470449035
 10
68.7790920509476
 20
-148.2262667815198
 10
69.19060870666068
 20
-147.9279215124972
 10
69.46414928818952
 20
-147.7291395029983
 10
69.53425698131436
 20
-147.6612711219389
 10
69.53425698131436
 20
-147.5238118120774
 10
69.53425698131436
 20
-147.4053005273848
 10
69.45743135199328
 20
-147.2743868989453
 10
69.24710827261877
 20
-147.2743868989453
 10
68.96891681218486
 20
-147.2743868989453
 10
68.9599595639232
 20
-147.5048637869085
 10
68.95548093979238
 20
-147.62130801431
 10
68.95548093979238
 20
-147.62130801431
 10
68.715702294019
 20
-147.62130801431
 10
68.715702294019
 20
-147.62130801431
 10
68.7248317970549
 20
-147.4941839909042
 10
68.73620061215622
 20
-147.3822183876336
 10
68.82198348973895
 20
-147.263707102941
 10
68.93963350056023
 20
-147.1028211437799
 10
69.13858776483342
 20
-147.0690592080244
 10
69.26295571185094
 20
-147.0690592080244
 10
69.55906166880816
 20
-147.0690592080244
 10
69.78058130850972
 20
-147.2530273069368
 10
69.78058130850972
 20
-147.5258788693685
 10
69.78058130850972
 20
-147.7546332095891
 10
69.6562133614922
 20
-147.8538519595643
 10
69.32617321400527
 20
-148.0801947329452
 97
        0
 97
        0
 75
     2
 76
     1
 98
        0
  0
SPLINE
  5
AA
330
A4
100
AcDbEntity
  8
_U+30EC_U+30A4_U+30E4_U+30FC 1
370
     0
100
AcDbSpline
210
0.0
220
0.0
230
1.0
 70
    11
 71
     3
 72
    44
 73
    40
 74
     0
 42
0.0000000001
 43
0.0000000001
 12
1.0
 22
0.0
 32
0.0
 13
1.0
 23
0.0
 33
0.0
 40
0.0
 40
0.0
 40
0.0
 40
0.0
 40
1.0
 40
1.0
 40
1.0
 40
2.0
 40
2.0
 40
2.0
 40
3.0
 40
3.0
 40
3.0
 40
4.0
 40
4.0
 40
4.0
 40
5.0
 40
5.0
 40
5.0
 40
6.0
 40
6.0
 40
6.0
 40
7.0
 40
7.0
 40
7.0
 40
8.0
 40
8.0
 40
8.0
 40
9.0
 40
9.0
 40
9.0
 40
10.0
 40
10.0
 40
10.0
 40
11.0
 40
11.0
 40
11.0
 40
12.0
 40
12.0
 40
12.0
 40
13.0
 40
13.0
 40
13.0
 40
13.0
 10
71.03390704604361
 20
-148.6620713604039
 30
0.0
 10
71.00910235854981
 20
-148.6176296286442
 30
0.0
 10
70.98636472834716
 20
-148.5649196677199
 30
0.0
 10
70.98412541628176
 20
-148.3340982702082
 30
0.0
 10
70.97964679215093
 20
-148.0908745289495
 30
0.0
 10
70.91642928999659
 20
-148.0209390905989
 30
0.0
 10
70.72643227398507
 20
-148.0209390905989
 30
0.0
 10
70.72643227398507
 20
-148.0209390905989
 30
0.0
 10
70.29011093077817
 20
-148.0209390905989
 30
0.0
 10
70.29011093077817
 20
-148.0209390905989
 30
0.0
 10
70.29011093077817
 20
-148.0209390905989
 30
0.0
 10
70.29011093077817
 20
-148.6620713604039
 30
0.0
 10
70.29011093077817
 20
-148.6620713604039
 30
0.0
 10
70.29011093077817
 20
-148.6620713604039
 30
0.0
 10
70.03913572467772
 20
-148.6620713604039
 30
0.0
 10
70.03913572467772
 20
-148.6620713604039
 30
0.0
 10
70.03913572467772
 20
-148.6620713604039
 30
0.0
 10
70.03913572467772
 20
-147.1176350543664
 30
0.0
 10
70.03913572467772
 20
-147.1176350543664
 30
0.0
 10
70.03913572467772
 20
-147.1176350543664
 30
0.0
 10
70.76036646451477
 20
-147.1176350543664
 30
0.0
 10
70.76036646451477
 20
-147.1176350543664
 30
0.0
 10
71.08816729993629
 20
-147.1176350543664
 30
0.0
 10
71.2667955008465
 20
-147.2892008095319
 30
0.0
 10
71.2667955008465
 20
-147.5451714040859
 30
0.0
 10
71.2667955008465
 20
-147.5958143077191
 30
0.0
 10
71.25783825258485
 20
-147.6784965993651
 30
0.0
 10
71.2102959348884
 20
-147.7587673241714
 30
0.0
 10
71.1469061779598
 20
-147.8624646982774
 30
0.0
 10
71.07697073960924
 20
-147.8814127234463
 30
0.0
 10
71.01134167061522
 20
-147.8982936913241
 30
0.0
 10
71.15827499306113
 20
-147.9406683657926
 30
0.0
 10
71.23062199825138
 20
-147.9892442121347
 30
0.0
 10
71.2351006223822
 20
-148.304470449035
 30
0.0
 10
71.23957924651303
 20
-148.5752549541756
 30
0.0
 10
71.27816431594782
 20
-148.6069498326399
 30
0.0
 10
71.35051132113807
 20
-148.6620713604039
 30
0.0
 10
71.35051132113807
 20
-148.6620713604039
 30
0.0
 10
71.03390704604361
 20
-148.6620713604039
 30
0.0
 10
71.03390704604361
 20
-148.6620713604039
 30
0.0
  0
SPLINE
  5
AB
330
A4
100
AcDbEntity
  8
_U+30EC_U+30A4_U+30E4_U+30FC 1
370
     0
100
AcDbSpline
210
0.0
220
0.0
230
1.0
 70
    11
 71
     3
 72
    20
 73
    16
 74
     0
 42
0.0000000001
 43
0.0000000001
 12
1.0
 22
0.0
 32
0.0
 13
1.0
 23
0.0
 33
0.0
 40
0.0
 40
0.0
 40
0.0
 40
0.0
 40
1.0
 40
1.0
 40
1.0
 40
2.0
 40
2.0
 40
2.0
 40
3.0
 40
3.0
 40
3.0
 40
4.0
 40
4.0
 40
4.0
 40
5.0
 40
5.0
 40
5.0
 40
5.0
 10
70.7648450886456
 20
-147.3291639171608
 30
0.0
 10
70.7648450886456
 20
-147.3291639171608
 30
0.0
 10
70.29011093077817
 20
-147.3291639171608
 30
0.0
 10
70.29011093077817
 20
-147.3291639171608
 30
0.0
 10
70.29011093077817
 20
-147.3291639171608
 30
0.0
 10
70.29011093077817
 20
-147.8094102278046
 30
0.0
 10
70.29011093077817
 20
-147.8094102278046
 30
0.0
 10
70.29011093077817
 20
-147.8094102278046
 30
0.0
 10
70.76260577658019
 20
-147.8094102278046
 30
0.0
 10
70.76260577658019
 20
-147.8094102278046
 30
0.0
 10
70.86888697230015
 20
-147.8094102278046
 30
0.0
 10
71.01358098268064
 20
-147.7332736175806
 30
0.0
 10
71.01358098268064
 20
-147.5620523719637
 30
0.0
 10
71.01358098268064
 20
-147.4838487044485
 30
0.0
 10
70.97740748008552
 20
-147.3291639171608
 30
0.0
 10
70.7648450886456
 20
-147.3291639171608
 30
0.0
  0
HATCH
  5
AC
330
A4
100
AcDbEntity
  8
_U+30EC_U+30A4_U+30E4_U+30FC 1
 62
     7
420
 16777215
100
AcDbHatch
 10
0.0
 20
0.0
 30
0.0
210
0.0
220
0.0
230
1.0
  2
SOLID
 70
     1
 71
     0
 91
        2
 92
        1
 93
        1
 72
     4
 94
        3
 73
     0
 74
     1
 95
       44
 96
       40
 40
0.0
 40
0.0
 40
0.0
 40
0.0
 40
1.0
 40
1.0
 40
1.0
 40
2.0
 40
2.0
 40
2.0
 40
3.0
 40
3.0
 40
3.0
 40
4.0
 40
4.0
 40
4.0
 40
5.0
 40
5.0
 40
5.0
 40
6.0
 40
6.0
 40
6.0
 40
7.0
 40
7.0
 40
7.0
 40
8.0
 40
8.0
 40
8.0
 40
9.0
 40
9.0
 40
9.0
 40
10.0
 40
10.0
 40
10.0
 40
11.0
 40
11.0
 40
11.0
 40
12.0
 40
12.0
 40
12.0
 40
13.0
 40
13.0
 40
13.0
 40
13.0
 10
71.03390704604361
 20
-148.6620713604039
 10
71.00910235854981
 20
-148.6176296286442
 10
70.98636472834716
 20
-148.5649196677199
 10
70.98412541628176
 20
-148.3340982702082
 10
70.97964679215093
 20
-148.0908745289495
 10
70.91642928999659
 20
-148.0209390905989
 10
70.72643227398507
 20
-148.0209390905989
 10
70.72643227398507
 20
-148.0209390905989
 10
70.29011093077817
 20
-148.0209390905989
 10
70.29011093077817
 20
-148.0209390905989
 10
70.29011093077817
 20
-148.0209390905989
 10
70.29011093077817
 20
-148.6620713604039
 10
70.29011093077817
 20
-148.6620713604039
 10
70.29011093077817
 20
-148.6620713604039
 10
70.03913572467772
 20
-148.6620713604039
 10
70.03913572467772
 20
-148.6620713604039
 10
70.03913572467772
 20
-148.6620713604039
 10
70.03913572467772
 20
-147.1176350543664
 10
70.03913572467772
 20
-147.1176350543664
 10
70.03913572467772
 20
-147.1176350543664
 10
70.76036646451477
 20
-147.1176350543664
 10
70.76036646451477
 20
-147.1176350543664
 10
71.08816729993629
 20
-147.1176350543664
 10
71.2667955008465
 20
-147.2892008095319
 10
71.2667955008465
 20
-147.5451714040859
 10
71.2667955008465
 20
-147.5958143077191
 10
71.25783825258485
 20
-147.6784965993651
 10
71.2102959348884
 20
-147.7587673241714
 10
71.1469061779598
 20
-147.8624646982774
 10
71.07697073960924
 20
-147.8814127234463
 10
71.01134167061522
 20
-147.8982936913241
 10
71.15827499306113
 20
-147.9406683657926
 10
71.23062199825138
 20
-147.9892442121347
 10
71.2351006223822
 20
-148.304470449035
 10
71.23957924651303
 20
-148.5752549541756
 10
71.27816431594782
 20
-148.6069498326399
 10
71.35051132113807
 20
-148.6620713604039
 10
71.35051132113807
 20
-148.6620713604039
 10
71.03390704604361
 20
-148.6620713604039
 10
71.03390704604361
 20
-148.6620713604039
 97
        0
 97
        0
 92
        1
 93
        1
 72
     4
 94
        3
 73
     0
 74
     1
 95
       20
 96
       16
 40
0.0
 40
0.0
 40
0.0
 40
0.0
 40
1.0
 40
1.0
 40
1.0
 40
2.0
 40
2.0
 40
2.0
 40
3.0
 40
3.0
 40
3.0
 40
4.0
 40
4.0
 40
4.0
 40
5.0
 40
5.0
 40
5.0
 40
5.0
 10
70.7648450886456
 20
-147.3291639171608
 10
70.7648450886456
 20
-147.3291639171608
 10
70.29011093077817
 20
-147.3291639171608
 10
70.29011093077817
 20
-147.3291639171608
 10
70.29011093077817
 20
-147.3291639171608
 10
70.29011093077817
 20
-147.8094102278046
 10
70.29011093077817
 20
-147.8094102278046
 10
70.29011093077817
 20
-147.8094102278046
 10
70.76260577658019
 20
-147.8094102278046
 10
70.76260577658019
 20
-147.8094102278046
 10
70.86888697230015
 20
-147.8094102278046
 10
71.01358098268064
 20
-147.7332736175806
 10
71.01358098268064
 20
-147.5620523719637
 10
71.01358098268064
 20
-147.4838487044485
 10
70.97740748008552
 20
-147.3291639171608
 10
70.7648450886456
 20
-147.3291639171608
 97
        0
 97
        0
 75
     2
 76
     1
 98
        0
  0
ENDBLK
  5
A7
330
A4
100
AcDbEntity
  8
0
100
AcDbBlockEnd
  0
BLOCK
  5
BA
330
B8
100
AcDbEntity
  8
0
100
AcDbBlockBegin
  2
block 6
 70
     0
 10
0.0
 20
0.0
 30
0.0
  3
block 6
  1

  0
SPLINE
  5
BC
330
B8
100
AcDbEntity
  8
_U+30EC_U+30A4_U+30E4_U+30FC 1
370
     0
100
AcDbSpline
210
0.0
220
0.0
230
1.0
 70
    11
 71
     3
 72
    26
 73
    22
 74
     0
 42
0.0000000001
 43
0.0000000001
 12
1.0
 22
0.0
 32
0.0
 13
1.0
 23
0.0
 33
0.0
 40
0.0
 40
0.0
 40
0.0
 40
0.0
 40
1.0
 40
1.0
 40
1.0
 40
2.0
 40
2.0
 40
2.0
 40
3.0
 40
3.0
 40
3.0
 40
4.0
 40
4.0
 40
4.0
 40
5.0
 40
5.0
 40
5.0
 40
6.0
 40
6.0
 40
6.0
 40
7.0
 40
7.0
 40
7.0
 40
7.0
 10
74.76150036108393
 20
-119.1586181342729
 30
0.0
 10
74.76150036108393
 20
-119.1586181342729
 30
0.0
 10
74.76150036108393
 20
-118.0544650312503
 30
0.0
 10
74.76150036108393
 20
-118.0544650312503
 30
0.0
 10
74.76150036108393
 20
-118.0544650312503
 30
0.0
 10
74.40906709294288
 20
-118.0544650312503
 30
0.0
 10
74.40906709294288
 20
-118.0544650312503
 30
0.0
 10
74.40906709294288
 20
-118.0544650312503
 30
0.0
 10
74.40906709294288
 20
-117.9063259253845
 30
0.0
 10
74.40906709294288
 20
-117.9063259253845
 30
0.0
 10
74.76391192792362
 20
-117.891512014798
 30
0.0
 10
74.81352130291121
 20
-117.7285589983456
 30
0.0
 10
74.8452161813755
 20
-117.6141818282353
 30
0.0
 10
74.8452161813755
 20
-117.6141818282353
 30
0.0
 10
75.00127900685732
 20
-117.6141818282353
 30
0.0
 10
75.00127900685732
 20
-117.6141818282353
 30
0.0
 10
75.00127900685732
 20
-117.6141818282353
 30
0.0
 10
75.00127900685732
 20
-119.1586181342729
 30
0.0
 10
75.00127900685732
 20
-119.1586181342729
 30
0.0
 10
75.00127900685732
 20
-119.1586181342729
 30
0.0
 10
74.76150036108393
 20
-119.1586181342729
 30
0.0
 10
74.76150036108393
 20
-119.1586181342729
 30
0.0
  0
HATCH
  5
BD
330
B8
100
AcDbEntity
  8
_U+30EC_U+30A4_U+30E4_U+30FC 1
 62
     7
420
 16777215
100
AcDbHatch
 10
0.0
 20
0.0
 30
0.0
210
0.0
220
0.0
230
1.0
  2
SOLID
 70
     1
 71
     0
 91
        1
 92
        1
 93
        1
 72
     4
 94
        3
 73
     0
 74
     1
 95
       26
 96
       22
 40
0.0
 40
0.0
 40
0.0
 40
0.0
 40
1.0
 40
1.0
 40
1.0
 40
2.0
 40
2.0
 40
2.0
 40
3.0
 40
3.0
 40
3.0
 40
4.0
 40
4.0
 40
4.0
 40
5.0
 40
5.0
 40
5.0
 40
6.0
 40
6.0
 40
6.0
 40
7.0
 40
7.0
 40
7.0
 40
7.0
 10
74.76150036108393
 20
-119.1586181342729
 10
74.76150036108393
 20
-119.1586181342729
 10
74.76150036108393
 20
-118.0544650312503
 10
74.76150036108393
 20
-118.0544650312503
 10
74.76150036108393
 20
-118.0544650312503
 10
74.40906709294288
 20
-118.0544650312503
 10
74.40906709294288
 20
-118.0544650312503
 10
74.40906709294288
 20
-118.0544650312503
 10
74.40906709294288
 20
-117.9063259253845
 10
74.40906709294288
 20
-117.9063259253845
 10
74.76391192792362
 20
-117.891512014798
 10
74.81352130291121
 20
-117.7285589983456
 10
74.8452161813755
 20
-117.6141818282353
 10
74.8452161813755
 20
-117.6141818282353
 10
75.00127900685732
 20
-117.6141818282353
 10
75.00127900685732
 20
-117.6141818282353
 10
75.00127900685732
 20
-117.6141818282353
 10
75.00127900685732
 20
-119.1586181342729
 10
75.00127900685732
 20
-119.1586181342729
 10
75.00127900685732
 20
-119.1586181342729
 10
74.76150036108393
 20
-119.1586181342729
 10
74.76150036108393
 20
-119.1586181342729
 97
        0
 97
        0
 75
     2
 76
     1
 98
        0
  0
ENDBLK
  5
BB
330
B8
100
AcDbEntity
  8
0
100
AcDbBlockEnd
  0
ENDSEC
  0
SECTION
  2
ENTITIES
  0
POLYLINE
  5
41
330
1F
100
AcDbEntity
  8
_U+30EC_U+30A4_U+30E4_U+30FC 1
 62
     7
420
 16777215
370
     9
100
AcDb2dPolyline
 66
     1
 10
0.0
 20
0.0
 30
0.0
  0
VERTEX
  5
42
330
41
100
AcDbEntity
  8
_U+30EC_U+30A4_U+30E4_U+30FC 1
 62
     7
420
 16777215
370
     9
100
AcDbVertex
100
AcDb2dVertex
 10
75.96727056191347
 20
-145.5394246858374
 30
0.0
  0
VERTEX
  5
43
330
41
100
AcDbEntity
  8
_U+30EC_U+30A4_U+30E4_U+30FC 1
 62
     7
420
 16777215
370
     9
100
AcDbVertex
100
AcDb2dVertex
 10
76.46715666027141
 20
-144.6733552416095
 30
0.0
  0
SEQEND
  5
44
330
41
100
AcDbEntity
  8
_U+30EC_U+30A4_U+30E4_U+30FC 1
 62
     7
420
 16777215
370
     9
  0
POLYLINE
  5
45
330
1F
100
AcDbEntity
  8
_U+30EC_U+30A4_U+30E4_U+30FC 1
 62
     7
420
 16777215
370
     9
100
AcDb2dPolyline
 66
     1
 10
0.0
 20
0.0
 30
0.0
  0
VERTEX
  5
46
330
45
100
AcDbEntity
  8
_U+30EC_U+30A4_U+30E4_U+30FC 1
 62
     7
420
 16777215
370
     9
100
AcDbVertex
100
AcDb2dVertex
 10
75.60140473791415
 20
-145.1728885748177
 30
0.0
  0
VERTEX
  5
47
330
45
100
AcDbEntity
  8
_U+30EC_U+30A4_U+30E4_U+30FC 1
 62
     7
420
 16777215
370
     9
100
AcDbVertex
100
AcDb2dVertex
 10
76.46715666027141
 20
-144.6733552416095
 30
0.0
  0
SEQEND
  5
48
330
45
100
AcDbEntity
  8
_U+30EC_U+30A4_U+30E4_U+30FC 1
 62
     7
420
 16777215
370
     9
  0
SPLINE
  5
49
330
1F
100
AcDbEntity
  8
_U+30EC_U+30A4_U+30E4_U+30FC 1
 62
     7
420
 16777215
370
     9
100
AcDbSpline
210
0.0
220
0.0
230
1.0
 70
    11
 71
     3
 72
    17
 73
    13
 74
     0
 42
0.0000000001
 43
0.0000000001
 12
1.0
 22
0.0
 32
0.0
 13
1.0
 23
0.0
 33
0.0
 40
0.0
 40
0.0
 40
0.0
 40
0.0
 40
1.0
 40
1.0
 40
1.0
 40
2.0
 40
2.0
 40
2.0
 40
3.0
 40
3.0
 40
3.0
 40
4.0
 40
4.0
 40
4.0
 40
4.0
 10
93.47785372629238
 20
-123.7592069135047
 30
0.0
 10
93.47785372629238
 20
-123.7040677468516
 30
0.0
 10
93.43305094965761
 20
-123.6593002468631
 30
0.0
 10
93.37794706217454
 20
-123.6593002468631
 30
0.0
 10
93.3228078969146
 20
-123.6593002468631
 30
0.0
 10
93.27804039805672
 20
-123.7040677468516
 30
0.0
 10
93.27804039805672
 20
-123.7592069135047
 30
0.0
 10
93.27804039805672
 20
-123.8143108023796
 30
0.0
 10
93.3228078969146
 20
-123.8591135801464
 30
0.0
 10
93.37794706217454
 20
-123.8591135801464
 30
0.0
 10
93.43305094965761
 20
-123.8591135801464
 30
0.0
 10
93.47785372629238
 20
-123.8143108023796
 30
0.0
 10
93.47785372629238
 20
-123.7592069135047
 30
0.0
  0
SPLINE
  5
4A
330
1F
100
AcDbEntity
  8
_U+30EC_U+30A4_U+30E4_U+30FC 1
 62
     7
420
 16777215
370
     9
100
AcDbSpline
210
0.0
220
0.0
230
1.0
 70
    11
 71
     3
 72
    17
 73
    13
 74
     0
 42
0.0000000001
 43
0.0000000001
 12
1.0
 22
0.0
 32
0.0
 13
1.0
 23
0.0
 33
0.0
 40
0.0
 40
0.0
 40
0.0
 40
0.0
 40
1.0
 40
1.0
 40
1.0
 40
2.0
 40
2.0
 40
2.0
 40
3.0
 40
3.0
 40
3.0
 40
4.0
 40
4.0
 40
4.0
 40
4.0
 10
92.47808152957647
 20
-119.7594477478378
 30
0.0
 10
92.47808152957647
 20
-119.7043085811851
 30
0.0
 10
92.4332787529417
 20
-119.6595410811962
 30
0.0
 10
92.37746930992108
 20
-119.6595410811962
 30
0.0
 10
92.32236542243801
 20
-119.6595410811962
 30
0.0
 10
92.27756264580324
 20
-119.7043085811851
 30
0.0
 10
92.27756264580324
 20
-119.7594477478378
 30
0.0
 10
92.27756264580324
 20
-119.8145516367131
 30
0.0
 10
92.32236542243801
 20
-119.8593544144795
 30
0.0
 10
92.37746930992108
 20
-119.8593544144795
 30
0.0
 10
92.4332787529417
 20
-119.8593544144795
 30
0.0
 10
92.47808152957647
 20
-119.8145516367131
 30
0.0
 10
92.47808152957647
 20
-119.7594477478378
 30
0.0
  0
SPLINE
  5
4B
330
1F
100
AcDbEntity
  8
_U+30EC_U+30A4_U+30E4_U+30FC 1
 62
     7
420
 16777215
370
     9
100
AcDbSpline
210
0.0
220
0.0
230
1.0
 70
    11
 71
     3
 72
    17
 73
    13
 74
     0
 42
0.0000000001
 43
0.0000000001
 12
1.0
 22
0.0
 32
0.0
 13
1.0
 23
0.0
 33
0.0
 40
0.0
 40
0.0
 40
0.0
 40
0.0
 40
1.0
 40
1.0
 40
1.0
 40
2.0
 40
2.0
 40
2.0
 40
3.0
 40
3.0
 40
3.0
 40
4.0
 40
4.0
 40
4.0
 40
4.0
 10
76.98150664714926
 20
-119.7594477478378
 30
0.0
 10
76.98150664714926
 20
-119.7043085811851
 30
0.0
 10
76.93673914829137
 20
-119.6595410811962
 30
0.0
 10
76.88159998303142
 20
-119.6595410811962
 30
0.0
 10
76.82614331777957
 20
-119.6595410811962
 30
0.0
 10
76.78134054114481
 20
-119.7043085811851
 30
0.0
 10
76.78134054114481
 20
-119.7594477478378
 30
0.0
 10
76.78134054114481
 20
-119.8145516367131
 30
0.0
 10
76.82614331777957
 20
-119.8593544144795
 30
0.0
 10
76.88159998303142
 20
-119.8593544144795
 30
0.0
 10
76.93673914829137
 20
-119.8593544144795
 30
0.0
 10
76.98150664714926
 20
-119.8145516367131
 30
0.0
 10
76.98150664714926
 20
-119.7594477478378
 30
0.0
  0
SPLINE
  5
4C
330
1F
100
AcDbEntity
  8
_U+30EC_U+30A4_U+30E4_U+30FC 1
 62
     7
420
 16777215
370
     9
100
AcDbSpline
210
0.0
220
0.0
230
1.0
 70
    11
 71
     3
 72
    17
 73
    13
 74
     0
 42
0.0000000001
 43
0.0000000001
 12
1.0
 22
0.0
 32
0.0
 13
1.0
 23
0.0
 33
0.0
 40
0.0
 40
0.0
 40
0.0
 40
0.0
 40
1.0
 40
1.0
 40
1.0
 40
2.0
 40
2.0
 40
2.0
 40
3.0
 40
3.0
 40
3.0
 40
4.0
 40
4.0
 40
4.0
 40
4.0
 10
71.98130510804836
 20
-123.7592069135047
 30
0.0
 10
71.98130510804836
 20
-123.7040677468516
 30
0.0
 10
71.93653760919048
 20
-123.6593002468631
 30
0.0
 10
71.88139844393052
 20
-123.6593002468631
 30
0.0
 10
71.82629455644745
 20
-123.6593002468631
 30
0.0
 10
71.78149177981268
 20
-123.7040677468516
 30
0.0
 10
71.78149177981268
 20
-123.7592069135047
 30
0.0
 10
71.78149177981268
 20
-123.8143108023796
 30
0.0
 10
71.82629455644745
 20
-123.8591135801464
 30
0.0
 10
71.88139844393052
 20
-123.8591135801464
 30
0.0
 10
71.93653760919048
 20
-123.8591135801464
 30
0.0
 10
71.98130510804836
 20
-123.8143108023796
 30
0.0
 10
71.98130510804836
 20
-123.7592069135047
 30
0.0
  0
SPLINE
  5
4D
330
1F
100
AcDbEntity
  8
_U+30EC_U+30A4_U+30E4_U+30FC 1
 62
     7
420
 16777215
370
     9
100
AcDbSpline
210
0.0
220
0.0
230
1.0
 70
    11
 71
     3
 72
    17
 73
    13
 74
     0
 42
0.0000000001
 43
0.0000000001
 12
1.0
 22
0.0
 32
0.0
 13
1.0
 23
0.0
 33
0.0
 40
0.0
 40
0.0
 40
0.0
 40
0.0
 40
1.0
 40
1.0
 40
1.0
 40
2.0
 40
2.0
 40
2.0
 40
3.0
 40
3.0
 40
3.0
 40
4.0
 40
4.0
 40
4.0
 40
4.0
 10
71.98130510804836
 20
-145.2590016303517
 30
0.0
 10
71.98130510804836
 20
-145.2038977414768
 30
0.0
 10
71.93653760919048
 20
-145.1590949637101
 30
0.0
 10
71.88139844393052
 20
-145.1590949637101
 30
0.0
 10
71.82629455644745
 20
-145.1590949637101
 30
0.0
 10
71.78149177981268
 20
-145.2038977414768
 30
0.0
 10
71.78149177981268
 20
-145.2590016303517
 30
0.0
 10
71.78149177981268
 20
-145.3141407970048
 30
0.0
 10
71.82629455644745
 20
-145.3589082969933
 30
0.0
 10
71.88139844393052
 20
-145.3589082969933
 30
0.0
 10
71.93653760919048
 20
-145.3589082969933
 30
0.0
 10
71.98130510804836
 20
-145.3141407970048
 30
0.0
 10
71.98130510804836
 20
-145.2590016303517
 30
0.0
  0
SPLINE
  5
4E
330
1F
100
AcDbEntity
  8
_U+30EC_U+30A4_U+30E4_U+30FC 1
 62
     7
420
 16777215
370
     9
100
AcDbSpline
210
0.0
220
0.0
230
1.0
 70
    11
 71
     3
 72
    17
 73
    13
 74
     0
 42
0.0000000001
 43
0.0000000001
 12
1.0
 22
0.0
 32
0.0
 13
1.0
 23
0.0
 33
0.0
 40
0.0
 40
0.0
 40
0.0
 40
0.0
 40
1.0
 40
1.0
 40
1.0
 40
2.0
 40
2.0
 40
2.0
 40
3.0
 40
3.0
 40
3.0
 40
4.0
 40
4.0
 40
4.0
 40
4.0
 10
113.4731918272799
 20
-123.7592069135047
 30
0.0
 10
113.4731918272799
 20
-123.7040677468516
 30
0.0
 10
113.4283890506452
 20
-123.6593002468631
 30
0.0
 10
113.3732527494343
 20
-123.6593002468631
 30
0.0
 10
113.3181459979021
 20
-123.6593002468631
 30
0.0
 10
113.2733432212674
 20
-123.7040677468516
 30
0.0
 10
113.2733432212674
 20
-123.7592069135047
 30
0.0
 10
113.2733432212674
 20
-123.8143108023796
 30
0.0
 10
113.3181459979021
 20
-123.8591135801464
 30
0.0
 10
113.3732527494343
 20
-123.8591135801464
 30
0.0
 10
113.4283890506452
 20
-123.8591135801464
 30
0.0
 10
113.4731918272799
 20
-123.8143108023796
 30
0.0
 10
113.4731918272799
 20
-123.7592069135047
 30
0.0
  0
POLYLINE
  5
4F
330
1F
100
AcDbEntity
  8
_U+30EC_U+30A4_U+30E4_U+30FC 1
 62
     7
420
 16777215
370
     9
100
AcDb2dPolyline
 66
     1
 10
0.0
 20
0.0
 30
0.0
  0
VERTEX
  5
50
330
4F
100
AcDbEntity
  8
_U+30EC_U+30A4_U+30E4_U+30FC 1
 62
     7
420
 16777215
370
     9
100
AcDbVertex
100
AcDb2dVertex
 10
93.37551289556998
 20
-123.7592069135047
 30
0.0
  0
VERTEX
  5
51
330
4F
100
AcDbEntity
  8
_U+30EC_U+30A4_U+30E4_U+30FC 1
 62
     7
420
 16777215
370
     9
100
AcDbVertex
100
AcDb2dVertex
 10
113.375331274221
 20
-123.7592069135047
 30
0.0
  0
SEQEND
  5
52
330
4F
100
AcDbEntity
  8
_U+30EC_U+30A4_U+30E4_U+30FC 1
 62
     7
420
 16777215
370
     9
  0
POLYLINE
  5
53
330
1F
100
AcDbEntity
  8
_U+30EC_U+30A4_U+30E4_U+30FC 1
 62
     7
420
 16777215
370
     9
100
AcDb2dPolyline
 66
     1
 10
0.0
 20
0.0
 30
0.0
  0
VERTEX
  5
54
330
53
100
AcDbEntity
  8
_U+30EC_U+30A4_U+30E4_U+30FC 1
 62
     7
420
 16777215
370
     9
100
AcDbVertex
100
AcDb2dVertex
 10
113.3732527494343
 20
-125.2192130242509
 30
0.0
  0
VERTEX
  5
55
330
53
100
AcDbEntity
  8
_U+30EC_U+30A4_U+30E4_U+30FC 1
 62
     7
420
 16777215
370
     9
100
AcDbVertex
100
AcDb2dVertex
 10
113.3732527494343
 20
-122.7594346915325
 30
0.0
  0
SEQEND
  5
56
330
53
100
AcDbEntity
  8
_U+30EC_U+30A4_U+30E4_U+30FC 1
 62
     7
420
 16777215
370
     9
  0
INSERT
  5
58
330
1F
100
AcDbEntity
  8
_U+30EC_U+30A4_U+30E4_U+30FC 1
100
AcDbBlockReference
  2
block 2
 10
0.0
 20
0.0
 30
0.0
  0
POLYLINE
  5
60
330
1F
100
AcDbEntity
  8
_U+30EC_U+30A4_U+30E4_U+30FC 1
 62
     7
420
 16777215
370
     9
100
AcDb2dPolyline
 66
     1
 10
0.0
 20
0.0
 30
0.0
  0
VERTEX
  5
61
330
60
100
AcDbEntity
  8
_U+30EC_U+30A4_U+30E4_U+30FC 1
 62
     7
420
 16777215
370
     9
100
AcDbVertex
100
AcDb2dVertex
 10
71.88139844393052
 20
-145.2590016303517
 30
0.0
  0
VERTEX
  5
62
330
60
100
AcDbEntity
  8
_U+30EC_U+30A4_U+30E4_U+30FC 1
 62
     7
420
 16777215
370
     9
100
AcDbVertex
100
AcDb2dVertex
 10
71.88139844393052
 20
-123.7592069135047
 30
0.0
  0
SEQEND
  5
63
330
60
100
AcDbEntity
  8
_U+30EC_U+30A4_U+30E4_U+30FC 1
 62
     7
420
 16777215
370
     9
  0
POLYLINE
  5
64
330
1F
100
AcDbEntity
  8
_U+30EC_U+30A4_U+30E4_U+30FC 1
 62
     7
420
 16777215
370
     9
100
AcDb2dPolyline
 66
     1
 10
0.0
 20
0.0
 30
0.0
  0
VERTEX
  5
65
330
64
100
AcDbEntity
  8
_U+30EC_U+30A4_U+30E4_U+30FC 1
 62
     7
420
 16777215
370
     9
100
AcDbVertex
100
AcDb2dVertex
 10
75.11908887010901
 20
-145.2590016303517
 30
0.0
  0
VERTEX
  5
66
330
64
100
AcDbEntity
  8
_U+30EC_U+30A4_U+30E4_U+30FC 1
 62
     7
420
 16777215
370
     9
100
AcDbVertex
100
AcDb2dVertex
 10
70.88162624721461
 20
-145.2590016303517
 30
0.0
  0
SEQEND
  5
67
330
64
100
AcDbEntity
  8
_U+30EC_U+30A4_U+30E4_U+30FC 1
 62
     7
420
 16777215
370
     9
  0
POLYLINE
  5
68
330
1F
100
AcDbEntity
  8
_U+30EC_U+30A4_U+30E4_U+30FC 1
 62
     7
420
 16777215
370
     9
100
AcDb2dPolyline
 66
     1
 10
0.0
 20
0.0
 30
0.0
  0
VERTEX
  5
69
330
68
100
AcDbEntity
  8
_U+30EC_U+30A4_U+30E4_U+30FC 1
 62
     7
420
 16777215
370
     9
100
AcDbVertex
100
AcDb2dVertex
 10
73.34144164833128
 20
-123.7592069135047
 30
0.0
  0
VERTEX
  5
6A
330
68
100
AcDbEntity
  8
_U+30EC_U+30A4_U+30E4_U+30FC 1
 62
     7
420
 16777215
370
     9
100
AcDbVertex
100
AcDb2dVertex
 10
70.88162624721461
 20
-123.7592069135047
 30
0.0
  0
SEQEND
  5
6B
330
68
100
AcDbEntity
  8
_U+30EC_U+30A4_U+30E4_U+30FC 1
 62
     7
420
 16777215
370
     9
  0
INSERT
  5
6D
330
1F
100
AcDbEntity
  8
_U+30EC_U+30A4_U+30E4_U+30FC 1
100
AcDbBlockReference
  2
block 3
 10
0.0
 20
0.0
 30
0.0
  0
POLYLINE
  5
7E
330
1F
100
AcDbEntity
  8
_U+30EC_U+30A4_U+30E4_U+30FC 1
 62
     7
420
 16777215
370
     9
100
AcDb2dPolyline
 66
     1
 10
0.0
 20
0.0
 30
0.0
  0
VERTEX
  5
7F
330
7E
100
AcDbEntity
  8
_U+30EC_U+30A4_U+30E4_U+30FC 1
 62
     7
420
 16777215
370
     9
100
AcDbVertex
100
AcDb2dVertex
 10
76.8795538719725
 20
-119.7594477478378
 30
0.0
  0
VERTEX
  5
80
330
7E
100
AcDbEntity
  8
_U+30EC_U+30A4_U+30E4_U+30FC 1
 62
     7
420
 16777215
370
     9
100
AcDbVertex
100
AcDb2dVertex
 10
92.37955069875687
 20
-119.7594477478378
 30
0.0
  0
SEQEND
  5
81
330
7E
100
AcDbEntity
  8
_U+30EC_U+30A4_U+30E4_U+30FC 1
 62
     7
420
 16777215
370
     9
  0
POLYLINE
  5
82
330
1F
100
AcDbEntity
  8
_U+30EC_U+30A4_U+30E4_U+30FC 1
 62
     7
420
 16777215
370
     9
100
AcDb2dPolyline
 66
     1
 10
0.0
 20
0.0
 30
0.0
  0
VERTEX
  5
83
330
82
100
AcDbEntity
  8
_U+30EC_U+30A4_U+30E4_U+30FC 1
 62
     7
420
 16777215
370
     9
100
AcDbVertex
100
AcDb2dVertex
 10
76.88159998303142
 20
-121.2111988585861
 30
0.0
  0
VERTEX
  5
84
330
82
100
AcDbEntity
  8
_U+30EC_U+30A4_U+30E4_U+30FC 1
 62
     7
420
 16777215
370
     9
100
AcDbVertex
100
AcDb2dVertex
 10
76.88159998303142
 20
-118.7596755258656
 30
0.0
  0
SEQEND
  5
85
330
82
100
AcDbEntity
  8
_U+30EC_U+30A4_U+30E4_U+30FC 1
 62
     7
420
 16777215
370
     9
  0
POLYLINE
  5
86
330
1F
100
AcDbEntity
  8
_U+30EC_U+30A4_U+30E4_U+30FC 1
 62
     7
420
 16777215
370
     9
100
AcDb2dPolyline
 66
     1
 10
0.0
 20
0.0
 30
0.0
  0
VERTEX
  5
87
330
86
100
AcDbEntity
  8
_U+30EC_U+30A4_U+30E4_U+30FC 1
 62
     7
420
 16777215
370
     9
100
AcDbVertex
100
AcDb2dVertex
 10
92.37746930992108
 20
-122.2192260805562
 30
0.0
  0
VERTEX
  5
88
330
86
100
AcDbEntity
  8
_U+30EC_U+30A4_U+30E4_U+30FC 1
 62
     7
420
 16777215
370
     9
100
AcDbVertex
100
AcDb2dVertex
 10
92.37746930992108
 20
-118.7596755258656
 30
0.0
  0
SEQEND
  5
89
330
86
100
AcDbEntity
  8
_U+30EC_U+30A4_U+30E4_U+30FC 1
 62
     7
420
 16777215
370
     9
  0
INSERT
  5
8B
330
1F
100
AcDbEntity
  8
_U+30EC_U+30A4_U+30E4_U+30FC 1
100
AcDbBlockReference
  2
block 4
 10
0.0
 20
0.0
 30
0.0
  0
POLYLINE
  5
9C
330
1F
100
AcDbEntity
  8
_U+30EC_U+30A4_U+30E4_U+30FC 1
 62
     7
420
 16777215
370
     9
100
AcDb2dPolyline
 66
     1
 10
0.0
 20
0.0
 30
0.0
  0
VERTEX
  5
9D
330
9C
100
AcDbEntity
  8
_U+30EC_U+30A4_U+30E4_U+30FC 1
 62
     7
420
 16777215
370
     9
100
AcDbVertex
100
AcDb2dVertex
 10
76.46715666027141
 20
-144.6733552416095
 30
0.0
  0
VERTEX
  5
9E
330
9C
100
AcDbEntity
  8
_U+30EC_U+30A4_U+30E4_U+30FC 1
 62
     7
420
 16777215
370
     9
100
AcDbVertex
100
AcDb2dVertex
 10
71.88139844393052
 20
-149.2587607960186
 30
0.0
  0
SEQEND
  5
9F
330
9C
100
AcDbEntity
  8
_U+30EC_U+30A4_U+30E4_U+30FC 1
 62
     7
420
 16777215
370
     9
  0
POLYLINE
  5
A0
330
1F
100
AcDbEntity
  8
_U+30EC_U+30A4_U+30E4_U+30FC 1
 62
     7
420
 16777215
370
     9
100
AcDb2dPolyline
 66
     1
 10
0.0
 20
0.0
 30
0.0
  0
VERTEX
  5
A1
330
A0
100
AcDbEntity
  8
_U+30EC_U+30A4_U+30E4_U+30FC 1
 62
     7
420
 16777215
370
     9
100
AcDbVertex
100
AcDb2dVertex
 10
71.88139844393052
 20
-149.2587607960186
 30
0.0
  0
VERTEX
  5
A2
330
A0
100
AcDbEntity
  8
_U+30EC_U+30A4_U+30E4_U+30FC 1
 62
     7
420
 16777215
370
     9
100
AcDbVertex
100
AcDb2dVertex
 10
68.36741436691307
 20
-149.2587607960186
 30
0.0
  0
SEQEND
  5
A3
330
A0
100
AcDbEntity
  8
_U+30EC_U+30A4_U+30E4_U+30FC 1
 62
     7
420
 16777215
370
     9
  0
INSERT
  5
A5
330
1F
100
AcDbEntity
  8
_U+30EC_U+30A4_U+30E4_U+30FC 1
100
AcDbBlockReference
  2
block 5
 10
0.0
 20
0.0
 30
0.0
  0
SPLINE
  5
AD
330
1F
100
AcDbEntity
  8
_U+30EC_U+30A4_U+30E4_U+30FC 1
 62
     7
420
 16777215
370
    25
100
AcDbSpline
210
0.0
220
0.0
230
1.0
 70
    11
 71
     3
 72
    74
 73
    70
 74
     0
 42
0.0000000001
 43
0.0000000001
 12
1.0
 22
0.0
 32
0.0
 13
1.0
 23
0.0
 33
0.0
 40
0.0
 40
0.0
 40
0.0
 40
0.0
 40
1.0
 40
1.0
 40
1.0
 40
2.0
 40
2.0
 40
2.0
 40
3.0
 40
3.0
 40
3.0
 40
4.0
 40
4.0
 40
4.0
 40
5.0
 40
5.0
 40
5.0
 40
6.0
 40
6.0
 40
6.0
 40
7.0
 40
7.0
 40
7.0
 40
8.0
 40
8.0
 40
8.0
 40
9.0
 40
9.0
 40
9.0
 40
10.0
 40
10.0
 40
10.0
 40
11.0
 40
11.0
 40
11.0
 40
12.0
 40
12.0
 40
12.0
 40
13.0
 40
13.0
 40
13.0
 40
14.0
 40
14.0
 40
14.0
 40
15.0
 40
15.0
 40
15.0
 40
16.0
 40
16.0
 40
16.0
 40
17.0
 40
17.0
 40
17.0
 40
18.0
 40
18.0
 40
18.0
 40
19.0
 40
19.0
 40
19.0
 40
20.0
 40
20.0
 40
20.0
 40
21.0
 40
21.0
 40
21.0
 40
22.0
 40
22.0
 40
22.0
 40
23.0
 40
23.0
 40
23.0
 40
23.0
 10
96.38068559667941
 20
-145.2590016303517
 30
0.0
 10
96.93327669369275
 20
-145.2590016303517
 30
0.0
 10
97.38113053121002
 20
-144.8111502415753
 30
0.0
 10
97.38113053121002
 20
-144.2592294083798
 30
0.0
 10
97.38113053121002
 20
-144.2592294083798
 30
0.0
 10
78.31271355763178
 20
-144.2592294083798
 30
0.0
 10
78.31271355763178
 20
-144.2592294083798
 30
0.0
 10
78.23312689299554
 20
-144.2592294083798
 30
0.0
 10
78.15699745049332
 20
-144.2275499639434
 30
0.0
 10
78.10048245193514
 20
-144.1710349639574
 30
0.0
 10
77.98336023270096
 20
-144.0539127417643
 30
0.0
 10
77.98336023270096
 20
-143.8644357973674
 30
0.0
 10
78.10048245193514
 20
-143.7473135751744
 30
0.0
 10
78.10048245193514
 20
-143.7473135751744
 30
0.0
 10
93.0851062363122
 20
-128.7594085789212
 30
0.0
 10
93.0851062363122
 20
-128.7594085789212
 30
0.0
 10
93.0851062363122
 20
-128.7594085789212
 30
0.0
 10
96.37793393008295
 20
-128.7594085789212
 30
0.0
 10
96.37793393008295
 20
-128.7594085789212
 30
0.0
 10
96.73484164248322
 20
-128.7594085789212
 30
0.0
 10
97.06486280144682
 20
-128.5685558011911
 30
0.0
 10
97.24400335243212
 20
-128.2591696901575
 30
0.0
 10
97.24400335243212
 20
-128.2591696901575
 30
0.0
 10
112.8737194162261
 20
-128.2591696901575
 30
0.0
 10
112.8737194162261
 20
-128.2591696901575
 30
0.0
 10
113.149341835542
 20
-128.2591696901575
 30
0.0
 10
113.3732527494343
 20
-128.0352616346577
 30
0.0
 10
113.3732527494343
 20
-127.759636356949
 30
0.0
 10
113.3732527494343
 20
-127.759636356949
 30
0.0
 10
93.37794706217454
 20
-127.759636356949
 30
0.0
 10
93.37794706217454
 20
-127.759636356949
 30
0.0
 10
93.37794706217454
 20
-127.759636356949
 30
0.0
 10
93.37794706217454
 20
-107.7591471952824
 30
0.0
 10
93.37794706217454
 20
-107.7591471952824
 30
0.0
 10
93.10165151366787
 20
-107.7591471952824
 30
0.0
 10
92.87770818604781
 20
-107.9823849730045
 30
0.0
 10
92.87770818604781
 20
-108.2586805284909
 30
0.0
 10
92.87770818604781
 20
-108.2586805284909
 30
0.0
 10
92.87770818604781
 20
-123.8935446912489
 30
0.0
 10
92.87770818604781
 20
-123.8935446912489
 30
0.0
 10
92.5683220828298
 20
-124.0720149689821
 30
0.0
 10
92.37746930992108
 20
-124.4020385800105
 30
0.0
 10
92.37746930992108
 20
-124.7596494132546
 30
0.0
 10
92.37746930992108
 20
-124.7596494132546
 30
0.0
 10
92.37746930992108
 20
-128.0524771902091
 30
0.0
 10
92.37746930992108
 20
-128.0524771902091
 30
0.0
 10
92.37746930992108
 20
-128.0524771902091
 30
0.0
 10
77.39355108108157
 20
-143.0396766309068
 30
0.0
 10
77.39355108108157
 20
-143.0396766309068
 30
0.0
 10
77.33703608252338
 20
-143.0961916308928
 30
0.0
 10
77.26090664002118
 20
-143.1278710753292
 30
0.0
 10
77.18131997538492
 20
-143.1278710753292
 30
0.0
 10
77.01562220296829
 20
-143.1278710753292
 30
0.0
 10
76.88128248303953
 20
-142.9934980198072
 30
0.0
 10
76.88128248303953
 20
-142.8274455198488
 30
0.0
 10
76.88128248303953
 20
-142.8274455198488
 30
0.0
 10
76.88128248303953
 20
-123.7592069135047
 30
0.0
 10
76.88128248303953
 20
-123.7592069135047
 30
0.0
 10
76.3286561082493
 20
-123.7592069135047
 30
0.0
 10
75.88115750855484
 20
-124.2070583022814
 30
0.0
 10
75.88115750855484
 20
-124.7596494132546
 30
0.0
 10
75.88115750855484
 20
-124.7596494132546
 30
0.0
 10
75.88115750855484
 20
-143.2587869086299
 30
0.0
 10
75.88115750855484
 20
-143.2587869086299
 30
0.0
 10
75.88115750855484
 20
-144.3632988527983
 30
0.0
 10
76.77689554125821
 20
-145.2590016303517
 30
0.0
 10
77.88137217974733
 20
-145.2590016303517
 30
0.0
 10
77.88137217974733
 20
-145.2590016303517
 30
0.0
 10
96.38068559667941
 20
-145.2590016303517
 30
0.0
 10
96.38068559667941
 20
-145.2590016303517
 30
0.0
  0
HATCH
  5
AE
330
1F
100
AcDbEntity
  8
_U+30EC_U+30A4_U+30E4_U+30FC 1
 62
   253
420
 11711154
100
AcDbHatch
 10
0.0
 20
0.0
 30
0.0
210
0.0
220
0.0
230
1.0
  2
SOLID
 70
     1
 71
     0
 91
        1
 92
        1
 93
        1
 72
     4
 94
        3
 73
     0
 74
     1
 95
       74
 96
       70
 40
0.0
 40
0.0
 40
0.0
 40
0.0
 40
1.0
 40
1.0
 40
1.0
 40
2.0
 40
2.0
 40
2.0
 40
3.0
 40
3.0
 40
3.0
 40
4.0
 40
4.0
 40
4.0
 40
5.0
 40
5.0
 40
5.0
 40
6.0
 40
6.0
 40
6.0
 40
7.0
 40
7.0
 40
7.0
 40
8.0
 40
8.0
 40
8.0
 40
9.0
 40
9.0
 40
9.0
 40
10.0
 40
10.0
 40
10.0
 40
11.0
 40
11.0
 40
11.0
 40
12.0
 40
12.0
 40
12.0
 40
13.0
 40
13.0
 40
13.0
 40
14.0
 40
14.0
 40
14.0
 40
15.0
 40
15.0
 40
15.0
 40
16.0
 40
16.0
 40
16.0
 40
17.0
 40
17.0
 40
17.0
 40
18.0
 40
18.0
 40
18.0
 40
19.0
 40
19.0
 40
19.0
 40
20.0
 40
20.0
 40
20.0
 40
21.0
 40
21.0
 40
21.0
 40
22.0
 40
22.0
 40
22.0
 40
23.0
 40
23.0
 40
23.0
 40
23.0
 10
96.38068559667941
 20
-145.2590016303517
 10
96.93327669369275
 20
-145.2590016303517
 10
97.38113053121002
 20
-144.8111502415753
 10
97.38113053121002
 20
-144.2592294083798
 10
97.38113053121002
 20
-144.2592294083798
 10
78.31271355763178
 20
-144.2592294083798
 10
78.31271355763178
 20
-144.2592294083798
 10
78.23312689299554
 20
-144.2592294083798
 10
78.15699745049332
 20
-144.2275499639434
 10
78.10048245193514
 20
-144.1710349639574
 10
77.98336023270096
 20
-144.0539127417643
 10
77.98336023270096
 20
-143.8644357973674
 10
78.10048245193514
 20
-143.7473135751744
 10
78.10048245193514
 20
-143.7473135751744
 10
93.0851062363122
 20
-128.7594085789212
 10
93.0851062363122
 20
-128.7594085789212
 10
93.0851062363122
 20
-128.7594085789212
 10
96.37793393008295
 20
-128.7594085789212
 10
96.37793393008295
 20
-128.7594085789212
 10
96.73484164248322
 20
-128.7594085789212
 10
97.06486280144682
 20
-128.5685558011911
 10
97.24400335243212
 20
-128.2591696901575
 10
97.24400335243212
 20
-128.2591696901575
 10
112.8737194162261
 20
-128.2591696901575
 10
112.8737194162261
 20
-128.2591696901575
 10
113.149341835542
 20
-128.2591696901575
 10
113.3732527494343
 20
-128.0352616346577
 10
113.3732527494343
 20
-127.759636356949
 10
113.3732527494343
 20
-127.759636356949
 10
93.37794706217454
 20
-127.759636356949
 10
93.37794706217454
 20
-127.759636356949
 10
93.37794706217454
 20
-127.759636356949
 10
93.37794706217454
 20
-107.7591471952824
 10
93.37794706217454
 20
-107.7591471952824
 10
93.10165151366787
 20
-107.7591471952824
 10
92.87770818604781
 20
-107.9823849730045
 10
92.87770818604781
 20
-108.2586805284909
 10
92.87770818604781
 20
-108.2586805284909
 10
92.87770818604781
 20
-123.8935446912489
 10
92.87770818604781
 20
-123.8935446912489
 10
92.5683220828298
 20
-124.0720149689821
 10
92.37746930992108
 20
-124.4020385800105
 10
92.37746930992108
 20
-124.7596494132546
 10
92.37746930992108
 20
-124.7596494132546
 10
92.37746930992108
 20
-128.0524771902091
 10
92.37746930992108
 20
-128.0524771902091
 10
92.37746930992108
 20
-128.0524771902091
 10
77.39355108108157
 20
-143.0396766309068
 10
77.39355108108157
 20
-143.0396766309068
 10
77.33703608252338
 20
-143.0961916308928
 10
77.26090664002118
 20
-143.1278710753292
 10
77.18131997538492
 20
-143.1278710753292
 10
77.01562220296829
 20
-143.1278710753292
 10
76.88128248303953
 20
-142.9934980198072
 10
76.88128248303953
 20
-142.8274455198488
 10
76.88128248303953
 20
-142.8274455198488
 10
76.88128248303953
 20
-123.7592069135047
 10
76.88128248303953
 20
-123.7592069135047
 10
76.3286561082493
 20
-123.7592069135047
 10
75.88115750855484
 20
-124.2070583022814
 10
75.88115750855484
 20
-124.7596494132546
 10
75.88115750855484
 20
-124.7596494132546
 10
75.88115750855484
 20
-143.2587869086299
 10
75.88115750855484
 20
-143.2587869086299
 10
75.88115750855484
 20
-144.3632988527983
 10
76.77689554125821
 20
-145.2590016303517
 10
77.88137217974733
 20
-145.2590016303517
 10
77.88137217974733
 20
-145.2590016303517
 10
96.38068559667941
 20
-145.2590016303517
 10
96.38068559667941
 20
-145.2590016303517
 97
        0
 97
        0
 75
     2
 76
     1
 98
        0
  0
POLYLINE
  5
AF
330
1F
100
AcDbEntity
  8
_U+30EC_U+30A4_U+30E4_U+30FC 1
 62
     7
420
 16777215
370
     9
100
AcDb2dPolyline
 66
     1
 10
0.0
 20
0.0
 30
0.0
  0
VERTEX
  5
B0
330
AF
100
AcDbEntity
  8
_U+30EC_U+30A4_U+30E4_U+30FC 1
 62
     7
420
 16777215
370
     9
100
AcDbVertex
100
AcDb2dVertex
 10
74.33913060345077
 20
-119.7546146922837
 30
0.0
  0
VERTEX
  5
B1
330
AF
100
AcDbEntity
  8
_U+30EC_U+30A4_U+30E4_U+30FC 1
 62
     7
420
 16777215
370
     9
100
AcDbVertex
100
AcDb2dVertex
 10
80.37907406047009
 20
-119.7546146922837
 30
0.0
  0
SEQEND
  5
B2
330
AF
100
AcDbEntity
  8
_U+30EC_U+30A4_U+30E4_U+30FC 1
 62
     7
420
 16777215
370
     9
  0
SPLINE
  5
B3
330
1F
100
AcDbEntity
  8
_U+30EC_U+30A4_U+30E4_U+30FC 1
 62
     7
420
 16777215
370
     9
100
AcDbSpline
210
0.0
220
0.0
230
1.0
 70
    11
 71
     3
 72
    17
 73
    13
 74
     0
 42
0.0000000001
 43
0.0000000001
 12
1.0
 22
0.0
 32
0.0
 13
1.0
 23
0.0
 33
0.0
 40
0.0
 40
0.0
 40
0.0
 40
0.0
 40
1.0
 40
1.0
 40
1.0
 40
2.0
 40
2.0
 40
2.0
 40
3.0
 40
3.0
 40
3.0
 40
4.0
 40
4.0
 40
4.0
 40
4.0
 10
75.97898278383688
 20
-119.7511574700624
 30
0.0
 10
75.97898278383688
 20
-119.6960535811871
 30
0.0
 10
75.934215284979
 20
-119.6512508034204
 30
0.0
 10
75.87907611971904
 20
-119.6512508034204
 30
0.0
 10
75.82397223223597
 20
-119.6512508034204
 30
0.0
 10
75.7791694556012
 20
-119.6960535811871
 30
0.0
 10
75.7791694556012
 20
-119.7511574700624
 30
0.0
 10
75.7791694556012
 20
-119.8062966367151
 30
0.0
 10
75.82397223223597
 20
-119.8510994144815
 30
0.0
 10
75.87907611971904
 20
-119.8510994144815
 30
0.0
 10
75.934215284979
 20
-119.8510994144815
 30
0.0
 10
75.97898278383688
 20
-119.8062966367151
 30
0.0
 10
75.97898278383688
 20
-119.7511574700624
 30
0.0
  0
POLYLINE
  5
B4
330
1F
100
AcDbEntity
  8
_U+30EC_U+30A4_U+30E4_U+30FC 1
 62
     7
420
 16777215
370
     9
100
AcDb2dPolyline
 66
     1
 10
0.0
 20
0.0
 30
0.0
  0
VERTEX
  5
B5
330
B4
100
AcDbEntity
  8
_U+30EC_U+30A4_U+30E4_U+30FC 1
 62
     7
420
 16777215
370
     9
100
AcDbVertex
100
AcDb2dVertex
 10
75.87907611971904
 20
-121.2111988585861
 30
0.0
  0
VERTEX
  5
B6
330
B4
100
AcDbEntity
  8
_U+30EC_U+30A4_U+30E4_U+30FC 1
 62
     7
420
 16777215
370
     9
100
AcDbVertex
100
AcDb2dVertex
 10
75.87907611971904
 20
-118.7514205258677
 30
0.0
  0
SEQEND
  5
B7
330
B4
100
AcDbEntity
  8
_U+30EC_U+30A4_U+30E4_U+30FC 1
 62
     7
420
 16777215
370
     9
  0
INSERT
  5
B9
330
1F
100
AcDbEntity
  8
_U+30EC_U+30A4_U+30E4_U+30FC 1
100
AcDbBlockReference
  2
block 6
 10
0.0
 20
0.0
 30
0.0
  0
ENDSEC
  0
SECTION
  2
OBJECTS
  0
DICTIONARY
  5
C
330
0
100
AcDbDictionary
281
     1
  3
ACAD_GROUP
350
D
  3
ACAD_LAYOUT
350
1A
  3
ACAD_MATERIAL
350
3B
  3
ACAD_MLEADERSTYLE
350
BF
  3
ACAD_MLINESTYLE
350
17
  3
ACAD_PLOTSETTINGS
350
19
  3
ACAD_PLOTSTYLENAME
350
E
  3
ACAD_TABLESTYLE
350
BE
  3
ACAD_VISUALSTYLE
350
2A
  0
SUN
  5
3F
330
29
100
AcDbSun
 90
        1
290
     0
 63
     7
421
 16777215
 40
1.0
291
     1
 91
  2455826
 92
 54000000
292
     0
 70
     2
 71
   256
280
     1
  0
DICTIONARY
  5
D
102
{ACAD_REACTORS
330
C
102
}
330
C
100
AcDbDictionary
281
     1
  0
DICTIONARY
  5
1A
102
{ACAD_REACTORS
330
C
102
}
330
C
100
AcDbDictionary
281
     1
  3
Layout1
350
1E
  3
Layout2
350
26
  3
Model
350
22
  0
DICTIONARY
  5
3B
102
{ACAD_REACTORS
330
C
102
}
330
C
100
AcDbDictionary
281
     1
  3
ByBlock
350
3D
  3
ByLayer
350
3C
  3
Global
350
3E
  0
DICTIONARY
  5
BF
102
{ACAD_REACTORS
330
C
102
}
330
C
100
AcDbDictionary
281
     1
  0
DICTIONARY
  5
17
102
{ACAD_REACTORS
330
C
102
}
330
C
100
AcDbDictionary
281
     1
  3
Standard
350
18
  0
DICTIONARY
  5
19
102
{ACAD_REACTORS
330
C
102
}
330
C
100
AcDbDictionary
281
     1
  0
ACDBDICTIONARYWDFLT
  5
E
102
{ACAD_REACTORS
330
C
102
}
330
C
100
AcDbDictionary
281
     1
  3
Normal
350
F
100
AcDbDictionaryWithDefault
340
F
  0
DICTIONARY
  5
BE
102
{ACAD_REACTORS
330
C
102
}
330
C
100
AcDbDictionary
281
     1
  0
DICTIONARY
  5
2A
102
{ACAD_REACTORS
330
C
102
}
330
C
100
AcDbDictionary
281
     1
  3
2dWireframe
350
2F
  3
3D Hidden
350
31
  3
3dWireframe
350
30
  3
Basic
350
32
  3
Brighten
350
36
  3
ColorChange
350
3A
  3
Conceptual
350
34
  3
Dim
350
35
  3
Facepattern
350
39
  3
Flat
350
2B
  3
FlatWithEdges
350
2C
  3
Gouraud
350
2D
  3
GouraudWithEdges
350
2E
  3
Linepattern
350
38
  3
Realistic
350
33
  3
Thicken
350
37
  0
LAYOUT
  5
1E
102
{ACAD_REACTORS
330
1A
102
}
330
1A
100
AcDbPlotSettings
  1

  2
none_device
  4

  6

 40
0.0
 41
0.0
 42
0.0
 43
0.0
 44
0.0
 45
0.0
 46
0.0
 47
0.0
 48
0.0
 49
0.0
140
0.0
141
0.0
142
1.0
143
1.0
 70
   688
 72
     0
 73
     0
 74
     5
  7

 75
    16
 76
     0
 77
     2
 78
   300
147
1.0
148
0.0
149
0.0
100
AcDbLayout
  1
Layout1
 70
     1
 71
     1
 10
0.0
 20
0.0
 11
12.0
 21
9.0
 12
0.0
 22
0.0
 32
0.0
 14
1.000000000000000E+20
 24
1.000000000000000E+20
 34
1.000000000000000E+20
 15
-1.000000000000000E+20
 25
-1.000000000000000E+20
 35
-1.000000000000000E+20
146
0.0
 13
0.0
 23
0.0
 33
0.0
 16
1.0
 26
0.0
 36
0.0
 17
0.0
 27
1.0
 37
0.0
 76
     0
330
1B
  0
LAYOUT
  5
26
102
{ACAD_REACTORS
330
1A
102
}
330
1A
100
AcDbPlotSettings
  1

  2
none_device
  4

  6

 40
0.0
 41
0.0
 42
0.0
 43
0.0
 44
0.0
 45
0.0
 46
0.0
 47
0.0
 48
0.0
 49
0.0
140
0.0
141
0.0
142
1.0
143
1.0
 70
   688
 72
     0
 73
     0
 74
     5
  7

 75
    16
 76
     0
 77
     2
 78
   300
147
1.0
148
0.0
149
0.0
100
AcDbLayout
  1
Layout2
 70
     1
 71
     2
 10
0.0
 20
0.0
 11
0.0
 21
0.0
 12
0.0
 22
0.0
 32
0.0
 14
0.0
 24
0.0
 34
0.0
 15
0.0
 25
0.0
 35
0.0
146
0.0
 13
0.0
 23
0.0
 33
0.0
 16
1.0
 26
0.0
 36
0.0
 17
0.0
 27
1.0
 37
0.0
 76
     0
330
23
  0
LAYOUT
  5
22
102
{ACAD_REACTORS
330
1A
102
}
330
1A
100
AcDbPlotSettings
  1

  2
none_device
  4

  6

 40
0.0
 41
0.0
 42
0.0
 43
0.0
 44
0.0
 45
0.0
 46
0.0
 47
0.0
 48
0.0
 49
0.0
140
0.0
141
0.0
142
1.0
143
1.0
 70
  1712
 72
     0
 73
     0
 74
     0
  7

 75
     0
 76
     0
 77
     2
 78
   300
147
1.0
148
0.0
149
0.0
100
AcDbLayout
  1
Model
 70
     1
 71
     0
 10
0.0
 20
0.0
 11
12.0
 21
9.0
 12
0.0
 22
0.0
 32
0.0
 14
1.000000000000000E+20
 24
1.000000000000000E+20
 34
1.000000000000000E+20
 15
-1.000000000000000E+20
 25
-1.000000000000000E+20
 35
-1.000000000000000E+20
146
0.0
 13
0.0
 23
0.0
 33
0.0
 16
1.0
 26
0.0
 36
0.0
 17
0.0
 27
1.0
 37
0.0
 76
     0
330
1F
331
29
  0
MATERIAL
  5
3D
102
{ACAD_REACTORS
330
3B
102
}
330
3B
100
AcDbMaterial
  1
ByBlock
 72
     1
 94
      127
  0
MATERIAL
  5
3C
102
{ACAD_REACTORS
330
3B
102
}
330
3B
100
AcDbMaterial
  1
ByLayer
 72
     1
 94
      127
  0
MATERIAL
  5
3E
102
{ACAD_REACTORS
330
3B
102
}
330
3B
100
AcDbMaterial
  1
Global
 72
     1
 94
      127
  0
MLINESTYLE
  5
18
102
{ACAD_REACTORS
330
17
102
}
330
17
100
AcDbMlineStyle
  2
Standard
 70
     0
  3

 62
   256
 51
90.0
 52
90.0
 71
     2
 49
0.5
 62
   256
  6
BYLAYER
 49
-0.5
 62
   256
  6
BYLAYER
  0
ACDBPLACEHOLDER
  5
F
102
{ACAD_REACTORS
330
E
102
}
330
E
  0
VISUALSTYLE
  5
2F
102
{ACAD_REACTORS
330
2A
102
}
330
2A
100
AcDbVisualStyle
  2
2dWireframe
 70
     4
177
     2
291
     0
 71
     0
176
     1
 72
     2
176
     1
 73
     0
176
     1
 90
        0
176
     1
 40
-0.6
176
     1
 41
-30.0
176
     1
 62
     5
 63
     7
421
 16777215
176
     1
 74
     1
176
     1
 91
        4
176
     1
 64
     7
176
     1
 65
   257
176
     1
 75
     1
176
     1
175
     1
176
     1
 42
1.0
176
     1
 92
        0
176
     1
 66
   257
176
     1
 43
1.0
176
     1
 76
     1
176
     1
 77
     6
176
     1
 78
     2
176
     1
 67
     7
176
     1
 79
     5
176
     1
170
     0
176
     1
171
     0
176
     1
290
     0
176
     1
 93
        1
176
     1
 44
0.0
176
     1
173
     0
176
     1
  0
VISUALSTYLE
  5
31
102
{ACAD_REACTORS
330
2A
102
}
330
2A
100
AcDbVisualStyle
  2
3D Hidden
 70
     6
177
     2
291
     0
 71
     1
176
     1
 72
     2
176
     1
 73
     2
176
     1
 90
        0
176
     1
 40
-0.6
176
     1
 41
-30.0
176
     1
 62
     5
 63
     7
421
 16777215
176
     1
 74
     2
176
     1
 91
        2
176
     1
 64
     7
176
     1
 65
   257
176
     1
 75
     2
176
     1
175
     1
176
     1
 42
40.0
176
     1
 92
        0
176
     1
 66
   257
176
     1
 43
1.0
176
     1
 76
     1
176
     1
 77
     6
176
     1
 78
     2
176
     1
 67
     7
176
     1
 79
     3
176
     1
170
     0
176
     1
171
     0
176
     1
290
     0
176
     1
 93
        1
176
     1
 44
0.0
176
     1
173
     0
176
     1
  0
VISUALSTYLE
  5
30
102
{ACAD_REACTORS
330
2A
102
}
330
2A
100
AcDbVisualStyle
  2
3dWireframe
 70
     5
177
     2
291
     0
 71
     0
176
     1
 72
     2
176
     1
 73
     0
176
     1
 90
        0
176
     1
 40
-0.6
176
     1
 41
-30.0
176
     1
 62
     5
 63
     7
421
 16777215
176
     1
 74
     1
176
     1
 91
        4
176
     1
 64
     7
176
     1
 65
   257
176
     1
 75
     1
176
     1
175
     1
176
     1
 42
1.0
176
     1
 92
        0
176
     1
 66
   257
176
     1
 43
1.0
176
     1
 76
     1
176
     1
 77
     6
176
     1
 78
     2
176
     1
 67
     7
176
     1
 79
     5
176
     1
170
     0
176
     1
171
     0
176
     1
290
     0
176
     1
 93
        1
176
     1
 44
0.0
176
     1
173
     0
176
     1
  0
VISUALSTYLE
  5
32
102
{ACAD_REACTORS
330
2A
102
}
330
2A
100
AcDbVisualStyle
  2
Basic
 70
     7
177
     2
291
     1
 71
     1
176
     1
 72
     0
176
     1
 73
     1
176
     1
 90
        0
176
     1
 40
-0.6
176
     1
 41
-30.0
176
     1
 62
     5
 63
     7
421
 16777215
176
     1
 74
     0
176
     1
 91
        4
176
     1
 64
     7
176
     1
 65
   257
176
     1
 75
     1
176
     1
175
     1
176
     1
 42
1.0
176
     1
 92
        8
176
     1
 66
     7
176
     1
 43
1.0
176
     1
 76
     1
176
     1
 77
     6
176
     1
 78
     2
176
     1
 67
     7
176
     1
 79
     5
176
     1
170
     0
176
     1
171
     0
176
     1
290
     0
176
     1
 93
        1
176
     1
 44
0.0
176
     1
173
     0
176
     1
  0
VISUALSTYLE
  5
36
102
{ACAD_REACTORS
330
2A
102
}
330
2A
100
AcDbVisualStyle
  2
Brighten
 70
    12
177
     2
291
     1
 71
     2
176
     1
 72
     2
176
     1
 73
     0
176
     1
 90
        0
176
     1
 40
-0.6
176
     1
 41
-30.0
176
     1
 62
     5
 63
     7
421
 16777215
176
     1
 74
     1
176
     1
 91
        4
176
     1
 64
     7
176
     1
 65
   257
176
     1
 75
     1
176
     1
175
     1
176
     1
 42
1.0
176
     1
 92
        8
176
     1
 66
     7
176
     1
 43
1.0
176
     1
 76
     1
176
     1
 77
     6
176
     1
 78
     2
176
     1
 67
     7
176
     1
 79
     5
176
     1
170
     0
176
     1
171
     0
176
     1
290
     0
176
     1
 93
        1
176
     1
 44
50.0
176
     1
173
     0
176
     1
  0
VISUALSTYLE
  5
3A
102
{ACAD_REACTORS
330
2A
102
}
330
2A
100
AcDbVisualStyle
  2
ColorChange
 70
    16
177
     2
291
     1
 71
     2
176
     1
 72
     2
176
     1
 73
     3
176
     1
 90
        0
176
     1
 40
-0.6
176
     1
 41
-30.0
176
     1
 62
     5
 63
     8
421
  8421504
176
     1
 74
     1
176
     1
 91
        4
176
     1
 64
     7
176
     1
 65
   257
176
     1
 75
     1
176
     1
175
     1
176
     1
 42
1.0
176
     1
 92
        8
176
     1
 66
     8
424
  8421504
176
     1
 43
1.0
176
     1
 76
     1
176
     1
 77
     6
176
     1
 78
     2
176
     1
 67
     7
176
     1
 79
     5
176
     1
170
     0
176
     1
171
     0
176
     1
290
     0
176
     1
 93
        1
176
     1
 44
0.0
176
     1
173
     0
176
     1
  0
VISUALSTYLE
  5
34
102
{ACAD_REACTORS
330
2A
102
}
330
2A
100
AcDbVisualStyle
  2
Conceptual
 70
     9
177
     2
291
     0
 71
     3
176
     1
 72
     2
176
     1
 73
     0
176
     1
 90
        0
176
     1
 40
-0.6
176
     1
 41
-30.0
176
     1
 62
     5
 63
     7
421
 16777215
176
     1
 74
     2
176
     1
 91
        2
176
     1
 64
     7
176
     1
 65
   257
176
     1
 75
     1
176
     1
175
     1
176
     1
 42
40.0
176
     1
 92
        8
176
     1
 66
     7
176
     1
 43
1.0
176
     1
 76
     1
176
     1
 77
     6
176
     1
 78
     2
176
     1
 67
     7
176
     1
 79
     3
176
     1
170
     0
176
     1
171
     0
176
     1
290
     0
176
     1
 93
        1
176
     1
 44
0.0
176
     1
173
     0
176
     1
  0
VISUALSTYLE
  5
35
102
{ACAD_REACTORS
330
2A
102
}
330
2A
100
AcDbVisualStyle
  2
Dim
 70
    11
177
     2
291
     1
 71
     2
176
     1
 72
     2
176
     1
 73
     0
176
     1
 90
        0
176
     1
 40
-0.6
176
     1
 41
-30.0
176
     1
 62
     5
 63
     7
421
 16777215
176
     1
 74
     1
176
     1
 91
        4
176
     1
 64
     7
176
     1
 65
   257
176
     1
 75
     1
176
     1
175
     1
176
     1
 42
1.0
176
     1
 92
        8
176
     1
 66
     7
176
     1
 43
1.0
176
     1
 76
     1
176
     1
 77
     6
176
     1
 78
     2
176
     1
 67
     7
176
     1
 79
     5
176
     1
170
     0
176
     1
171
     0
176
     1
290
     0
176
     1
 93
        1
176
     1
 44
-50.0
176
     1
173
     0
176
     1
  0
VISUALSTYLE
  5
39
102
{ACAD_REACTORS
330
2A
102
}
330
2A
100
AcDbVisualStyle
  2
Facepattern
 70
    15
177
     2
291
     1
 71
     2
176
     1
 72
     2
176
     1
 73
     0
176
     1
 90
        0
176
     1
 40
-0.6
176
     1
 41
-30.0
176
     1
 62
     5
 63
     7
421
 16777215
176
     1
 74
     1
176
     1
 91
        4
176
     1
 64
     7
176
     1
 65
   257
176
     1
 75
     1
176
     1
175
     1
176
     1
 42
1.0
176
     1
 92
        8
176
     1
 66
     7
176
     1
 43
1.0
176
     1
 76
     1
176
     1
 77
     6
176
     1
 78
     2
176
     1
 67
     7
176
     1
 79
     5
176
     1
170
     0
176
     1
171
     0
176
     1
290
     0
176
     1
 93
        1
176
     1
 44
0.0
176
     1
173
     0
176
     1
  0
VISUALSTYLE
  5
2B
102
{ACAD_REACTORS
330
2A
102
}
330
2A
100
AcDbVisualStyle
  2
Flat
 70
     0
177
     2
291
     1
 71
     2
176
     1
 72
     1
176
     1
 73
     1
176
     1
 90
        2
176
     1
 40
-0.6
176
     1
 41
30.0
176
     1
 62
     5
 63
     7
421
 16777215
176
     1
 74
     0
176
     1
 91
        4
176
     1
 64
     7
176
     1
 65
   257
176
     1
 75
     1
176
     1
175
     1
176
     1
 42
1.0
176
     1
 92
        8
176
     1
 66
     7
176
     1
 43
1.0
176
     1
 76
     1
176
     1
 77
     6
176
     1
 78
     2
176
     1
 67
     7
176
     1
 79
     5
176
     1
170
     0
176
     1
171
     0
176
     1
290
     0
176
     1
 93
       13
176
     1
 44
0.0
176
     1
173
     0
176
     1
  0
VISUALSTYLE
  5
2C
102
{ACAD_REACTORS
330
2A
102
}
330
2A
100
AcDbVisualStyle
  2
FlatWithEdges
 70
     1
177
     2
291
     1
 71
     2
176
     1
 72
     1
176
     1
 73
     1
176
     1
 90
        2
176
     1
 40
-0.6
176
     1
 41
30.0
176
     1
 62
     5
 63
     7
421
 16777215
176
     1
 74
     1
176
     1
 91
        4
176
     1
 64
     7
176
     1
 65
   257
176
     1
 75
     1
176
     1
175
     1
176
     1
 42
1.0
176
     1
 92
        0
176
     1
 66
   257
176
     1
 43
1.0
176
     1
 76
     1
176
     1
 77
     6
176
     1
 78
     2
176
     1
 67
     7
176
     1
 79
     5
176
     1
170
     0
176
     1
171
     0
176
     1
290
     0
176
     1
 93
       13
176
     1
 44
0.0
176
     1
173
     0
176
     1
  0
VISUALSTYLE
  5
2D
102
{ACAD_REACTORS
330
2A
102
}
330
2A
100
AcDbVisualStyle
  2
Gouraud
 70
     2
177
     2
291
     1
 71
     2
176
     1
 72
     2
176
     1
 73
     1
176
     1
 90
        2
176
     1
 40
-0.6
176
     1
 41
30.0
176
     1
 62
     5
 63
     7
421
 16777215
176
     1
 74
     0
176
     1
 91
        4
176
     1
 64
     7
176
     1
 65
   257
176
     1
 75
     1
176
     1
175
     1
176
     1
 42
1.0
176
     1
 92
        0
176
     1
 66
     7
176
     1
 43
1.0
176
     1
 76
     1
176
     1
 77
     6
176
     1
 78
     2
176
     1
 67
     7
176
     1
 79
     5
176
     1
170
     0
176
     1
171
     0
176
     1
290
     0
176
     1
 93
       13
176
     1
 44
0.0
176
     1
173
     0
176
     1
  0
VISUALSTYLE
  5
2E
102
{ACAD_REACTORS
330
2A
102
}
330
2A
100
AcDbVisualStyle
  2
GouraudWithEdges
 70
     3
177
     2
291
     1
 71
     2
176
     1
 72
     2
176
     1
 73
     1
176
     1
 90
        2
176
     1
 40
-0.6
176
     1
 41
30.0
176
     1
 62
     5
 63
     7
421
 16777215
176
     1
 74
     1
176
     1
 91
        4
176
     1
 64
     7
176
     1
 65
   257
176
     1
 75
     1
176
     1
175
     1
176
     1
 42
1.0
176
     1
 92
        0
176
     1
 66
   257
176
     1
 43
1.0
176
     1
 76
     1
176
     1
 77
     6
176
     1
 78
     2
176
     1
 67
     7
176
     1
 79
     5
176
     1
170
     0
176
     1
171
     0
176
     1
290
     0
176
     1
 93
       13
176
     1
 44
0.0
176
     1
173
     0
176
     1
  0
VISUALSTYLE
  5
38
102
{ACAD_REACTORS
330
2A
102
}
330
2A
100
AcDbVisualStyle
  2
Linepattern
 70
    14
177
     2
291
     1
 71
     2
176
     1
 72
     2
176
     1
 73
     0
176
     1
 90
        0
176
     1
 40
-0.6
176
     1
 41
-30.0
176
     1
 62
     5
 63
     7
421
 16777215
176
     1
 74
     1
176
     1
 91
        4
176
     1
 64
     7
176
     1
 65
   257
176
     1
 75
     7
176
     1
175
     7
176
     1
 42
1.0
176
     1
 92
        8
176
     1
 66
     7
176
     1
 43
1.0
176
     1
 76
     1
176
     1
 77
     6
176
     1
 78
     2
176
     1
 67
     7
176
     1
 79
     5
176
     1
170
     0
176
     1
171
     0
176
     1
290
     0
176
     1
 93
        1
176
     1
 44
0.0
176
     1
173
     0
176
     1
  0
VISUALSTYLE
  5
33
102
{ACAD_REACTORS
330
2A
102
}
330
2A
100
AcDbVisualStyle
  2
Realistic
 70
     8
177
     2
291
     0
 71
     2
176
     1
 72
     2
176
     1
 73
     0
176
     1
 90
        0
176
     1
 40
-0.6
176
     1
 41
-30.0
176
     1
 62
     5
 63
     7
421
 16777215
176
     1
 74
     1
176
     1
 91
        0
176
     1
 64
     7
176
     1
 65
   257
176
     1
 75
     1
176
     1
175
     1
176
     1
 42
1.0
176
     1
 92
        8
176
     1
 66
     8
424
  7895160
176
     1
 43
1.0
176
     1
 76
     1
176
     1
 77
     6
176
     1
 78
     2
176
     1
 67
     7
176
     1
 79
     5
176
     1
170
     0
176
     1
171
     0
176
     1
290
     0
176
     1
 93
       13
176
     1
 44
0.0
176
     1
173
     0
176
     1
  0
VISUALSTYLE
  5
37
102
{ACAD_REACTORS
330
2A
102
}
330
2A
100
AcDbVisualStyle
  2
Thicken
 70
    13
177
     2
291
     1
 71
     2
176
     1
 72
     2
176
     1
 73
     0
176
     1
 90
        0
176
     1
 40
-0.6
176
     1
 41
-30.0
176
     1
 62
     5
 63
     7
421
 16777215
176
     1
 74
     1
176
     1
 91
        4
176
     1
 64
     7
176
     1
 65
   257
176
     1
 75
     1
176
     1
175
     1
176
     1
 42
1.0
176
     1
 92
       12
176
     1
 66
     7
176
     1
 43
1.0
176
     1
 76
     1
176
     1
 77
     6
176
     1
 78
     2
176
     1
 67
     7
176
     1
 79
     5
176
     1
170
     0
176
     1
171
     0
176
     1
290
     0
176
     1
 93
        1
176
     1
 44
0.0
176
     1
173
     0
176
     1
  0
ENDSEC
  0
EOF
