  0
SECTION
  2
HEADER
  9
$ACADVER
  1
AC1024
  9
$ACADMAINTVER
 70
     6
  9
$DWGCODEPAGE
  3
UNDEFINED
  9
$INSBASE
 10
0.0
 20
0.0
 30
0.0
  9
$EXTMIN
 10
1.000000000000000E+20
 20
1.000000000000000E+20
 30
1.000000000000000E+20
  9
$EXTMAX
 10
-1.000000000000000E+20
 20
-1.000000000000000E+20
 30
-1.000000000000000E+20
  9
$LIMMIN
 10
0.0
 20
0.0
  9
$LIMMAX
 10
12.0
 20
9.0
  9
$ORTHOMODE
 70
     0
  9
$REGENMODE
 70
     1
  9
$FILLMODE
 70
     1
  9
$QTEXTMODE
 70
     0
  9
$MIRRTEXT
 70
     1
  9
$LTSCALE
 40
1.0
  9
$ATTMODE
 70
     1
  9
$TEXTSIZE
 40
0.2
  9
$TRACEWID
 40
0.05
  9
$TEXTSTYLE
  7
Standard
  9
$CLAYER
  8
0
  9
$CELTYPE
  6
ByLayer
  9
$CECOLOR
 62
   256
  9
$CELTSCALE
 40
1.0
  9
$DISPSILH
 70
     0
  9
$DIMSCALE
 40
1.0
  9
$DIMASZ
 40
0.18
  9
$DIMEXO
 40
0.0625
  9
$DIMDLI
 40
0.38
  9
$DIMRND
 40
0.0
  9
$DIMDLE
 40
0.0
  9
$DIMEXE
 40
0.18
  9
$DIMTP
 40
0.0
  9
$DIMTM
 40
0.0
  9
$DIMTXT
 40
0.18
  9
$DIMCEN
 40
0.09
  9
$DIMTSZ
 40
0.0
  9
$DIMTOL
 70
     0
  9
$DIMLIM
 70
     0
  9
$DIMTIH
 70
     1
  9
$DIMTOH
 70
     1
  9
$DIMSE1
 70
     0
  9
$DIMSE2
 70
     0
  9
$DIMTAD
 70
     0
  9
$DIMZIN
 70
     0
  9
$DIMBLK
  1

  9
$DIMASO
 70
     1
  9
$DIMSHO
 70
     1
  9
$DIMPOST
  1

  9
$DIMAPOST
  1

  9
$DIMALT
 70
     0
  9
$DIMALTD
 70
     2
  9
$DIMALTF
 40
25.4
  9
$DIMLFAC
 40
1.0
  9
$DIMTOFL
 70
     0
  9
$DIMTVP
 40
0.0
  9
$DIMTIX
 70
     0
  9
$DIMSOXD
 70
     0
  9
$DIMSAH
 70
     0
  9
$DIMBLK1
  1

  9
$DIMBLK2
  1

  9
$DIMSTYLE
  2
Standard
  9
$DIMCLRD
 70
     0
  9
$DIMCLRE
 70
     0
  9
$DIMCLRT
 70
     0
  9
$DIMTFAC
 40
1.0
  9
$DIMGAP
 40
0.09
  9
$DIMJUST
 70
     0
  9
$DIMSD1
 70
     0
  9
$DIMSD2
 70
     0
  9
$DIMTOLJ
 70
     1
  9
$DIMTZIN
 70
     0
  9
$DIMALTZ
 70
     0
  9
$DIMALTTZ
 70
     0
  9
$DIMUPT
 70
     0
  9
$DIMDEC
 70
     4
  9
$DIMTDEC
 70
     4
  9
$DIMALTU
 70
     2
  9
$DIMALTTD
 70
     2
  9
$DIMTXSTY
  7
Standard
  9
$DIMAUNIT
 70
     0
  9
$DIMADEC
 70
     0
  9
$DIMALTRND
 40
0.0
  9
$DIMAZIN
 70
     0
  9
$DIMDSEP
 70
    46
  9
$DIMATFIT
 70
     3
  9
$DIMFRAC
 70
     0
  9
$DIMLDRBLK
  1

  9
$DIMLUNIT
 70
     2
  9
$DIMLWD
 70
    -2
  9
$DIMLWE
 70
    -2
  9
$DIMTMOVE
 70
     0
  9
$DIMFXL
 40
1.0
  9
$DIMFXLON
 70
     0
  9
$DIMJOGANG
 40
0.7853981633974483
  9
$DIMTFILL
 70
     0
  9
$DIMTFILLCLR
 70
     0
  9
$DIMARCSYM
 70
     0
  9
$DIMLTYPE
  6

  9
$DIMLTEX1
  6

  9
$DIMLTEX2
  6

  9
$DIMTXTDIRECTION
 70
     0
  9
$LUNITS
 70
     2
  9
$LUPREC
 70
     4
  9
$SKETCHINC
 40
0.1
  9
$FILLETRAD
 40
0.5
  9
$AUNITS
 70
     0
  9
$AUPREC
 70
     0
  9
$MENU
  1
.
  9
$ELEVATION
 40
0.0
  9
$PELEVATION
 40
0.0
  9
$THICKNESS
 40
0.0
  9
$LIMCHECK
 70
     0
  9
$CHAMFERA
 40
0.5
  9
$CHAMFERB
 40
0.5
  9
$CHAMFERC
 40
1.0
  9
$CHAMFERD
 40
0.0
  9
$SKPOLY
 70
     0
  9
$TDCREATE
 40
2457917.622337963
  9
$TDUCREATE
 40
2457917.247337963
  9
$TDUPDATE
 40
2457917.622337963
  9
$TDUUPDATE
 40
2457917.247337963
  9
$TDINDWG
 40
0.0000000116
  9
$TDUSRTIMER
 40
0.0000000116
  9
$USRTIMER
 70
     1
  9
$ANGBASE
 50
0.0
  9
$ANGDIR
 70
     0
  9
$PDMODE
 70
     0
  9
$PDSIZE
 40
0.0
  9
$PLINEWID
 40
0.0
  9
$SPLFRAME
 70
     0
  9
$SPLINETYPE
 70
     6
  9
$SPLINESEGS
 70
     8
  9
$HANDSEED
  5
BC
  9
$SURFTAB1
 70
     6
  9
$SURFTAB2
 70
     6
  9
$SURFTYPE
 70
     6
  9
$SURFU
 70
     6
  9
$SURFV
 70
     6
  9
$UCSBASE
  2

  9
$UCSNAME
  2

  9
$UCSORG
 10
0.0
 20
0.0
 30
0.0
  9
$UCSXDIR
 10
1.0
 20
0.0
 30
0.0
  9
$UCSYDIR
 10
0.0
 20
1.0
 30
0.0
  9
$UCSORTHOREF
  2

  9
$UCSORTHOVIEW
 70
     0
  9
$UCSORGTOP
 10
0.0
 20
0.0
 30
0.0
  9
$UCSORGBOTTOM
 10
0.0
 20
0.0
 30
0.0
  9
$UCSORGLEFT
 10
0.0
 20
0.0
 30
0.0
  9
$UCSORGRIGHT
 10
0.0
 20
0.0
 30
0.0
  9
$UCSORGFRONT
 10
0.0
 20
0.0
 30
0.0
  9
$UCSORGBACK
 10
0.0
 20
0.0
 30
0.0
  9
$PUCSBASE
  2

  9
$PUCSNAME
  2

  9
$PUCSORG
 10
0.0
 20
0.0
 30
0.0
  9
$PUCSXDIR
 10
1.0
 20
0.0
 30
0.0
  9
$PUCSYDIR
 10
0.0
 20
1.0
 30
0.0
  9
$PUCSORTHOREF
  2

  9
$PUCSORTHOVIEW
 70
     0
  9
$PUCSORGTOP
 10
0.0
 20
0.0
 30
0.0
  9
$PUCSORGBOTTOM
 10
0.0
 20
0.0
 30
0.0
  9
$PUCSORGLEFT
 10
0.0
 20
0.0
 30
0.0
  9
$PUCSORGRIGHT
 10
0.0
 20
0.0
 30
0.0
  9
$PUCSORGFRONT
 10
0.0
 20
0.0
 30
0.0
  9
$PUCSORGBACK
 10
0.0
 20
0.0
 30
0.0
  9
$USERI1
 70
     0
  9
$USERI2
 70
     0
  9
$USERI3
 70
     0
  9
$USERI4
 70
     0
  9
$USERI5
 70
     0
  9
$USERR1
 40
0.0
  9
$USERR2
 40
0.0
  9
$USERR3
 40
0.0
  9
$USERR4
 40
0.0
  9
$USERR5
 40
0.0
  9
$WORLDVIEW
 70
     1
  9
$SHADEDGE
 70
     3
  9
$SHADEDIF
 70
    70
  9
$TILEMODE
 70
     1
  9
$MAXACTVP
 70
    64
  9
$PINSBASE
 10
0.0
 20
0.0
 30
0.0
  9
$PLIMCHECK
 70
     0
  9
$PEXTMIN
 10
1.000000000000000E+20
 20
1.000000000000000E+20
 30
1.000000000000000E+20
  9
$PEXTMAX
 10
-1.000000000000000E+20
 20
-1.000000000000000E+20
 30
-1.000000000000000E+20
  9
$PLIMMIN
 10
0.0
 20
0.0
  9
$PLIMMAX
 10
12.0
 20
9.0
  9
$UNITMODE
 70
     0
  9
$VISRETAIN
 70
     1
  9
$PLINEGEN
 70
     0
  9
$PSLTSCALE
 70
     1
  9
$TREEDEPTH
 70
  3020
  9
$CMLSTYLE
  2
Standard
  9
$CMLJUST
 70
     0
  9
$CMLSCALE
 40
1.0
  9
$PROXYGRAPHICS
 70
     1
  9
$MEASUREMENT
 70
     0
  9
$CELWEIGHT
370
    -1
  9
$ENDCAPS
280
     0
  9
$JOINSTYLE
280
     0
  9
$LWDISPLAY
290
     1
  9
$INSUNITS
 70
     1
  9
$HYPERLINKBASE
  1

  9
$STYLESHEET
  1

  9
$XEDIT
290
     1
  9
$CEPSNTYPE
380
     0
  9
$PSTYLEMODE
290
     1
  9
$FINGERPRINTGUID
  2
{114698AA-C071-54AE-D038-EC3CA32CDFFD}
  9
$VERSIONGUID
  2
{FAEB1C32-E019-11D5-929B-00C0DF256EC4}
  9
$EXTNAMES
290
     1
  9
$PSVPSCALE
 40
0.0
  9
$OLESTARTUP
290
     0
  9
$SORTENTS
280
   127
  9
$INDEXCTL
280
     0
  9
$HIDETEXT
280
     1
  9
$XCLIPFRAME
280
     2
  9
$HALOGAP
280
     0
  9
$OBSCOLOR
 70
   257
  9
$OBSLTYPE
280
     0
  9
$INTERSECTIONDISPLAY
280
     0
  9
$INTERSECTIONCOLOR
 70
   257
  9
$DIMASSOC
280
     2
  9
$PROJECTNAME
  1

  9
$CAMERADISPLAY
290
     0
  9
$LENSLENGTH
 40
50.0
  9
$CAMERAHEIGHT
 40
0.0
  9
$STEPSPERSEC
 40
2.0
  9
$STEPSIZE
 40
6.0
  9
$3DDWFPREC
 40
2.0
  9
$PSOLWIDTH
 40
0.25
  9
$PSOLHEIGHT
 40
4.0
  9
$LOFTANG1
 40
1.570796326794897
  9
$LOFTANG2
 40
1.570796326794897
  9
$LOFTMAG1
 40
0.0
  9
$LOFTMAG2
 40
0.0
  9
$LOFTPARAM
 70
     7
  9
$LOFTNORMALS
280
     1
  9
$LATITUDE
 40
37.795
  9
$LONGITUDE
 40
-122.394
  9
$NORTHDIRECTION
 40
0.0
  9
$TIMEZONE
 70
 -8000
  9
$LIGHTGLYPHDISPLAY
280
     1
  9
$TILEMODELIGHTSYNCH
280
     1
  9
$CMATERIAL
347
3C
  9
$SOLIDHIST
280
     1
  9
$SHOWHIST
280
     1
  9
$DWFFRAME
280
     2
  9
$DGNFRAME
280
     2
  9
$REALWORLDSCALE
290
     1
  9
$INTERFERECOLOR
 62
   256
  9
$CSHADOW
280
     0
  9
$SHADOWPLANELOCATION
 40
0.0
  0
ENDSEC
  0
SECTION
  2
CLASSES
  0
CLASS
  1
ACDBDICTIONARYWDFLT
  2
AcDbDictionaryWithDefault
  3
ObjectDBX Classes
 90
        0
 91
        4
280
     0
281
     0
  0
CLASS
  1
VISUALSTYLE
  2
AcDbVisualStyle
  3
ObjectDBX Classes
 90
     4095
 91
        4
280
     0
281
     0
  0
CLASS
  1
MATERIAL
  2
AcDbMaterial
  3
ObjectDBX Classes
 90
     1153
 91
        4
280
     0
281
     0
  0
CLASS
  1
SUN
  2
AcDbSun
  3
SCENEOE
 90
     1024
 91
        4
280
     0
281
     0
  0
ENDSEC
  0
SECTION
  2
TABLES
  0
TABLE
  2
VPORT
  5
8
330
0
100
AcDbSymbolTable
 70
     1
  0
VPORT
  5
29
330
8
100
AcDbSymbolTableRecord
100
AcDbViewportTableRecord
  2
*Active
 70
     0
 10
0.0
 20
0.0
 11
1.0
 21
1.0
 12
0.0
 22
0.0
 13
0.0
 23
0.0
 14
0.5
 24
0.5
 15
0.5
 25
0.5
 16
0.0
 26
0.0
 36
1.0
 17
91.00082462281999
 27
-128.4993055234307
 37
0.0
 40
256.9986110468615
 41
0.7081814508812795
 42
50.0
 43
0.0
 44
0.0
 50
0.0
 51
0.0
 71
     0
 72
   100
 73
     1
 74
     3
 75
     0
 76
     0
 77
     0
 78
     0
281
     0
 65
     1
110
0.0
120
0.0
130
0.0
111
1.0
121
0.0
131
0.0
112
0.0
122
1.0
132
0.0
 79
     0
146
0.0
 60
     3
 61
     5
292
     1
282
     1
141
0.0
142
0.0
 63
   250
361
3F
  0
ENDTAB
  0
TABLE
  2
LTYPE
  5
5
330
0
100
AcDbSymbolTable
 70
     1
  0
LTYPE
  5
14
330
5
100
AcDbSymbolTableRecord
100
AcDbLinetypeTableRecord
  2
ByBlock
 70
     0
  3

 72
    65
 73
     0
 40
0.0
  0
LTYPE
  5
15
330
5
100
AcDbSymbolTableRecord
100
AcDbLinetypeTableRecord
  2
ByLayer
 70
     0
  3

 72
    65
 73
     0
 40
0.0
  0
LTYPE
  5
16
330
5
100
AcDbSymbolTableRecord
100
AcDbLinetypeTableRecord
  2
Continuous
 70
     0
  3
Solid line
 72
    65
 73
     0
 40
0.0
  0
ENDTAB
  0
TABLE
  2
LAYER
  5
2
330
0
100
AcDbSymbolTable
 70
     2
  0
LAYER
  5
10
330
2
100
AcDbSymbolTableRecord
100
AcDbLayerTableRecord
  2
0
 70
     0
 62
     7
  6
Continuous
370
    -3
390
F
347
3E
  0
LAYER
  5
40
330
2
100
AcDbSymbolTableRecord
100
AcDbLayerTableRecord
  2
_U+30EC_U+30A4_U+30E4_U+30FC 1
 70
     0
 62
     7
  6
Continuous
370
    -3
390
F
347
3E
  0
ENDTAB
  0
TABLE
  2
STYLE
  5
3
330
0
100
AcDbSymbolTable
 70
     1
  0
STYLE
  5
11
330
3
100
AcDbSymbolTableRecord
100
AcDbTextStyleTableRecord
  2
Standard
 70
     0
 40
0.0
 41
1.0
 50
0.0
 71
     0
 42
0.2
  3
txt
  4

  0
ENDTAB
  0
TABLE
  2
VIEW
  5
6
330
0
100
AcDbSymbolTable
 70
     0
  0
ENDTAB
  0
TABLE
  2
UCS
  5
7
330
0
100
AcDbSymbolTable
 70
     0
  0
ENDTAB
  0
TABLE
  2
APPID
  5
9
330
0
100
AcDbSymbolTable
 70
     1
  0
APPID
  5
12
330
9
100
AcDbSymbolTableRecord
100
AcDbRegAppTableRecord
  2
ACAD
 70
     0
  0
ENDTAB
  0
TABLE
  2
DIMSTYLE
  5
A
330
0
100
AcDbSymbolTable
 70
     1
100
AcDbDimStyleTable
  0
DIMSTYLE
105
27
330
A
100
AcDbSymbolTableRecord
100
AcDbDimStyleTableRecord
  2
Standard
 70
     0
178
     0
340
11
  0
ENDTAB
  0
TABLE
  2
BLOCK_RECORD
  5
1
330
0
100
AcDbSymbolTable
 70
     6
  0
BLOCK_RECORD
  5
1F
330
1
100
AcDbSymbolTableRecord
100
AcDbBlockTableRecord
  2
*Model_Space
340
22
 70
     0
280
     1
281
     0
  0
BLOCK_RECORD
  5
1B
330
1
100
AcDbSymbolTableRecord
100
AcDbBlockTableRecord
  2
*Paper_Space
340
1E
 70
     0
280
     1
281
     0
  0
BLOCK_RECORD
  5
23
330
1
100
AcDbSymbolTableRecord
100
AcDbBlockTableRecord
  2
*Paper_Space0
340
26
 70
     0
280
     1
281
     0
  0
BLOCK_RECORD
  5
57
330
1
100
AcDbSymbolTableRecord
100
AcDbBlockTableRecord
  2
block 2
340
0
102
{BLKREFS
331
58
102
}
 70
     0
280
     1
281
     0
  0
BLOCK_RECORD
  5
6B
330
1
100
AcDbSymbolTableRecord
100
AcDbBlockTableRecord
  2
block 3
340
0
102
{BLKREFS
331
6C
102
}
 70
     0
280
     1
281
     0
  0
BLOCK_RECORD
  5
87
330
1
100
AcDbSymbolTableRecord
100
AcDbBlockTableRecord
  2
block 4
340
0
102
{BLKREFS
331
88
102
}
 70
     0
280
     1
281
     0
  0
BLOCK_RECORD
  5
A0
330
1
100
AcDbSymbolTableRecord
100
AcDbBlockTableRecord
  2
block 5
340
0
102
{BLKREFS
331
A1
102
}
 70
     0
280
     1
281
     0
  0
BLOCK_RECORD
  5
B4
330
1
100
AcDbSymbolTableRecord
100
AcDbBlockTableRecord
  2
block 6
340
0
102
{BLKREFS
331
B5
102
}
 70
     0
280
     1
281
     0
  0
ENDTAB
  0
ENDSEC
  0
SECTION
  2
BLOCKS
  0
BLOCK
  5
20
330
1F
100
AcDbEntity
  8
0
100
AcDbBlockBegin
  2
*Model_Space
 70
     0
 10
0.0
 20
0.0
 30
0.0
  3
*Model_Space
  1

  0
ENDBLK
  5
21
330
1F
100
AcDbEntity
  8
0
100
AcDbBlockEnd
  0
BLOCK
  5
1C
330
1B
100
AcDbEntity
 67
     1
  8
0
100
AcDbBlockBegin
  2
*Paper_Space
 70
     0
 10
0.0
 20
0.0
 30
0.0
  3
*Paper_Space
  1

  0
ENDBLK
  5
1D
330
1B
100
AcDbEntity
 67
     1
  8
0
100
AcDbBlockEnd
  0
BLOCK
  5
24
330
23
100
AcDbEntity
  8
0
100
AcDbBlockBegin
  2
*Paper_Space0
 70
     0
 10
0.0
 20
0.0
 30
0.0
  3
*Paper_Space0
  1

  0
ENDBLK
  5
25
330
23
100
AcDbEntity
  8
0
100
AcDbBlockEnd
  0
BLOCK
  5
59
330
57
100
AcDbEntity
  8
0
100
AcDbBlockBegin
  2
block 2
 70
     0
 10
0.0
 20
0.0
 30
0.0
  3
block 2
  1

  0
SPLINE
  5
5B
330
57
100
AcDbEntity
  8
_U+30EC_U+30A4_U+30E4_U+30FC 1
370
     0
100
AcDbSpline
210
0.0
220
0.0
230
1.0
 70
    11
 71
     3
 72
    26
 73
    22
 74
     0
 42
0.0000000001
 43
0.0000000001
 12
1.0
 22
0.0
 32
0.0
 13
1.0
 23
0.0
 33
0.0
 40
0.0
 40
0.0
 40
0.0
 40
0.0
 40
1.0
 40
1.0
 40
1.0
 40
2.0
 40
2.0
 40
2.0
 40
3.0
 40
3.0
 40
3.0
 40
4.0
 40
4.0
 40
4.0
 40
5.0
 40
5.0
 40
5.0
 40
6.0
 40
6.0
 40
6.0
 40
7.0
 40
7.0
 40
7.0
 40
7.0
 10
96.14262421641574
 20
-127.0120578024484
 30
0.0
 10
96.14262421641574
 20
-127.0120578024484
 30
0.0
 10
96.14262421641574
 20
-125.9079046994258
 30
0.0
 10
96.14262421641574
 20
-125.9079046994258
 30
0.0
 10
96.14262421641574
 20
-125.9079046994258
 30
0.0
 10
95.8125840689288
 20
-125.9079046994258
 30
0.0
 10
95.8125840689288
 20
-125.9079046994258
 30
0.0
 10
95.8125840689288
 20
-125.9079046994258
 30
0.0
 10
95.8125840689288
 20
-125.7597655935601
 30
0.0
 10
95.8125840689288
 20
-125.7597655935601
 30
0.0
 10
96.14469127370688
 20
-125.7449516829735
 30
0.0
 10
96.19120006275776
 20
-125.5819986665212
 30
0.0
 10
96.22082788393091
 20
-125.4676214964109
 30
0.0
 10
96.22082788393091
 20
-125.4676214964109
 30
0.0
 10
96.3668999325055
 20
-125.4676214964109
 30
0.0
 10
96.3668999325055
 20
-125.4676214964109
 30
0.0
 10
96.3668999325055
 20
-125.4676214964109
 30
0.0
 10
96.3668999325055
 20
-127.0120578024484
 30
0.0
 10
96.3668999325055
 20
-127.0120578024484
 30
0.0
 10
96.3668999325055
 20
-127.0120578024484
 30
0.0
 10
96.14262421641574
 20
-127.0120578024484
 30
0.0
 10
96.14262421641574
 20
-127.0120578024484
 30
0.0
  0
HATCH
  5
5C
330
57
100
AcDbEntity
  8
_U+30EC_U+30A4_U+30E4_U+30FC 1
 62
     7
420
 16777215
100
AcDbHatch
 10
0.0
 20
0.0
 30
0.0
210
0.0
220
0.0
230
1.0
  2
SOLID
 70
     1
 71
     0
 91
        1
 92
        1
 93
        1
 72
     4
 94
        3
 73
     0
 74
     1
 95
       26
 96
       22
 40
0.0
 40
0.0
 40
0.0
 40
0.0
 40
1.0
 40
1.0
 40
1.0
 40
2.0
 40
2.0
 40
2.0
 40
3.0
 40
3.0
 40
3.0
 40
4.0
 40
4.0
 40
4.0
 40
5.0
 40
5.0
 40
5.0
 40
6.0
 40
6.0
 40
6.0
 40
7.0
 40
7.0
 40
7.0
 40
7.0
 10
96.14262421641574
 20
-127.0120578024484
 10
96.14262421641574
 20
-127.0120578024484
 10
96.14262421641574
 20
-125.9079046994258
 10
96.14262421641574
 20
-125.9079046994258
 10
96.14262421641574
 20
-125.9079046994258
 10
95.8125840689288
 20
-125.9079046994258
 10
95.8125840689288
 20
-125.9079046994258
 10
95.8125840689288
 20
-125.9079046994258
 10
95.8125840689288
 20
-125.7597655935601
 10
95.8125840689288
 20
-125.7597655935601
 10
96.14469127370688
 20
-125.7449516829735
 10
96.19120006275776
 20
-125.5819986665212
 10
96.22082788393091
 20
-125.4676214964109
 10
96.22082788393091
 20
-125.4676214964109
 10
96.3668999325055
 20
-125.4676214964109
 10
96.3668999325055
 20
-125.4676214964109
 10
96.3668999325055
 20
-125.4676214964109
 10
96.3668999325055
 20
-127.0120578024484
 10
96.3668999325055
 20
-127.0120578024484
 10
96.3668999325055
 20
-127.0120578024484
 10
96.14262421641574
 20
-127.0120578024484
 10
96.14262421641574
 20
-127.0120578024484
 97
        0
 97
        0
 75
     2
 76
     1
 98
        0
  0
SPLINE
  5
5D
330
57
100
AcDbEntity
  8
_U+30EC_U+30A4_U+30E4_U+30FC 1
370
     0
100
AcDbSpline
210
0.0
220
0.0
230
1.0
 70
    11
 71
     3
 72
    53
 73
    49
 74
     0
 42
0.0000000001
 43
0.0000000001
 12
1.0
 22
0.0
 32
0.0
 13
1.0
 23
0.0
 33
0.0
 40
0.0
 40
0.0
 40
0.0
 40
0.0
 40
1.0
 40
1.0
 40
1.0
 40
2.0
 40
2.0
 40
2.0
 40
3.0
 40
3.0
 40
3.0
 40
4.0
 40
4.0
 40
4.0
 40
5.0
 40
5.0
 40
5.0
 40
6.0
 40
6.0
 40
6.0
 40
7.0
 40
7.0
 40
7.0
 40
8.0
 40
8.0
 40
8.0
 40
9.0
 40
9.0
 40
9.0
 40
10.0
 40
10.0
 40
10.0
 40
11.0
 40
11.0
 40
11.0
 40
12.0
 40
12.0
 40
12.0
 40
13.0
 40
13.0
 40
13.0
 40
14.0
 40
14.0
 40
14.0
 40
15.0
 40
15.0
 40
15.0
 40
16.0
 40
16.0
 40
16.0
 40
16.0
 10
97.34909665535022
 20
-127.0627007060816
 30
0.0
 10
97.27089298783505
 20
-127.0627007060816
 30
0.0
 10
97.16926267102019
 20
-127.0458197382038
 30
0.0
 10
97.06763235420532
 20
-126.9824299812752
 30
0.0
 10
96.89434405129725
 20
-126.8725314352958
 30
0.0
 10
96.8729844592887
 20
-126.7412732973077
 30
0.0
 10
96.85403643411983
 20
-126.6334418086194
 30
0.0
 10
96.85403643411983
 20
-126.6334418086194
 30
0.0
 10
97.07624509291844
 20
-126.6334418086194
 30
0.0
 10
97.07624509291844
 20
-126.6334418086194
 30
0.0
 10
97.13102211113392
 20
-126.8322238181183
 30
0.0
 10
97.25814613453963
 20
-126.8618516392915
 30
0.0
 10
97.35116371264138
 20
-126.8618516392915
 30
0.0
 10
97.49069007979399
 20
-126.8618516392915
 30
0.0
 10
97.64296330024204
 20
-126.7622883797678
 30
0.0
 10
97.64296330024204
 20
-126.5297444345134
 30
0.0
 10
97.64296330024204
 20
-126.2737738399593
 30
0.0
 10
97.463129315912
 20
-126.2038384016088
 30
0.0
 10
97.34255097392825
 20
-126.2038384016088
 30
0.0
 10
97.31085609546396
 20
-126.2038384016088
 30
0.0
 10
97.16926267102019
 20
-126.2038384016088
 30
0.0
 10
97.08037920750074
 20
-126.3330294823056
 30
0.0
 10
97.08037920750074
 20
-126.3330294823056
 30
0.0
 10
96.904679337753
 20
-126.3140814571368
 30
0.0
 10
96.904679337753
 20
-126.3140814571368
 30
0.0
 10
96.904679337753
 20
-126.3140814571368
 30
0.0
 10
97.02525767973674
 20
-125.4676214964109
 30
0.0
 10
97.02525767973674
 20
-125.4676214964109
 30
0.0
 10
97.02525767973674
 20
-125.4676214964109
 30
0.0
 10
97.80384925940321
 20
-125.4676214964109
 30
0.0
 10
97.80384925940321
 20
-125.4676214964109
 30
0.0
 10
97.80384925940321
 20
-125.4676214964109
 30
0.0
 10
97.80384925940321
 20
-125.6622693913275
 30
0.0
 10
97.80384925940321
 20
-125.6622693913275
 30
0.0
 10
97.80384925940321
 20
-125.6622693913275
 30
0.0
 10
97.18821069618906
 20
-125.6622693913275
 30
0.0
 10
97.18821069618906
 20
-125.6622693913275
 30
0.0
 10
97.18821069618906
 20
-125.6622693913275
 30
0.0
 10
97.12275388196932
 20
-126.0853271169162
 30
0.0
 10
97.12275388196932
 20
-126.0853271169162
 30
0.0
 10
97.18407658160676
 20
-126.0515651811607
 30
0.0
 10
97.26641436370423
 20
-126.0112575639833
 30
0.0
 10
97.38492564839683
 20
-126.0112575639833
 30
0.0
 10
97.63882918565974
 20
-126.0112575639833
 30
0.0
 10
97.87585175504493
 20
-126.1976372297353
 30
0.0
 10
97.87585175504493
 20
-126.5107964093445
 30
0.0
 10
97.87585175504493
 20
-126.828089703536
 30
0.0
 10
97.65157603895517
 20
-127.0627007060816
 30
0.0
 10
97.34909665535022
 20
-127.0627007060816
 30
0.0
  0
HATCH
  5
5E
330
57
100
AcDbEntity
  8
_U+30EC_U+30A4_U+30E4_U+30FC 1
 62
     7
420
 16777215
100
AcDbHatch
 10
0.0
 20
0.0
 30
0.0
210
0.0
220
0.0
230
1.0
  2
SOLID
 70
     1
 71
     0
 91
        1
 92
        1
 93
        1
 72
     4
 94
        3
 73
     0
 74
     1
 95
       53
 96
       49
 40
0.0
 40
0.0
 40
0.0
 40
0.0
 40
1.0
 40
1.0
 40
1.0
 40
2.0
 40
2.0
 40
2.0
 40
3.0
 40
3.0
 40
3.0
 40
4.0
 40
4.0
 40
4.0
 40
5.0
 40
5.0
 40
5.0
 40
6.0
 40
6.0
 40
6.0
 40
7.0
 40
7.0
 40
7.0
 40
8.0
 40
8.0
 40
8.0
 40
9.0
 40
9.0
 40
9.0
 40
10.0
 40
10.0
 40
10.0
 40
11.0
 40
11.0
 40
11.0
 40
12.0
 40
12.0
 40
12.0
 40
13.0
 40
13.0
 40
13.0
 40
14.0
 40
14.0
 40
14.0
 40
15.0
 40
15.0
 40
15.0
 40
16.0
 40
16.0
 40
16.0
 40
16.0
 10
97.34909665535022
 20
-127.0627007060816
 10
97.27089298783505
 20
-127.0627007060816
 10
97.16926267102019
 20
-127.0458197382038
 10
97.06763235420532
 20
-126.9824299812752
 10
96.89434405129725
 20
-126.8725314352958
 10
96.8729844592887
 20
-126.7412732973077
 10
96.85403643411983
 20
-126.6334418086194
 10
96.85403643411983
 20
-126.6334418086194
 10
97.07624509291844
 20
-126.6334418086194
 10
97.07624509291844
 20
-126.6334418086194
 10
97.13102211113392
 20
-126.8322238181183
 10
97.25814613453963
 20
-126.8618516392915
 10
97.35116371264138
 20
-126.8618516392915
 10
97.49069007979399
 20
-126.8618516392915
 10
97.64296330024204
 20
-126.7622883797678
 10
97.64296330024204
 20
-126.5297444345134
 10
97.64296330024204
 20
-126.2737738399593
 10
97.463129315912
 20
-126.2038384016088
 10
97.34255097392825
 20
-126.2038384016088
 10
97.31085609546396
 20
-126.2038384016088
 10
97.16926267102019
 20
-126.2038384016088
 10
97.08037920750074
 20
-126.3330294823056
 10
97.08037920750074
 20
-126.3330294823056
 10
96.904679337753
 20
-126.3140814571368
 10
96.904679337753
 20
-126.3140814571368
 10
96.904679337753
 20
-126.3140814571368
 10
97.02525767973674
 20
-125.4676214964109
 10
97.02525767973674
 20
-125.4676214964109
 10
97.02525767973674
 20
-125.4676214964109
 10
97.80384925940321
 20
-125.4676214964109
 10
97.80384925940321
 20
-125.4676214964109
 10
97.80384925940321
 20
-125.4676214964109
 10
97.80384925940321
 20
-125.6622693913275
 10
97.80384925940321
 20
-125.6622693913275
 10
97.80384925940321
 20
-125.6622693913275
 10
97.18821069618906
 20
-125.6622693913275
 10
97.18821069618906
 20
-125.6622693913275
 10
97.18821069618906
 20
-125.6622693913275
 10
97.12275388196932
 20
-126.0853271169162
 10
97.12275388196932
 20
-126.0853271169162
 10
97.18407658160676
 20
-126.0515651811607
 10
97.26641436370423
 20
-126.0112575639833
 10
97.38492564839683
 20
-126.0112575639833
 10
97.63882918565974
 20
-126.0112575639833
 10
97.87585175504493
 20
-126.1976372297353
 10
97.87585175504493
 20
-126.5107964093445
 10
97.87585175504493
 20
-126.828089703536
 10
97.65157603895517
 20
-127.0627007060816
 10
97.34909665535022
 20
-127.0627007060816
 97
        0
 97
        0
 75
     2
 76
     1
 98
        0
  0
ENDBLK
  5
5A
330
57
100
AcDbEntity
  8
0
100
AcDbBlockEnd
  0
BLOCK
  5
6D
330
6B
100
AcDbEntity
  8
0
100
AcDbBlockBegin
  2
block 3
 70
     0
 10
0.0
 20
0.0
 30
0.0
  3
block 3
  1

  0
SPLINE
  5
6F
330
6B
100
AcDbEntity
  8
_U+30EC_U+30A4_U+30E4_U+30FC 1
370
     0
100
AcDbSpline
210
0.0
220
0.0
230
1.0
 70
    11
 71
     3
 72
    44
 73
    40
 74
     0
 42
0.0000000001
 43
0.0000000001
 12
1.0
 22
0.0
 32
0.0
 13
1.0
 23
0.0
 33
0.0
 40
0.0
 40
0.0
 40
0.0
 40
0.0
 40
1.0
 40
1.0
 40
1.0
 40
2.0
 40
2.0
 40
2.0
 40
3.0
 40
3.0
 40
3.0
 40
4.0
 40
4.0
 40
4.0
 40
5.0
 40
5.0
 40
5.0
 40
6.0
 40
6.0
 40
6.0
 40
7.0
 40
7.0
 40
7.0
 40
8.0
 40
8.0
 40
8.0
 40
9.0
 40
9.0
 40
9.0
 40
10.0
 40
10.0
 40
10.0
 40
11.0
 40
11.0
 40
11.0
 40
12.0
 40
12.0
 40
12.0
 40
13.0
 40
13.0
 40
13.0
 40
13.0
 10
86.179924837396
 20
-120.6796277910107
 30
0.0
 10
85.96185029317968
 20
-120.8384466928807
 30
0.0
 10
85.86883271507793
 20
-120.9125162458135
 30
0.0
 10
85.82025686873591
 20
-121.0561767275485
 30
0.0
 10
85.82025686873591
 20
-121.0561767275485
 30
0.0
 10
86.59884844840238
 20
-121.0561767275485
 30
0.0
 10
86.59884844840238
 20
-121.0561767275485
 30
0.0
 10
86.59884844840238
 20
-121.0561767275485
 30
0.0
 10
86.59884844840238
 20
-121.2615044184694
 30
0.0
 10
86.59884844840238
 20
-121.2615044184694
 30
0.0
 10
86.59884844840238
 20
-121.2615044184694
 30
0.0
 10
85.5704874460553
 20
-121.2615044184694
 30
0.0
 10
85.5704874460553
 20
-121.2615044184694
 30
0.0
 10
85.6021823245196
 20
-120.9039035071004
 30
0.0
 10
85.66798364828787
 20
-120.8256998395852
 30
0.0
 10
86.05280081399027
 20
-120.5273545705626
 30
0.0
 10
86.30877140854435
 20
-120.3285725610637
 30
0.0
 10
86.37457273231261
 20
-120.2607041800043
 30
0.0
 10
86.37457273231261
 20
-120.1232448701428
 30
0.0
 10
86.37457273231261
 20
-120.0047335854502
 30
0.0
 10
86.30257023667089
 20
-119.8738199570107
 30
0.0
 10
86.10585528446312
 20
-119.8738199570107
 30
0.0
 10
85.84575057532676
 20
-119.8738199570107
 30
0.0
 10
85.83713783661364
 20
-120.1042968449739
 30
0.0
 10
85.83300372203134
 20
-120.2207410723754
 30
0.0
 10
85.83300372203134
 20
-120.2207410723754
 30
0.0
 10
85.60872800594157
 20
-120.2207410723754
 30
0.0
 10
85.60872800594157
 20
-120.2207410723754
 30
0.0
 10
85.61699623510617
 20
-120.0936170489697
 30
0.0
 10
85.62767603111044
 20
-119.981651445699
 30
0.0
 10
85.70794675591677
 20
-119.8631401610064
 30
0.0
 10
85.81818981144477
 20
-119.7022542018453
 30
0.0
 10
86.00422496764826
 20
-119.6684922660898
 30
0.0
 10
86.1206691950497
 20
-119.6684922660898
 30
0.0
 10
86.39765487206378
 20
-119.6684922660898
 30
0.0
 10
86.60504962027582
 20
-119.8524603650022
 30
0.0
 10
86.60504962027582
 20
-120.125311927434
 30
0.0
 10
86.60504962027582
 20
-120.3540662676545
 30
0.0
 10
86.48860539287438
 20
-120.4532850176297
 30
0.0
 10
86.179924837396
 20
-120.6796277910107
 30
0.0
  0
HATCH
  5
70
330
6B
100
AcDbEntity
  8
_U+30EC_U+30A4_U+30E4_U+30FC 1
 62
     7
420
 16777215
100
AcDbHatch
 10
0.0
 20
0.0
 30
0.0
210
0.0
220
0.0
230
1.0
  2
SOLID
 70
     1
 71
     0
 91
        1
 92
        1
 93
        1
 72
     4
 94
        3
 73
     0
 74
     1
 95
       44
 96
       40
 40
0.0
 40
0.0
 40
0.0
 40
0.0
 40
1.0
 40
1.0
 40
1.0
 40
2.0
 40
2.0
 40
2.0
 40
3.0
 40
3.0
 40
3.0
 40
4.0
 40
4.0
 40
4.0
 40
5.0
 40
5.0
 40
5.0
 40
6.0
 40
6.0
 40
6.0
 40
7.0
 40
7.0
 40
7.0
 40
8.0
 40
8.0
 40
8.0
 40
9.0
 40
9.0
 40
9.0
 40
10.0
 40
10.0
 40
10.0
 40
11.0
 40
11.0
 40
11.0
 40
12.0
 40
12.0
 40
12.0
 40
13.0
 40
13.0
 40
13.0
 40
13.0
 10
86.179924837396
 20
-120.6796277910107
 10
85.96185029317968
 20
-120.8384466928807
 10
85.86883271507793
 20
-120.9125162458135
 10
85.82025686873591
 20
-121.0561767275485
 10
85.82025686873591
 20
-121.0561767275485
 10
86.59884844840238
 20
-121.0561767275485
 10
86.59884844840238
 20
-121.0561767275485
 10
86.59884844840238
 20
-121.0561767275485
 10
86.59884844840238
 20
-121.2615044184694
 10
86.59884844840238
 20
-121.2615044184694
 10
86.59884844840238
 20
-121.2615044184694
 10
85.5704874460553
 20
-121.2615044184694
 10
85.5704874460553
 20
-121.2615044184694
 10
85.6021823245196
 20
-120.9039035071004
 10
85.66798364828787
 20
-120.8256998395852
 10
86.05280081399027
 20
-120.5273545705626
 10
86.30877140854435
 20
-120.3285725610637
 10
86.37457273231261
 20
-120.2607041800043
 10
86.37457273231261
 20
-120.1232448701428
 10
86.37457273231261
 20
-120.0047335854502
 10
86.30257023667089
 20
-119.8738199570107
 10
86.10585528446312
 20
-119.8738199570107
 10
85.84575057532676
 20
-119.8738199570107
 10
85.83713783661364
 20
-120.1042968449739
 10
85.83300372203134
 20
-120.2207410723754
 10
85.83300372203134
 20
-120.2207410723754
 10
85.60872800594157
 20
-120.2207410723754
 10
85.60872800594157
 20
-120.2207410723754
 10
85.61699623510617
 20
-120.0936170489697
 10
85.62767603111044
 20
-119.981651445699
 10
85.70794675591677
 20
-119.8631401610064
 10
85.81818981144477
 20
-119.7022542018453
 10
86.00422496764826
 20
-119.6684922660898
 10
86.1206691950497
 20
-119.6684922660898
 10
86.39765487206378
 20
-119.6684922660898
 10
86.60504962027582
 20
-119.8524603650022
 10
86.60504962027582
 20
-120.125311927434
 10
86.60504962027582
 20
-120.3540662676545
 10
86.48860539287438
 20
-120.4532850176297
 10
86.179924837396
 20
-120.6796277910107
 97
        0
 97
        0
 75
     2
 76
     1
 98
        0
  0
POLYLINE
  5
71
330
6B
100
AcDbEntity
  8
_U+30EC_U+30A4_U+30E4_U+30FC 1
370
     0
100
AcDb2dPolyline
 66
     1
 10
0.0
 20
0.0
 30
0.0
  0
VERTEX
  5
72
330
71
100
AcDbEntity
  8
_U+30EC_U+30A4_U+30E4_U+30FC 1
370
     0
100
AcDbVertex
100
AcDb2dVertex
 10
86.8238131835892
 20
-121.2615044184694
 30
0.0
  0
VERTEX
  5
73
330
71
100
AcDbEntity
  8
_U+30EC_U+30A4_U+30E4_U+30FC 1
370
     0
100
AcDbVertex
100
AcDb2dVertex
 10
86.8238131835892
 20
-121.0096679384976
 30
0.0
  0
VERTEX
  5
74
330
71
100
AcDbEntity
  8
_U+30EC_U+30A4_U+30E4_U+30FC 1
370
     0
100
AcDbVertex
100
AcDb2dVertex
 10
87.07564966356095
 20
-121.0096679384976
 30
0.0
  0
VERTEX
  5
75
330
71
100
AcDbEntity
  8
_U+30EC_U+30A4_U+30E4_U+30FC 1
370
     0
100
AcDbVertex
100
AcDb2dVertex
 10
87.07564966356095
 20
-121.2615044184694
 30
0.0
  0
VERTEX
  5
76
330
71
100
AcDbEntity
  8
_U+30EC_U+30A4_U+30E4_U+30FC 1
370
     0
100
AcDbVertex
100
AcDb2dVertex
 10
86.8238131835892
 20
-121.2615044184694
 30
0.0
  0
SEQEND
  5
77
330
71
100
AcDbEntity
  8
_U+30EC_U+30A4_U+30E4_U+30FC 1
370
     0
  0
HATCH
  5
78
330
6B
100
AcDbEntity
  8
_U+30EC_U+30A4_U+30E4_U+30FC 1
 62
     7
420
 16777215
100
AcDbHatch
 10
0.0
 20
0.0
 30
0.0
210
0.0
220
0.0
230
1.0
  2
SOLID
 70
     1
 71
     0
 91
        1
 92
        1
 93
        4
 72
     1
 10
86.8238131835892
 20
-121.2615044184694
 11
86.8238131835892
 21
-121.0096679384976
 72
     1
 10
86.8238131835892
 20
-121.0096679384976
 11
87.07564966356095
 21
-121.0096679384976
 72
     1
 10
87.07564966356095
 20
-121.0096679384976
 11
87.07564966356095
 21
-121.2615044184694
 72
     1
 10
87.07564966356095
 20
-121.2615044184694
 11
86.8238131835892
 21
-121.2615044184694
 97
        0
 75
     2
 76
     1
 98
        0
  0
SPLINE
  5
79
330
6B
100
AcDbEntity
  8
_U+30EC_U+30A4_U+30E4_U+30FC 1
370
     0
100
AcDbSpline
210
0.0
220
0.0
230
1.0
 70
    11
 71
     3
 72
    53
 73
    49
 74
     0
 42
0.0000000001
 43
0.0000000001
 12
1.0
 22
0.0
 32
0.0
 13
1.0
 23
0.0
 33
0.0
 40
0.0
 40
0.0
 40
0.0
 40
0.0
 40
1.0
 40
1.0
 40
1.0
 40
2.0
 40
2.0
 40
2.0
 40
3.0
 40
3.0
 40
3.0
 40
4.0
 40
4.0
 40
4.0
 40
5.0
 40
5.0
 40
5.0
 40
6.0
 40
6.0
 40
6.0
 40
7.0
 40
7.0
 40
7.0
 40
8.0
 40
8.0
 40
8.0
 40
9.0
 40
9.0
 40
9.0
 40
10.0
 40
10.0
 40
10.0
 40
11.0
 40
11.0
 40
11.0
 40
12.0
 40
12.0
 40
12.0
 40
13.0
 40
13.0
 40
13.0
 40
14.0
 40
14.0
 40
14.0
 40
15.0
 40
15.0
 40
15.0
 40
16.0
 40
16.0
 40
16.0
 40
16.0
 10
87.79291854358996
 20
-121.3121473221025
 30
0.0
 10
87.7147148760748
 20
-121.3121473221025
 30
0.0
 10
87.61308455925993
 20
-121.2952663542248
 30
0.0
 10
87.51145424244505
 20
-121.2318765972962
 30
0.0
 10
87.33816593953699
 20
-121.1219780513167
 30
0.0
 10
87.31680634752844
 20
-120.9907199133287
 30
0.0
 10
87.29785832235957
 20
-120.8828884246404
 30
0.0
 10
87.29785832235957
 20
-120.8828884246404
 30
0.0
 10
87.52006698115818
 20
-120.8828884246404
 30
0.0
 10
87.52006698115818
 20
-120.8828884246404
 30
0.0
 10
87.57484399937366
 20
-121.0816704341393
 30
0.0
 10
87.70196802277937
 20
-121.1112982553125
 30
0.0
 10
87.79498560088112
 20
-121.1112982553125
 30
0.0
 10
87.93451196803373
 20
-121.1112982553125
 30
0.0
 10
88.08678518848178
 20
-121.0117349957887
 30
0.0
 10
88.08678518848178
 20
-120.7791910505344
 30
0.0
 10
88.08678518848178
 20
-120.5232204559803
 30
0.0
 10
87.90695120415174
 20
-120.4532850176297
 30
0.0
 10
87.786372862168
 20
-120.4532850176297
 30
0.0
 10
87.7546779837037
 20
-120.4532850176297
 30
0.0
 10
87.61308455925993
 20
-120.4532850176297
 30
0.0
 10
87.52420109574048
 20
-120.5824760983266
 30
0.0
 10
87.52420109574048
 20
-120.5824760983266
 30
0.0
 10
87.34850122599273
 20
-120.5635280731577
 30
0.0
 10
87.34850122599273
 20
-120.5635280731577
 30
0.0
 10
87.34850122599273
 20
-120.5635280731577
 30
0.0
 10
87.46907956797648
 20
-119.7170681124318
 30
0.0
 10
87.46907956797648
 20
-119.7170681124318
 30
0.0
 10
87.46907956797648
 20
-119.7170681124318
 30
0.0
 10
88.24767114764295
 20
-119.7170681124318
 30
0.0
 10
88.24767114764295
 20
-119.7170681124318
 30
0.0
 10
88.24767114764295
 20
-119.7170681124318
 30
0.0
 10
88.24767114764295
 20
-119.9117160073485
 30
0.0
 10
88.24767114764295
 20
-119.9117160073485
 30
0.0
 10
88.24767114764295
 20
-119.9117160073485
 30
0.0
 10
87.6320325844288
 20
-119.9117160073485
 30
0.0
 10
87.6320325844288
 20
-119.9117160073485
 30
0.0
 10
87.6320325844288
 20
-119.9117160073485
 30
0.0
 10
87.56657577020906
 20
-120.3347737329372
 30
0.0
 10
87.56657577020906
 20
-120.3347737329372
 30
0.0
 10
87.6278984698465
 20
-120.3010117971817
 30
0.0
 10
87.71023625194397
 20
-120.2607041800043
 30
0.0
 10
87.82874753663657
 20
-120.2607041800043
 30
0.0
 10
88.08265107389948
 20
-120.2607041800043
 30
0.0
 10
88.31967364328467
 20
-120.4470838457563
 30
0.0
 10
88.31967364328467
 20
-120.7602430253655
 30
0.0
 10
88.31967364328467
 20
-121.077536319557
 30
0.0
 10
88.09539792719491
 20
-121.3121473221025
 30
0.0
 10
87.79291854358996
 20
-121.3121473221025
 30
0.0
  0
HATCH
  5
7A
330
6B
100
AcDbEntity
  8
_U+30EC_U+30A4_U+30E4_U+30FC 1
 62
     7
420
 16777215
100
AcDbHatch
 10
0.0
 20
0.0
 30
0.0
210
0.0
220
0.0
230
1.0
  2
SOLID
 70
     1
 71
     0
 91
        1
 92
        1
 93
        1
 72
     4
 94
        3
 73
     0
 74
     1
 95
       53
 96
       49
 40
0.0
 40
0.0
 40
0.0
 40
0.0
 40
1.0
 40
1.0
 40
1.0
 40
2.0
 40
2.0
 40
2.0
 40
3.0
 40
3.0
 40
3.0
 40
4.0
 40
4.0
 40
4.0
 40
5.0
 40
5.0
 40
5.0
 40
6.0
 40
6.0
 40
6.0
 40
7.0
 40
7.0
 40
7.0
 40
8.0
 40
8.0
 40
8.0
 40
9.0
 40
9.0
 40
9.0
 40
10.0
 40
10.0
 40
10.0
 40
11.0
 40
11.0
 40
11.0
 40
12.0
 40
12.0
 40
12.0
 40
13.0
 40
13.0
 40
13.0
 40
14.0
 40
14.0
 40
14.0
 40
15.0
 40
15.0
 40
15.0
 40
16.0
 40
16.0
 40
16.0
 40
16.0
 10
87.79291854358996
 20
-121.3121473221025
 10
87.7147148760748
 20
-121.3121473221025
 10
87.61308455925993
 20
-121.2952663542248
 10
87.51145424244505
 20
-121.2318765972962
 10
87.33816593953699
 20
-121.1219780513167
 10
87.31680634752844
 20
-120.9907199133287
 10
87.29785832235957
 20
-120.8828884246404
 10
87.29785832235957
 20
-120.8828884246404
 10
87.52006698115818
 20
-120.8828884246404
 10
87.52006698115818
 20
-120.8828884246404
 10
87.57484399937366
 20
-121.0816704341393
 10
87.70196802277937
 20
-121.1112982553125
 10
87.79498560088112
 20
-121.1112982553125
 10
87.93451196803373
 20
-121.1112982553125
 10
88.08678518848178
 20
-121.0117349957887
 10
88.08678518848178
 20
-120.7791910505344
 10
88.08678518848178
 20
-120.5232204559803
 10
87.90695120415174
 20
-120.4532850176297
 10
87.786372862168
 20
-120.4532850176297
 10
87.7546779837037
 20
-120.4532850176297
 10
87.61308455925993
 20
-120.4532850176297
 10
87.52420109574048
 20
-120.5824760983266
 10
87.52420109574048
 20
-120.5824760983266
 10
87.34850122599273
 20
-120.5635280731577
 10
87.34850122599273
 20
-120.5635280731577
 10
87.34850122599273
 20
-120.5635280731577
 10
87.46907956797648
 20
-119.7170681124318
 10
87.46907956797648
 20
-119.7170681124318
 10
87.46907956797648
 20
-119.7170681124318
 10
88.24767114764295
 20
-119.7170681124318
 10
88.24767114764295
 20
-119.7170681124318
 10
88.24767114764295
 20
-119.7170681124318
 10
88.24767114764295
 20
-119.9117160073485
 10
88.24767114764295
 20
-119.9117160073485
 10
88.24767114764295
 20
-119.9117160073485
 10
87.6320325844288
 20
-119.9117160073485
 10
87.6320325844288
 20
-119.9117160073485
 10
87.6320325844288
 20
-119.9117160073485
 10
87.56657577020906
 20
-120.3347737329372
 10
87.56657577020906
 20
-120.3347737329372
 10
87.6278984698465
 20
-120.3010117971817
 10
87.71023625194397
 20
-120.2607041800043
 10
87.82874753663657
 20
-120.2607041800043
 10
88.08265107389948
 20
-120.2607041800043
 10
88.31967364328467
 20
-120.4470838457563
 10
88.31967364328467
 20
-120.7602430253655
 10
88.31967364328467
 20
-121.077536319557
 10
88.09539792719491
 20
-121.3121473221025
 10
87.79291854358996
 20
-121.3121473221025
 97
        0
 97
        0
 75
     2
 76
     1
 98
        0
  0
ENDBLK
  5
6E
330
6B
100
AcDbEntity
  8
0
100
AcDbBlockEnd
  0
BLOCK
  5
89
330
87
100
AcDbEntity
  8
0
100
AcDbBlockBegin
  2
block 4
 70
     0
 10
0.0
 20
0.0
 30
0.0
  3
block 4
  1

  0
SPLINE
  5
8B
330
87
100
AcDbEntity
  8
_U+30EC_U+30A4_U+30E4_U+30FC 1
370
     0
100
AcDbSpline
210
0.0
220
0.0
230
1.0
 70
    11
 71
     3
 72
    32
 73
    28
 74
     0
 42
0.0000000001
 43
0.0000000001
 12
1.0
 22
0.0
 32
0.0
 13
1.0
 23
0.0
 33
0.0
 40
0.0
 40
0.0
 40
0.0
 40
0.0
 40
1.0
 40
1.0
 40
1.0
 40
2.0
 40
2.0
 40
2.0
 40
3.0
 40
3.0
 40
3.0
 40
4.0
 40
4.0
 40
4.0
 40
5.0
 40
5.0
 40
5.0
 40
6.0
 40
6.0
 40
6.0
 40
7.0
 40
7.0
 40
7.0
 40
8.0
 40
8.0
 40
8.0
 40
9.0
 40
9.0
 40
9.0
 40
9.0
 10
80.30999889485307
 20
-132.2151855138212
 30
0.0
 10
80.30999889485307
 20
-132.3884738167293
 30
0.0
 10
80.24006345650248
 20
-132.6341091248276
 30
0.0
 10
79.9079562517244
 20
-132.6720051751653
 30
0.0
 10
79.9079562517244
 20
-132.6720051751653
 30
0.0
 10
79.9079562517244
 20
-132.4584092550799
 30
0.0
 10
79.9079562517244
 20
-132.4584092550799
 30
0.0
 10
79.9672118940707
 20
-132.4477294590756
 30
0.0
 10
80.11535099993644
 20
-132.4160345806113
 30
0.0
 10
80.11535099993644
 20
-132.2131184565301
 30
0.0
 10
80.11535099993644
 20
-131.9209743593809
 30
0.0
 10
79.78531085244951
 20
-131.8830783090431
 30
0.0
 10
79.58015541630289
 20
-131.8703314557477
 30
0.0
 10
79.6604261411092
 20
-131.9612819765583
 30
0.0
 10
79.71761472616436
 20
-132.0288058480692
 30
0.0
 10
79.71761472616436
 20
-132.2107068896904
 30
0.0
 10
79.71761472616436
 20
-132.3905408740204
 30
0.0
 10
79.61185029476718
 20
-132.6933647671739
 30
0.0
 10
79.20567353705623
 20
-132.6933647671739
 30
0.0
 10
78.8861409307993
 20
-132.6933647671739
 30
0.0
 10
78.6661715840661
 20
-132.4942382481264
 30
0.0
 10
78.6661715840661
 20
-132.1769449539349
 30
0.0
 10
78.6661715840661
 20
-131.6629367075357
 30
0.0
 10
79.2204874476428
 20
-131.6522569115314
 30
0.0
 10
79.43408336772829
 20
-131.6522569115314
 30
0.0
 10
79.66473251046577
 20
-131.6522569115314
 30
0.0
 10
80.30999889485307
 20
-131.6715494462488
 30
0.0
 10
80.30999889485307
 20
-132.2151855138212
 30
0.0
  0
SPLINE
  5
8C
330
87
100
AcDbEntity
  8
_U+30EC_U+30A4_U+30E4_U+30FC 1
370
     0
100
AcDbSpline
210
0.0
220
0.0
230
1.0
 70
    11
 71
     3
 72
    17
 73
    13
 74
     0
 42
0.0000000001
 43
0.0000000001
 12
1.0
 22
0.0
 32
0.0
 13
1.0
 23
0.0
 33
0.0
 40
0.0
 40
0.0
 40
0.0
 40
0.0
 40
1.0
 40
1.0
 40
1.0
 40
2.0
 40
2.0
 40
2.0
 40
3.0
 40
3.0
 40
3.0
 40
4.0
 40
4.0
 40
4.0
 40
4.0
 10
78.85875242169156
 20
-132.1748778966438
 30
0.0
 10
78.85875242169156
 20
-132.2933891813364
 30
0.0
 10
78.91576875197245
 20
-132.4690890510841
 30
0.0
 10
79.20136716769966
 20
-132.4690890510841
 30
0.0
 10
79.42770994108058
 20
-132.4690890510841
 30
0.0
 10
79.52296683124773
 20
-132.329218174383
 30
0.0
 10
79.52296683124773
 20
-132.1938259218127
 30
0.0
 10
79.52296683124773
 20
-131.9316541553852
 30
0.0
 10
79.31350502574455
 20
-131.8934135954989
 30
0.0
 10
79.19723305311736
 20
-131.8934135954989
 30
0.0
 10
79.02153318336963
 20
-131.8934135954989
 30
0.0
 10
78.85875242169156
 20
-131.9888427404403
 30
0.0
 10
78.85875242169156
 20
-132.1748778966438
 30
0.0
  0
HATCH
  5
8D
330
87
100
AcDbEntity
  8
_U+30EC_U+30A4_U+30E4_U+30FC 1
 62
     7
420
 16777215
100
AcDbHatch
 10
0.0
 20
0.0
 30
0.0
210
0.0
220
0.0
230
1.0
  2
SOLID
 70
     1
 71
     0
 91
        2
 92
        1
 93
        1
 72
     4
 94
        3
 73
     0
 74
     1
 95
       32
 96
       28
 40
0.0
 40
0.0
 40
0.0
 40
0.0
 40
1.0
 40
1.0
 40
1.0
 40
2.0
 40
2.0
 40
2.0
 40
3.0
 40
3.0
 40
3.0
 40
4.0
 40
4.0
 40
4.0
 40
5.0
 40
5.0
 40
5.0
 40
6.0
 40
6.0
 40
6.0
 40
7.0
 40
7.0
 40
7.0
 40
8.0
 40
8.0
 40
8.0
 40
9.0
 40
9.0
 40
9.0
 40
9.0
 10
80.30999889485307
 20
-132.2151855138212
 10
80.30999889485307
 20
-132.3884738167293
 10
80.24006345650248
 20
-132.6341091248276
 10
79.9079562517244
 20
-132.6720051751653
 10
79.9079562517244
 20
-132.6720051751653
 10
79.9079562517244
 20
-132.4584092550799
 10
79.9079562517244
 20
-132.4584092550799
 10
79.9672118940707
 20
-132.4477294590756
 10
80.11535099993644
 20
-132.4160345806113
 10
80.11535099993644
 20
-132.2131184565301
 10
80.11535099993644
 20
-131.9209743593809
 10
79.78531085244951
 20
-131.8830783090431
 10
79.58015541630289
 20
-131.8703314557477
 10
79.6604261411092
 20
-131.9612819765583
 10
79.71761472616436
 20
-132.0288058480692
 10
79.71761472616436
 20
-132.2107068896904
 10
79.71761472616436
 20
-132.3905408740204
 10
79.61185029476718
 20
-132.6933647671739
 10
79.20567353705623
 20
-132.6933647671739
 10
78.8861409307993
 20
-132.6933647671739
 10
78.6661715840661
 20
-132.4942382481264
 10
78.6661715840661
 20
-132.1769449539349
 10
78.6661715840661
 20
-131.6629367075357
 10
79.2204874476428
 20
-131.6522569115314
 10
79.43408336772829
 20
-131.6522569115314
 10
79.66473251046577
 20
-131.6522569115314
 10
80.30999889485307
 20
-131.6715494462488
 10
80.30999889485307
 20
-132.2151855138212
 97
        0
 97
        0
 92
        1
 93
        1
 72
     4
 94
        3
 73
     0
 74
     1
 95
       17
 96
       13
 40
0.0
 40
0.0
 40
0.0
 40
0.0
 40
1.0
 40
1.0
 40
1.0
 40
2.0
 40
2.0
 40
2.0
 40
3.0
 40
3.0
 40
3.0
 40
4.0
 40
4.0
 40
4.0
 40
4.0
 10
78.85875242169156
 20
-132.1748778966438
 10
78.85875242169156
 20
-132.2933891813364
 10
78.91576875197245
 20
-132.4690890510841
 10
79.20136716769966
 20
-132.4690890510841
 10
79.42770994108058
 20
-132.4690890510841
 10
79.52296683124773
 20
-132.329218174383
 10
79.52296683124773
 20
-132.1938259218127
 10
79.52296683124773
 20
-131.9316541553852
 10
79.31350502574455
 20
-131.8934135954989
 10
79.19723305311736
 20
-131.8934135954989
 10
79.02153318336963
 20
-131.8934135954989
 10
78.85875242169156
 20
-131.9888427404403
 10
78.85875242169156
 20
-132.1748778966438
 97
        0
 97
        0
 75
     2
 76
     1
 98
        0
  0
POLYLINE
  5
8E
330
87
100
AcDbEntity
  8
_U+30EC_U+30A4_U+30E4_U+30FC 1
370
     0
100
AcDb2dPolyline
 66
     1
 10
0.0
 20
0.0
 30
0.0
  0
VERTEX
  5
8F
330
8E
100
AcDbEntity
  8
_U+30EC_U+30A4_U+30E4_U+30FC 1
370
     0
100
AcDbVertex
100
AcDb2dVertex
 10
80.25918373644562
 20
-131.4359049150577
 30
0.0
  0
VERTEX
  5
90
330
8E
100
AcDbEntity
  8
_U+30EC_U+30A4_U+30E4_U+30FC 1
370
     0
100
AcDbVertex
100
AcDb2dVertex
 10
80.00751951124812
 20
-131.4359049150577
 30
0.0
  0
VERTEX
  5
91
330
8E
100
AcDbEntity
  8
_U+30EC_U+30A4_U+30E4_U+30FC 1
370
     0
100
AcDbVertex
100
AcDb2dVertex
 10
80.00751951124812
 20
-131.1840684350859
 30
0.0
  0
VERTEX
  5
92
330
8E
100
AcDbEntity
  8
_U+30EC_U+30A4_U+30E4_U+30FC 1
370
     0
100
AcDbVertex
100
AcDb2dVertex
 10
80.25918373644562
 20
-131.1840684350859
 30
0.0
  0
VERTEX
  5
93
330
8E
100
AcDbEntity
  8
_U+30EC_U+30A4_U+30E4_U+30FC 1
370
     0
100
AcDbVertex
100
AcDb2dVertex
 10
80.25918373644562
 20
-131.4359049150577
 30
0.0
  0
SEQEND
  5
94
330
8E
100
AcDbEntity
  8
_U+30EC_U+30A4_U+30E4_U+30FC 1
370
     0
  0
HATCH
  5
95
330
87
100
AcDbEntity
  8
_U+30EC_U+30A4_U+30E4_U+30FC 1
 62
     7
420
 16777215
100
AcDbHatch
 10
0.0
 20
0.0
 30
0.0
210
0.0
220
0.0
230
1.0
  2
SOLID
 70
     1
 71
     0
 91
        1
 92
        1
 93
        4
 72
     1
 10
80.25918373644562
 20
-131.4359049150577
 11
80.00751951124812
 21
-131.4359049150577
 72
     1
 10
80.00751951124812
 20
-131.4359049150577
 11
80.00751951124812
 21
-131.1840684350859
 72
     1
 10
80.00751951124812
 20
-131.1840684350859
 11
80.25918373644562
 21
-131.1840684350859
 72
     1
 10
80.25918373644562
 20
-131.1840684350859
 11
80.25918373644562
 21
-131.4359049150577
 97
        0
 75
     2
 76
     1
 98
        0
  0
SPLINE
  5
96
330
87
100
AcDbEntity
  8
_U+30EC_U+30A4_U+30E4_U+30FC 1
370
     0
100
AcDbSpline
210
0.0
220
0.0
230
1.0
 70
    11
 71
     3
 72
    53
 73
    49
 74
     0
 42
0.0000000001
 43
0.0000000001
 12
1.0
 22
0.0
 32
0.0
 13
1.0
 23
0.0
 33
0.0
 40
0.0
 40
0.0
 40
0.0
 40
0.0
 40
1.0
 40
1.0
 40
1.0
 40
2.0
 40
2.0
 40
2.0
 40
3.0
 40
3.0
 40
3.0
 40
4.0
 40
4.0
 40
4.0
 40
5.0
 40
5.0
 40
5.0
 40
6.0
 40
6.0
 40
6.0
 40
7.0
 40
7.0
 40
7.0
 40
8.0
 40
8.0
 40
8.0
 40
9.0
 40
9.0
 40
9.0
 40
10.0
 40
10.0
 40
10.0
 40
11.0
 40
11.0
 40
11.0
 40
12.0
 40
12.0
 40
12.0
 40
13.0
 40
13.0
 40
13.0
 40
14.0
 40
14.0
 40
14.0
 40
15.0
 40
15.0
 40
15.0
 40
16.0
 40
16.0
 40
16.0
 40
16.0
 10
80.30999889485307
 20
-130.4667995550569
 30
0.0
 10
80.30999889485307
 20
-130.5450032225721
 30
0.0
 10
80.29311792697534
 20
-130.646633539387
 30
0.0
 10
80.22955591527247
 20
-130.7482638562018
 30
0.0
 10
80.11948511451874
 20
-130.9215521591099
 30
0.0
 10
79.98839923130498
 20
-130.9429117511185
 30
0.0
 10
79.88056774261666
 20
-130.9618597762873
 30
0.0
 10
79.88056774261666
 20
-130.9618597762873
 30
0.0
 10
79.88056774261666
 20
-130.7396511174887
 30
0.0
 10
79.88056774261666
 20
-130.7396511174887
 30
0.0
 10
80.07934975211559
 20
-130.6848740992732
 30
0.0
 10
80.10897757328873
 20
-130.5577500758675
 30
0.0
 10
80.10897757328873
 20
-130.4647324977658
 30
0.0
 10
80.10897757328873
 20
-130.3252061306131
 30
0.0
 10
80.00958656853928
 20
-130.1729329101651
 30
0.0
 10
79.77687036851064
 20
-130.1729329101651
 30
0.0
 10
79.52089977395659
 20
-130.1729329101651
 30
0.0
 10
79.45113659038027
 20
-130.3527668944951
 30
0.0
 10
79.45113659038027
 20
-130.4733452364789
 30
0.0
 10
79.45113659038027
 20
-130.5050401149432
 30
0.0
 10
79.45113659038027
 20
-130.646633539387
 30
0.0
 10
79.58015541630289
 20
-130.7355170029064
 30
0.0
 10
79.58015541630289
 20
-130.7355170029064
 30
0.0
 10
79.56103513635975
 20
-130.9112168726541
 30
0.0
 10
79.56103513635975
 20
-130.9112168726541
 30
0.0
 10
79.56103513635975
 20
-130.9112168726541
 30
0.0
 10
78.71491968518238
 20
-130.7906385306704
 30
0.0
 10
78.71491968518238
 20
-130.7906385306704
 30
0.0
 10
78.71491968518238
 20
-130.7906385306704
 30
0.0
 10
78.71491968518238
 20
-130.012046951004
 30
0.0
 10
78.71491968518238
 20
-130.012046951004
 30
0.0
 10
78.71491968518238
 20
-130.012046951004
 30
0.0
 10
78.909567580099
 20
-130.012046951004
 30
0.0
 10
78.909567580099
 20
-130.012046951004
 30
0.0
 10
78.909567580099
 20
-130.012046951004
 30
0.0
 10
78.909567580099
 20
-130.6276855142181
 30
0.0
 10
78.909567580099
 20
-130.6276855142181
 30
0.0
 10
78.909567580099
 20
-130.6276855142181
 30
0.0
 10
79.33262530568769
 20
-130.6931423284378
 30
0.0
 10
79.33262530568769
 20
-130.6931423284378
 30
0.0
 10
79.29869111515796
 20
-130.6318196288004
 30
0.0
 10
79.25855575275482
 20
-130.5494818467029
 30
0.0
 10
79.25855575275482
 20
-130.4309705620103
 30
0.0
 10
79.25855575275482
 20
-130.1770670247474
 30
0.0
 10
79.44476316373256
 20
-129.9400444553622
 30
0.0
 10
79.7577500885675
 20
-129.9400444553622
 30
0.0
 10
80.07521563753328
 20
-129.9400444553622
 30
0.0
 10
80.30999889485307
 20
-130.164320171452
 30
0.0
 10
80.30999889485307
 20
-130.4667995550569
 30
0.0
  0
HATCH
  5
97
330
87
100
AcDbEntity
  8
_U+30EC_U+30A4_U+30E4_U+30FC 1
 62
     7
420
 16777215
100
AcDbHatch
 10
0.0
 20
0.0
 30
0.0
210
0.0
220
0.0
230
1.0
  2
SOLID
 70
     1
 71
     0
 91
        1
 92
        1
 93
        1
 72
     4
 94
        3
 73
     0
 74
     1
 95
       53
 96
       49
 40
0.0
 40
0.0
 40
0.0
 40
0.0
 40
1.0
 40
1.0
 40
1.0
 40
2.0
 40
2.0
 40
2.0
 40
3.0
 40
3.0
 40
3.0
 40
4.0
 40
4.0
 40
4.0
 40
5.0
 40
5.0
 40
5.0
 40
6.0
 40
6.0
 40
6.0
 40
7.0
 40
7.0
 40
7.0
 40
8.0
 40
8.0
 40
8.0
 40
9.0
 40
9.0
 40
9.0
 40
10.0
 40
10.0
 40
10.0
 40
11.0
 40
11.0
 40
11.0
 40
12.0
 40
12.0
 40
12.0
 40
13.0
 40
13.0
 40
13.0
 40
14.0
 40
14.0
 40
14.0
 40
15.0
 40
15.0
 40
15.0
 40
16.0
 40
16.0
 40
16.0
 40
16.0
 10
80.30999889485307
 20
-130.4667995550569
 10
80.30999889485307
 20
-130.5450032225721
 10
80.29311792697534
 20
-130.646633539387
 10
80.22955591527247
 20
-130.7482638562018
 10
80.11948511451874
 20
-130.9215521591099
 10
79.98839923130498
 20
-130.9429117511185
 10
79.88056774261666
 20
-130.9618597762873
 10
79.88056774261666
 20
-130.9618597762873
 10
79.88056774261666
 20
-130.7396511174887
 10
79.88056774261666
 20
-130.7396511174887
 10
80.07934975211559
 20
-130.6848740992732
 10
80.10897757328873
 20
-130.5577500758675
 10
80.10897757328873
 20
-130.4647324977658
 10
80.10897757328873
 20
-130.3252061306131
 10
80.00958656853928
 20
-130.1729329101651
 10
79.77687036851064
 20
-130.1729329101651
 10
79.52089977395659
 20
-130.1729329101651
 10
79.45113659038027
 20
-130.3527668944951
 10
79.45113659038027
 20
-130.4733452364789
 10
79.45113659038027
 20
-130.5050401149432
 10
79.45113659038027
 20
-130.646633539387
 10
79.58015541630289
 20
-130.7355170029064
 10
79.58015541630289
 20
-130.7355170029064
 10
79.56103513635975
 20
-130.9112168726541
 10
79.56103513635975
 20
-130.9112168726541
 10
79.56103513635975
 20
-130.9112168726541
 10
78.71491968518238
 20
-130.7906385306704
 10
78.71491968518238
 20
-130.7906385306704
 10
78.71491968518238
 20
-130.7906385306704
 10
78.71491968518238
 20
-130.012046951004
 10
78.71491968518238
 20
-130.012046951004
 10
78.71491968518238
 20
-130.012046951004
 10
78.909567580099
 20
-130.012046951004
 10
78.909567580099
 20
-130.012046951004
 10
78.909567580099
 20
-130.012046951004
 10
78.909567580099
 20
-130.6276855142181
 10
78.909567580099
 20
-130.6276855142181
 10
78.909567580099
 20
-130.6276855142181
 10
79.33262530568769
 20
-130.6931423284378
 10
79.33262530568769
 20
-130.6931423284378
 10
79.29869111515796
 20
-130.6318196288004
 10
79.25855575275482
 20
-130.5494818467029
 10
79.25855575275482
 20
-130.4309705620103
 10
79.25855575275482
 20
-130.1770670247474
 10
79.44476316373256
 20
-129.9400444553622
 10
79.7577500885675
 20
-129.9400444553622
 10
80.07521563753328
 20
-129.9400444553622
 10
80.30999889485307
 20
-130.164320171452
 10
80.30999889485307
 20
-130.4667995550569
 97
        0
 97
        0
 75
     2
 76
     1
 98
        0
  0
ENDBLK
  5
8A
330
87
100
AcDbEntity
  8
0
100
AcDbBlockEnd
  0
BLOCK
  5
A2
330
A0
100
AcDbEntity
  8
0
100
AcDbBlockBegin
  2
block 5
 70
     0
 10
0.0
 20
0.0
 30
0.0
  3
block 5
  1

  0
SPLINE
  5
A4
330
A0
100
AcDbEntity
  8
_U+30EC_U+30A4_U+30E4_U+30FC 1
370
     0
100
AcDbSpline
210
0.0
220
0.0
230
1.0
 70
    11
 71
     3
 72
    44
 73
    40
 74
     0
 42
0.0000000001
 43
0.0000000001
 12
1.0
 22
0.0
 32
0.0
 13
1.0
 23
0.0
 33
0.0
 40
0.0
 40
0.0
 40
0.0
 40
0.0
 40
1.0
 40
1.0
 40
1.0
 40
2.0
 40
2.0
 40
2.0
 40
3.0
 40
3.0
 40
3.0
 40
4.0
 40
4.0
 40
4.0
 40
5.0
 40
5.0
 40
5.0
 40
6.0
 40
6.0
 40
6.0
 40
7.0
 40
7.0
 40
7.0
 40
8.0
 40
8.0
 40
8.0
 40
9.0
 40
9.0
 40
9.0
 40
10.0
 40
10.0
 40
10.0
 40
11.0
 40
11.0
 40
11.0
 40
12.0
 40
12.0
 40
12.0
 40
13.0
 40
13.0
 40
13.0
 40
13.0
 10
78.25396590925595
 20
-138.9300211241217
 30
0.0
 10
78.0360636198139
 20
-139.0888400259917
 30
0.0
 10
77.9428737869379
 20
-139.1629095789246
 30
0.0
 10
77.89429794059588
 20
-139.3065700606595
 30
0.0
 10
77.89429794059588
 20
-139.3065700606595
 30
0.0
 10
78.67271726548807
 20
-139.3065700606595
 30
0.0
 10
78.67271726548807
 20
-139.3065700606595
 30
0.0
 10
78.67271726548807
 20
-139.3065700606595
 30
0.0
 10
78.67271726548807
 20
-139.5118977515804
 30
0.0
 10
78.67271726548807
 20
-139.5118977515804
 30
0.0
 10
78.67271726548807
 20
-139.5118977515804
 30
0.0
 10
77.64470077268952
 20
-139.5118977515804
 30
0.0
 10
77.64470077268952
 20
-139.5118977515804
 30
0.0
 10
77.67639565115383
 20
-139.1542968402114
 30
0.0
 10
77.74202472014782
 20
-139.0760931726963
 30
0.0
 10
78.1270141406245
 20
-138.7777479036736
 30
0.0
 10
78.38298473517857
 20
-138.5789658941747
 30
0.0
 10
78.44844154939831
 20
-138.5110975131153
 30
0.0
 10
78.44844154939831
 20
-138.3736382032538
 30
0.0
 10
78.44844154939831
 20
-138.2551269185612
 30
0.0
 10
78.37661130853085
 20
-138.1242132901217
 30
0.0
 10
78.17989635632308
 20
-138.1242132901217
 30
0.0
 10
77.91961939241246
 20
-138.1242132901217
 30
0.0
 10
77.9111789084736
 20
-138.354690178085
 30
0.0
 10
77.90687253911703
 20
-138.4711344054864
 30
0.0
 10
77.90687253911703
 20
-138.4711344054864
 30
0.0
 10
77.68276907780154
 20
-138.4711344054864
 30
0.0
 10
77.68276907780154
 20
-138.4711344054864
 30
0.0
 10
77.6912095617404
 20
-138.3440103820807
 30
0.0
 10
77.7017171029704
 20
-138.2320447788101
 30
0.0
 10
77.78216008255099
 20
-138.1135334941175
 30
0.0
 10
77.89205862853046
 20
-137.9526475349563
 30
0.0
 10
78.07826603950822
 20
-137.9188855992008
 30
0.0
 10
78.19471026690965
 20
-137.9188855992008
 30
0.0
 10
78.471868198698
 20
-137.9188855992008
 30
0.0
 10
78.67909069213579
 20
-138.1028536981132
 30
0.0
 10
78.67909069213579
 20
-138.375705260545
 30
0.0
 10
78.67909069213579
 20
-138.6044596007656
 30
0.0
 10
78.5628187195086
 20
-138.7036783507407
 30
0.0
 10
78.25396590925595
 20
-138.9300211241217
 30
0.0
  0
HATCH
  5
A5
330
A0
100
AcDbEntity
  8
_U+30EC_U+30A4_U+30E4_U+30FC 1
 62
     7
420
 16777215
100
AcDbHatch
 10
0.0
 20
0.0
 30
0.0
210
0.0
220
0.0
230
1.0
  2
SOLID
 70
     1
 71
     0
 91
        1
 92
        1
 93
        1
 72
     4
 94
        3
 73
     0
 74
     1
 95
       44
 96
       40
 40
0.0
 40
0.0
 40
0.0
 40
0.0
 40
1.0
 40
1.0
 40
1.0
 40
2.0
 40
2.0
 40
2.0
 40
3.0
 40
3.0
 40
3.0
 40
4.0
 40
4.0
 40
4.0
 40
5.0
 40
5.0
 40
5.0
 40
6.0
 40
6.0
 40
6.0
 40
7.0
 40
7.0
 40
7.0
 40
8.0
 40
8.0
 40
8.0
 40
9.0
 40
9.0
 40
9.0
 40
10.0
 40
10.0
 40
10.0
 40
11.0
 40
11.0
 40
11.0
 40
12.0
 40
12.0
 40
12.0
 40
13.0
 40
13.0
 40
13.0
 40
13.0
 10
78.25396590925595
 20
-138.9300211241217
 10
78.0360636198139
 20
-139.0888400259917
 10
77.9428737869379
 20
-139.1629095789246
 10
77.89429794059588
 20
-139.3065700606595
 10
77.89429794059588
 20
-139.3065700606595
 10
78.67271726548807
 20
-139.3065700606595
 10
78.67271726548807
 20
-139.3065700606595
 10
78.67271726548807
 20
-139.3065700606595
 10
78.67271726548807
 20
-139.5118977515804
 10
78.67271726548807
 20
-139.5118977515804
 10
78.67271726548807
 20
-139.5118977515804
 10
77.64470077268952
 20
-139.5118977515804
 10
77.64470077268952
 20
-139.5118977515804
 10
77.67639565115383
 20
-139.1542968402114
 10
77.74202472014782
 20
-139.0760931726963
 10
78.1270141406245
 20
-138.7777479036736
 10
78.38298473517857
 20
-138.5789658941747
 10
78.44844154939831
 20
-138.5110975131153
 10
78.44844154939831
 20
-138.3736382032538
 10
78.44844154939831
 20
-138.2551269185612
 10
78.37661130853085
 20
-138.1242132901217
 10
78.17989635632308
 20
-138.1242132901217
 10
77.91961939241246
 20
-138.1242132901217
 10
77.9111789084736
 20
-138.354690178085
 10
77.90687253911703
 20
-138.4711344054864
 10
77.90687253911703
 20
-138.4711344054864
 10
77.68276907780154
 20
-138.4711344054864
 10
77.68276907780154
 20
-138.4711344054864
 10
77.6912095617404
 20
-138.3440103820807
 10
77.7017171029704
 20
-138.2320447788101
 10
77.78216008255099
 20
-138.1135334941175
 10
77.89205862853046
 20
-137.9526475349563
 10
78.07826603950822
 20
-137.9188855992008
 10
78.19471026690965
 20
-137.9188855992008
 10
78.471868198698
 20
-137.9188855992008
 10
78.67909069213579
 20
-138.1028536981132
 10
78.67909069213579
 20
-138.375705260545
 10
78.67909069213579
 20
-138.6044596007656
 10
78.5628187195086
 20
-138.7036783507407
 10
78.25396590925595
 20
-138.9300211241217
 97
        0
 97
        0
 75
     2
 76
     1
 98
        0
  0
SPLINE
  5
A6
330
A0
100
AcDbEntity
  8
_U+30EC_U+30A4_U+30E4_U+30FC 1
370
     0
100
AcDbSpline
210
0.0
220
0.0
230
1.0
 70
    11
 71
     3
 72
    44
 73
    40
 74
     0
 42
0.0000000001
 43
0.0000000001
 12
1.0
 22
0.0
 32
0.0
 13
1.0
 23
0.0
 33
0.0
 40
0.0
 40
0.0
 40
0.0
 40
0.0
 40
1.0
 40
1.0
 40
1.0
 40
2.0
 40
2.0
 40
2.0
 40
3.0
 40
3.0
 40
3.0
 40
4.0
 40
4.0
 40
4.0
 40
5.0
 40
5.0
 40
5.0
 40
6.0
 40
6.0
 40
6.0
 40
7.0
 40
7.0
 40
7.0
 40
8.0
 40
8.0
 40
8.0
 40
9.0
 40
9.0
 40
9.0
 40
10.0
 40
10.0
 40
10.0
 40
11.0
 40
11.0
 40
11.0
 40
12.0
 40
12.0
 40
12.0
 40
13.0
 40
13.0
 40
13.0
 40
13.0
 10
79.85180119531483
 20
-139.5118977515804
 30
0.0
 10
79.82837454601513
 20
-139.4674560198206
 30
0.0
 10
79.8073594635551
 20
-139.4147460588963
 30
0.0
 10
79.80512015148969
 20
-139.1839246613846
 30
0.0
 10
79.80098603690739
 20
-138.9407009201259
 30
0.0
 10
79.7417303945611
 20
-138.8707654817754
 30
0.0
 10
79.56396346752221
 20
-138.8707654817754
 30
0.0
 10
79.56396346752221
 20
-138.8707654817754
 30
0.0
 10
79.1557196525201
 20
-138.8707654817754
 30
0.0
 10
79.1557196525201
 20
-138.8707654817754
 30
0.0
 10
79.1557196525201
 20
-138.8707654817754
 30
0.0
 10
79.1557196525201
 20
-139.5118977515804
 30
0.0
 10
79.1557196525201
 20
-139.5118977515804
 30
0.0
 10
79.1557196525201
 20
-139.5118977515804
 30
0.0
 10
78.92093639520033
 20
-139.5118977515804
 30
0.0
 10
78.92093639520033
 20
-139.5118977515804
 30
0.0
 10
78.92093639520033
 20
-139.5118977515804
 30
0.0
 10
78.92093639520033
 20
-137.9674614455429
 30
0.0
 10
78.92093639520033
 20
-137.9674614455429
 30
0.0
 10
78.92093639520033
 20
-137.9674614455429
 30
0.0
 10
79.59583060076076
 20
-137.9674614455429
 30
0.0
 10
79.59583060076076
 20
-137.9674614455429
 30
0.0
 10
79.90244409894801
 20
-137.9674614455429
 30
0.0
 10
80.06953122998262
 20
-138.1390272007083
 30
0.0
 10
80.06953122998262
 20
-138.3949977952624
 30
0.0
 10
80.06953122998262
 20
-138.4456406988955
 30
0.0
 10
80.06109074604376
 20
-138.5283229905415
 30
0.0
 10
80.01664901428404
 20
-138.6085937153479
 30
0.0
 10
79.957565626712
 20
-138.7122910894539
 30
0.0
 10
79.891936557718
 20
-138.7312391146228
 30
0.0
 10
79.83061385808054
 20
-138.7481200825005
 30
0.0
 10
79.96807316794201
 20
-138.7904947569691
 30
0.0
 10
80.03576929422717
 20
-138.8390706033111
 30
0.0
 10
80.04007566358374
 20
-139.1542968402114
 30
0.0
 10
80.04420977816604
 20
-139.4250813453521
 30
0.0
 10
80.0802110259869
 20
-139.4567762238164
 30
0.0
 10
80.14790715227205
 20
-139.5118977515804
 30
0.0
 10
80.14790715227205
 20
-139.5118977515804
 30
0.0
 10
79.85180119531483
 20
-139.5118977515804
 30
0.0
 10
79.85180119531483
 20
-139.5118977515804
 30
0.0
  0
SPLINE
  5
A7
330
A0
100
AcDbEntity
  8
_U+30EC_U+30A4_U+30E4_U+30FC 1
370
     0
100
AcDbSpline
210
0.0
220
0.0
230
1.0
 70
    11
 71
     3
 72
    20
 73
    16
 74
     0
 42
0.0000000001
 43
0.0000000001
 12
1.0
 22
0.0
 32
0.0
 13
1.0
 23
0.0
 33
0.0
 40
0.0
 40
0.0
 40
0.0
 40
0.0
 40
1.0
 40
1.0
 40
1.0
 40
2.0
 40
2.0
 40
2.0
 40
3.0
 40
3.0
 40
3.0
 40
4.0
 40
4.0
 40
4.0
 40
5.0
 40
5.0
 40
5.0
 40
5.0
 10
79.59996471534306
 20
-138.1789903083372
 30
0.0
 10
79.59996471534306
 20
-138.1789903083372
 30
0.0
 10
79.1557196525201
 20
-138.1789903083372
 30
0.0
 10
79.1557196525201
 20
-138.1789903083372
 30
0.0
 10
79.1557196525201
 20
-138.1789903083372
 30
0.0
 10
79.1557196525201
 20
-138.659236618981
 30
0.0
 10
79.1557196525201
 20
-138.659236618981
 30
0.0
 10
79.1557196525201
 20
-138.659236618981
 30
0.0
 10
79.59789765805192
 20
-138.659236618981
 30
0.0
 10
79.59789765805192
 20
-138.659236618981
 30
0.0
 10
79.69728866280137
 20
-138.659236618981
 30
0.0
 10
79.8326809153717
 20
-138.583100008757
 30
0.0
 10
79.8326809153717
 20
-138.4118787631401
 30
0.0
 10
79.8326809153717
 20
-138.3336750956249
 30
0.0
 10
79.79874672484199
 20
-138.1789903083372
 30
0.0
 10
79.59996471534306
 20
-138.1789903083372
 30
0.0
  0
HATCH
  5
A8
330
A0
100
AcDbEntity
  8
_U+30EC_U+30A4_U+30E4_U+30FC 1
 62
     7
420
 16777215
100
AcDbHatch
 10
0.0
 20
0.0
 30
0.0
210
0.0
220
0.0
230
1.0
  2
SOLID
 70
     1
 71
     0
 91
        2
 92
        1
 93
        1
 72
     4
 94
        3
 73
     0
 74
     1
 95
       44
 96
       40
 40
0.0
 40
0.0
 40
0.0
 40
0.0
 40
1.0
 40
1.0
 40
1.0
 40
2.0
 40
2.0
 40
2.0
 40
3.0
 40
3.0
 40
3.0
 40
4.0
 40
4.0
 40
4.0
 40
5.0
 40
5.0
 40
5.0
 40
6.0
 40
6.0
 40
6.0
 40
7.0
 40
7.0
 40
7.0
 40
8.0
 40
8.0
 40
8.0
 40
9.0
 40
9.0
 40
9.0
 40
10.0
 40
10.0
 40
10.0
 40
11.0
 40
11.0
 40
11.0
 40
12.0
 40
12.0
 40
12.0
 40
13.0
 40
13.0
 40
13.0
 40
13.0
 10
79.85180119531483
 20
-139.5118977515804
 10
79.82837454601513
 20
-139.4674560198206
 10
79.8073594635551
 20
-139.4147460588963
 10
79.80512015148969
 20
-139.1839246613846
 10
79.80098603690739
 20
-138.9407009201259
 10
79.7417303945611
 20
-138.8707654817754
 10
79.56396346752221
 20
-138.8707654817754
 10
79.56396346752221
 20
-138.8707654817754
 10
79.1557196525201
 20
-138.8707654817754
 10
79.1557196525201
 20
-138.8707654817754
 10
79.1557196525201
 20
-138.8707654817754
 10
79.1557196525201
 20
-139.5118977515804
 10
79.1557196525201
 20
-139.5118977515804
 10
79.1557196525201
 20
-139.5118977515804
 10
78.92093639520033
 20
-139.5118977515804
 10
78.92093639520033
 20
-139.5118977515804
 10
78.92093639520033
 20
-139.5118977515804
 10
78.92093639520033
 20
-137.9674614455429
 10
78.92093639520033
 20
-137.9674614455429
 10
78.92093639520033
 20
-137.9674614455429
 10
79.59583060076076
 20
-137.9674614455429
 10
79.59583060076076
 20
-137.9674614455429
 10
79.90244409894801
 20
-137.9674614455429
 10
80.06953122998262
 20
-138.1390272007083
 10
80.06953122998262
 20
-138.3949977952624
 10
80.06953122998262
 20
-138.4456406988955
 10
80.06109074604376
 20
-138.5283229905415
 10
80.01664901428404
 20
-138.6085937153479
 10
79.957565626712
 20
-138.7122910894539
 10
79.891936557718
 20
-138.7312391146228
 10
79.83061385808054
 20
-138.7481200825005
 10
79.96807316794201
 20
-138.7904947569691
 10
80.03576929422717
 20
-138.8390706033111
 10
80.04007566358374
 20
-139.1542968402114
 10
80.04420977816604
 20
-139.4250813453521
 10
80.0802110259869
 20
-139.4567762238164
 10
80.14790715227205
 20
-139.5118977515804
 10
80.14790715227205
 20
-139.5118977515804
 10
79.85180119531483
 20
-139.5118977515804
 10
79.85180119531483
 20
-139.5118977515804
 97
        0
 97
        0
 92
        1
 93
        1
 72
     4
 94
        3
 73
     0
 74
     1
 95
       20
 96
       16
 40
0.0
 40
0.0
 40
0.0
 40
0.0
 40
1.0
 40
1.0
 40
1.0
 40
2.0
 40
2.0
 40
2.0
 40
3.0
 40
3.0
 40
3.0
 40
4.0
 40
4.0
 40
4.0
 40
5.0
 40
5.0
 40
5.0
 40
5.0
 10
79.59996471534306
 20
-138.1789903083372
 10
79.59996471534306
 20
-138.1789903083372
 10
79.1557196525201
 20
-138.1789903083372
 10
79.1557196525201
 20
-138.1789903083372
 10
79.1557196525201
 20
-138.1789903083372
 10
79.1557196525201
 20
-138.659236618981
 10
79.1557196525201
 20
-138.659236618981
 10
79.1557196525201
 20
-138.659236618981
 10
79.59789765805192
 20
-138.659236618981
 10
79.59789765805192
 20
-138.659236618981
 10
79.69728866280137
 20
-138.659236618981
 10
79.8326809153717
 20
-138.583100008757
 10
79.8326809153717
 20
-138.4118787631401
 10
79.8326809153717
 20
-138.3336750956249
 10
79.79874672484199
 20
-138.1789903083372
 10
79.59996471534306
 20
-138.1789903083372
 97
        0
 97
        0
 75
     2
 76
     1
 98
        0
  0
ENDBLK
  5
A3
330
A0
100
AcDbEntity
  8
0
100
AcDbBlockEnd
  0
BLOCK
  5
B6
330
B4
100
AcDbEntity
  8
0
100
AcDbBlockBegin
  2
block 6
 70
     0
 10
0.0
 20
0.0
 30
0.0
  3
block 6
  1

  0
SPLINE
  5
B8
330
B4
100
AcDbEntity
  8
_U+30EC_U+30A4_U+30E4_U+30FC 1
370
     0
100
AcDbSpline
210
0.0
220
0.0
230
1.0
 70
    11
 71
     3
 72
    26
 73
    22
 74
     0
 42
0.0000000001
 43
0.0000000001
 12
1.0
 22
0.0
 32
0.0
 13
1.0
 23
0.0
 33
0.0
 40
0.0
 40
0.0
 40
0.0
 40
0.0
 40
1.0
 40
1.0
 40
1.0
 40
2.0
 40
2.0
 40
2.0
 40
3.0
 40
3.0
 40
3.0
 40
4.0
 40
4.0
 40
4.0
 40
5.0
 40
5.0
 40
5.0
 40
6.0
 40
6.0
 40
6.0
 40
7.0
 40
7.0
 40
7.0
 40
7.0
 10
83.6911878588515
 20
-122.0121907247053
 30
0.0
 10
83.6911878588515
 20
-122.0121907247053
 30
0.0
 10
83.6911878588515
 20
-120.9080376216827
 30
0.0
 10
83.6911878588515
 20
-120.9080376216827
 30
0.0
 10
83.6911878588515
 20
-120.9080376216827
 30
0.0
 10
83.36114771136458
 20
-120.9080376216827
 30
0.0
 10
83.36114771136458
 20
-120.9080376216827
 30
0.0
 10
83.36114771136458
 20
-120.9080376216827
 30
0.0
 10
83.36114771136458
 20
-120.759898515817
 30
0.0
 10
83.36114771136458
 20
-120.759898515817
 30
0.0
 10
83.69325491614266
 20
-120.7450846052304
 30
0.0
 10
83.73976370519354
 20
-120.5821315887781
 30
0.0
 10
83.76939152636669
 20
-120.4677544186678
 30
0.0
 10
83.76939152636669
 20
-120.4677544186678
 30
0.0
 10
83.91546357494127
 20
-120.4677544186678
 30
0.0
 10
83.91546357494127
 20
-120.4677544186678
 30
0.0
 10
83.91546357494127
 20
-120.4677544186678
 30
0.0
 10
83.91546357494127
 20
-122.0121907247053
 30
0.0
 10
83.91546357494127
 20
-122.0121907247053
 30
0.0
 10
83.91546357494127
 20
-122.0121907247053
 30
0.0
 10
83.6911878588515
 20
-122.0121907247053
 30
0.0
 10
83.6911878588515
 20
-122.0121907247053
 30
0.0
  0
HATCH
  5
B9
330
B4
100
AcDbEntity
  8
_U+30EC_U+30A4_U+30E4_U+30FC 1
 62
     7
420
 16777215
100
AcDbHatch
 10
0.0
 20
0.0
 30
0.0
210
0.0
220
0.0
230
1.0
  2
SOLID
 70
     1
 71
     0
 91
        1
 92
        1
 93
        1
 72
     4
 94
        3
 73
     0
 74
     1
 95
       26
 96
       22
 40
0.0
 40
0.0
 40
0.0
 40
0.0
 40
1.0
 40
1.0
 40
1.0
 40
2.0
 40
2.0
 40
2.0
 40
3.0
 40
3.0
 40
3.0
 40
4.0
 40
4.0
 40
4.0
 40
5.0
 40
5.0
 40
5.0
 40
6.0
 40
6.0
 40
6.0
 40
7.0
 40
7.0
 40
7.0
 40
7.0
 10
83.6911878588515
 20
-122.0121907247053
 10
83.6911878588515
 20
-122.0121907247053
 10
83.6911878588515
 20
-120.9080376216827
 10
83.6911878588515
 20
-120.9080376216827
 10
83.6911878588515
 20
-120.9080376216827
 10
83.36114771136458
 20
-120.9080376216827
 10
83.36114771136458
 20
-120.9080376216827
 10
83.36114771136458
 20
-120.9080376216827
 10
83.36114771136458
 20
-120.759898515817
 10
83.36114771136458
 20
-120.759898515817
 10
83.69325491614266
 20
-120.7450846052304
 10
83.73976370519354
 20
-120.5821315887781
 10
83.76939152636669
 20
-120.4677544186678
 10
83.76939152636669
 20
-120.4677544186678
 10
83.91546357494127
 20
-120.4677544186678
 10
83.91546357494127
 20
-120.4677544186678
 10
83.91546357494127
 20
-120.4677544186678
 10
83.91546357494127
 20
-122.0121907247053
 10
83.91546357494127
 20
-122.0121907247053
 10
83.91546357494127
 20
-122.0121907247053
 10
83.6911878588515
 20
-122.0121907247053
 10
83.6911878588515
 20
-122.0121907247053
 97
        0
 97
        0
 75
     2
 76
     1
 98
        0
  0
ENDBLK
  5
B7
330
B4
100
AcDbEntity
  8
0
100
AcDbBlockEnd
  0
ENDSEC
  0
SECTION
  2
ENTITIES
  0
POLYLINE
  5
41
330
1F
100
AcDbEntity
  8
_U+30EC_U+30A4_U+30E4_U+30FC 1
 62
     7
420
 16777215
370
     9
100
AcDb2dPolyline
 66
     1
 10
0.0
 20
0.0
 30
0.0
  0
VERTEX
  5
42
330
41
100
AcDbEntity
  8
_U+30EC_U+30A4_U+30E4_U+30FC 1
 62
     7
420
 16777215
370
     9
100
AcDbVertex
100
AcDb2dVertex
 10
84.94158422184854
 20
-136.3885807992365
 30
0.0
  0
VERTEX
  5
43
330
41
100
AcDbEntity
  8
_U+30EC_U+30A4_U+30E4_U+30FC 1
 62
     7
420
 16777215
370
     9
100
AcDbVertex
100
AcDb2dVertex
 10
85.44182309797527
 20
-135.5224760772304
 30
0.0
  0
SEQEND
  5
44
330
41
100
AcDbEntity
  8
_U+30EC_U+30A4_U+30E4_U+30FC 1
 62
     7
420
 16777215
370
     9
  0
POLYLINE
  5
45
330
1F
100
AcDbEntity
  8
_U+30EC_U+30A4_U+30E4_U+30FC 1
 62
     7
420
 16777215
370
     9
100
AcDb2dPolyline
 66
     1
 10
0.0
 20
0.0
 30
0.0
  0
VERTEX
  5
46
330
45
100
AcDbEntity
  8
_U+30EC_U+30A4_U+30E4_U+30FC 1
 62
     7
420
 16777215
370
     9
100
AcDbVertex
100
AcDb2dVertex
 10
84.57571839784922
 20
-136.0227149659942
 30
0.0
  0
VERTEX
  5
47
330
45
100
AcDbEntity
  8
_U+30EC_U+30A4_U+30E4_U+30FC 1
 62
     7
420
 16777215
370
     9
100
AcDbVertex
100
AcDb2dVertex
 10
85.44182309797527
 20
-135.5224760772304
 30
0.0
  0
SEQEND
  5
48
330
45
100
AcDbEntity
  8
_U+30EC_U+30A4_U+30E4_U+30FC 1
 62
     7
420
 16777215
370
     9
  0
SPLINE
  5
49
330
1F
100
AcDbEntity
  8
_U+30EC_U+30A4_U+30E4_U+30FC 1
 62
     7
420
 16777215
370
     9
100
AcDbSpline
210
0.0
220
0.0
230
1.0
 70
    11
 71
     3
 72
    17
 73
    13
 74
     0
 42
0.0000000001
 43
0.0000000001
 12
1.0
 22
0.0
 32
0.0
 13
1.0
 23
0.0
 33
0.0
 40
0.0
 40
0.0
 40
0.0
 40
0.0
 40
1.0
 40
1.0
 40
1.0
 40
2.0
 40
2.0
 40
2.0
 40
3.0
 40
3.0
 40
3.0
 40
4.0
 40
4.0
 40
4.0
 40
4.0
 10
89.45604605111947
 20
-127.607871356987
 30
0.0
 10
89.45604605111947
 20
-127.5527674681117
 30
0.0
 10
89.4112432744847
 20
-127.5079646903453
 30
0.0
 10
89.35614164432752
 20
-127.5079646903453
 30
0.0
 10
89.30100022174167
 20
-127.5079646903453
 30
0.0
 10
89.2562327228838
 20
-127.5527674681117
 30
0.0
 10
89.2562327228838
 20
-127.607871356987
 30
0.0
 10
89.2562327228838
 20
-127.6630105236397
 30
0.0
 10
89.30100022174167
 20
-127.7077780236286
 30
0.0
 10
89.35614164432752
 20
-127.7077780236286
 30
0.0
 10
89.4112432744847
 20
-127.7077780236286
 30
0.0
 10
89.45604605111947
 20
-127.6630105236397
 30
0.0
 10
89.45604605111947
 20
-127.607871356987
 30
0.0
  0
SPLINE
  5
4A
330
1F
100
AcDbEntity
  8
_U+30EC_U+30A4_U+30E4_U+30FC 1
 62
     7
420
 16777215
370
     9
100
AcDbSpline
210
0.0
220
0.0
230
1.0
 70
    11
 71
     3
 72
    17
 73
    13
 74
     0
 42
0.0000000001
 43
0.0000000001
 12
1.0
 22
0.0
 32
0.0
 13
1.0
 23
0.0
 33
0.0
 40
0.0
 40
0.0
 40
0.0
 40
0.0
 40
1.0
 40
1.0
 40
1.0
 40
2.0
 40
2.0
 40
2.0
 40
3.0
 40
3.0
 40
3.0
 40
4.0
 40
4.0
 40
4.0
 40
4.0
 10
88.45161942233163
 20
-122.6083752471257
 30
0.0
 10
88.45161942233163
 20
-122.553236080473
 30
0.0
 10
88.40684968899781
 20
-122.5084685804841
 30
0.0
 10
88.35135774596908
 20
-122.5084685804841
 30
0.0
 10
88.29625385848601
 20
-122.5084685804841
 30
0.0
 10
88.25145108185124
 20
-122.553236080473
 30
0.0
 10
88.25145108185124
 20
-122.6083752471257
 30
0.0
 10
88.25145108185124
 20
-122.663479136001
 30
0.0
 10
88.29625385848601
 20
-122.7082819137674
 30
0.0
 10
88.35135774596908
 20
-122.7082819137674
 30
0.0
 10
88.40684968899781
 20
-122.7082819137674
 30
0.0
 10
88.45161942233163
 20
-122.663479136001
 30
0.0
 10
88.45161942233163
 20
-122.6083752471257
 30
0.0
  0
SPLINE
  5
4B
330
1F
100
AcDbEntity
  8
_U+30EC_U+30A4_U+30E4_U+30FC 1
 62
     7
420
 16777215
370
     9
100
AcDbSpline
210
0.0
220
0.0
230
1.0
 70
    11
 71
     3
 72
    17
 73
    13
 74
     0
 42
0.0000000001
 43
0.0000000001
 12
1.0
 22
0.0
 32
0.0
 13
1.0
 23
0.0
 33
0.0
 40
0.0
 40
0.0
 40
0.0
 40
0.0
 40
1.0
 40
1.0
 40
1.0
 40
2.0
 40
2.0
 40
2.0
 40
3.0
 40
3.0
 40
3.0
 40
4.0
 40
4.0
 40
4.0
 40
4.0
 10
85.95582030708432
 20
-122.6083752471257
 30
0.0
 10
85.95582030708432
 20
-122.553236080473
 30
0.0
 10
85.91101753044957
 20
-122.5084685804841
 30
0.0
 10
85.8559136429665
 20
-122.5084685804841
 30
0.0
 10
85.80077447770654
 20
-122.5084685804841
 30
0.0
 10
85.75600697884866
 20
-122.553236080473
 30
0.0
 10
85.75600697884866
 20
-122.6083752471257
 30
0.0
 10
85.75600697884866
 20
-122.663479136001
 30
0.0
 10
85.80077447770654
 20
-122.7082819137674
 30
0.0
 10
85.8559136429665
 20
-122.7082819137674
 30
0.0
 10
85.91101753044957
 20
-122.7082819137674
 30
0.0
 10
85.95582030708432
 20
-122.663479136001
 30
0.0
 10
85.95582030708432
 20
-122.6083752471257
 30
0.0
  0
SPLINE
  5
4C
330
1F
100
AcDbEntity
  8
_U+30EC_U+30A4_U+30E4_U+30FC 1
 62
     7
420
 16777215
370
     9
100
AcDbSpline
210
0.0
220
0.0
230
1.0
 70
    11
 71
     3
 72
    17
 73
    13
 74
     0
 42
0.0000000001
 43
0.0000000001
 12
1.0
 22
0.0
 32
0.0
 13
1.0
 23
0.0
 33
0.0
 40
0.0
 40
0.0
 40
0.0
 40
0.0
 40
1.0
 40
1.0
 40
1.0
 40
2.0
 40
2.0
 40
2.0
 40
3.0
 40
3.0
 40
3.0
 40
4.0
 40
4.0
 40
4.0
 40
4.0
 10
80.95593626797533
 20
-126.6081344127923
 30
0.0
 10
80.95593626797533
 20
-126.5529952461395
 30
0.0
 10
80.91116876911745
 20
-126.5082277461506
 30
0.0
 10
80.85588849274998
 20
-126.5082277461506
 30
0.0
 10
80.80057497979992
 20
-126.5082277461506
 30
0.0
 10
80.75580543974776
 20
-126.5529952461395
 30
0.0
 10
80.75580543974776
 20
-126.6081344127923
 30
0.0
 10
80.75580543974776
 20
-126.6632383016675
 30
0.0
 10
80.80057497979992
 20
-126.7080410794342
 30
0.0
 10
80.85588849274998
 20
-126.7080410794342
 30
0.0
 10
80.91116876911745
 20
-126.7080410794342
 30
0.0
 10
80.95593626797533
 20
-126.6632383016675
 30
0.0
 10
80.95593626797533
 20
-126.6081344127923
 30
0.0
  0
SPLINE
  5
4D
330
1F
100
AcDbEntity
  8
_U+30EC_U+30A4_U+30E4_U+30FC 1
 62
     7
420
 16777215
370
     9
100
AcDbSpline
210
0.0
220
0.0
230
1.0
 70
    11
 71
     3
 72
    17
 73
    13
 74
     0
 42
0.0000000001
 43
0.0000000001
 12
1.0
 22
0.0
 32
0.0
 13
1.0
 23
0.0
 33
0.0
 40
0.0
 40
0.0
 40
0.0
 40
0.0
 40
1.0
 40
1.0
 40
1.0
 40
2.0
 40
2.0
 40
2.0
 40
3.0
 40
3.0
 40
3.0
 40
4.0
 40
4.0
 40
4.0
 40
4.0
 10
80.95593626797533
 20
-136.1081577437508
 30
0.0
 10
80.95593626797533
 20
-136.0530185770977
 30
0.0
 10
80.91116876911745
 20
-136.0082510771092
 30
0.0
 10
80.85588849274998
 20
-136.0082510771092
 30
0.0
 10
80.80057497979992
 20
-136.0082510771092
 30
0.0
 10
80.75580543974776
 20
-136.0530185770977
 30
0.0
 10
80.75580543974776
 20
-136.1081577437508
 30
0.0
 10
80.75580543974776
 20
-136.1632616326257
 30
0.0
 10
80.80057497979992
 20
-136.2080644103924
 30
0.0
 10
80.85588849274998
 20
-136.2080644103924
 30
0.0
 10
80.91116876911745
 20
-136.2080644103924
 30
0.0
 10
80.95593626797533
 20
-136.1632616326257
 30
0.0
 10
80.95593626797533
 20
-136.1081577437508
 30
0.0
  0
SPLINE
  5
4E
330
1F
100
AcDbEntity
  8
_U+30EC_U+30A4_U+30E4_U+30FC 1
 62
     7
420
 16777215
370
     9
100
AcDbSpline
210
0.0
220
0.0
230
1.0
 70
    11
 71
     3
 72
    17
 73
    13
 74
     0
 42
0.0000000001
 43
0.0000000001
 12
1.0
 22
0.0
 32
0.0
 13
1.0
 23
0.0
 33
0.0
 40
0.0
 40
0.0
 40
0.0
 40
0.0
 40
1.0
 40
1.0
 40
1.0
 40
2.0
 40
2.0
 40
2.0
 40
3.0
 40
3.0
 40
3.0
 40
4.0
 40
4.0
 40
4.0
 40
4.0
 10
104.4553101129008
 20
-127.607871356987
 30
0.0
 10
104.4553101129008
 20
-127.5527674681117
 30
0.0
 10
104.410507336266
 20
-127.5079646903453
 30
0.0
 10
104.3553681710061
 20
-127.5079646903453
 30
0.0
 10
104.300264283523
 20
-127.5079646903453
 30
0.0
 10
104.2554615068883
 20
-127.5527674681117
 30
0.0
 10
104.2554615068883
 20
-127.607871356987
 30
0.0
 10
104.2554615068883
 20
-127.6630105236397
 30
0.0
 10
104.300264283523
 20
-127.7077780236286
 30
0.0
 10
104.3553681710061
 20
-127.7077780236286
 30
0.0
 10
104.410507336266
 20
-127.7077780236286
 30
0.0
 10
104.4553101129008
 20
-127.6630105236397
 30
0.0
 10
104.4553101129008
 20
-127.607871356987
 30
0.0
  0
POLYLINE
  5
4F
330
1F
100
AcDbEntity
  8
_U+30EC_U+30A4_U+30E4_U+30FC 1
 62
     7
420
 16777215
370
     9
100
AcDb2dPolyline
 66
     1
 10
0.0
 20
0.0
 30
0.0
  0
VERTEX
  5
50
330
4F
100
AcDbEntity
  8
_U+30EC_U+30A4_U+30E4_U+30FC 1
 62
     7
420
 16777215
370
     9
100
AcDbVertex
100
AcDb2dVertex
 10
89.35614164432752
 20
-127.607871356987
 30
0.0
  0
VERTEX
  5
51
330
4F
100
AcDbEntity
  8
_U+30EC_U+30A4_U+30E4_U+30FC 1
 62
     7
420
 16777215
370
     9
100
AcDbVertex
100
AcDb2dVertex
 10
104.3553681710061
 20
-127.607871356987
 30
0.0
  0
SEQEND
  5
52
330
4F
100
AcDbEntity
  8
_U+30EC_U+30A4_U+30E4_U+30FC 1
 62
     7
420
 16777215
370
     9
  0
POLYLINE
  5
53
330
1F
100
AcDbEntity
  8
_U+30EC_U+30A4_U+30E4_U+30FC 1
 62
     7
420
 16777215
370
     9
100
AcDb2dPolyline
 66
     1
 10
0.0
 20
0.0
 30
0.0
  0
VERTEX
  5
54
330
53
100
AcDbEntity
  8
_U+30EC_U+30A4_U+30E4_U+30FC 1
 62
     7
420
 16777215
370
     9
100
AcDbVertex
100
AcDb2dVertex
 10
104.3553681710061
 20
-129.0677363566221
 30
0.0
  0
VERTEX
  5
55
330
53
100
AcDbEntity
  8
_U+30EC_U+30A4_U+30E4_U+30FC 1
 62
     7
420
 16777215
370
     9
100
AcDbVertex
100
AcDb2dVertex
 10
104.3553681710061
 20
-126.6081344127923
 30
0.0
  0
SEQEND
  5
56
330
53
100
AcDbEntity
  8
_U+30EC_U+30A4_U+30E4_U+30FC 1
 62
     7
420
 16777215
370
     9
  0
INSERT
  5
58
330
1F
100
AcDbEntity
  8
_U+30EC_U+30A4_U+30E4_U+30FC 1
100
AcDbBlockReference
  2
block 2
 10
0.0
 20
0.0
 30
0.0
  0
POLYLINE
  5
5F
330
1F
100
AcDbEntity
  8
_U+30EC_U+30A4_U+30E4_U+30FC 1
 62
     7
420
 16777215
370
     9
100
AcDb2dPolyline
 66
     1
 10
0.0
 20
0.0
 30
0.0
  0
VERTEX
  5
60
330
5F
100
AcDbEntity
  8
_U+30EC_U+30A4_U+30E4_U+30FC 1
 62
     7
420
 16777215
370
     9
100
AcDbVertex
100
AcDb2dVertex
 10
88.35135774596908
 20
-122.6083752471257
 30
0.0
  0
VERTEX
  5
61
330
5F
100
AcDbEntity
  8
_U+30EC_U+30A4_U+30E4_U+30FC 1
 62
     7
420
 16777215
370
     9
100
AcDbVertex
100
AcDb2dVertex
 10
84.87042894588608
 20
-122.6083752471257
 30
0.0
  0
SEQEND
  5
62
330
5F
100
AcDbEntity
  8
_U+30EC_U+30A4_U+30E4_U+30FC 1
 62
     7
420
 16777215
370
     9
  0
POLYLINE
  5
63
330
1F
100
AcDbEntity
  8
_U+30EC_U+30A4_U+30E4_U+30FC 1
 62
     7
420
 16777215
370
     9
100
AcDb2dPolyline
 66
     1
 10
0.0
 20
0.0
 30
0.0
  0
VERTEX
  5
64
330
63
100
AcDbEntity
  8
_U+30EC_U+30A4_U+30E4_U+30FC 1
 62
     7
420
 16777215
370
     9
100
AcDbVertex
100
AcDb2dVertex
 10
88.35135774596908
 20
-125.0681535798441
 30
0.0
  0
VERTEX
  5
65
330
63
100
AcDbEntity
  8
_U+30EC_U+30A4_U+30E4_U+30FC 1
 62
     7
420
 16777215
370
     9
100
AcDbVertex
100
AcDb2dVertex
 10
88.35135774596908
 20
-121.6082502473757
 30
0.0
  0
SEQEND
  5
66
330
63
100
AcDbEntity
  8
_U+30EC_U+30A4_U+30E4_U+30FC 1
 62
     7
420
 16777215
370
     9
  0
POLYLINE
  5
67
330
1F
100
AcDbEntity
  8
_U+30EC_U+30A4_U+30E4_U+30FC 1
 62
     7
420
 16777215
370
     9
100
AcDb2dPolyline
 66
     1
 10
0.0
 20
0.0
 30
0.0
  0
VERTEX
  5
68
330
67
100
AcDbEntity
  8
_U+30EC_U+30A4_U+30E4_U+30FC 1
 62
     7
420
 16777215
370
     9
100
AcDbVertex
100
AcDb2dVertex
 10
85.8559136429665
 20
-124.0647830245393
 30
0.0
  0
VERTEX
  5
69
330
67
100
AcDbEntity
  8
_U+30EC_U+30A4_U+30E4_U+30FC 1
 62
     7
420
 16777215
370
     9
100
AcDbVertex
100
AcDb2dVertex
 10
85.8559136429665
 20
-121.6082502473757
 30
0.0
  0
SEQEND
  5
6A
330
67
100
AcDbEntity
  8
_U+30EC_U+30A4_U+30E4_U+30FC 1
 62
     7
420
 16777215
370
     9
  0
INSERT
  5
6C
330
1F
100
AcDbEntity
  8
_U+30EC_U+30A4_U+30E4_U+30FC 1
100
AcDbBlockReference
  2
block 3
 10
0.0
 20
0.0
 30
0.0
  0
POLYLINE
  5
7B
330
1F
100
AcDbEntity
  8
_U+30EC_U+30A4_U+30E4_U+30FC 1
 62
     7
420
 16777215
370
     9
100
AcDb2dPolyline
 66
     1
 10
0.0
 20
0.0
 30
0.0
  0
VERTEX
  5
7C
330
7B
100
AcDbEntity
  8
_U+30EC_U+30A4_U+30E4_U+30FC 1
 62
     7
420
 16777215
370
     9
100
AcDbVertex
100
AcDb2dVertex
 10
80.85588849274998
 20
-136.1081577437508
 30
0.0
  0
VERTEX
  5
7D
330
7B
100
AcDbEntity
  8
_U+30EC_U+30A4_U+30E4_U+30FC 1
 62
     7
420
 16777215
370
     9
100
AcDbVertex
100
AcDb2dVertex
 10
80.85588849274998
 20
-126.6081344127923
 30
0.0
  0
SEQEND
  5
7E
330
7B
100
AcDbEntity
  8
_U+30EC_U+30A4_U+30E4_U+30FC 1
 62
     7
420
 16777215
370
     9
  0
POLYLINE
  5
7F
330
1F
100
AcDbEntity
  8
_U+30EC_U+30A4_U+30E4_U+30FC 1
 62
     7
420
 16777215
370
     9
100
AcDb2dPolyline
 66
     1
 10
0.0
 20
0.0
 30
0.0
  0
VERTEX
  5
80
330
7F
100
AcDbEntity
  8
_U+30EC_U+30A4_U+30E4_U+30FC 1
 62
     7
420
 16777215
370
     9
100
AcDbVertex
100
AcDb2dVertex
 10
83.89704452627474
 20
-136.1081577437508
 30
0.0
  0
VERTEX
  5
81
330
7F
100
AcDbEntity
  8
_U+30EC_U+30A4_U+30E4_U+30FC 1
 62
     7
420
 16777215
370
     9
100
AcDbVertex
100
AcDb2dVertex
 10
79.85593990714969
 20
-136.1081577437508
 30
0.0
  0
SEQEND
  5
82
330
7F
100
AcDbEntity
  8
_U+30EC_U+30A4_U+30E4_U+30FC 1
 62
     7
420
 16777215
370
     9
  0
POLYLINE
  5
83
330
1F
100
AcDbEntity
  8
_U+30EC_U+30A4_U+30E4_U+30FC 1
 62
     7
420
 16777215
370
     9
100
AcDb2dPolyline
 66
     1
 10
0.0
 20
0.0
 30
0.0
  0
VERTEX
  5
84
330
83
100
AcDbEntity
  8
_U+30EC_U+30A4_U+30E4_U+30FC 1
 62
     7
420
 16777215
370
     9
100
AcDbVertex
100
AcDb2dVertex
 10
82.31571817772885
 20
-126.6081344127923
 30
0.0
  0
VERTEX
  5
85
330
83
100
AcDbEntity
  8
_U+30EC_U+30A4_U+30E4_U+30FC 1
 62
     7
420
 16777215
370
     9
100
AcDbVertex
100
AcDb2dVertex
 10
79.85593990714969
 20
-126.6081344127923
 30
0.0
  0
SEQEND
  5
86
330
83
100
AcDbEntity
  8
_U+30EC_U+30A4_U+30E4_U+30FC 1
 62
     7
420
 16777215
370
     9
  0
INSERT
  5
88
330
1F
100
AcDbEntity
  8
_U+30EC_U+30A4_U+30E4_U+30FC 1
100
AcDbBlockReference
  2
block 4
 10
0.0
 20
0.0
 30
0.0
  0
POLYLINE
  5
98
330
1F
100
AcDbEntity
  8
_U+30EC_U+30A4_U+30E4_U+30FC 1
 62
     7
420
 16777215
370
     9
100
AcDb2dPolyline
 66
     1
 10
0.0
 20
0.0
 30
0.0
  0
VERTEX
  5
99
330
98
100
AcDbEntity
  8
_U+30EC_U+30A4_U+30E4_U+30FC 1
 62
     7
420
 16777215
370
     9
100
AcDbVertex
100
AcDb2dVertex
 10
85.44182309797527
 20
-135.5224760772304
 30
0.0
  0
VERTEX
  5
9A
330
98
100
AcDbEntity
  8
_U+30EC_U+30A4_U+30E4_U+30FC 1
 62
     7
420
 16777215
370
     9
100
AcDbVertex
100
AcDb2dVertex
 10
80.85588849274998
 20
-140.1079169094177
 30
0.0
  0
SEQEND
  5
9B
330
98
100
AcDbEntity
  8
_U+30EC_U+30A4_U+30E4_U+30FC 1
 62
     7
420
 16777215
370
     9
  0
POLYLINE
  5
9C
330
1F
100
AcDbEntity
  8
_U+30EC_U+30A4_U+30E4_U+30FC 1
 62
     7
420
 16777215
370
     9
100
AcDb2dPolyline
 66
     1
 10
0.0
 20
0.0
 30
0.0
  0
VERTEX
  5
9D
330
9C
100
AcDbEntity
  8
_U+30EC_U+30A4_U+30E4_U+30FC 1
 62
     7
420
 16777215
370
     9
100
AcDbVertex
100
AcDb2dVertex
 10
80.85588849274998
 20
-140.1079169094177
 30
0.0
  0
VERTEX
  5
9E
330
9C
100
AcDbEntity
  8
_U+30EC_U+30A4_U+30E4_U+30FC 1
 62
     7
420
 16777215
370
     9
100
AcDbVertex
100
AcDb2dVertex
 10
77.34186913795564
 20
-140.1079169094177
 30
0.0
  0
SEQEND
  5
9F
330
9C
100
AcDbEntity
  8
_U+30EC_U+30A4_U+30E4_U+30FC 1
 62
     7
420
 16777215
370
     9
  0
INSERT
  5
A1
330
1F
100
AcDbEntity
  8
_U+30EC_U+30A4_U+30E4_U+30FC 1
100
AcDbBlockReference
  2
block 5
 10
0.0
 20
0.0
 30
0.0
  0
SPLINE
  5
A9
330
1F
100
AcDbEntity
  8
_U+30EC_U+30A4_U+30E4_U+30FC 1
 62
     7
420
 16777215
370
    25
100
AcDbSpline
210
0.0
220
0.0
230
1.0
 70
    11
 71
     3
 72
    74
 73
    70
 74
     0
 42
0.0000000001
 43
0.0000000001
 12
1.0
 22
0.0
 32
0.0
 13
1.0
 23
0.0
 33
0.0
 40
0.0
 40
0.0
 40
0.0
 40
0.0
 40
1.0
 40
1.0
 40
1.0
 40
2.0
 40
2.0
 40
2.0
 40
3.0
 40
3.0
 40
3.0
 40
4.0
 40
4.0
 40
4.0
 40
5.0
 40
5.0
 40
5.0
 40
6.0
 40
6.0
 40
6.0
 40
7.0
 40
7.0
 40
7.0
 40
8.0
 40
8.0
 40
8.0
 40
9.0
 40
9.0
 40
9.0
 40
10.0
 40
10.0
 40
10.0
 40
11.0
 40
11.0
 40
11.0
 40
12.0
 40
12.0
 40
12.0
 40
13.0
 40
13.0
 40
13.0
 40
14.0
 40
14.0
 40
14.0
 40
15.0
 40
15.0
 40
15.0
 40
16.0
 40
16.0
 40
16.0
 40
17.0
 40
17.0
 40
17.0
 40
18.0
 40
18.0
 40
18.0
 40
19.0
 40
19.0
 40
19.0
 40
20.0
 40
20.0
 40
20.0
 40
21.0
 40
21.0
 40
21.0
 40
22.0
 40
22.0
 40
22.0
 40
23.0
 40
23.0
 40
23.0
 40
23.0
 10
89.35614164432752
 20
-116.608048581959
 30
0.0
 10
89.35614164432752
 20
-116.608048581959
 30
0.0
 10
89.35614164432752
 20
-131.6081596893202
 30
0.0
 10
89.35614164432752
 20
-131.6081596893202
 30
0.0
 10
89.35614164432752
 20
-131.6081596893202
 30
0.0
 10
104.3553681710061
 20
-131.6081596893202
 30
0.0
 10
104.3553681710061
 20
-131.6081596893202
 30
0.0
 10
104.3553681710061
 20
-131.8837849670292
 30
0.0
 10
104.1314601211629
 20
-132.1076930225284
 30
0.0
 10
103.855517350425
 20
-132.1076930225284
 30
0.0
 10
103.855517350425
 20
-132.1076930225284
 30
0.0
 10
93.22188053225017
 20
-132.1076930225284
 30
0.0
 10
93.22188053225017
 20
-132.1076930225284
 30
0.0
 10
93.04305512627391
 20
-132.4170791335623
 30
0.0
 10
92.71338430135118
 20
-132.6079319112927
 30
0.0
 10
92.35612625491004
 20
-132.6079319112927
 30
0.0
 10
92.35612625491004
 20
-132.6079319112927
 30
0.0
 10
89.06329856113929
 20
-132.6079319112927
 30
0.0
 10
89.06329856113929
 20
-132.6079319112927
 30
0.0
 10
89.06329856113929
 20
-132.6079319112927
 30
0.0
 10
87.07511361186211
 20
-134.5957641330179
 30
0.0
 10
87.07511361186211
 20
-134.5957641330179
 30
0.0
 10
86.95799139262793
 20
-134.712886355211
 30
0.0
 10
86.95799139262793
 20
-134.9030335773853
 30
0.0
 10
87.07511361186211
 20
-135.0201910773559
 30
0.0
 10
87.13127583265151
 20
-135.0766707995643
 30
0.0
 10
87.20775805292251
 20
-135.1083855217782
 30
0.0
 10
87.28734471755875
 20
-135.1083855217782
 30
0.0
 10
87.28734471755875
 20
-135.1083855217782
 30
0.0
 10
94.35598814833375
 20
-135.1083855217782
 30
0.0
 10
94.35598814833375
 20
-135.1083855217782
 30
0.0
 10
94.35598814833375
 20
-135.6609766327518
 30
0.0
 10
93.9081367708705
 20
-136.1081577437508
 30
0.0
 10
93.35589845162595
 20
-136.1081577437508
 30
0.0
 10
93.35589845162595
 20
-136.1081577437508
 30
0.0
 10
86.85603861745118
 20
-136.1081577437508
 30
0.0
 10
86.85603861745118
 20
-136.1081577437508
 30
0.0
 10
85.7511739234164
 20
-136.1081577437508
 30
0.0
 10
84.85578866848181
 20
-135.2124196884192
 30
0.0
 10
84.85578866848181
 20
-134.1079077442508
 30
0.0
 10
84.85578866848181
 20
-134.1079077442508
 30
0.0
 10
84.85578866848181
 20
-127.6082241347647
 30
0.0
 10
84.85578866848181
 20
-127.6082241347647
 30
0.0
 10
84.85578866848181
 20
-127.0559858015693
 30
0.0
 10
85.30367532372193
 20
-126.6081344127923
 30
0.0
 10
85.8559136429665
 20
-126.6081344127923
 30
0.0
 10
85.8559136429665
 20
-126.6081344127923
 30
0.0
 10
85.8559136429665
 20
-133.6766016332478
 30
0.0
 10
85.8559136429665
 20
-133.6766016332478
 30
0.0
 10
85.8559136429665
 20
-133.8426541332063
 30
0.0
 10
85.99028886739147
 20
-133.9769919109501
 30
0.0
 10
86.15598641308878
 20
-133.9769919109501
 30
0.0
 10
86.23557307772502
 20
-133.9769919109501
 30
0.0
 10
86.31170252022724
 20
-133.9453124665137
 30
0.0
 10
86.36786474101665
 20
-133.8887974665277
 30
0.0
 10
86.36786474101665
 20
-133.8887974665277
 30
0.0
 10
88.35601664457754
 20
-131.90100052258
 30
0.0
 10
88.35601664457754
 20
-131.90100052258
 30
0.0
 10
88.35601664457754
 20
-131.90100052258
 30
0.0
 10
88.35601664457754
 20
-128.607996356737
 30
0.0
 10
88.35601664457754
 20
-128.607996356737
 30
0.0
 10
88.35601664457754
 20
-128.2507383012706
 30
0.0
 10
88.5465166445299
 20
-127.9207146902422
 30
0.0
 10
88.85625553334157
 20
-127.7418916347312
 30
0.0
 10
88.85625553334157
 20
-127.7418916347312
 30
0.0
 10
88.85625553334157
 20
-117.1079346929452
 30
0.0
 10
88.85625553334157
 20
-117.1079346929452
 30
0.0
 10
88.85625553334157
 20
-116.8318155263477
 30
0.0
 10
89.07984383849497
 20
-116.608048581959
 30
0.0
 10
89.35614164432752
 20
-116.608048581959
 30
0.0
  0
HATCH
  5
AA
330
1F
100
AcDbEntity
  8
_U+30EC_U+30A4_U+30E4_U+30FC 1
 62
   253
420
 11711154
100
AcDbHatch
 10
0.0
 20
0.0
 30
0.0
210
0.0
220
0.0
230
1.0
  2
SOLID
 70
     1
 71
     0
 91
        1
 92
        1
 93
        1
 72
     4
 94
        3
 73
     0
 74
     1
 95
       74
 96
       70
 40
0.0
 40
0.0
 40
0.0
 40
0.0
 40
1.0
 40
1.0
 40
1.0
 40
2.0
 40
2.0
 40
2.0
 40
3.0
 40
3.0
 40
3.0
 40
4.0
 40
4.0
 40
4.0
 40
5.0
 40
5.0
 40
5.0
 40
6.0
 40
6.0
 40
6.0
 40
7.0
 40
7.0
 40
7.0
 40
8.0
 40
8.0
 40
8.0
 40
9.0
 40
9.0
 40
9.0
 40
10.0
 40
10.0
 40
10.0
 40
11.0
 40
11.0
 40
11.0
 40
12.0
 40
12.0
 40
12.0
 40
13.0
 40
13.0
 40
13.0
 40
14.0
 40
14.0
 40
14.0
 40
15.0
 40
15.0
 40
15.0
 40
16.0
 40
16.0
 40
16.0
 40
17.0
 40
17.0
 40
17.0
 40
18.0
 40
18.0
 40
18.0
 40
19.0
 40
19.0
 40
19.0
 40
20.0
 40
20.0
 40
20.0
 40
21.0
 40
21.0
 40
21.0
 40
22.0
 40
22.0
 40
22.0
 40
23.0
 40
23.0
 40
23.0
 40
23.0
 10
89.35614164432752
 20
-116.608048581959
 10
89.35614164432752
 20
-116.608048581959
 10
89.35614164432752
 20
-131.6081596893202
 10
89.35614164432752
 20
-131.6081596893202
 10
89.35614164432752
 20
-131.6081596893202
 10
104.3553681710061
 20
-131.6081596893202
 10
104.3553681710061
 20
-131.6081596893202
 10
104.3553681710061
 20
-131.8837849670292
 10
104.1314601211629
 20
-132.1076930225284
 10
103.855517350425
 20
-132.1076930225284
 10
103.855517350425
 20
-132.1076930225284
 10
93.22188053225017
 20
-132.1076930225284
 10
93.22188053225017
 20
-132.1076930225284
 10
93.04305512627391
 20
-132.4170791335623
 10
92.71338430135118
 20
-132.6079319112927
 10
92.35612625491004
 20
-132.6079319112927
 10
92.35612625491004
 20
-132.6079319112927
 10
89.06329856113929
 20
-132.6079319112927
 10
89.06329856113929
 20
-132.6079319112927
 10
89.06329856113929
 20
-132.6079319112927
 10
87.07511361186211
 20
-134.5957641330179
 10
87.07511361186211
 20
-134.5957641330179
 10
86.95799139262793
 20
-134.712886355211
 10
86.95799139262793
 20
-134.9030335773853
 10
87.07511361186211
 20
-135.0201910773559
 10
87.13127583265151
 20
-135.0766707995643
 10
87.20775805292251
 20
-135.1083855217782
 10
87.28734471755875
 20
-135.1083855217782
 10
87.28734471755875
 20
-135.1083855217782
 10
94.35598814833375
 20
-135.1083855217782
 10
94.35598814833375
 20
-135.1083855217782
 10
94.35598814833375
 20
-135.6609766327518
 10
93.9081367708705
 20
-136.1081577437508
 10
93.35589845162595
 20
-136.1081577437508
 10
93.35589845162595
 20
-136.1081577437508
 10
86.85603861745118
 20
-136.1081577437508
 10
86.85603861745118
 20
-136.1081577437508
 10
85.7511739234164
 20
-136.1081577437508
 10
84.85578866848181
 20
-135.2124196884192
 10
84.85578866848181
 20
-134.1079077442508
 10
84.85578866848181
 20
-134.1079077442508
 10
84.85578866848181
 20
-127.6082241347647
 10
84.85578866848181
 20
-127.6082241347647
 10
84.85578866848181
 20
-127.0559858015693
 10
85.30367532372193
 20
-126.6081344127923
 10
85.8559136429665
 20
-126.6081344127923
 10
85.8559136429665
 20
-126.6081344127923
 10
85.8559136429665
 20
-133.6766016332478
 10
85.8559136429665
 20
-133.6766016332478
 10
85.8559136429665
 20
-133.8426541332063
 10
85.99028886739147
 20
-133.9769919109501
 10
86.15598641308878
 20
-133.9769919109501
 10
86.23557307772502
 20
-133.9769919109501
 10
86.31170252022724
 20
-133.9453124665137
 10
86.36786474101665
 20
-133.8887974665277
 10
86.36786474101665
 20
-133.8887974665277
 10
88.35601664457754
 20
-131.90100052258
 10
88.35601664457754
 20
-131.90100052258
 10
88.35601664457754
 20
-131.90100052258
 10
88.35601664457754
 20
-128.607996356737
 10
88.35601664457754
 20
-128.607996356737
 10
88.35601664457754
 20
-128.2507383012706
 10
88.5465166445299
 20
-127.9207146902422
 10
88.85625553334157
 20
-127.7418916347312
 10
88.85625553334157
 20
-127.7418916347312
 10
88.85625553334157
 20
-117.1079346929452
 10
88.85625553334157
 20
-117.1079346929452
 10
88.85625553334157
 20
-116.8318155263477
 10
89.07984383849497
 20
-116.608048581959
 10
89.35614164432752
 20
-116.608048581959
 97
        0
 97
        0
 75
     2
 76
     1
 98
        0
  0
POLYLINE
  5
AB
330
1F
100
AcDbEntity
  8
_U+30EC_U+30A4_U+30E4_U+30FC 1
 62
     7
420
 16777215
370
     9
100
AcDb2dPolyline
 66
     1
 10
0.0
 20
0.0
 30
0.0
  0
VERTEX
  5
AC
330
AB
100
AcDbEntity
  8
_U+30EC_U+30A4_U+30E4_U+30FC 1
 62
     7
420
 16777215
370
     9
100
AcDbVertex
100
AcDb2dVertex
 10
82.92447149553159
 20
-122.6083752471257
 30
0.0
  0
VERTEX
  5
AD
330
AB
100
AcDbEntity
  8
_U+30EC_U+30A4_U+30E4_U+30FC 1
 62
     7
420
 16777215
370
     9
100
AcDbVertex
100
AcDb2dVertex
 10
88.34137413511267
 20
-122.6083752471257
 30
0.0
  0
SEQEND
  5
AE
330
AB
100
AcDbEntity
  8
_U+30EC_U+30A4_U+30E4_U+30FC 1
 62
     7
420
 16777215
370
     9
  0
SPLINE
  5
AF
330
1F
100
AcDbEntity
  8
_U+30EC_U+30A4_U+30E4_U+30FC 1
 62
     7
420
 16777215
370
     9
100
AcDbSpline
210
0.0
220
0.0
230
1.0
 70
    11
 71
     3
 72
    17
 73
    13
 74
     0
 42
0.0000000001
 43
0.0000000001
 12
1.0
 22
0.0
 32
0.0
 13
1.0
 23
0.0
 33
0.0
 40
0.0
 40
0.0
 40
0.0
 40
0.0
 40
1.0
 40
1.0
 40
1.0
 40
2.0
 40
2.0
 40
2.0
 40
3.0
 40
3.0
 40
3.0
 40
4.0
 40
4.0
 40
4.0
 40
4.0
 10
84.94553533285885
 20
-122.6047416360155
 30
0.0
 10
84.94553533285885
 20
-122.5496377471403
 30
0.0
 10
84.90076783400096
 20
-122.5048349693739
 30
0.0
 10
84.84562866874101
 20
-122.5048349693739
 30
0.0
 10
84.79052478125794
 20
-122.5048349693739
 30
0.0
 10
84.74572200462318
 20
-122.5496377471403
 30
0.0
 10
84.74572200462318
 20
-122.6047416360155
 30
0.0
 10
84.74572200462318
 20
-122.6598808026683
 30
0.0
 10
84.79052478125794
 20
-122.7046483026572
 30
0.0
 10
84.84562866874101
 20
-122.7046483026572
 30
0.0
 10
84.90076783400096
 20
-122.7046483026572
 30
0.0
 10
84.94553533285885
 20
-122.6598808026683
 30
0.0
 10
84.94553533285885
 20
-122.6047416360155
 30
0.0
  0
POLYLINE
  5
B0
330
1F
100
AcDbEntity
  8
_U+30EC_U+30A4_U+30E4_U+30FC 1
 62
     7
420
 16777215
370
     9
100
AcDb2dPolyline
 66
     1
 10
0.0
 20
0.0
 30
0.0
  0
VERTEX
  5
B1
330
B0
100
AcDbEntity
  8
_U+30EC_U+30A4_U+30E4_U+30FC 1
 62
     7
420
 16777215
370
     9
100
AcDbVertex
100
AcDb2dVertex
 10
84.84562866874101
 20
-124.0647830245393
 30
0.0
  0
VERTEX
  5
B2
330
B0
100
AcDbEntity
  8
_U+30EC_U+30A4_U+30E4_U+30FC 1
 62
     7
420
 16777215
370
     9
100
AcDbVertex
100
AcDb2dVertex
 10
84.84562866874101
 20
-121.6049694140433
 30
0.0
  0
SEQEND
  5
B3
330
B0
100
AcDbEntity
  8
_U+30EC_U+30A4_U+30E4_U+30FC 1
 62
     7
420
 16777215
370
     9
  0
INSERT
  5
B5
330
1F
100
AcDbEntity
  8
_U+30EC_U+30A4_U+30E4_U+30FC 1
100
AcDbBlockReference
  2
block 6
 10
0.0
 20
0.0
 30
0.0
  0
ENDSEC
  0
SECTION
  2
OBJECTS
  0
DICTIONARY
  5
C
330
0
100
AcDbDictionary
281
     1
  3
ACAD_GROUP
350
D
  3
ACAD_LAYOUT
350
1A
  3
ACAD_MATERIAL
350
3B
  3
ACAD_MLEADERSTYLE
350
BB
  3
ACAD_MLINESTYLE
350
17
  3
ACAD_PLOTSETTINGS
350
19
  3
ACAD_PLOTSTYLENAME
350
E
  3
ACAD_TABLESTYLE
350
BA
  3
ACAD_VISUALSTYLE
350
2A
  0
SUN
  5
3F
330
29
100
AcDbSun
 90
        1
290
     0
 63
     7
421
 16777215
 40
1.0
291
     1
 91
  2455826
 92
 54000000
292
     0
 70
     2
 71
   256
280
     1
  0
DICTIONARY
  5
D
102
{ACAD_REACTORS
330
C
102
}
330
C
100
AcDbDictionary
281
     1
  0
DICTIONARY
  5
1A
102
{ACAD_REACTORS
330
C
102
}
330
C
100
AcDbDictionary
281
     1
  3
Layout1
350
1E
  3
Layout2
350
26
  3
Model
350
22
  0
DICTIONARY
  5
3B
102
{ACAD_REACTORS
330
C
102
}
330
C
100
AcDbDictionary
281
     1
  3
ByBlock
350
3D
  3
ByLayer
350
3C
  3
Global
350
3E
  0
DICTIONARY
  5
BB
102
{ACAD_REACTORS
330
C
102
}
330
C
100
AcDbDictionary
281
     1
  0
DICTIONARY
  5
17
102
{ACAD_REACTORS
330
C
102
}
330
C
100
AcDbDictionary
281
     1
  3
Standard
350
18
  0
DICTIONARY
  5
19
102
{ACAD_REACTORS
330
C
102
}
330
C
100
AcDbDictionary
281
     1
  0
ACDBDICTIONARYWDFLT
  5
E
102
{ACAD_REACTORS
330
C
102
}
330
C
100
AcDbDictionary
281
     1
  3
Normal
350
F
100
AcDbDictionaryWithDefault
340
F
  0
DICTIONARY
  5
BA
102
{ACAD_REACTORS
330
C
102
}
330
C
100
AcDbDictionary
281
     1
  0
DICTIONARY
  5
2A
102
{ACAD_REACTORS
330
C
102
}
330
C
100
AcDbDictionary
281
     1
  3
2dWireframe
350
2F
  3
3D Hidden
350
31
  3
3dWireframe
350
30
  3
Basic
350
32
  3
Brighten
350
36
  3
ColorChange
350
3A
  3
Conceptual
350
34
  3
Dim
350
35
  3
Facepattern
350
39
  3
Flat
350
2B
  3
FlatWithEdges
350
2C
  3
Gouraud
350
2D
  3
GouraudWithEdges
350
2E
  3
Linepattern
350
38
  3
Realistic
350
33
  3
Thicken
350
37
  0
LAYOUT
  5
1E
102
{ACAD_REACTORS
330
1A
102
}
330
1A
100
AcDbPlotSettings
  1

  2
none_device
  4

  6

 40
0.0
 41
0.0
 42
0.0
 43
0.0
 44
0.0
 45
0.0
 46
0.0
 47
0.0
 48
0.0
 49
0.0
140
0.0
141
0.0
142
1.0
143
1.0
 70
   688
 72
     0
 73
     0
 74
     5
  7

 75
    16
 76
     0
 77
     2
 78
   300
147
1.0
148
0.0
149
0.0
100
AcDbLayout
  1
Layout1
 70
     1
 71
     1
 10
0.0
 20
0.0
 11
12.0
 21
9.0
 12
0.0
 22
0.0
 32
0.0
 14
1.000000000000000E+20
 24
1.000000000000000E+20
 34
1.000000000000000E+20
 15
-1.000000000000000E+20
 25
-1.000000000000000E+20
 35
-1.000000000000000E+20
146
0.0
 13
0.0
 23
0.0
 33
0.0
 16
1.0
 26
0.0
 36
0.0
 17
0.0
 27
1.0
 37
0.0
 76
     0
330
1B
  0
LAYOUT
  5
26
102
{ACAD_REACTORS
330
1A
102
}
330
1A
100
AcDbPlotSettings
  1

  2
none_device
  4

  6

 40
0.0
 41
0.0
 42
0.0
 43
0.0
 44
0.0
 45
0.0
 46
0.0
 47
0.0
 48
0.0
 49
0.0
140
0.0
141
0.0
142
1.0
143
1.0
 70
   688
 72
     0
 73
     0
 74
     5
  7

 75
    16
 76
     0
 77
     2
 78
   300
147
1.0
148
0.0
149
0.0
100
AcDbLayout
  1
Layout2
 70
     1
 71
     2
 10
0.0
 20
0.0
 11
0.0
 21
0.0
 12
0.0
 22
0.0
 32
0.0
 14
0.0
 24
0.0
 34
0.0
 15
0.0
 25
0.0
 35
0.0
146
0.0
 13
0.0
 23
0.0
 33
0.0
 16
1.0
 26
0.0
 36
0.0
 17
0.0
 27
1.0
 37
0.0
 76
     0
330
23
  0
LAYOUT
  5
22
102
{ACAD_REACTORS
330
1A
102
}
330
1A
100
AcDbPlotSettings
  1

  2
none_device
  4

  6

 40
0.0
 41
0.0
 42
0.0
 43
0.0
 44
0.0
 45
0.0
 46
0.0
 47
0.0
 48
0.0
 49
0.0
140
0.0
141
0.0
142
1.0
143
1.0
 70
  1712
 72
     0
 73
     0
 74
     0
  7

 75
     0
 76
     0
 77
     2
 78
   300
147
1.0
148
0.0
149
0.0
100
AcDbLayout
  1
Model
 70
     1
 71
     0
 10
0.0
 20
0.0
 11
12.0
 21
9.0
 12
0.0
 22
0.0
 32
0.0
 14
1.000000000000000E+20
 24
1.000000000000000E+20
 34
1.000000000000000E+20
 15
-1.000000000000000E+20
 25
-1.000000000000000E+20
 35
-1.000000000000000E+20
146
0.0
 13
0.0
 23
0.0
 33
0.0
 16
1.0
 26
0.0
 36
0.0
 17
0.0
 27
1.0
 37
0.0
 76
     0
330
1F
331
29
  0
MATERIAL
  5
3D
102
{ACAD_REACTORS
330
3B
102
}
330
3B
100
AcDbMaterial
  1
ByBlock
 72
     1
 94
      127
  0
MATERIAL
  5
3C
102
{ACAD_REACTORS
330
3B
102
}
330
3B
100
AcDbMaterial
  1
ByLayer
 72
     1
 94
      127
  0
MATERIAL
  5
3E
102
{ACAD_REACTORS
330
3B
102
}
330
3B
100
AcDbMaterial
  1
Global
 72
     1
 94
      127
  0
MLINESTYLE
  5
18
102
{ACAD_REACTORS
330
17
102
}
330
17
100
AcDbMlineStyle
  2
Standard
 70
     0
  3

 62
   256
 51
90.0
 52
90.0
 71
     2
 49
0.5
 62
   256
  6
BYLAYER
 49
-0.5
 62
   256
  6
BYLAYER
  0
ACDBPLACEHOLDER
  5
F
102
{ACAD_REACTORS
330
E
102
}
330
E
  0
VISUALSTYLE
  5
2F
102
{ACAD_REACTORS
330
2A
102
}
330
2A
100
AcDbVisualStyle
  2
2dWireframe
 70
     4
177
     2
291
     0
 71
     0
176
     1
 72
     2
176
     1
 73
     0
176
     1
 90
        0
176
     1
 40
-0.6
176
     1
 41
-30.0
176
     1
 62
     5
 63
     7
421
 16777215
176
     1
 74
     1
176
     1
 91
        4
176
     1
 64
     7
176
     1
 65
   257
176
     1
 75
     1
176
     1
175
     1
176
     1
 42
1.0
176
     1
 92
        0
176
     1
 66
   257
176
     1
 43
1.0
176
     1
 76
     1
176
     1
 77
     6
176
     1
 78
     2
176
     1
 67
     7
176
     1
 79
     5
176
     1
170
     0
176
     1
171
     0
176
     1
290
     0
176
     1
 93
        1
176
     1
 44
0.0
176
     1
173
     0
176
     1
  0
VISUALSTYLE
  5
31
102
{ACAD_REACTORS
330
2A
102
}
330
2A
100
AcDbVisualStyle
  2
3D Hidden
 70
     6
177
     2
291
     0
 71
     1
176
     1
 72
     2
176
     1
 73
     2
176
     1
 90
        0
176
     1
 40
-0.6
176
     1
 41
-30.0
176
     1
 62
     5
 63
     7
421
 16777215
176
     1
 74
     2
176
     1
 91
        2
176
     1
 64
     7
176
     1
 65
   257
176
     1
 75
     2
176
     1
175
     1
176
     1
 42
40.0
176
     1
 92
        0
176
     1
 66
   257
176
     1
 43
1.0
176
     1
 76
     1
176
     1
 77
     6
176
     1
 78
     2
176
     1
 67
     7
176
     1
 79
     3
176
     1
170
     0
176
     1
171
     0
176
     1
290
     0
176
     1
 93
        1
176
     1
 44
0.0
176
     1
173
     0
176
     1
  0
VISUALSTYLE
  5
30
102
{ACAD_REACTORS
330
2A
102
}
330
2A
100
AcDbVisualStyle
  2
3dWireframe
 70
     5
177
     2
291
     0
 71
     0
176
     1
 72
     2
176
     1
 73
     0
176
     1
 90
        0
176
     1
 40
-0.6
176
     1
 41
-30.0
176
     1
 62
     5
 63
     7
421
 16777215
176
     1
 74
     1
176
     1
 91
        4
176
     1
 64
     7
176
     1
 65
   257
176
     1
 75
     1
176
     1
175
     1
176
     1
 42
1.0
176
     1
 92
        0
176
     1
 66
   257
176
     1
 43
1.0
176
     1
 76
     1
176
     1
 77
     6
176
     1
 78
     2
176
     1
 67
     7
176
     1
 79
     5
176
     1
170
     0
176
     1
171
     0
176
     1
290
     0
176
     1
 93
        1
176
     1
 44
0.0
176
     1
173
     0
176
     1
  0
VISUALSTYLE
  5
32
102
{ACAD_REACTORS
330
2A
102
}
330
2A
100
AcDbVisualStyle
  2
Basic
 70
     7
177
     2
291
     1
 71
     1
176
     1
 72
     0
176
     1
 73
     1
176
     1
 90
        0
176
     1
 40
-0.6
176
     1
 41
-30.0
176
     1
 62
     5
 63
     7
421
 16777215
176
     1
 74
     0
176
     1
 91
        4
176
     1
 64
     7
176
     1
 65
   257
176
     1
 75
     1
176
     1
175
     1
176
     1
 42
1.0
176
     1
 92
        8
176
     1
 66
     7
176
     1
 43
1.0
176
     1
 76
     1
176
     1
 77
     6
176
     1
 78
     2
176
     1
 67
     7
176
     1
 79
     5
176
     1
170
     0
176
     1
171
     0
176
     1
290
     0
176
     1
 93
        1
176
     1
 44
0.0
176
     1
173
     0
176
     1
  0
VISUALSTYLE
  5
36
102
{ACAD_REACTORS
330
2A
102
}
330
2A
100
AcDbVisualStyle
  2
Brighten
 70
    12
177
     2
291
     1
 71
     2
176
     1
 72
     2
176
     1
 73
     0
176
     1
 90
        0
176
     1
 40
-0.6
176
     1
 41
-30.0
176
     1
 62
     5
 63
     7
421
 16777215
176
     1
 74
     1
176
     1
 91
        4
176
     1
 64
     7
176
     1
 65
   257
176
     1
 75
     1
176
     1
175
     1
176
     1
 42
1.0
176
     1
 92
        8
176
     1
 66
     7
176
     1
 43
1.0
176
     1
 76
     1
176
     1
 77
     6
176
     1
 78
     2
176
     1
 67
     7
176
     1
 79
     5
176
     1
170
     0
176
     1
171
     0
176
     1
290
     0
176
     1
 93
        1
176
     1
 44
50.0
176
     1
173
     0
176
     1
  0
VISUALSTYLE
  5
3A
102
{ACAD_REACTORS
330
2A
102
}
330
2A
100
AcDbVisualStyle
  2
ColorChange
 70
    16
177
     2
291
     1
 71
     2
176
     1
 72
     2
176
     1
 73
     3
176
     1
 90
        0
176
     1
 40
-0.6
176
     1
 41
-30.0
176
     1
 62
     5
 63
     8
421
  8421504
176
     1
 74
     1
176
     1
 91
        4
176
     1
 64
     7
176
     1
 65
   257
176
     1
 75
     1
176
     1
175
     1
176
     1
 42
1.0
176
     1
 92
        8
176
     1
 66
     8
424
  8421504
176
     1
 43
1.0
176
     1
 76
     1
176
     1
 77
     6
176
     1
 78
     2
176
     1
 67
     7
176
     1
 79
     5
176
     1
170
     0
176
     1
171
     0
176
     1
290
     0
176
     1
 93
        1
176
     1
 44
0.0
176
     1
173
     0
176
     1
  0
VISUALSTYLE
  5
34
102
{ACAD_REACTORS
330
2A
102
}
330
2A
100
AcDbVisualStyle
  2
Conceptual
 70
     9
177
     2
291
     0
 71
     3
176
     1
 72
     2
176
     1
 73
     0
176
     1
 90
        0
176
     1
 40
-0.6
176
     1
 41
-30.0
176
     1
 62
     5
 63
     7
421
 16777215
176
     1
 74
     2
176
     1
 91
        2
176
     1
 64
     7
176
     1
 65
   257
176
     1
 75
     1
176
     1
175
     1
176
     1
 42
40.0
176
     1
 92
        8
176
     1
 66
     7
176
     1
 43
1.0
176
     1
 76
     1
176
     1
 77
     6
176
     1
 78
     2
176
     1
 67
     7
176
     1
 79
     3
176
     1
170
     0
176
     1
171
     0
176
     1
290
     0
176
     1
 93
        1
176
     1
 44
0.0
176
     1
173
     0
176
     1
  0
VISUALSTYLE
  5
35
102
{ACAD_REACTORS
330
2A
102
}
330
2A
100
AcDbVisualStyle
  2
Dim
 70
    11
177
     2
291
     1
 71
     2
176
     1
 72
     2
176
     1
 73
     0
176
     1
 90
        0
176
     1
 40
-0.6
176
     1
 41
-30.0
176
     1
 62
     5
 63
     7
421
 16777215
176
     1
 74
     1
176
     1
 91
        4
176
     1
 64
     7
176
     1
 65
   257
176
     1
 75
     1
176
     1
175
     1
176
     1
 42
1.0
176
     1
 92
        8
176
     1
 66
     7
176
     1
 43
1.0
176
     1
 76
     1
176
     1
 77
     6
176
     1
 78
     2
176
     1
 67
     7
176
     1
 79
     5
176
     1
170
     0
176
     1
171
     0
176
     1
290
     0
176
     1
 93
        1
176
     1
 44
-50.0
176
     1
173
     0
176
     1
  0
VISUALSTYLE
  5
39
102
{ACAD_REACTORS
330
2A
102
}
330
2A
100
AcDbVisualStyle
  2
Facepattern
 70
    15
177
     2
291
     1
 71
     2
176
     1
 72
     2
176
     1
 73
     0
176
     1
 90
        0
176
     1
 40
-0.6
176
     1
 41
-30.0
176
     1
 62
     5
 63
     7
421
 16777215
176
     1
 74
     1
176
     1
 91
        4
176
     1
 64
     7
176
     1
 65
   257
176
     1
 75
     1
176
     1
175
     1
176
     1
 42
1.0
176
     1
 92
        8
176
     1
 66
     7
176
     1
 43
1.0
176
     1
 76
     1
176
     1
 77
     6
176
     1
 78
     2
176
     1
 67
     7
176
     1
 79
     5
176
     1
170
     0
176
     1
171
     0
176
     1
290
     0
176
     1
 93
        1
176
     1
 44
0.0
176
     1
173
     0
176
     1
  0
VISUALSTYLE
  5
2B
102
{ACAD_REACTORS
330
2A
102
}
330
2A
100
AcDbVisualStyle
  2
Flat
 70
     0
177
     2
291
     1
 71
     2
176
     1
 72
     1
176
     1
 73
     1
176
     1
 90
        2
176
     1
 40
-0.6
176
     1
 41
30.0
176
     1
 62
     5
 63
     7
421
 16777215
176
     1
 74
     0
176
     1
 91
        4
176
     1
 64
     7
176
     1
 65
   257
176
     1
 75
     1
176
     1
175
     1
176
     1
 42
1.0
176
     1
 92
        8
176
     1
 66
     7
176
     1
 43
1.0
176
     1
 76
     1
176
     1
 77
     6
176
     1
 78
     2
176
     1
 67
     7
176
     1
 79
     5
176
     1
170
     0
176
     1
171
     0
176
     1
290
     0
176
     1
 93
       13
176
     1
 44
0.0
176
     1
173
     0
176
     1
  0
VISUALSTYLE
  5
2C
102
{ACAD_REACTORS
330
2A
102
}
330
2A
100
AcDbVisualStyle
  2
FlatWithEdges
 70
     1
177
     2
291
     1
 71
     2
176
     1
 72
     1
176
     1
 73
     1
176
     1
 90
        2
176
     1
 40
-0.6
176
     1
 41
30.0
176
     1
 62
     5
 63
     7
421
 16777215
176
     1
 74
     1
176
     1
 91
        4
176
     1
 64
     7
176
     1
 65
   257
176
     1
 75
     1
176
     1
175
     1
176
     1
 42
1.0
176
     1
 92
        0
176
     1
 66
   257
176
     1
 43
1.0
176
     1
 76
     1
176
     1
 77
     6
176
     1
 78
     2
176
     1
 67
     7
176
     1
 79
     5
176
     1
170
     0
176
     1
171
     0
176
     1
290
     0
176
     1
 93
       13
176
     1
 44
0.0
176
     1
173
     0
176
     1
  0
VISUALSTYLE
  5
2D
102
{ACAD_REACTORS
330
2A
102
}
330
2A
100
AcDbVisualStyle
  2
Gouraud
 70
     2
177
     2
291
     1
 71
     2
176
     1
 72
     2
176
     1
 73
     1
176
     1
 90
        2
176
     1
 40
-0.6
176
     1
 41
30.0
176
     1
 62
     5
 63
     7
421
 16777215
176
     1
 74
     0
176
     1
 91
        4
176
     1
 64
     7
176
     1
 65
   257
176
     1
 75
     1
176
     1
175
     1
176
     1
 42
1.0
176
     1
 92
        0
176
     1
 66
     7
176
     1
 43
1.0
176
     1
 76
     1
176
     1
 77
     6
176
     1
 78
     2
176
     1
 67
     7
176
     1
 79
     5
176
     1
170
     0
176
     1
171
     0
176
     1
290
     0
176
     1
 93
       13
176
     1
 44
0.0
176
     1
173
     0
176
     1
  0
VISUALSTYLE
  5
2E
102
{ACAD_REACTORS
330
2A
102
}
330
2A
100
AcDbVisualStyle
  2
GouraudWithEdges
 70
     3
177
     2
291
     1
 71
     2
176
     1
 72
     2
176
     1
 73
     1
176
     1
 90
        2
176
     1
 40
-0.6
176
     1
 41
30.0
176
     1
 62
     5
 63
     7
421
 16777215
176
     1
 74
     1
176
     1
 91
        4
176
     1
 64
     7
176
     1
 65
   257
176
     1
 75
     1
176
     1
175
     1
176
     1
 42
1.0
176
     1
 92
        0
176
     1
 66
   257
176
     1
 43
1.0
176
     1
 76
     1
176
     1
 77
     6
176
     1
 78
     2
176
     1
 67
     7
176
     1
 79
     5
176
     1
170
     0
176
     1
171
     0
176
     1
290
     0
176
     1
 93
       13
176
     1
 44
0.0
176
     1
173
     0
176
     1
  0
VISUALSTYLE
  5
38
102
{ACAD_REACTORS
330
2A
102
}
330
2A
100
AcDbVisualStyle
  2
Linepattern
 70
    14
177
     2
291
     1
 71
     2
176
     1
 72
     2
176
     1
 73
     0
176
     1
 90
        0
176
     1
 40
-0.6
176
     1
 41
-30.0
176
     1
 62
     5
 63
     7
421
 16777215
176
     1
 74
     1
176
     1
 91
        4
176
     1
 64
     7
176
     1
 65
   257
176
     1
 75
     7
176
     1
175
     7
176
     1
 42
1.0
176
     1
 92
        8
176
     1
 66
     7
176
     1
 43
1.0
176
     1
 76
     1
176
     1
 77
     6
176
     1
 78
     2
176
     1
 67
     7
176
     1
 79
     5
176
     1
170
     0
176
     1
171
     0
176
     1
290
     0
176
     1
 93
        1
176
     1
 44
0.0
176
     1
173
     0
176
     1
  0
VISUALSTYLE
  5
33
102
{ACAD_REACTORS
330
2A
102
}
330
2A
100
AcDbVisualStyle
  2
Realistic
 70
     8
177
     2
291
     0
 71
     2
176
     1
 72
     2
176
     1
 73
     0
176
     1
 90
        0
176
     1
 40
-0.6
176
     1
 41
-30.0
176
     1
 62
     5
 63
     7
421
 16777215
176
     1
 74
     1
176
     1
 91
        0
176
     1
 64
     7
176
     1
 65
   257
176
     1
 75
     1
176
     1
175
     1
176
     1
 42
1.0
176
     1
 92
        8
176
     1
 66
     8
424
  7895160
176
     1
 43
1.0
176
     1
 76
     1
176
     1
 77
     6
176
     1
 78
     2
176
     1
 67
     7
176
     1
 79
     5
176
     1
170
     0
176
     1
171
     0
176
     1
290
     0
176
     1
 93
       13
176
     1
 44
0.0
176
     1
173
     0
176
     1
  0
VISUALSTYLE
  5
37
102
{ACAD_REACTORS
330
2A
102
}
330
2A
100
AcDbVisualStyle
  2
Thicken
 70
    13
177
     2
291
     1
 71
     2
176
     1
 72
     2
176
     1
 73
     0
176
     1
 90
        0
176
     1
 40
-0.6
176
     1
 41
-30.0
176
     1
 62
     5
 63
     7
421
 16777215
176
     1
 74
     1
176
     1
 91
        4
176
     1
 64
     7
176
     1
 65
   257
176
     1
 75
     1
176
     1
175
     1
176
     1
 42
1.0
176
     1
 92
       12
176
     1
 66
     7
176
     1
 43
1.0
176
     1
 76
     1
176
     1
 77
     6
176
     1
 78
     2
176
     1
 67
     7
176
     1
 79
     5
176
     1
170
     0
176
     1
171
     0
176
     1
290
     0
176
     1
 93
        1
176
     1
 44
0.0
176
     1
173
     0
176
     1
  0
ENDSEC
  0
EOF
