  0
SECTION
  2
HEADER
  9
$ACADVER
  1
AC1024
  9
$ACADMAINTVER
 70
     6
  9
$DWGCODEPAGE
  3
UNDEFINED
  9
$INSBASE
 10
0.0
 20
0.0
 30
0.0
  9
$EXTMIN
 10
1.000000000000000E+20
 20
1.000000000000000E+20
 30
1.000000000000000E+20
  9
$EXTMAX
 10
-1.000000000000000E+20
 20
-1.000000000000000E+20
 30
-1.000000000000000E+20
  9
$LIMMIN
 10
0.0
 20
0.0
  9
$LIMMAX
 10
12.0
 20
9.0
  9
$ORTHOMODE
 70
     0
  9
$REGENMODE
 70
     1
  9
$FILLMODE
 70
     1
  9
$QTEXTMODE
 70
     0
  9
$MIRRTEXT
 70
     1
  9
$LTSCALE
 40
1.0
  9
$ATTMODE
 70
     1
  9
$TEXTSIZE
 40
0.2
  9
$TRACEWID
 40
0.05
  9
$TEXTSTYLE
  7
Standard
  9
$CLAYER
  8
0
  9
$CELTYPE
  6
ByLayer
  9
$CECOLOR
 62
   256
  9
$CELTSCALE
 40
1.0
  9
$DISPSILH
 70
     0
  9
$DIMSCALE
 40
1.0
  9
$DIMASZ
 40
0.18
  9
$DIMEXO
 40
0.0625
  9
$DIMDLI
 40
0.38
  9
$DIMRND
 40
0.0
  9
$DIMDLE
 40
0.0
  9
$DIMEXE
 40
0.18
  9
$DIMTP
 40
0.0
  9
$DIMTM
 40
0.0
  9
$DIMTXT
 40
0.18
  9
$DIMCEN
 40
0.09
  9
$DIMTSZ
 40
0.0
  9
$DIMTOL
 70
     0
  9
$DIMLIM
 70
     0
  9
$DIMTIH
 70
     1
  9
$DIMTOH
 70
     1
  9
$DIMSE1
 70
     0
  9
$DIMSE2
 70
     0
  9
$DIMTAD
 70
     0
  9
$DIMZIN
 70
     0
  9
$DIMBLK
  1

  9
$DIMASO
 70
     1
  9
$DIMSHO
 70
     1
  9
$DIMPOST
  1

  9
$DIMAPOST
  1

  9
$DIMALT
 70
     0
  9
$DIMALTD
 70
     2
  9
$DIMALTF
 40
25.4
  9
$DIMLFAC
 40
1.0
  9
$DIMTOFL
 70
     0
  9
$DIMTVP
 40
0.0
  9
$DIMTIX
 70
     0
  9
$DIMSOXD
 70
     0
  9
$DIMSAH
 70
     0
  9
$DIMBLK1
  1

  9
$DIMBLK2
  1

  9
$DIMSTYLE
  2
Standard
  9
$DIMCLRD
 70
     0
  9
$DIMCLRE
 70
     0
  9
$DIMCLRT
 70
     0
  9
$DIMTFAC
 40
1.0
  9
$DIMGAP
 40
0.09
  9
$DIMJUST
 70
     0
  9
$DIMSD1
 70
     0
  9
$DIMSD2
 70
     0
  9
$DIMTOLJ
 70
     1
  9
$DIMTZIN
 70
     0
  9
$DIMALTZ
 70
     0
  9
$DIMALTTZ
 70
     0
  9
$DIMUPT
 70
     0
  9
$DIMDEC
 70
     4
  9
$DIMTDEC
 70
     4
  9
$DIMALTU
 70
     2
  9
$DIMALTTD
 70
     2
  9
$DIMTXSTY
  7
Standard
  9
$DIMAUNIT
 70
     0
  9
$DIMADEC
 70
     0
  9
$DIMALTRND
 40
0.0
  9
$DIMAZIN
 70
     0
  9
$DIMDSEP
 70
    46
  9
$DIMATFIT
 70
     3
  9
$DIMFRAC
 70
     0
  9
$DIMLDRBLK
  1

  9
$DIMLUNIT
 70
     2
  9
$DIMLWD
 70
    -2
  9
$DIMLWE
 70
    -2
  9
$DIMTMOVE
 70
     0
  9
$DIMFXL
 40
1.0
  9
$DIMFXLON
 70
     0
  9
$DIMJOGANG
 40
0.7853981633974483
  9
$DIMTFILL
 70
     0
  9
$DIMTFILLCLR
 70
     0
  9
$DIMARCSYM
 70
     0
  9
$DIMLTYPE
  6

  9
$DIMLTEX1
  6

  9
$DIMLTEX2
  6

  9
$DIMTXTDIRECTION
 70
     0
  9
$LUNITS
 70
     2
  9
$LUPREC
 70
     4
  9
$SKETCHINC
 40
0.1
  9
$FILLETRAD
 40
0.5
  9
$AUNITS
 70
     0
  9
$AUPREC
 70
     0
  9
$MENU
  1
.
  9
$ELEVATION
 40
0.0
  9
$PELEVATION
 40
0.0
  9
$THICKNESS
 40
0.0
  9
$LIMCHECK
 70
     0
  9
$CHAMFERA
 40
0.5
  9
$CHAMFERB
 40
0.5
  9
$CHAMFERC
 40
1.0
  9
$CHAMFERD
 40
0.0
  9
$SKPOLY
 70
     0
  9
$TDCREATE
 40
2457917.622314815
  9
$TDUCREATE
 40
2457917.247314815
  9
$TDUPDATE
 40
2457917.622314815
  9
$TDUUPDATE
 40
2457917.247314815
  9
$TDINDWG
 40
0.0000000116
  9
$TDUSRTIMER
 40
0.0000000116
  9
$USRTIMER
 70
     1
  9
$ANGBASE
 50
0.0
  9
$ANGDIR
 70
     0
  9
$PDMODE
 70
     0
  9
$PDSIZE
 40
0.0
  9
$PLINEWID
 40
0.0
  9
$SPLFRAME
 70
     0
  9
$SPLINETYPE
 70
     6
  9
$SPLINESEGS
 70
     8
  9
$HANDSEED
  5
BD
  9
$SURFTAB1
 70
     6
  9
$SURFTAB2
 70
     6
  9
$SURFTYPE
 70
     6
  9
$SURFU
 70
     6
  9
$SURFV
 70
     6
  9
$UCSBASE
  2

  9
$UCSNAME
  2

  9
$UCSORG
 10
0.0
 20
0.0
 30
0.0
  9
$UCSXDIR
 10
1.0
 20
0.0
 30
0.0
  9
$UCSYDIR
 10
0.0
 20
1.0
 30
0.0
  9
$UCSORTHOREF
  2

  9
$UCSORTHOVIEW
 70
     0
  9
$UCSORGTOP
 10
0.0
 20
0.0
 30
0.0
  9
$UCSORGBOTTOM
 10
0.0
 20
0.0
 30
0.0
  9
$UCSORGLEFT
 10
0.0
 20
0.0
 30
0.0
  9
$UCSORGRIGHT
 10
0.0
 20
0.0
 30
0.0
  9
$UCSORGFRONT
 10
0.0
 20
0.0
 30
0.0
  9
$UCSORGBACK
 10
0.0
 20
0.0
 30
0.0
  9
$PUCSBASE
  2

  9
$PUCSNAME
  2

  9
$PUCSORG
 10
0.0
 20
0.0
 30
0.0
  9
$PUCSXDIR
 10
1.0
 20
0.0
 30
0.0
  9
$PUCSYDIR
 10
0.0
 20
1.0
 30
0.0
  9
$PUCSORTHOREF
  2

  9
$PUCSORTHOVIEW
 70
     0
  9
$PUCSORGTOP
 10
0.0
 20
0.0
 30
0.0
  9
$PUCSORGBOTTOM
 10
0.0
 20
0.0
 30
0.0
  9
$PUCSORGLEFT
 10
0.0
 20
0.0
 30
0.0
  9
$PUCSORGRIGHT
 10
0.0
 20
0.0
 30
0.0
  9
$PUCSORGFRONT
 10
0.0
 20
0.0
 30
0.0
  9
$PUCSORGBACK
 10
0.0
 20
0.0
 30
0.0
  9
$USERI1
 70
     0
  9
$USERI2
 70
     0
  9
$USERI3
 70
     0
  9
$USERI4
 70
     0
  9
$USERI5
 70
     0
  9
$USERR1
 40
0.0
  9
$USERR2
 40
0.0
  9
$USERR3
 40
0.0
  9
$USERR4
 40
0.0
  9
$USERR5
 40
0.0
  9
$WORLDVIEW
 70
     1
  9
$SHADEDGE
 70
     3
  9
$SHADEDIF
 70
    70
  9
$TILEMODE
 70
     1
  9
$MAXACTVP
 70
    64
  9
$PINSBASE
 10
0.0
 20
0.0
 30
0.0
  9
$PLIMCHECK
 70
     0
  9
$PEXTMIN
 10
1.000000000000000E+20
 20
1.000000000000000E+20
 30
1.000000000000000E+20
  9
$PEXTMAX
 10
-1.000000000000000E+20
 20
-1.000000000000000E+20
 30
-1.000000000000000E+20
  9
$PLIMMIN
 10
0.0
 20
0.0
  9
$PLIMMAX
 10
12.0
 20
9.0
  9
$UNITMODE
 70
     0
  9
$VISRETAIN
 70
     1
  9
$PLINEGEN
 70
     0
  9
$PSLTSCALE
 70
     1
  9
$TREEDEPTH
 70
  3020
  9
$CMLSTYLE
  2
Standard
  9
$CMLJUST
 70
     0
  9
$CMLSCALE
 40
1.0
  9
$PROXYGRAPHICS
 70
     1
  9
$MEASUREMENT
 70
     0
  9
$CELWEIGHT
370
    -1
  9
$ENDCAPS
280
     0
  9
$JOINSTYLE
280
     0
  9
$LWDISPLAY
290
     1
  9
$INSUNITS
 70
     1
  9
$HYPERLINKBASE
  1

  9
$STYLESHEET
  1

  9
$XEDIT
290
     1
  9
$CEPSNTYPE
380
     0
  9
$PSTYLEMODE
290
     1
  9
$FINGERPRINTGUID
  2
{42285684-5D4C-F3FB-8E1F-02F2A581E9C0}
  9
$VERSIONGUID
  2
{FAEB1C32-E019-11D5-929B-00C0DF256EC4}
  9
$EXTNAMES
290
     1
  9
$PSVPSCALE
 40
0.0
  9
$OLESTARTUP
290
     0
  9
$SORTENTS
280
   127
  9
$INDEXCTL
280
     0
  9
$HIDETEXT
280
     1
  9
$XCLIPFRAME
280
     2
  9
$HALOGAP
280
     0
  9
$OBSCOLOR
 70
   257
  9
$OBSLTYPE
280
     0
  9
$INTERSECTIONDISPLAY
280
     0
  9
$INTERSECTIONCOLOR
 70
   257
  9
$DIMASSOC
280
     2
  9
$PROJECTNAME
  1

  9
$CAMERADISPLAY
290
     0
  9
$LENSLENGTH
 40
50.0
  9
$CAMERAHEIGHT
 40
0.0
  9
$STEPSPERSEC
 40
2.0
  9
$STEPSIZE
 40
6.0
  9
$3DDWFPREC
 40
2.0
  9
$PSOLWIDTH
 40
0.25
  9
$PSOLHEIGHT
 40
4.0
  9
$LOFTANG1
 40
1.570796326794897
  9
$LOFTANG2
 40
1.570796326794897
  9
$LOFTMAG1
 40
0.0
  9
$LOFTMAG2
 40
0.0
  9
$LOFTPARAM
 70
     7
  9
$LOFTNORMALS
280
     1
  9
$LATITUDE
 40
37.795
  9
$LONGITUDE
 40
-122.394
  9
$NORTHDIRECTION
 40
0.0
  9
$TIMEZONE
 70
 -8000
  9
$LIGHTGLYPHDISPLAY
280
     1
  9
$TILEMODELIGHTSYNCH
280
     1
  9
$CMATERIAL
347
3C
  9
$SOLIDHIST
280
     1
  9
$SHOWHIST
280
     1
  9
$DWFFRAME
280
     2
  9
$DGNFRAME
280
     2
  9
$REALWORLDSCALE
290
     1
  9
$INTERFERECOLOR
 62
   256
  9
$CSHADOW
280
     0
  9
$SHADOWPLANELOCATION
 40
0.0
  0
ENDSEC
  0
SECTION
  2
CLASSES
  0
CLASS
  1
ACDBDICTIONARYWDFLT
  2
AcDbDictionaryWithDefault
  3
ObjectDBX Classes
 90
        0
 91
        4
280
     0
281
     0
  0
CLASS
  1
VISUALSTYLE
  2
AcDbVisualStyle
  3
ObjectDBX Classes
 90
     4095
 91
        4
280
     0
281
     0
  0
CLASS
  1
MATERIAL
  2
AcDbMaterial
  3
ObjectDBX Classes
 90
     1153
 91
        4
280
     0
281
     0
  0
CLASS
  1
SUN
  2
AcDbSun
  3
SCENEOE
 90
     1024
 91
        4
280
     0
281
     0
  0
ENDSEC
  0
SECTION
  2
TABLES
  0
TABLE
  2
VPORT
  5
8
330
0
100
AcDbSymbolTable
 70
     1
  0
VPORT
  5
29
330
8
100
AcDbSymbolTableRecord
100
AcDbViewportTableRecord
  2
*Active
 70
     0
 10
0.0
 20
0.0
 11
1.0
 21
1.0
 12
0.0
 22
0.0
 13
0.0
 23
0.0
 14
0.5
 24
0.5
 15
0.5
 25
0.5
 16
0.0
 26
0.0
 36
1.0
 17
91.00082462281999
 27
-128.4993055234307
 37
0.0
 40
256.9986110468615
 41
0.7081814508812795
 42
50.0
 43
0.0
 44
0.0
 50
0.0
 51
0.0
 71
     0
 72
   100
 73
     1
 74
     3
 75
     0
 76
     0
 77
     0
 78
     0
281
     0
 65
     1
110
0.0
120
0.0
130
0.0
111
1.0
121
0.0
131
0.0
112
0.0
122
1.0
132
0.0
 79
     0
146
0.0
 60
     3
 61
     5
292
     1
282
     1
141
0.0
142
0.0
 63
   250
361
3F
  0
ENDTAB
  0
TABLE
  2
LTYPE
  5
5
330
0
100
AcDbSymbolTable
 70
     1
  0
LTYPE
  5
14
330
5
100
AcDbSymbolTableRecord
100
AcDbLinetypeTableRecord
  2
ByBlock
 70
     0
  3

 72
    65
 73
     0
 40
0.0
  0
LTYPE
  5
15
330
5
100
AcDbSymbolTableRecord
100
AcDbLinetypeTableRecord
  2
ByLayer
 70
     0
  3

 72
    65
 73
     0
 40
0.0
  0
LTYPE
  5
16
330
5
100
AcDbSymbolTableRecord
100
AcDbLinetypeTableRecord
  2
Continuous
 70
     0
  3
Solid line
 72
    65
 73
     0
 40
0.0
  0
ENDTAB
  0
TABLE
  2
LAYER
  5
2
330
0
100
AcDbSymbolTable
 70
     2
  0
LAYER
  5
10
330
2
100
AcDbSymbolTableRecord
100
AcDbLayerTableRecord
  2
0
 70
     0
 62
     7
  6
Continuous
370
    -3
390
F
347
3E
  0
LAYER
  5
40
330
2
100
AcDbSymbolTableRecord
100
AcDbLayerTableRecord
  2
_U+30EC_U+30A4_U+30E4_U+30FC 1
 70
     0
 62
     7
  6
Continuous
370
    -3
390
F
347
3E
  0
ENDTAB
  0
TABLE
  2
STYLE
  5
3
330
0
100
AcDbSymbolTable
 70
     1
  0
STYLE
  5
11
330
3
100
AcDbSymbolTableRecord
100
AcDbTextStyleTableRecord
  2
Standard
 70
     0
 40
0.0
 41
1.0
 50
0.0
 71
     0
 42
0.2
  3
txt
  4

  0
ENDTAB
  0
TABLE
  2
VIEW
  5
6
330
0
100
AcDbSymbolTable
 70
     0
  0
ENDTAB
  0
TABLE
  2
UCS
  5
7
330
0
100
AcDbSymbolTable
 70
     0
  0
ENDTAB
  0
TABLE
  2
APPID
  5
9
330
0
100
AcDbSymbolTable
 70
     1
  0
APPID
  5
12
330
9
100
AcDbSymbolTableRecord
100
AcDbRegAppTableRecord
  2
ACAD
 70
     0
  0
ENDTAB
  0
TABLE
  2
DIMSTYLE
  5
A
330
0
100
AcDbSymbolTable
 70
     1
100
AcDbDimStyleTable
  0
DIMSTYLE
105
27
330
A
100
AcDbSymbolTableRecord
100
AcDbDimStyleTableRecord
  2
Standard
 70
     0
178
     0
340
11
  0
ENDTAB
  0
TABLE
  2
BLOCK_RECORD
  5
1
330
0
100
AcDbSymbolTable
 70
     6
  0
BLOCK_RECORD
  5
1F
330
1
100
AcDbSymbolTableRecord
100
AcDbBlockTableRecord
  2
*Model_Space
340
22
 70
     0
280
     1
281
     0
  0
BLOCK_RECORD
  5
1B
330
1
100
AcDbSymbolTableRecord
100
AcDbBlockTableRecord
  2
*Paper_Space
340
1E
 70
     0
280
     1
281
     0
  0
BLOCK_RECORD
  5
23
330
1
100
AcDbSymbolTableRecord
100
AcDbBlockTableRecord
  2
*Paper_Space0
340
26
 70
     0
280
     1
281
     0
  0
BLOCK_RECORD
  5
54
330
1
100
AcDbSymbolTableRecord
100
AcDbBlockTableRecord
  2
block 2
340
0
102
{BLKREFS
331
55
102
}
 70
     0
280
     1
281
     0
  0
BLOCK_RECORD
  5
77
330
1
100
AcDbSymbolTableRecord
100
AcDbBlockTableRecord
  2
block 3
340
0
102
{BLKREFS
331
78
102
}
 70
     0
280
     1
281
     0
  0
BLOCK_RECORD
  5
7F
330
1
100
AcDbSymbolTableRecord
100
AcDbBlockTableRecord
  2
block 4
340
0
102
{BLKREFS
331
80
102
}
 70
     0
280
     1
281
     0
  0
BLOCK_RECORD
  5
9A
330
1
100
AcDbSymbolTableRecord
100
AcDbBlockTableRecord
  2
block 5
340
0
102
{BLKREFS
331
9B
102
}
 70
     0
280
     1
281
     0
  0
BLOCK_RECORD
  5
B1
330
1
100
AcDbSymbolTableRecord
100
AcDbBlockTableRecord
  2
block 6
340
0
102
{BLKREFS
331
B2
102
}
 70
     0
280
     1
281
     0
  0
ENDTAB
  0
ENDSEC
  0
SECTION
  2
BLOCKS
  0
BLOCK
  5
20
330
1F
100
AcDbEntity
  8
0
100
AcDbBlockBegin
  2
*Model_Space
 70
     0
 10
0.0
 20
0.0
 30
0.0
  3
*Model_Space
  1

  0
ENDBLK
  5
21
330
1F
100
AcDbEntity
  8
0
100
AcDbBlockEnd
  0
BLOCK
  5
1C
330
1B
100
AcDbEntity
 67
     1
  8
0
100
AcDbBlockBegin
  2
*Paper_Space
 70
     0
 10
0.0
 20
0.0
 30
0.0
  3
*Paper_Space
  1

  0
ENDBLK
  5
1D
330
1B
100
AcDbEntity
 67
     1
  8
0
100
AcDbBlockEnd
  0
BLOCK
  5
24
330
23
100
AcDbEntity
  8
0
100
AcDbBlockBegin
  2
*Paper_Space0
 70
     0
 10
0.0
 20
0.0
 30
0.0
  3
*Paper_Space0
  1

  0
ENDBLK
  5
25
330
23
100
AcDbEntity
  8
0
100
AcDbBlockEnd
  0
BLOCK
  5
56
330
54
100
AcDbEntity
  8
0
100
AcDbBlockBegin
  2
block 2
 70
     0
 10
0.0
 20
0.0
 30
0.0
  3
block 2
  1

  0
POLYLINE
  5
58
330
54
100
AcDbEntity
  8
_U+30EC_U+30A4_U+30E4_U+30FC 1
370
     0
100
AcDb2dPolyline
 66
     1
 10
0.0
 20
0.0
 30
0.0
  0
VERTEX
  5
59
330
58
100
AcDbEntity
  8
_U+30EC_U+30A4_U+30E4_U+30FC 1
370
     0
100
AcDbVertex
100
AcDb2dVertex
 10
104.805661323625
 20
-132.6761392897476
 30
0.0
  0
VERTEX
  5
5A
330
58
100
AcDbEntity
  8
_U+30EC_U+30A4_U+30E4_U+30FC 1
370
     0
100
AcDbVertex
100
AcDb2dVertex
 10
105.1525824389896
 20
-132.6761392897476
 30
0.0
  0
VERTEX
  5
5B
330
58
100
AcDbEntity
  8
_U+30EC_U+30A4_U+30E4_U+30FC 1
370
     0
100
AcDbVertex
100
AcDb2dVertex
 10
105.1525824389896
 20
-132.9090277445505
 30
0.0
  0
VERTEX
  5
5C
330
58
100
AcDbEntity
  8
_U+30EC_U+30A4_U+30E4_U+30FC 1
370
     0
100
AcDbVertex
100
AcDb2dVertex
 10
104.805661323625
 20
-132.9090277445505
 30
0.0
  0
VERTEX
  5
5D
330
58
100
AcDbEntity
  8
_U+30EC_U+30A4_U+30E4_U+30FC 1
370
     0
100
AcDbVertex
100
AcDb2dVertex
 10
104.805661323625
 20
-133.6101046757989
 30
0.0
  0
VERTEX
  5
5E
330
58
100
AcDbEntity
  8
_U+30EC_U+30A4_U+30E4_U+30FC 1
370
     0
100
AcDbVertex
100
AcDb2dVertex
 10
104.5813856075352
 20
-133.6101046757989
 30
0.0
  0
VERTEX
  5
5F
330
58
100
AcDbEntity
  8
_U+30EC_U+30A4_U+30E4_U+30FC 1
370
     0
100
AcDbVertex
100
AcDb2dVertex
 10
103.6081461329521
 20
-132.8842230570567
 30
0.0
  0
VERTEX
  5
60
330
58
100
AcDbEntity
  8
_U+30EC_U+30A4_U+30E4_U+30FC 1
370
     0
100
AcDbVertex
100
AcDb2dVertex
 10
103.6081461329521
 20
-132.6761392897476
 30
0.0
  0
VERTEX
  5
61
330
58
100
AcDbEntity
  8
_U+30EC_U+30A4_U+30E4_U+30FC 1
370
     0
100
AcDbVertex
100
AcDb2dVertex
 10
104.6068793141261
 20
-132.6761392897476
 30
0.0
  0
VERTEX
  5
62
330
58
100
AcDbEntity
  8
_U+30EC_U+30A4_U+30E4_U+30FC 1
370
     0
100
AcDbVertex
100
AcDb2dVertex
 10
104.6068793141261
 20
-132.4546196500461
 30
0.0
  0
VERTEX
  5
63
330
58
100
AcDbEntity
  8
_U+30EC_U+30A4_U+30E4_U+30FC 1
370
     0
100
AcDbVertex
100
AcDb2dVertex
 10
104.805661323625
 20
-132.4546196500461
 30
0.0
  0
VERTEX
  5
64
330
58
100
AcDbEntity
  8
_U+30EC_U+30A4_U+30E4_U+30FC 1
370
     0
100
AcDbVertex
100
AcDb2dVertex
 10
104.805661323625
 20
-132.6761392897476
 30
0.0
  0
SEQEND
  5
65
330
58
100
AcDbEntity
  8
_U+30EC_U+30A4_U+30E4_U+30FC 1
370
     0
  0
POLYLINE
  5
66
330
54
100
AcDbEntity
  8
_U+30EC_U+30A4_U+30E4_U+30FC 1
370
     0
100
AcDb2dPolyline
 66
     1
 10
0.0
 20
0.0
 30
0.0
  0
VERTEX
  5
67
330
66
100
AcDbEntity
  8
_U+30EC_U+30A4_U+30E4_U+30FC 1
370
     0
100
AcDbVertex
100
AcDb2dVertex
 10
103.9509331337345
 20
-132.9090277445505
 30
0.0
  0
VERTEX
  5
68
330
66
100
AcDbEntity
  8
_U+30EC_U+30A4_U+30E4_U+30FC 1
370
     0
100
AcDbVertex
100
AcDb2dVertex
 10
104.6068793141261
 20
-133.397542284359
 30
0.0
  0
VERTEX
  5
69
330
66
100
AcDbEntity
  8
_U+30EC_U+30A4_U+30E4_U+30FC 1
370
     0
100
AcDbVertex
100
AcDb2dVertex
 10
104.6068793141261
 20
-132.9090277445505
 30
0.0
  0
VERTEX
  5
6A
330
66
100
AcDbEntity
  8
_U+30EC_U+30A4_U+30E4_U+30FC 1
370
     0
100
AcDbVertex
100
AcDb2dVertex
 10
103.9509331337345
 20
-132.9090277445505
 30
0.0
  0
SEQEND
  5
6B
330
66
100
AcDbEntity
  8
_U+30EC_U+30A4_U+30E4_U+30FC 1
370
     0
  0
HATCH
  5
6C
330
54
100
AcDbEntity
  8
_U+30EC_U+30A4_U+30E4_U+30FC 1
 62
     7
420
 16777215
100
AcDbHatch
 10
0.0
 20
0.0
 30
0.0
210
0.0
220
0.0
230
1.0
  2
SOLID
 70
     1
 71
     0
 91
        2
 92
        1
 93
       11
 72
     1
 10
104.805661323625
 20
-132.6761392897476
 11
105.1525824389896
 21
-132.6761392897476
 72
     1
 10
105.1525824389896
 20
-132.6761392897476
 11
105.1525824389896
 21
-132.9090277445505
 72
     1
 10
105.1525824389896
 20
-132.9090277445505
 11
104.805661323625
 21
-132.9090277445505
 72
     1
 10
104.805661323625
 20
-132.9090277445505
 11
104.805661323625
 21
-133.6101046757989
 72
     1
 10
104.805661323625
 20
-133.6101046757989
 11
104.5813856075352
 21
-133.6101046757989
 72
     1
 10
104.5813856075352
 20
-133.6101046757989
 11
103.6081461329521
 21
-132.8842230570567
 72
     1
 10
103.6081461329521
 20
-132.8842230570567
 11
103.6081461329521
 21
-132.6761392897476
 72
     1
 10
103.6081461329521
 20
-132.6761392897476
 11
104.6068793141261
 21
-132.6761392897476
 72
     1
 10
104.6068793141261
 20
-132.6761392897476
 11
104.6068793141261
 21
-132.4546196500461
 72
     1
 10
104.6068793141261
 20
-132.4546196500461
 11
104.805661323625
 21
-132.4546196500461
 72
     1
 10
104.805661323625
 20
-132.4546196500461
 11
104.805661323625
 21
-132.6761392897476
 97
        0
 92
        1
 93
        3
 72
     1
 10
103.9509331337345
 20
-132.9090277445505
 11
104.6068793141261
 21
-133.397542284359
 72
     1
 10
104.6068793141261
 20
-133.397542284359
 11
104.6068793141261
 21
-132.9090277445505
 72
     1
 10
104.6068793141261
 20
-132.9090277445505
 11
103.9509331337345
 21
-132.9090277445505
 97
        0
 75
     2
 76
     1
 98
        0
  0
POLYLINE
  5
6D
330
54
100
AcDbEntity
  8
_U+30EC_U+30A4_U+30E4_U+30FC 1
370
     0
100
AcDb2dPolyline
 66
     1
 10
0.0
 20
0.0
 30
0.0
  0
VERTEX
  5
6E
330
6D
100
AcDbEntity
  8
_U+30EC_U+30A4_U+30E4_U+30FC 1
370
     0
100
AcDbVertex
100
AcDb2dVertex
 10
105.1525824389896
 20
-132.2437798063488
 30
0.0
  0
VERTEX
  5
6F
330
6D
100
AcDbEntity
  8
_U+30EC_U+30A4_U+30E4_U+30FC 1
370
     0
100
AcDbVertex
100
AcDb2dVertex
 10
104.9007459590179
 20
-132.2437798063488
 30
0.0
  0
VERTEX
  5
70
330
6D
100
AcDbEntity
  8
_U+30EC_U+30A4_U+30E4_U+30FC 1
370
     0
100
AcDbVertex
100
AcDb2dVertex
 10
104.9007459590179
 20
-131.9747178489508
 30
0.0
  0
VERTEX
  5
71
330
6D
100
AcDbEntity
  8
_U+30EC_U+30A4_U+30E4_U+30FC 1
370
     0
100
AcDbVertex
100
AcDb2dVertex
 10
105.1525824389896
 20
-131.9747178489508
 30
0.0
  0
VERTEX
  5
72
330
6D
100
AcDbEntity
  8
_U+30EC_U+30A4_U+30E4_U+30FC 1
370
     0
100
AcDbVertex
100
AcDb2dVertex
 10
105.1525824389896
 20
-132.2437798063488
 30
0.0
  0
SEQEND
  5
73
330
6D
100
AcDbEntity
  8
_U+30EC_U+30A4_U+30E4_U+30FC 1
370
     0
  0
HATCH
  5
74
330
54
100
AcDbEntity
  8
_U+30EC_U+30A4_U+30E4_U+30FC 1
 62
     7
420
 16777215
100
AcDbHatch
 10
0.0
 20
0.0
 30
0.0
210
0.0
220
0.0
230
1.0
  2
SOLID
 70
     1
 71
     0
 91
        1
 92
        1
 93
        4
 72
     1
 10
105.1525824389896
 20
-132.2437798063488
 11
104.9007459590179
 21
-132.2437798063488
 72
     1
 10
104.9007459590179
 20
-132.2437798063488
 11
104.9007459590179
 21
-131.9747178489508
 72
     1
 10
104.9007459590179
 20
-131.9747178489508
 11
105.1525824389896
 21
-131.9747178489508
 72
     1
 10
105.1525824389896
 20
-131.9747178489508
 11
105.1525824389896
 21
-132.2437798063488
 97
        0
 75
     2
 76
     1
 98
        0
  0
SPLINE
  5
75
330
54
100
AcDbEntity
  8
_U+30EC_U+30A4_U+30E4_U+30FC 1
370
     0
100
AcDbSpline
210
0.0
220
0.0
230
1.0
 70
    11
 71
     3
 72
    53
 73
    49
 74
     0
 42
0.0000000001
 43
0.0000000001
 12
1.0
 22
0.0
 32
0.0
 13
1.0
 23
0.0
 33
0.0
 40
0.0
 40
0.0
 40
0.0
 40
0.0
 40
1.0
 40
1.0
 40
1.0
 40
2.0
 40
2.0
 40
2.0
 40
3.0
 40
3.0
 40
3.0
 40
4.0
 40
4.0
 40
4.0
 40
5.0
 40
5.0
 40
5.0
 40
6.0
 40
6.0
 40
6.0
 40
7.0
 40
7.0
 40
7.0
 40
8.0
 40
8.0
 40
8.0
 40
9.0
 40
9.0
 40
9.0
 40
10.0
 40
10.0
 40
10.0
 40
11.0
 40
11.0
 40
11.0
 40
12.0
 40
12.0
 40
12.0
 40
13.0
 40
13.0
 40
13.0
 40
14.0
 40
14.0
 40
14.0
 40
15.0
 40
15.0
 40
15.0
 40
16.0
 40
16.0
 40
16.0
 40
16.0
 10
105.2032253426228
 20
-131.2078395939342
 30
0.0
 10
105.2032253426228
 20
-131.2915554142257
 30
0.0
 10
105.1863443747451
 20
-131.3997314124626
 30
0.0
 10
105.1229546178165
 20
-131.5085964297965
 30
0.0
 10
105.013056071837
 20
-131.6939425669029
 30
0.0
 10
104.881797933849
 20
-131.716335687557
 30
0.0
 10
104.7739664451607
 20
-131.73666175092
 30
0.0
 10
104.7739664451607
 20
-131.73666175092
 30
0.0
 10
104.7739664451607
 20
-131.4992946719863
 30
0.0
 10
104.7739664451607
 20
-131.4992946719863
 30
0.0
 10
104.9727484546596
 20
-131.440728048737
 30
0.0
 10
105.0023762758327
 20
-131.3049912866182
 30
0.0
 10
105.0023762758327
 20
-131.2054280270945
 30
0.0
 10
105.0023762758327
 20
-131.0562553925832
 30
0.0
 10
104.902813016309
 20
-130.8933023761308
 30
0.0
 10
104.6702690710547
 20
-130.8933023761308
 30
0.0
 10
104.4142984765006
 20
-130.8933023761308
 30
0.0
 10
104.34436303815
 20
-131.0855387042078
 30
0.0
 10
104.34436303815
 20
-131.2143852753561
 30
0.0
 10
104.34436303815
 20
-131.2484917206601
 30
0.0
 10
104.34436303815
 20
-131.3997314124626
 30
0.0
 10
104.4735541188469
 20
-131.4948160478555
 30
0.0
 10
104.4735541188469
 20
-131.4948160478555
 30
0.0
 10
104.454606093678
 20
-131.6825737518016
 30
0.0
 10
104.454606093678
 20
-131.6825737518016
 30
0.0
 10
104.454606093678
 20
-131.6825737518016
 30
0.0
 10
103.6081461329521
 20
-131.5537271806533
 30
0.0
 10
103.6081461329521
 20
-131.5537271806533
 30
0.0
 10
103.6081461329521
 20
-131.5537271806533
 30
0.0
 10
103.6081461329521
 20
-130.7217366209654
 30
0.0
 10
103.6081461329521
 20
-130.7217366209654
 30
0.0
 10
103.6081461329521
 20
-130.7217366209654
 30
0.0
 10
103.8027940278688
 20
-130.7217366209654
 30
0.0
 10
103.8027940278688
 20
-130.7217366209654
 30
0.0
 10
103.8027940278688
 20
-130.7217366209654
 30
0.0
 10
103.8027940278688
 20
-131.3794053490996
 30
0.0
 10
103.8027940278688
 20
-131.3794053490996
 30
0.0
 10
103.8027940278688
 20
-131.3794053490996
 30
0.0
 10
104.2258517534574
 20
-131.4496852969987
 30
0.0
 10
104.2258517534574
 20
-131.4496852969987
 30
0.0
 10
104.192089817702
 20
-131.384228482779
 30
0.0
 10
104.1517822005246
 20
-131.2960340383566
 30
0.0
 10
104.1517822005246
 20
-131.1692545244994
 30
0.0
 10
104.1517822005246
 20
-130.8981255098102
 30
0.0
 10
104.3381618662766
 20
-130.6449109916443
 30
0.0
 10
104.6513210458858
 20
-130.6449109916443
 30
0.0
 10
104.9686143400773
 20
-130.6449109916443
 30
0.0
 10
105.2032253426228
 20
-130.8843451278692
 30
0.0
 10
105.2032253426228
 20
-131.2078395939342
 30
0.0
  0
HATCH
  5
76
330
54
100
AcDbEntity
  8
_U+30EC_U+30A4_U+30E4_U+30FC 1
 62
     7
420
 16777215
100
AcDbHatch
 10
0.0
 20
0.0
 30
0.0
210
0.0
220
0.0
230
1.0
  2
SOLID
 70
     1
 71
     0
 91
        1
 92
        1
 93
        1
 72
     4
 94
        3
 73
     0
 74
     1
 95
       53
 96
       49
 40
0.0
 40
0.0
 40
0.0
 40
0.0
 40
1.0
 40
1.0
 40
1.0
 40
2.0
 40
2.0
 40
2.0
 40
3.0
 40
3.0
 40
3.0
 40
4.0
 40
4.0
 40
4.0
 40
5.0
 40
5.0
 40
5.0
 40
6.0
 40
6.0
 40
6.0
 40
7.0
 40
7.0
 40
7.0
 40
8.0
 40
8.0
 40
8.0
 40
9.0
 40
9.0
 40
9.0
 40
10.0
 40
10.0
 40
10.0
 40
11.0
 40
11.0
 40
11.0
 40
12.0
 40
12.0
 40
12.0
 40
13.0
 40
13.0
 40
13.0
 40
14.0
 40
14.0
 40
14.0
 40
15.0
 40
15.0
 40
15.0
 40
16.0
 40
16.0
 40
16.0
 40
16.0
 10
105.2032253426228
 20
-131.2078395939342
 10
105.2032253426228
 20
-131.2915554142257
 10
105.1863443747451
 20
-131.3997314124626
 10
105.1229546178165
 20
-131.5085964297965
 10
105.013056071837
 20
-131.6939425669029
 10
104.881797933849
 20
-131.716335687557
 10
104.7739664451607
 20
-131.73666175092
 10
104.7739664451607
 20
-131.73666175092
 10
104.7739664451607
 20
-131.4992946719863
 10
104.7739664451607
 20
-131.4992946719863
 10
104.9727484546596
 20
-131.440728048737
 10
105.0023762758327
 20
-131.3049912866182
 10
105.0023762758327
 20
-131.2054280270945
 10
105.0023762758327
 20
-131.0562553925832
 10
104.902813016309
 20
-130.8933023761308
 10
104.6702690710547
 20
-130.8933023761308
 10
104.4142984765006
 20
-130.8933023761308
 10
104.34436303815
 20
-131.0855387042078
 10
104.34436303815
 20
-131.2143852753561
 10
104.34436303815
 20
-131.2484917206601
 10
104.34436303815
 20
-131.3997314124626
 10
104.4735541188469
 20
-131.4948160478555
 10
104.4735541188469
 20
-131.4948160478555
 10
104.454606093678
 20
-131.6825737518016
 10
104.454606093678
 20
-131.6825737518016
 10
104.454606093678
 20
-131.6825737518016
 10
103.6081461329521
 20
-131.5537271806533
 10
103.6081461329521
 20
-131.5537271806533
 10
103.6081461329521
 20
-131.5537271806533
 10
103.6081461329521
 20
-130.7217366209654
 10
103.6081461329521
 20
-130.7217366209654
 10
103.6081461329521
 20
-130.7217366209654
 10
103.8027940278688
 20
-130.7217366209654
 10
103.8027940278688
 20
-130.7217366209654
 10
103.8027940278688
 20
-130.7217366209654
 10
103.8027940278688
 20
-131.3794053490996
 10
103.8027940278688
 20
-131.3794053490996
 10
103.8027940278688
 20
-131.3794053490996
 10
104.2258517534574
 20
-131.4496852969987
 10
104.2258517534574
 20
-131.4496852969987
 10
104.192089817702
 20
-131.384228482779
 10
104.1517822005246
 20
-131.2960340383566
 10
104.1517822005246
 20
-131.1692545244994
 10
104.1517822005246
 20
-130.8981255098102
 10
104.3381618662766
 20
-130.6449109916443
 10
104.6513210458858
 20
-130.6449109916443
 10
104.9686143400773
 20
-130.6449109916443
 10
105.2032253426228
 20
-130.8843451278692
 10
105.2032253426228
 20
-131.2078395939342
 97
        0
 97
        0
 75
     2
 76
     1
 98
        0
  0
ENDBLK
  5
57
330
54
100
AcDbEntity
  8
0
100
AcDbBlockEnd
  0
BLOCK
  5
79
330
77
100
AcDbEntity
  8
0
100
AcDbBlockBegin
  2
block 3
 70
     0
 10
0.0
 20
0.0
 30
0.0
  3
block 3
  1

  0
SPLINE
  5
7B
330
77
100
AcDbEntity
  8
_U+30EC_U+30A4_U+30E4_U+30FC 1
370
     0
100
AcDbSpline
210
0.0
220
0.0
230
1.0
 70
    11
 71
     3
 72
    26
 73
    22
 74
     0
 42
0.0000000001
 43
0.0000000001
 12
1.0
 22
0.0
 32
0.0
 13
1.0
 23
0.0
 33
0.0
 40
0.0
 40
0.0
 40
0.0
 40
0.0
 40
1.0
 40
1.0
 40
1.0
 40
2.0
 40
2.0
 40
2.0
 40
3.0
 40
3.0
 40
3.0
 40
4.0
 40
4.0
 40
4.0
 40
5.0
 40
5.0
 40
5.0
 40
6.0
 40
6.0
 40
6.0
 40
7.0
 40
7.0
 40
7.0
 40
7.0
 10
104.9879068747947
 20
-126.9242078675745
 30
0.0
 10
104.9879068747947
 20
-126.9242078675745
 30
0.0
 10
103.8837537717721
 20
-126.9242078675745
 30
0.0
 10
103.8837537717721
 20
-126.9242078675745
 30
0.0
 10
103.8837537717721
 20
-126.9242078675745
 30
0.0
 10
103.8837537717721
 20
-127.2766411357156
 30
0.0
 10
103.8837537717721
 20
-127.2766411357156
 30
0.0
 10
103.8837537717721
 20
-127.2766411357156
 30
0.0
 10
103.7356146659064
 20
-127.2766411357156
 30
0.0
 10
103.7356146659064
 20
-127.2766411357156
 30
0.0
 10
103.7208007553198
 20
-126.9217963007348
 30
0.0
 10
103.5578477388675
 20
-126.8721869257472
 30
0.0
 10
103.4434705687572
 20
-126.8404920472829
 30
0.0
 10
103.4434705687572
 20
-126.8404920472829
 30
0.0
 10
103.4434705687572
 20
-126.6844292218011
 30
0.0
 10
103.4434705687572
 20
-126.6844292218011
 30
0.0
 10
103.4434705687572
 20
-126.6844292218011
 30
0.0
 10
104.9879068747947
 20
-126.6844292218011
 30
0.0
 10
104.9879068747947
 20
-126.6844292218011
 30
0.0
 10
104.9879068747947
 20
-126.6844292218011
 30
0.0
 10
104.9879068747947
 20
-126.9242078675745
 30
0.0
 10
104.9879068747947
 20
-126.9242078675745
 30
0.0
  0
HATCH
  5
7C
330
77
100
AcDbEntity
  8
_U+30EC_U+30A4_U+30E4_U+30FC 1
 62
     7
420
 16777215
100
AcDbHatch
 10
0.0
 20
0.0
 30
0.0
210
0.0
220
0.0
230
1.0
  2
SOLID
 70
     1
 71
     0
 91
        1
 92
        1
 93
        1
 72
     4
 94
        3
 73
     0
 74
     1
 95
       26
 96
       22
 40
0.0
 40
0.0
 40
0.0
 40
0.0
 40
1.0
 40
1.0
 40
1.0
 40
2.0
 40
2.0
 40
2.0
 40
3.0
 40
3.0
 40
3.0
 40
4.0
 40
4.0
 40
4.0
 40
5.0
 40
5.0
 40
5.0
 40
6.0
 40
6.0
 40
6.0
 40
7.0
 40
7.0
 40
7.0
 40
7.0
 10
104.9879068747947
 20
-126.9242078675745
 10
104.9879068747947
 20
-126.9242078675745
 10
103.8837537717721
 20
-126.9242078675745
 10
103.8837537717721
 20
-126.9242078675745
 10
103.8837537717721
 20
-126.9242078675745
 10
103.8837537717721
 20
-127.2766411357156
 10
103.8837537717721
 20
-127.2766411357156
 10
103.8837537717721
 20
-127.2766411357156
 10
103.7356146659064
 20
-127.2766411357156
 10
103.7356146659064
 20
-127.2766411357156
 10
103.7208007553198
 20
-126.9217963007348
 10
103.5578477388675
 20
-126.8721869257472
 10
103.4434705687572
 20
-126.8404920472829
 10
103.4434705687572
 20
-126.8404920472829
 10
103.4434705687572
 20
-126.6844292218011
 10
103.4434705687572
 20
-126.6844292218011
 10
103.4434705687572
 20
-126.6844292218011
 10
104.9879068747947
 20
-126.6844292218011
 10
104.9879068747947
 20
-126.6844292218011
 10
104.9879068747947
 20
-126.6844292218011
 10
104.9879068747947
 20
-126.9242078675745
 10
104.9879068747947
 20
-126.9242078675745
 97
        0
 97
        0
 75
     2
 76
     1
 98
        0
  0
ENDBLK
  5
7A
330
77
100
AcDbEntity
  8
0
100
AcDbBlockEnd
  0
BLOCK
  5
81
330
7F
100
AcDbEntity
  8
0
100
AcDbBlockBegin
  2
block 4
 70
     0
 10
0.0
 20
0.0
 30
0.0
  3
block 4
  1

  0
SPLINE
  5
83
330
7F
100
AcDbEntity
  8
_U+30EC_U+30A4_U+30E4_U+30FC 1
370
     0
100
AcDbSpline
210
0.0
220
0.0
230
1.0
 70
    11
 71
     3
 72
    26
 73
    22
 74
     0
 42
0.0000000001
 43
0.0000000001
 12
1.0
 22
0.0
 32
0.0
 13
1.0
 23
0.0
 33
0.0
 40
0.0
 40
0.0
 40
0.0
 40
0.0
 40
1.0
 40
1.0
 40
1.0
 40
2.0
 40
2.0
 40
2.0
 40
3.0
 40
3.0
 40
3.0
 40
4.0
 40
4.0
 40
4.0
 40
5.0
 40
5.0
 40
5.0
 40
6.0
 40
6.0
 40
6.0
 40
7.0
 40
7.0
 40
7.0
 40
7.0
 10
91.1930555327573
 20
-123.987263966399
 30
0.0
 10
91.1930555327573
 20
-123.987263966399
 30
0.0
 10
91.61576874879745
 20
-122.966826683668
 30
0.0
 10
91.61576874879745
 20
-122.966826683668
 30
0.0
 10
91.61576874879745
 20
-122.966826683668
 30
0.0
 10
91.29020722544134
 20
-122.8317789406462
 30
0.0
 10
91.29020722544134
 20
-122.8317789406462
 30
0.0
 10
91.29020722544134
 20
-122.8317789406462
 30
0.0
 10
91.34670679139944
 20
-122.6953531594303
 30
0.0
 10
91.34670679139944
 20
-122.6953531594303
 30
0.0
 10
91.68019203437163
 20
-122.8173095396082
 30
0.0
 10
91.78836803260847
 20
-122.6857068920716
 30
0.0
 10
91.86140405689576
 20
-122.5926893139699
 30
0.0
 10
91.86140405689576
 20
-122.5926893139699
 30
0.0
 10
92.0054090481792
 20
-122.6519449563162
 30
0.0
 10
92.0054090481792
 20
-122.6519449563162
 30
0.0
 10
92.0054090481792
 20
-122.6519449563162
 30
0.0
 10
91.41457517245885
 20
-124.0789035063067
 30
0.0
 10
91.41457517245885
 20
-124.0789035063067
 30
0.0
 10
91.41457517245885
 20
-124.0789035063067
 30
0.0
 10
91.1930555327573
 20
-123.987263966399
 30
0.0
 10
91.1930555327573
 20
-123.987263966399
 30
0.0
  0
HATCH
  5
84
330
7F
100
AcDbEntity
  8
_U+30EC_U+30A4_U+30E4_U+30FC 1
 62
     7
420
 16777215
100
AcDbHatch
 10
0.0
 20
0.0
 30
0.0
210
0.0
220
0.0
230
1.0
  2
SOLID
 70
     1
 71
     0
 91
        1
 92
        1
 93
        1
 72
     4
 94
        3
 73
     0
 74
     1
 95
       26
 96
       22
 40
0.0
 40
0.0
 40
0.0
 40
0.0
 40
1.0
 40
1.0
 40
1.0
 40
2.0
 40
2.0
 40
2.0
 40
3.0
 40
3.0
 40
3.0
 40
4.0
 40
4.0
 40
4.0
 40
5.0
 40
5.0
 40
5.0
 40
6.0
 40
6.0
 40
6.0
 40
7.0
 40
7.0
 40
7.0
 40
7.0
 10
91.1930555327573
 20
-123.987263966399
 10
91.1930555327573
 20
-123.987263966399
 10
91.61576874879745
 20
-122.966826683668
 10
91.61576874879745
 20
-122.966826683668
 10
91.61576874879745
 20
-122.966826683668
 10
91.29020722544134
 20
-122.8317789406462
 10
91.29020722544134
 20
-122.8317789406462
 10
91.29020722544134
 20
-122.8317789406462
 10
91.34670679139944
 20
-122.6953531594303
 10
91.34670679139944
 20
-122.6953531594303
 10
91.68019203437163
 20
-122.8173095396082
 10
91.78836803260847
 20
-122.6857068920716
 10
91.86140405689576
 20
-122.5926893139699
 10
91.86140405689576
 20
-122.5926893139699
 10
92.0054090481792
 20
-122.6519449563162
 10
92.0054090481792
 20
-122.6519449563162
 10
92.0054090481792
 20
-122.6519449563162
 10
91.41457517245885
 20
-124.0789035063067
 10
91.41457517245885
 20
-124.0789035063067
 10
91.41457517245885
 20
-124.0789035063067
 10
91.1930555327573
 20
-123.987263966399
 10
91.1930555327573
 20
-123.987263966399
 97
        0
 97
        0
 75
     2
 76
     1
 98
        0
  0
SPLINE
  5
85
330
7F
100
AcDbEntity
  8
_U+30EC_U+30A4_U+30E4_U+30FC 1
370
     0
100
AcDbSpline
210
0.0
220
0.0
230
1.0
 70
    11
 71
     3
 72
    62
 73
    58
 74
     0
 42
0.0000000001
 43
0.0000000001
 12
1.0
 22
0.0
 32
0.0
 13
1.0
 23
0.0
 33
0.0
 40
0.0
 40
0.0
 40
0.0
 40
0.0
 40
1.0
 40
1.0
 40
1.0
 40
2.0
 40
2.0
 40
2.0
 40
3.0
 40
3.0
 40
3.0
 40
4.0
 40
4.0
 40
4.0
 40
5.0
 40
5.0
 40
5.0
 40
6.0
 40
6.0
 40
6.0
 40
7.0
 40
7.0
 40
7.0
 40
8.0
 40
8.0
 40
8.0
 40
9.0
 40
9.0
 40
9.0
 40
10.0
 40
10.0
 40
10.0
 40
11.0
 40
11.0
 40
11.0
 40
12.0
 40
12.0
 40
12.0
 40
13.0
 40
13.0
 40
13.0
 40
14.0
 40
14.0
 40
14.0
 40
15.0
 40
15.0
 40
15.0
 40
16.0
 40
16.0
 40
16.0
 40
17.0
 40
17.0
 40
17.0
 40
18.0
 40
18.0
 40
18.0
 40
19.0
 40
19.0
 40
19.0
 40
19.0
 10
92.37541230329504
 20
-124.5315890530685
 30
0.0
 10
92.28170570609625
 20
-124.4930039836337
 30
0.0
 10
92.07465546743273
 20
-124.3841389662998
 30
0.0
 10
92.02263452560545
 20
-124.1612412884041
 30
0.0
 10
91.99231768533525
 20
-124.0272270740279
 30
0.0
 10
92.02642413063923
 20
-123.9335204768291
 30
0.0
 10
92.05467391361827
 20
-123.8535942615713
 30
0.0
 10
92.05467391361827
 20
-123.8535942615713
 30
0.0
 10
92.27171492918902
 20
-123.9438557632849
 30
0.0
 10
92.27171492918902
 20
-123.9438557632849
 30
0.0
 10
92.2451876939526
 20
-124.0131021825384
 30
0.0
 10
92.16629500734038
 20
-124.23462182224
 30
0.0
 10
92.44603676074266
 20
-124.3503770305444
 30
0.0
 10
92.58177352286151
 20
-124.4065320869539
 30
0.0
 10
92.75850692125482
 20
-124.4041205201142
 30
0.0
 10
92.84601234658017
 20
-124.193280676417
 30
0.0
 10
92.89045407833989
 20
-124.0857936972772
 30
0.0
 10
92.87150605317102
 20
-124.0251600167368
 30
0.0
 10
92.85255802800214
 20
-123.9827853422682
 30
0.0
 10
92.80777178669389
 20
-123.8839111018415
 30
0.0
 10
92.69787324071443
 20
-123.8249999690438
 30
0.0
 10
92.64344073204748
 20
-123.8026068483896
 30
0.0
 10
92.6244927068786
 20
-123.7946831287736
 30
0.0
 10
92.588663713832
 20
-123.7819362754781
 30
0.0
 10
92.55938040220738
 20
-123.7743570654106
 30
0.0
 10
92.55938040220738
 20
-123.7743570654106
 30
0.0
 10
92.63379446468878
 20
-123.5945230810805
 30
0.0
 10
92.63379446468878
 20
-123.5945230810805
 30
0.0
 10
92.66893443863833
 20
-123.6158826730891
 30
0.0
 10
92.71027558446133
 20
-123.6351752078065
 30
0.0
 10
92.71647675633477
 20
-123.6379312841947
 30
0.0
 10
92.78124455145748
 20
-123.6648030289796
 30
0.0
 10
92.98553871373278
 20
-123.7268147477141
 30
0.0
 10
93.07614472499486
 20
-123.5077066748522
 30
0.0
 10
93.1443576156028
 20
-123.3437201297544
 30
0.0
 10
93.03583710781743
 20
-123.2389892270028
 30
0.0
 10
92.92731660003206
 20
-123.1942029856945
 30
0.0
 10
92.66617836225012
 20
-123.0856824779091
 30
0.0
 10
92.56902666956609
 20
-123.297555850252
 30
0.0
 10
92.53733179110178
 20
-123.3623236453747
 30
0.0
 10
92.53733179110178
 20
-123.3623236453747
 30
0.0
 10
92.33682723386025
 20
-123.2789523346317
 30
0.0
 10
92.33682723386025
 20
-123.2789523346317
 30
0.0
 10
92.39263778072129
 20
-123.1673312409096
 30
0.0
 10
92.56351451678968
 20
-122.8304009024521
 30
0.0
 10
93.0148220253574
 20
-123.0174695873012
 30
0.0
 10
93.2366861746075
 20
-123.1091091272088
 30
0.0
 10
93.42616642629623
 20
-123.325116614134
 30
0.0
 10
93.31282278483152
 20
-123.5986571956628
 30
0.0
 10
93.24150930828685
 20
-123.7709119699253
 30
0.0
 10
93.11576332307523
 20
-123.808119001166
 30
0.0
 10
92.9941514524459
 20
-123.8239664403982
 30
0.0
 10
93.04410533698203
 20
-123.8742648344828
 30
0.0
 10
93.19327797149334
 20
-124.0230929594456
 30
0.0
 10
93.08716903054766
 20
-124.2794080635482
 30
0.0
 10
92.95763344030226
 20
-124.5922227336089
 30
0.0
 10
92.64895288482387
 20
-124.6452772040817
 30
0.0
 10
92.37541230329504
 20
-124.5315890530685
 30
0.0
  0
HATCH
  5
86
330
7F
100
AcDbEntity
  8
_U+30EC_U+30A4_U+30E4_U+30FC 1
 62
     7
420
 16777215
100
AcDbHatch
 10
0.0
 20
0.0
 30
0.0
210
0.0
220
0.0
230
1.0
  2
SOLID
 70
     1
 71
     0
 91
        1
 92
        1
 93
        1
 72
     4
 94
        3
 73
     0
 74
     1
 95
       62
 96
       58
 40
0.0
 40
0.0
 40
0.0
 40
0.0
 40
1.0
 40
1.0
 40
1.0
 40
2.0
 40
2.0
 40
2.0
 40
3.0
 40
3.0
 40
3.0
 40
4.0
 40
4.0
 40
4.0
 40
5.0
 40
5.0
 40
5.0
 40
6.0
 40
6.0
 40
6.0
 40
7.0
 40
7.0
 40
7.0
 40
8.0
 40
8.0
 40
8.0
 40
9.0
 40
9.0
 40
9.0
 40
10.0
 40
10.0
 40
10.0
 40
11.0
 40
11.0
 40
11.0
 40
12.0
 40
12.0
 40
12.0
 40
13.0
 40
13.0
 40
13.0
 40
14.0
 40
14.0
 40
14.0
 40
15.0
 40
15.0
 40
15.0
 40
16.0
 40
16.0
 40
16.0
 40
17.0
 40
17.0
 40
17.0
 40
18.0
 40
18.0
 40
18.0
 40
19.0
 40
19.0
 40
19.0
 40
19.0
 10
92.37541230329504
 20
-124.5315890530685
 10
92.28170570609625
 20
-124.4930039836337
 10
92.07465546743273
 20
-124.3841389662998
 10
92.02263452560545
 20
-124.1612412884041
 10
91.99231768533525
 20
-124.0272270740279
 10
92.02642413063923
 20
-123.9335204768291
 10
92.05467391361827
 20
-123.8535942615713
 10
92.05467391361827
 20
-123.8535942615713
 10
92.27171492918902
 20
-123.9438557632849
 10
92.27171492918902
 20
-123.9438557632849
 10
92.2451876939526
 20
-124.0131021825384
 10
92.16629500734038
 20
-124.23462182224
 10
92.44603676074266
 20
-124.3503770305444
 10
92.58177352286151
 20
-124.4065320869539
 10
92.75850692125482
 20
-124.4041205201142
 10
92.84601234658017
 20
-124.193280676417
 10
92.89045407833989
 20
-124.0857936972772
 10
92.87150605317102
 20
-124.0251600167368
 10
92.85255802800214
 20
-123.9827853422682
 10
92.80777178669389
 20
-123.8839111018415
 10
92.69787324071443
 20
-123.8249999690438
 10
92.64344073204748
 20
-123.8026068483896
 10
92.6244927068786
 20
-123.7946831287736
 10
92.588663713832
 20
-123.7819362754781
 10
92.55938040220738
 20
-123.7743570654106
 10
92.55938040220738
 20
-123.7743570654106
 10
92.63379446468878
 20
-123.5945230810805
 10
92.63379446468878
 20
-123.5945230810805
 10
92.66893443863833
 20
-123.6158826730891
 10
92.71027558446133
 20
-123.6351752078065
 10
92.71647675633477
 20
-123.6379312841947
 10
92.78124455145748
 20
-123.6648030289796
 10
92.98553871373278
 20
-123.7268147477141
 10
93.07614472499486
 20
-123.5077066748522
 10
93.1443576156028
 20
-123.3437201297544
 10
93.03583710781743
 20
-123.2389892270028
 10
92.92731660003206
 20
-123.1942029856945
 10
92.66617836225012
 20
-123.0856824779091
 10
92.56902666956609
 20
-123.297555850252
 10
92.53733179110178
 20
-123.3623236453747
 10
92.53733179110178
 20
-123.3623236453747
 10
92.33682723386025
 20
-123.2789523346317
 10
92.33682723386025
 20
-123.2789523346317
 10
92.39263778072129
 20
-123.1673312409096
 10
92.56351451678968
 20
-122.8304009024521
 10
93.0148220253574
 20
-123.0174695873012
 10
93.2366861746075
 20
-123.1091091272088
 10
93.42616642629623
 20
-123.325116614134
 10
93.31282278483152
 20
-123.5986571956628
 10
93.24150930828685
 20
-123.7709119699253
 10
93.11576332307523
 20
-123.808119001166
 10
92.9941514524459
 20
-123.8239664403982
 10
93.04410533698203
 20
-123.8742648344828
 10
93.19327797149334
 20
-124.0230929594456
 10
93.08716903054766
 20
-124.2794080635482
 10
92.95763344030226
 20
-124.5922227336089
 10
92.64895288482387
 20
-124.6452772040817
 10
92.37541230329504
 20
-124.5315890530685
 97
        0
 97
        0
 75
     2
 76
     1
 98
        0
  0
SPLINE
  5
87
330
7F
100
AcDbEntity
  8
_U+30EC_U+30A4_U+30E4_U+30FC 1
370
     0
100
AcDbSpline
210
0.0
220
0.0
230
1.0
 70
    11
 71
     3
 72
    53
 73
    49
 74
     0
 42
0.0000000001
 43
0.0000000001
 12
1.0
 22
0.0
 32
0.0
 13
1.0
 23
0.0
 33
0.0
 40
0.0
 40
0.0
 40
0.0
 40
0.0
 40
1.0
 40
1.0
 40
1.0
 40
2.0
 40
2.0
 40
2.0
 40
3.0
 40
3.0
 40
3.0
 40
4.0
 40
4.0
 40
4.0
 40
5.0
 40
5.0
 40
5.0
 40
6.0
 40
6.0
 40
6.0
 40
7.0
 40
7.0
 40
7.0
 40
8.0
 40
8.0
 40
8.0
 40
9.0
 40
9.0
 40
9.0
 40
10.0
 40
10.0
 40
10.0
 40
11.0
 40
11.0
 40
11.0
 40
12.0
 40
12.0
 40
12.0
 40
13.0
 40
13.0
 40
13.0
 40
14.0
 40
14.0
 40
14.0
 40
15.0
 40
15.0
 40
15.0
 40
16.0
 40
16.0
 40
16.0
 40
16.0
 10
93.52745223356258
 20
-125.0087347777756
 30
0.0
 10
93.44959307559594
 20
-124.9766953897628
 30
0.0
 10
93.35623098794566
 20
-124.9195068047076
 30
0.0
 10
93.28009437772165
 20
-124.8195990356354
 30
0.0
 10
93.15090329702478
 20
-124.6466552422758
 30
0.0
 10
93.18053111819793
 20
-124.5171196520304
 30
0.0
 10
93.20292423885205
 20
-124.4096326728907
 30
0.0
 10
93.20292423885205
 20
-124.4096326728907
 30
0.0
 10
93.42203231171393
 20
-124.5005831937012
 30
0.0
 10
93.42203231171393
 20
-124.5005831937012
 30
0.0
 10
93.40032821015687
 20
-124.7065999037192
 30
0.0
 10
93.51436087071863
 20
-124.7858370998799
 30
0.0
 10
93.6063449201748
 20
-124.8237331502177
 30
0.0
 10
93.7441487395848
 20
-124.8809217352728
 30
0.0
 10
93.93259546262797
 20
-124.8516384236482
 30
0.0
 10
94.02182343569594
 20
-124.6363199558201
 30
0.0
 10
94.11966414747704
 20
-124.3999864055319
 30
0.0
 10
93.96911347477162
 20
-124.262182586122
 30
0.0
 10
93.84991317098196
 20
-124.2125732111344
 30
0.0
 10
93.81821829251767
 20
-124.1994818482904
 30
0.0
 10
93.67834741581653
 20
-124.1416042441382
 30
0.0
 10
93.54123261550359
 20
-124.2242865357842
 30
0.0
 10
93.54123261550359
 20
-124.2242865357842
 30
0.0
 10
93.37517901311455
 20
-124.1350585627162
 30
0.0
 10
93.37517901311455
 20
-124.1350585627162
 30
0.0
 10
93.37517901311455
 20
-124.1350585627162
 30
0.0
 10
93.81787378296914
 20
-123.4029757721006
 30
0.0
 10
93.81787378296914
 20
-123.4029757721006
 30
0.0
 10
93.81787378296914
 20
-123.4029757721006
 30
0.0
 10
94.58647458572838
 20
-123.7213025949377
 30
0.0
 10
94.58647458572838
 20
-123.7213025949377
 30
0.0
 10
94.58647458572838
 20
-123.7213025949377
 30
0.0
 10
94.51206052324699
 20
-123.9011365792678
 30
0.0
 10
94.51206052324699
 20
-123.9011365792678
 30
0.0
 10
94.51206052324699
 20
-123.9011365792678
 30
0.0
 10
93.90434567964891
 20
-123.649300099296
 30
0.0
 10
93.90434567964891
 20
-123.649300099296
 30
0.0
 10
93.90434567964891
 20
-123.649300099296
 30
0.0
 10
93.67765839671948
 20
-124.0134466920869
 30
0.0
 10
93.67765839671948
 20
-124.0134466920869
 30
0.0
 10
93.75138344010382
 20
-124.0069010106649
 30
0.0
 10
93.84784611369082
 20
-124.0034559151797
 30
0.0
 10
93.96497936018932
 20
-124.0520317615217
 30
0.0
 10
94.2157823115155
 20
-124.1557291356277
 30
0.0
 10
94.37839081841929
 20
-124.4247910930257
 30
0.0
 10
94.2585014955326
 20
-124.7138346042382
 30
0.0
 10
94.13688962490328
 20
-125.007012230033
 30
0.0
 10
93.82579750258522
 20
-125.1324137056961
 30
0.0
 10
93.52745223356258
 20
-125.0087347777756
 30
0.0
  0
HATCH
  5
88
330
7F
100
AcDbEntity
  8
_U+30EC_U+30A4_U+30E4_U+30FC 1
 62
     7
420
 16777215
100
AcDbHatch
 10
0.0
 20
0.0
 30
0.0
210
0.0
220
0.0
230
1.0
  2
SOLID
 70
     1
 71
     0
 91
        1
 92
        1
 93
        1
 72
     4
 94
        3
 73
     0
 74
     1
 95
       53
 96
       49
 40
0.0
 40
0.0
 40
0.0
 40
0.0
 40
1.0
 40
1.0
 40
1.0
 40
2.0
 40
2.0
 40
2.0
 40
3.0
 40
3.0
 40
3.0
 40
4.0
 40
4.0
 40
4.0
 40
5.0
 40
5.0
 40
5.0
 40
6.0
 40
6.0
 40
6.0
 40
7.0
 40
7.0
 40
7.0
 40
8.0
 40
8.0
 40
8.0
 40
9.0
 40
9.0
 40
9.0
 40
10.0
 40
10.0
 40
10.0
 40
11.0
 40
11.0
 40
11.0
 40
12.0
 40
12.0
 40
12.0
 40
13.0
 40
13.0
 40
13.0
 40
14.0
 40
14.0
 40
14.0
 40
15.0
 40
15.0
 40
15.0
 40
16.0
 40
16.0
 40
16.0
 40
16.0
 10
93.52745223356258
 20
-125.0087347777756
 10
93.44959307559594
 20
-124.9766953897628
 10
93.35623098794566
 20
-124.9195068047076
 10
93.28009437772165
 20
-124.8195990356354
 10
93.15090329702478
 20
-124.6466552422758
 10
93.18053111819793
 20
-124.5171196520304
 10
93.20292423885205
 20
-124.4096326728907
 10
93.20292423885205
 20
-124.4096326728907
 10
93.42203231171393
 20
-124.5005831937012
 10
93.42203231171393
 20
-124.5005831937012
 10
93.40032821015687
 20
-124.7065999037192
 10
93.51436087071863
 20
-124.7858370998799
 10
93.6063449201748
 20
-124.8237331502177
 10
93.7441487395848
 20
-124.8809217352728
 10
93.93259546262797
 20
-124.8516384236482
 10
94.02182343569594
 20
-124.6363199558201
 10
94.11966414747704
 20
-124.3999864055319
 10
93.96911347477162
 20
-124.262182586122
 10
93.84991317098196
 20
-124.2125732111344
 10
93.81821829251767
 20
-124.1994818482904
 10
93.67834741581653
 20
-124.1416042441382
 10
93.54123261550359
 20
-124.2242865357842
 10
93.54123261550359
 20
-124.2242865357842
 10
93.37517901311455
 20
-124.1350585627162
 10
93.37517901311455
 20
-124.1350585627162
 10
93.37517901311455
 20
-124.1350585627162
 10
93.81787378296914
 20
-123.4029757721006
 10
93.81787378296914
 20
-123.4029757721006
 10
93.81787378296914
 20
-123.4029757721006
 10
94.58647458572838
 20
-123.7213025949377
 10
94.58647458572838
 20
-123.7213025949377
 10
94.58647458572838
 20
-123.7213025949377
 10
94.51206052324699
 20
-123.9011365792678
 10
94.51206052324699
 20
-123.9011365792678
 10
94.51206052324699
 20
-123.9011365792678
 10
93.90434567964891
 20
-123.649300099296
 10
93.90434567964891
 20
-123.649300099296
 10
93.90434567964891
 20
-123.649300099296
 10
93.67765839671948
 20
-124.0134466920869
 10
93.67765839671948
 20
-124.0134466920869
 10
93.75138344010382
 20
-124.0069010106649
 10
93.84784611369082
 20
-124.0034559151797
 10
93.96497936018932
 20
-124.0520317615217
 10
94.2157823115155
 20
-124.1557291356277
 10
94.37839081841929
 20
-124.4247910930257
 10
94.2585014955326
 20
-124.7138346042382
 10
94.13688962490328
 20
-125.007012230033
 10
93.82579750258522
 20
-125.1324137056961
 10
93.52745223356258
 20
-125.0087347777756
 97
        0
 97
        0
 75
     2
 76
     1
 98
        0
  0
SPLINE
  5
89
330
7F
100
AcDbEntity
  8
_U+30EC_U+30A4_U+30E4_U+30FC 1
370
     0
100
AcDbSpline
210
0.0
220
0.0
230
1.0
 70
    11
 71
     3
 72
    17
 73
    13
 74
     0
 42
0.0000000001
 43
0.0000000001
 12
1.0
 22
0.0
 32
0.0
 13
1.0
 23
0.0
 33
0.0
 40
0.0
 40
0.0
 40
0.0
 40
0.0
 40
1.0
 40
1.0
 40
1.0
 40
2.0
 40
2.0
 40
2.0
 40
3.0
 40
3.0
 40
3.0
 40
4.0
 40
4.0
 40
4.0
 40
4.0
 10
95.34577363067746
 20
-124.3124809802066
 30
0.0
 10
95.28272838329738
 20
-124.4647542006547
 30
0.0
 10
95.09807126528798
 20
-124.539168263136
 30
0.0
 10
94.9285725674137
 20
-124.4692328247855
 30
0.0
 10
94.76148543637908
 20
-124.3999864055319
 30
0.0
 10
94.68018118292719
 20
-124.2177408543622
 30
0.0
 10
94.74425995895282
 20
-124.063400576623
 30
0.0
 10
94.80833873497848
 20
-123.9087157893353
 30
0.0
 10
94.99437389118197
 20
-123.8370578032421
 30
0.0
 10
95.16180553176511
 20
-123.9063042224956
 30
0.0
 10
95.3313042296394
 20
-123.9762396608462
 30
0.0
 10
95.40881887805752
 20
-124.15986325021
 30
0.0
 10
95.34577363067746
 20
-124.3124809802066
 30
0.0
  0
SPLINE
  5
8A
330
7F
100
AcDbEntity
  8
_U+30EC_U+30A4_U+30E4_U+30FC 1
370
     0
100
AcDbSpline
210
0.0
220
0.0
230
1.0
 70
    11
 71
     3
 72
    17
 73
    13
 74
     0
 42
0.0000000001
 43
0.0000000001
 12
1.0
 22
0.0
 32
0.0
 13
1.0
 23
0.0
 33
0.0
 40
0.0
 40
0.0
 40
0.0
 40
0.0
 40
1.0
 40
1.0
 40
1.0
 40
2.0
 40
2.0
 40
2.0
 40
3.0
 40
3.0
 40
3.0
 40
4.0
 40
4.0
 40
4.0
 40
4.0
 10
94.86759437732478
 20
-124.1143879898047
 30
0.0
 10
94.82969832698703
 20
-124.2063720392609
 30
0.0
 10
94.87827417332905
 20
-124.3135145088522
 30
0.0
 10
94.97611488511014
 20
-124.3538221260296
 30
0.0
 10
95.07430010643976
 20
-124.3944742527556
 30
0.0
 10
95.18488767151628
 20
-124.3531331069326
 30
0.0
 10
95.22278372185403
 20
-124.2614935670249
 30
0.0
 10
95.2610242817403
 20
-124.1695095175687
 30
0.0
 10
95.2141709831409
 20
-124.0630560670745
 30
0.0
 10
95.11391870452013
 20
-124.0217149212515
 30
0.0
 10
95.01366642589936
 20
-123.9803737754285
 30
0.0
 10
94.90583493721104
 20
-124.0224039403486
 30
0.0
 10
94.86759437732478
 20
-124.1143879898047
 30
0.0
  0
HATCH
  5
8B
330
7F
100
AcDbEntity
  8
_U+30EC_U+30A4_U+30E4_U+30FC 1
 62
     7
420
 16777215
100
AcDbHatch
 10
0.0
 20
0.0
 30
0.0
210
0.0
220
0.0
230
1.0
  2
SOLID
 70
     1
 71
     0
 91
        2
 92
        1
 93
        1
 72
     4
 94
        3
 73
     0
 74
     1
 95
       17
 96
       13
 40
0.0
 40
0.0
 40
0.0
 40
0.0
 40
1.0
 40
1.0
 40
1.0
 40
2.0
 40
2.0
 40
2.0
 40
3.0
 40
3.0
 40
3.0
 40
4.0
 40
4.0
 40
4.0
 40
4.0
 10
95.34577363067746
 20
-124.3124809802066
 10
95.28272838329738
 20
-124.4647542006547
 10
95.09807126528798
 20
-124.539168263136
 10
94.9285725674137
 20
-124.4692328247855
 10
94.76148543637908
 20
-124.3999864055319
 10
94.68018118292719
 20
-124.2177408543622
 10
94.74425995895282
 20
-124.063400576623
 10
94.80833873497848
 20
-123.9087157893353
 10
94.99437389118197
 20
-123.8370578032421
 10
95.16180553176511
 20
-123.9063042224956
 10
95.3313042296394
 20
-123.9762396608462
 10
95.40881887805752
 20
-124.15986325021
 10
95.34577363067746
 20
-124.3124809802066
 97
        0
 97
        0
 92
        1
 93
        1
 72
     4
 94
        3
 73
     0
 74
     1
 95
       17
 96
       13
 40
0.0
 40
0.0
 40
0.0
 40
0.0
 40
1.0
 40
1.0
 40
1.0
 40
2.0
 40
2.0
 40
2.0
 40
3.0
 40
3.0
 40
3.0
 40
4.0
 40
4.0
 40
4.0
 40
4.0
 10
94.86759437732478
 20
-124.1143879898047
 10
94.82969832698703
 20
-124.2063720392609
 10
94.87827417332905
 20
-124.3135145088522
 10
94.97611488511014
 20
-124.3538221260296
 10
95.07430010643976
 20
-124.3944742527556
 10
95.18488767151628
 20
-124.3531331069326
 10
95.22278372185403
 20
-124.2614935670249
 10
95.2610242817403
 20
-124.1695095175687
 10
95.2141709831409
 20
-124.0630560670745
 10
95.11391870452013
 20
-124.0217149212515
 10
95.01366642589936
 20
-123.9803737754285
 10
94.90583493721104
 20
-124.0224039403486
 10
94.86759437732478
 20
-124.1143879898047
 97
        0
 97
        0
 75
     2
 76
     1
 98
        0
  0
ENDBLK
  5
82
330
7F
100
AcDbEntity
  8
0
100
AcDbBlockEnd
  0
BLOCK
  5
9C
330
9A
100
AcDbEntity
  8
0
100
AcDbBlockBegin
  2
block 5
 70
     0
 10
0.0
 20
0.0
 30
0.0
  3
block 5
  1

  0
SPLINE
  5
9E
330
9A
100
AcDbEntity
  8
_U+30EC_U+30A4_U+30E4_U+30FC 1
370
     0
100
AcDbSpline
210
0.0
220
0.0
230
1.0
 70
    11
 71
     3
 72
    29
 73
    25
 74
     0
 42
0.0000000001
 43
0.0000000001
 12
1.0
 22
0.0
 32
0.0
 13
1.0
 23
0.0
 33
0.0
 40
0.0
 40
0.0
 40
0.0
 40
0.0
 40
1.0
 40
1.0
 40
1.0
 40
2.0
 40
2.0
 40
2.0
 40
3.0
 40
3.0
 40
3.0
 40
4.0
 40
4.0
 40
4.0
 40
5.0
 40
5.0
 40
5.0
 40
6.0
 40
6.0
 40
6.0
 40
7.0
 40
7.0
 40
7.0
 40
8.0
 40
8.0
 40
8.0
 40
8.0
 10
94.84210067073393
 20
-118.9102267497863
 30
0.0
 10
94.55753578365228
 20
-118.9102267497863
 30
0.0
 10
94.2860622594146
 20
-118.7727674399249
 30
0.0
 10
94.2860622594146
 20
-118.4237792672691
 30
0.0
 10
94.2860622594146
 20
-118.167808672715
 30
0.0
 10
94.43764646076559
 20
-118.0727240373221
 30
0.0
 10
94.55064559268179
 20
-118.0114013376847
 30
0.0
 10
94.41732039740262
 20
-117.9521456953384
 30
0.0
 10
94.3356716344022
 20
-117.8377685252281
 30
0.0
 10
94.3356716344022
 20
-117.6768825660669
 30
0.0
 10
94.3356716344022
 20
-117.401963946344
 30
0.0
 10
94.5482340258421
 20
-117.2665716937736
 30
0.0
 10
94.84210067073393
 20
-117.2665716937736
 30
0.0
 10
95.14526907343591
 20
-117.2665716937736
 30
0.0
 10
95.34852970706565
 20
-117.4105766850571
 30
0.0
 10
95.34852970706565
 20
-117.6768825660669
 30
0.0
 10
95.34852970706565
 20
-117.8377685252281
 30
0.0
 10
95.2651583963226
 20
-117.9521456953384
 30
0.0
 10
95.13148869149491
 20
-118.0114013376847
 30
0.0
 10
95.2265733268878
 20
-118.0620442413178
 30
0.0
 10
95.39607202476209
 20
-118.1571288767107
 30
0.0
 10
95.39607202476209
 20
-118.4196451526868
 30
0.0
 10
95.39607202476209
 20
-118.7941270319334
 30
0.0
 10
95.09772675573946
 20
-118.9102267497863
 30
0.0
 10
94.84210067073393
 20
-118.9102267497863
 30
0.0
  0
SPLINE
  5
9F
330
9A
100
AcDbEntity
  8
_U+30EC_U+30A4_U+30E4_U+30FC 1
370
     0
100
AcDbSpline
210
0.0
220
0.0
230
1.0
 70
    11
 71
     3
 72
    17
 73
    13
 74
     0
 42
0.0000000001
 43
0.0000000001
 12
1.0
 22
0.0
 32
0.0
 13
1.0
 23
0.0
 33
0.0
 40
0.0
 40
0.0
 40
0.0
 40
0.0
 40
1.0
 40
1.0
 40
1.0
 40
2.0
 40
2.0
 40
2.0
 40
3.0
 40
3.0
 40
3.0
 40
4.0
 40
4.0
 40
4.0
 40
4.0
 10
94.84210067073393
 20
-118.119232826373
 30
0.0
 10
94.68844941209179
 20
-118.119232826373
 30
0.0
 10
94.52584090518799
 20
-118.2060492326013
 30
0.0
 10
94.52584090518799
 20
-118.4089653566825
 30
0.0
 10
94.52584090518799
 20
-118.6142930476034
 30
0.0
 10
94.6612331577583
 20
-118.7155788548697
 30
0.0
 10
94.84210067073393
 20
-118.7155788548697
 30
0.0
 10
95.04122718978137
 20
-118.7155788548697
 30
0.0
 10
95.15870494582839
 20
-118.5929334555948
 30
0.0
 10
95.15870494582839
 20
-118.4151665285559
 30
0.0
 10
95.15870494582839
 20
-118.1933023793058
 30
0.0
 10
94.98472762382326
 20
-118.119232826373
 30
0.0
 10
94.84210067073393
 20
-118.119232826373
 30
0.0
  0
SPLINE
  5
A0
330
9A
100
AcDbEntity
  8
_U+30EC_U+30A4_U+30E4_U+30FC 1
370
     0
100
AcDbSpline
210
0.0
220
0.0
230
1.0
 70
    11
 71
     3
 72
    17
 73
    13
 74
     0
 42
0.0000000001
 43
0.0000000001
 12
1.0
 22
0.0
 32
0.0
 13
1.0
 23
0.0
 33
0.0
 40
0.0
 40
0.0
 40
0.0
 40
0.0
 40
1.0
 40
1.0
 40
1.0
 40
2.0
 40
2.0
 40
2.0
 40
3.0
 40
3.0
 40
3.0
 40
4.0
 40
4.0
 40
4.0
 40
4.0
 10
94.84210067073393
 20
-117.4591525313991
 30
0.0
 10
94.66571178188913
 20
-117.4591525313991
 30
0.0
 10
94.57545028017559
 20
-117.554237166792
 30
0.0
 10
94.57545028017559
 20
-117.6896294193623
 30
0.0
 10
94.57545028017559
 20
-117.8122748186372
 30
0.0
 10
94.65227590949665
 20
-117.9307861033298
 30
0.0
 10
94.84210067073393
 20
-117.9307861033298
 30
0.0
 10
95.03226994151971
 20
-117.9307861033298
 30
0.0
 10
95.10909557084078
 20
-117.8122748186372
 30
0.0
 10
95.10909557084078
 20
-117.6896294193623
 30
0.0
 10
95.10909557084078
 20
-117.554237166792
 30
0.0
 10
95.01642250228757
 20
-117.4591525313991
 30
0.0
 10
94.84210067073393
 20
-117.4591525313991
 30
0.0
  0
HATCH
  5
A1
330
9A
100
AcDbEntity
  8
_U+30EC_U+30A4_U+30E4_U+30FC 1
 62
     7
420
 16777215
100
AcDbHatch
 10
0.0
 20
0.0
 30
0.0
210
0.0
220
0.0
230
1.0
  2
SOLID
 70
     1
 71
     0
 91
        3
 92
        1
 93
        1
 72
     4
 94
        3
 73
     0
 74
     1
 95
       29
 96
       25
 40
0.0
 40
0.0
 40
0.0
 40
0.0
 40
1.0
 40
1.0
 40
1.0
 40
2.0
 40
2.0
 40
2.0
 40
3.0
 40
3.0
 40
3.0
 40
4.0
 40
4.0
 40
4.0
 40
5.0
 40
5.0
 40
5.0
 40
6.0
 40
6.0
 40
6.0
 40
7.0
 40
7.0
 40
7.0
 40
8.0
 40
8.0
 40
8.0
 40
8.0
 10
94.84210067073393
 20
-118.9102267497863
 10
94.55753578365228
 20
-118.9102267497863
 10
94.2860622594146
 20
-118.7727674399249
 10
94.2860622594146
 20
-118.4237792672691
 10
94.2860622594146
 20
-118.167808672715
 10
94.43764646076559
 20
-118.0727240373221
 10
94.55064559268179
 20
-118.0114013376847
 10
94.41732039740262
 20
-117.9521456953384
 10
94.3356716344022
 20
-117.8377685252281
 10
94.3356716344022
 20
-117.6768825660669
 10
94.3356716344022
 20
-117.401963946344
 10
94.5482340258421
 20
-117.2665716937736
 10
94.84210067073393
 20
-117.2665716937736
 10
95.14526907343591
 20
-117.2665716937736
 10
95.34852970706565
 20
-117.4105766850571
 10
95.34852970706565
 20
-117.6768825660669
 10
95.34852970706565
 20
-117.8377685252281
 10
95.2651583963226
 20
-117.9521456953384
 10
95.13148869149491
 20
-118.0114013376847
 10
95.2265733268878
 20
-118.0620442413178
 10
95.39607202476209
 20
-118.1571288767107
 10
95.39607202476209
 20
-118.4196451526868
 10
95.39607202476209
 20
-118.7941270319334
 10
95.09772675573946
 20
-118.9102267497863
 10
94.84210067073393
 20
-118.9102267497863
 97
        0
 97
        0
 92
        1
 93
        1
 72
     4
 94
        3
 73
     0
 74
     1
 95
       17
 96
       13
 40
0.0
 40
0.0
 40
0.0
 40
0.0
 40
1.0
 40
1.0
 40
1.0
 40
2.0
 40
2.0
 40
2.0
 40
3.0
 40
3.0
 40
3.0
 40
4.0
 40
4.0
 40
4.0
 40
4.0
 10
94.84210067073393
 20
-118.119232826373
 10
94.68844941209179
 20
-118.119232826373
 10
94.52584090518799
 20
-118.2060492326013
 10
94.52584090518799
 20
-118.4089653566825
 10
94.52584090518799
 20
-118.6142930476034
 10
94.6612331577583
 20
-118.7155788548697
 10
94.84210067073393
 20
-118.7155788548697
 10
95.04122718978137
 20
-118.7155788548697
 10
95.15870494582839
 20
-118.5929334555948
 10
95.15870494582839
 20
-118.4151665285559
 10
95.15870494582839
 20
-118.1933023793058
 10
94.98472762382326
 20
-118.119232826373
 10
94.84210067073393
 20
-118.119232826373
 97
        0
 97
        0
 92
        1
 93
        1
 72
     4
 94
        3
 73
     0
 74
     1
 95
       17
 96
       13
 40
0.0
 40
0.0
 40
0.0
 40
0.0
 40
1.0
 40
1.0
 40
1.0
 40
2.0
 40
2.0
 40
2.0
 40
3.0
 40
3.0
 40
3.0
 40
4.0
 40
4.0
 40
4.0
 40
4.0
 10
94.84210067073393
 20
-117.4591525313991
 10
94.66571178188913
 20
-117.4591525313991
 10
94.57545028017559
 20
-117.554237166792
 10
94.57545028017559
 20
-117.6896294193623
 10
94.57545028017559
 20
-117.8122748186372
 10
94.65227590949665
 20
-117.9307861033298
 10
94.84210067073393
 20
-117.9307861033298
 10
95.03226994151971
 20
-117.9307861033298
 10
95.10909557084078
 20
-117.8122748186372
 10
95.10909557084078
 20
-117.6896294193623
 10
95.10909557084078
 20
-117.554237166792
 10
95.01642250228757
 20
-117.4591525313991
 10
94.84210067073393
 20
-117.4591525313991
 97
        0
 97
        0
 75
     2
 76
     1
 98
        0
  0
ENDBLK
  5
9D
330
9A
100
AcDbEntity
  8
0
100
AcDbBlockEnd
  0
BLOCK
  5
B3
330
B1
100
AcDbEntity
  8
0
100
AcDbBlockBegin
  2
block 6
 70
     0
 10
0.0
 20
0.0
 30
0.0
  3
block 6
  1

  0
SPLINE
  5
B5
330
B1
100
AcDbEntity
  8
_U+30EC_U+30A4_U+30E4_U+30FC 1
370
     0
100
AcDbSpline
210
0.0
220
0.0
230
1.0
 70
    11
 71
     3
 72
    26
 73
    22
 74
     0
 42
0.0000000001
 43
0.0000000001
 12
1.0
 22
0.0
 32
0.0
 13
1.0
 23
0.0
 33
0.0
 40
0.0
 40
0.0
 40
0.0
 40
0.0
 40
1.0
 40
1.0
 40
1.0
 40
2.0
 40
2.0
 40
2.0
 40
3.0
 40
3.0
 40
3.0
 40
4.0
 40
4.0
 40
4.0
 40
5.0
 40
5.0
 40
5.0
 40
6.0
 40
6.0
 40
6.0
 40
7.0
 40
7.0
 40
7.0
 40
7.0
 10
96.05753035793006
 20
-139.0599012239156
 30
0.0
 10
96.05753035793006
 20
-139.0599012239156
 30
0.0
 10
96.05753035793006
 20
-137.955748120893
 30
0.0
 10
96.05753035793006
 20
-137.955748120893
 30
0.0
 10
96.05753035793006
 20
-137.955748120893
 30
0.0
 10
95.705097089789
 20
-137.955748120893
 30
0.0
 10
95.705097089789
 20
-137.955748120893
 30
0.0
 10
95.705097089789
 20
-137.955748120893
 30
0.0
 10
95.705097089789
 20
-137.8076090150273
 30
0.0
 10
95.705097089789
 20
-137.8076090150273
 30
0.0
 10
96.05994192476975
 20
-137.7927951044407
 30
0.0
 10
96.10955129975734
 20
-137.6298420879884
 30
0.0
 10
96.14124617822164
 20
-137.5154649178781
 30
0.0
 10
96.14124617822164
 20
-137.5154649178781
 30
0.0
 10
96.29730900370346
 20
-137.5154649178781
 30
0.0
 10
96.29730900370346
 20
-137.5154649178781
 30
0.0
 10
96.29730900370346
 20
-137.5154649178781
 30
0.0
 10
96.29730900370346
 20
-139.0599012239156
 30
0.0
 10
96.29730900370346
 20
-139.0599012239156
 30
0.0
 10
96.29730900370346
 20
-139.0599012239156
 30
0.0
 10
96.05753035793006
 20
-139.0599012239156
 30
0.0
 10
96.05753035793006
 20
-139.0599012239156
 30
0.0
  0
HATCH
  5
B6
330
B1
100
AcDbEntity
  8
_U+30EC_U+30A4_U+30E4_U+30FC 1
 62
     7
420
 16777215
100
AcDbHatch
 10
0.0
 20
0.0
 30
0.0
210
0.0
220
0.0
230
1.0
  2
SOLID
 70
     1
 71
     0
 91
        1
 92
        1
 93
        1
 72
     4
 94
        3
 73
     0
 74
     1
 95
       26
 96
       22
 40
0.0
 40
0.0
 40
0.0
 40
0.0
 40
1.0
 40
1.0
 40
1.0
 40
2.0
 40
2.0
 40
2.0
 40
3.0
 40
3.0
 40
3.0
 40
4.0
 40
4.0
 40
4.0
 40
5.0
 40
5.0
 40
5.0
 40
6.0
 40
6.0
 40
6.0
 40
7.0
 40
7.0
 40
7.0
 40
7.0
 10
96.05753035793006
 20
-139.0599012239156
 10
96.05753035793006
 20
-139.0599012239156
 10
96.05753035793006
 20
-137.955748120893
 10
96.05753035793006
 20
-137.955748120893
 10
96.05753035793006
 20
-137.955748120893
 10
95.705097089789
 20
-137.955748120893
 10
95.705097089789
 20
-137.955748120893
 10
95.705097089789
 20
-137.955748120893
 10
95.705097089789
 20
-137.8076090150273
 10
95.705097089789
 20
-137.8076090150273
 10
96.05994192476975
 20
-137.7927951044407
 10
96.10955129975734
 20
-137.6298420879884
 10
96.14124617822164
 20
-137.5154649178781
 10
96.14124617822164
 20
-137.5154649178781
 10
96.29730900370346
 20
-137.5154649178781
 10
96.29730900370346
 20
-137.5154649178781
 10
96.29730900370346
 20
-137.5154649178781
 10
96.29730900370346
 20
-139.0599012239156
 10
96.29730900370346
 20
-139.0599012239156
 10
96.29730900370346
 20
-139.0599012239156
 10
96.05753035793006
 20
-139.0599012239156
 10
96.05753035793006
 20
-139.0599012239156
 97
        0
 97
        0
 75
     2
 76
     1
 98
        0
  0
SPLINE
  5
B7
330
B1
100
AcDbEntity
  8
_U+30EC_U+30A4_U+30E4_U+30FC 1
370
     0
100
AcDbSpline
210
0.0
220
0.0
230
1.0
 70
    11
 71
     3
 72
    26
 73
    22
 74
     0
 42
0.0000000001
 43
0.0000000001
 12
1.0
 22
0.0
 32
0.0
 13
1.0
 23
0.0
 33
0.0
 40
0.0
 40
0.0
 40
0.0
 40
0.0
 40
1.0
 40
1.0
 40
1.0
 40
2.0
 40
2.0
 40
2.0
 40
3.0
 40
3.0
 40
3.0
 40
4.0
 40
4.0
 40
4.0
 40
5.0
 40
5.0
 40
5.0
 40
6.0
 40
6.0
 40
6.0
 40
7.0
 40
7.0
 40
7.0
 40
7.0
 10
97.27261553557769
 20
-139.0599012239156
 30
0.0
 10
97.27261553557769
 20
-139.0599012239156
 30
0.0
 10
97.01940101741182
 20
-139.0599012239156
 30
0.0
 10
97.01940101741182
 20
-139.0599012239156
 30
0.0
 10
97.04661727174529
 20
-138.7508761588887
 30
0.0
 10
97.25228947221471
 20
-138.2327337979071
 30
0.0
 10
97.68637150335618
 20
-137.7269937806724
 30
0.0
 10
97.68637150335618
 20
-137.7269937806724
 30
0.0
 10
96.79099118673976
 20
-137.7269937806724
 30
0.0
 10
96.79099118673976
 20
-137.7269937806724
 30
0.0
 10
96.79099118673976
 20
-137.7269937806724
 30
0.0
 10
96.79099118673976
 20
-137.5154649178781
 30
0.0
 10
96.79099118673976
 20
-137.5154649178781
 30
0.0
 10
96.79099118673976
 20
-137.5154649178781
 30
0.0
 10
97.93958602152205
 20
-137.5154649178781
 30
0.0
 10
97.93958602152205
 20
-137.5154649178781
 30
0.0
 10
97.93958602152205
 20
-137.5154649178781
 30
0.0
 10
97.93958602152205
 20
-137.7269937806724
 30
0.0
 10
97.93958602152205
 20
-137.7269937806724
 30
0.0
 10
97.59369843480297
 20
-138.0170708205304
 30
0.0
 10
97.3087890381728
 20
-138.6092827344449
 30
0.0
 10
97.27261553557769
 20
-139.0599012239156
 30
0.0
  0
HATCH
  5
B8
330
B1
100
AcDbEntity
  8
_U+30EC_U+30A4_U+30E4_U+30FC 1
 62
     7
420
 16777215
100
AcDbHatch
 10
0.0
 20
0.0
 30
0.0
210
0.0
220
0.0
230
1.0
  2
SOLID
 70
     1
 71
     0
 91
        1
 92
        1
 93
        1
 72
     4
 94
        3
 73
     0
 74
     1
 95
       26
 96
       22
 40
0.0
 40
0.0
 40
0.0
 40
0.0
 40
1.0
 40
1.0
 40
1.0
 40
2.0
 40
2.0
 40
2.0
 40
3.0
 40
3.0
 40
3.0
 40
4.0
 40
4.0
 40
4.0
 40
5.0
 40
5.0
 40
5.0
 40
6.0
 40
6.0
 40
6.0
 40
7.0
 40
7.0
 40
7.0
 40
7.0
 10
97.27261553557769
 20
-139.0599012239156
 10
97.27261553557769
 20
-139.0599012239156
 10
97.01940101741182
 20
-139.0599012239156
 10
97.01940101741182
 20
-139.0599012239156
 10
97.04661727174529
 20
-138.7508761588887
 10
97.25228947221471
 20
-138.2327337979071
 10
97.68637150335618
 20
-137.7269937806724
 10
97.68637150335618
 20
-137.7269937806724
 10
96.79099118673976
 20
-137.7269937806724
 10
96.79099118673976
 20
-137.7269937806724
 10
96.79099118673976
 20
-137.7269937806724
 10
96.79099118673976
 20
-137.5154649178781
 10
96.79099118673976
 20
-137.5154649178781
 10
96.79099118673976
 20
-137.5154649178781
 10
97.93958602152205
 20
-137.5154649178781
 10
97.93958602152205
 20
-137.5154649178781
 10
97.93958602152205
 20
-137.5154649178781
 10
97.93958602152205
 20
-137.7269937806724
 10
97.93958602152205
 20
-137.7269937806724
 10
97.59369843480297
 20
-138.0170708205304
 10
97.3087890381728
 20
-138.6092827344449
 10
97.27261553557769
 20
-139.0599012239156
 97
        0
 97
        0
 75
     2
 76
     1
 98
        0
  0
ENDBLK
  5
B4
330
B1
100
AcDbEntity
  8
0
100
AcDbBlockEnd
  0
ENDSEC
  0
SECTION
  2
ENTITIES
  0
SPLINE
  5
41
330
1F
100
AcDbEntity
  8
_U+30EC_U+30A4_U+30E4_U+30FC 1
 62
     7
420
 16777215
370
     9
100
AcDbSpline
210
0.0
220
0.0
230
1.0
 70
    11
 71
     3
 72
    17
 73
    13
 74
     0
 42
0.0000000001
 43
0.0000000001
 12
1.0
 22
0.0
 32
0.0
 13
1.0
 23
0.0
 33
0.0
 40
0.0
 40
0.0
 40
0.0
 40
0.0
 40
1.0
 40
1.0
 40
1.0
 40
2.0
 40
2.0
 40
2.0
 40
3.0
 40
3.0
 40
3.0
 40
4.0
 40
4.0
 40
4.0
 40
4.0
 10
102.7775343223711
 20
-128.7283994122624
 30
0.0
 10
102.7775343223711
 20
-128.7835385789155
 30
0.0
 10
102.822301821229
 20
-128.8283060789041
 30
0.0
 10
102.8774409864889
 20
-128.8283060789041
 30
0.0
 10
102.932544873972
 20
-128.8283060789041
 30
0.0
 10
102.9773476506068
 20
-128.7835385789155
 30
0.0
 10
102.9773476506068
 20
-128.7283994122624
 30
0.0
 10
102.9773476506068
 20
-128.6732955233872
 30
0.0
 10
102.932544873972
 20
-128.6284927456208
 30
0.0
 10
102.8774409864889
 20
-128.6284927456208
 30
0.0
 10
102.822301821229
 20
-128.6284927456208
 30
0.0
 10
102.7775343223711
 20
-128.6732955233872
 30
0.0
 10
102.7775343223711
 20
-128.7283994122624
 30
0.0
  0
POLYLINE
  5
42
330
1F
100
AcDbEntity
  8
_U+30EC_U+30A4_U+30E4_U+30FC 1
 62
     7
420
 16777215
370
     9
100
AcDb2dPolyline
 66
     1
 10
0.0
 20
0.0
 30
0.0
  0
VERTEX
  5
43
330
42
100
AcDbEntity
  8
_U+30EC_U+30A4_U+30E4_U+30FC 1
 62
     7
420
 16777215
370
     9
100
AcDbVertex
100
AcDb2dVertex
 10
102.8774409864889
 20
-125.6484730241433
 30
0.0
  0
VERTEX
  5
44
330
42
100
AcDbEntity
  8
_U+30EC_U+30A4_U+30E4_U+30FC 1
 62
     7
420
 16777215
370
     9
100
AcDbVertex
100
AcDb2dVertex
 10
102.8774409864889
 20
-134.2284871886652
 30
0.0
  0
SEQEND
  5
45
330
42
100
AcDbEntity
  8
_U+30EC_U+30A4_U+30E4_U+30FC 1
 62
     7
420
 16777215
370
     9
  0
POLYLINE
  5
46
330
1F
100
AcDbEntity
  8
_U+30EC_U+30A4_U+30E4_U+30FC 1
 62
     7
420
 16777215
370
     9
100
AcDb2dPolyline
 66
     1
 10
0.0
 20
0.0
 30
0.0
  0
VERTEX
  5
47
330
46
100
AcDbEntity
  8
_U+30EC_U+30A4_U+30E4_U+30FC 1
 62
     7
420
 16777215
370
     9
100
AcDbVertex
100
AcDb2dVertex
 10
104.3374823381291
 20
-128.7283994122624
 30
0.0
  0
VERTEX
  5
48
330
46
100
AcDbEntity
  8
_U+30EC_U+30A4_U+30E4_U+30FC 1
 62
     7
420
 16777215
370
     9
100
AcDbVertex
100
AcDb2dVertex
 10
101.877668789773
 20
-128.7283994122624
 30
0.0
  0
SEQEND
  5
49
330
46
100
AcDbEntity
  8
_U+30EC_U+30A4_U+30E4_U+30FC 1
 62
     7
420
 16777215
370
     9
  0
SPLINE
  5
4A
330
1F
100
AcDbEntity
  8
_U+30EC_U+30A4_U+30E4_U+30FC 1
 62
     7
420
 16777215
370
     9
100
AcDbSpline
210
0.0
220
0.0
230
1.0
 70
    11
 71
     3
 72
    17
 73
    13
 74
     0
 42
0.0000000001
 43
0.0000000001
 12
1.0
 22
0.0
 32
0.0
 13
1.0
 23
0.0
 33
0.0
 40
0.0
 40
0.0
 40
0.0
 40
0.0
 40
1.0
 40
1.0
 40
1.0
 40
2.0
 40
2.0
 40
2.0
 40
3.0
 40
3.0
 40
3.0
 40
4.0
 40
4.0
 40
4.0
 40
4.0
 10
102.7775343223711
 20
-129.7285244120121
 30
0.0
 10
102.7775343223711
 20
-129.7836283008876
 30
0.0
 10
102.822301821229
 20
-129.8284310786537
 30
0.0
 10
102.8774409864889
 20
-129.8284310786537
 30
0.0
 10
102.932544873972
 20
-129.8284310786537
 30
0.0
 10
102.9773476506068
 20
-129.7836283008876
 30
0.0
 10
102.9773476506068
 20
-129.7285244120121
 30
0.0
 10
102.9773476506068
 20
-129.6733852453597
 30
0.0
 10
102.932544873972
 20
-129.6286177453705
 30
0.0
 10
102.8774409864889
 20
-129.6286177453705
 30
0.0
 10
102.822301821229
 20
-129.6286177453705
 30
0.0
 10
102.7775343223711
 20
-129.6733852453597
 30
0.0
 10
102.7775343223711
 20
-129.7285244120121
 30
0.0
  0
POLYLINE
  5
4B
330
1F
100
AcDbEntity
  8
_U+30EC_U+30A4_U+30E4_U+30FC 1
 62
     7
420
 16777215
370
     9
100
AcDb2dPolyline
 66
     1
 10
0.0
 20
0.0
 30
0.0
  0
VERTEX
  5
4C
330
4B
100
AcDbEntity
  8
_U+30EC_U+30A4_U+30E4_U+30FC 1
 62
     7
420
 16777215
370
     9
100
AcDbVertex
100
AcDb2dVertex
 10
104.3374823381291
 20
-129.7285244120121
 30
0.0
  0
VERTEX
  5
4D
330
4B
100
AcDbEntity
  8
_U+30EC_U+30A4_U+30E4_U+30FC 1
 62
     7
420
 16777215
370
     9
100
AcDbVertex
100
AcDb2dVertex
 10
101.877668789773
 20
-129.7285244120121
 30
0.0
  0
SEQEND
  5
4E
330
4B
100
AcDbEntity
  8
_U+30EC_U+30A4_U+30E4_U+30FC 1
 62
     7
420
 16777215
370
     9
  0
SPLINE
  5
4F
330
1F
100
AcDbEntity
  8
_U+30EC_U+30A4_U+30E4_U+30FC 1
 62
     7
420
 16777215
370
     9
100
AcDbSpline
210
0.0
220
0.0
230
1.0
 70
    11
 71
     3
 72
    17
 73
    13
 74
     0
 42
0.0000000001
 43
0.0000000001
 12
1.0
 22
0.0
 32
0.0
 13
1.0
 23
0.0
 33
0.0
 40
0.0
 40
0.0
 40
0.0
 40
0.0
 40
1.0
 40
1.0
 40
1.0
 40
2.0
 40
2.0
 40
2.0
 40
3.0
 40
3.0
 40
3.0
 40
4.0
 40
4.0
 40
4.0
 40
4.0
 10
102.7775343223711
 20
-134.2284871886652
 30
0.0
 10
102.7775343223711
 20
-134.2836263553183
 30
0.0
 10
102.822301821229
 20
-134.3283938553068
 30
0.0
 10
102.8774409864889
 20
-134.3283938553068
 30
0.0
 10
102.932544873972
 20
-134.3283938553068
 30
0.0
 10
102.9773476506068
 20
-134.2836263553183
 30
0.0
 10
102.9773476506068
 20
-134.2284871886652
 30
0.0
 10
102.9773476506068
 20
-134.1733832997903
 30
0.0
 10
102.932544873972
 20
-134.1285805220235
 30
0.0
 10
102.8774409864889
 20
-134.1285805220235
 30
0.0
 10
102.822301821229
 20
-134.1285805220235
 30
0.0
 10
102.7775343223711
 20
-134.1733832997903
 30
0.0
 10
102.7775343223711
 20
-134.2284871886652
 30
0.0
  0
POLYLINE
  5
50
330
1F
100
AcDbEntity
  8
_U+30EC_U+30A4_U+30E4_U+30FC 1
 62
     7
420
 16777215
370
     9
100
AcDb2dPolyline
 66
     1
 10
0.0
 20
0.0
 30
0.0
  0
VERTEX
  5
51
330
50
100
AcDbEntity
  8
_U+30EC_U+30A4_U+30E4_U+30FC 1
 62
     7
420
 16777215
370
     9
100
AcDbVertex
100
AcDb2dVertex
 10
104.3374823381291
 20
-134.2284871886652
 30
0.0
  0
VERTEX
  5
52
330
50
100
AcDbEntity
  8
_U+30EC_U+30A4_U+30E4_U+30FC 1
 62
     7
420
 16777215
370
     9
100
AcDbVertex
100
AcDb2dVertex
 10
101.877668789773
 20
-134.2284871886652
 30
0.0
  0
SEQEND
  5
53
330
50
100
AcDbEntity
  8
_U+30EC_U+30A4_U+30E4_U+30FC 1
 62
     7
420
 16777215
370
     9
  0
INSERT
  5
55
330
1F
100
AcDbEntity
  8
_U+30EC_U+30A4_U+30E4_U+30FC 1
100
AcDbBlockReference
  2
block 2
 10
0.0
 20
0.0
 30
0.0
  0
INSERT
  5
78
330
1F
100
AcDbEntity
  8
_U+30EC_U+30A4_U+30E4_U+30FC 1
100
AcDbBlockReference
  2
block 3
 10
0.0
 20
0.0
 30
0.0
  0
SPLINE
  5
7D
330
1F
100
AcDbEntity
  8
_U+30EC_U+30A4_U+30E4_U+30FC 1
 62
     7
420
 16777215
370
     9
100
AcDbSpline
210
0.0
220
0.0
230
1.0
 70
    11
 71
     3
 72
    17
 73
    13
 74
     0
 42
0.0000000001
 43
0.0000000001
 12
1.0
 22
0.0
 32
0.0
 13
1.0
 23
0.0
 33
0.0
 40
0.0
 40
0.0
 40
0.0
 40
0.0
 40
1.0
 40
1.0
 40
1.0
 40
2.0
 40
2.0
 40
2.0
 40
3.0
 40
3.0
 40
3.0
 40
4.0
 40
4.0
 40
4.0
 40
4.0
 10
94.84380924699951
 20
-128.7818099678049
 30
0.0
 10
94.84380924699951
 20
-128.7266708011518
 30
0.0
 10
94.79904174814162
 20
-128.6819033011629
 30
0.0
 10
94.74425536065046
 20
-128.6819033011629
 30
0.0
 10
94.68915147316739
 20
-128.6819033011629
 30
0.0
 10
94.64434869653262
 20
-128.7266708011518
 30
0.0
 10
94.64434869653262
 20
-128.7818099678049
 30
0.0
 10
94.64434869653262
 20
-128.8376194122353
 30
0.0
 10
94.68915147316739
 20
-128.8823869122239
 30
0.0
 10
94.74425536065046
 20
-128.8823869122239
 30
0.0
 10
94.79904174814162
 20
-128.8823869122239
 30
0.0
 10
94.84380924699951
 20
-128.8376194122353
 30
0.0
 10
94.84380924699951
 20
-128.7818099678049
 30
0.0
  0
SPLINE
  5
7E
330
1F
100
AcDbEntity
  8
_U+30EC_U+30A4_U+30E4_U+30FC 1
 62
     7
420
 16777215
370
     9
100
AcDbSpline
210
0.0
220
0.0
230
1.0
 70
     8
 71
     3
 72
    11
 73
     7
 74
     0
 42
0.0000000001
 43
0.0000000001
 12
1.0
 22
0.0
 32
0.0
 13
1.0
 23
0.0
 33
0.0
 40
0.0
 40
0.0
 40
0.0
 40
0.0
 40
1.0
 40
1.0
 40
1.0
 40
2.0
 40
2.0
 40
2.0
 40
2.0
 10
94.74425536065046
 20
-128.7818099678049
 30
0.0
 10
94.74425536065046
 20
-126.5728213572457
 30
0.0
 10
92.95348485078125
 20
-124.782050802138
 30
0.0
 10
90.74400240714985
 20
-124.782050802138
 30
0.0
 10
89.68323493421228
 20
-124.782050802138
 30
0.0
 10
88.66554162684247
 20
-125.2037260798101
 30
0.0
 10
87.91557136819803
 20
-125.9533788574005
 30
0.0
  0
INSERT
  5
80
330
1F
100
AcDbEntity
  8
_U+30EC_U+30A4_U+30E4_U+30FC 1
100
AcDbBlockReference
  2
block 4
 10
0.0
 20
0.0
 30
0.0
  0
SPLINE
  5
8C
330
1F
100
AcDbEntity
  8
_U+30EC_U+30A4_U+30E4_U+30FC 1
 62
     7
420
 16777215
370
     9
100
AcDbSpline
210
0.0
220
0.0
230
1.0
 70
     8
 71
     3
 72
    17
 73
    13
 74
     0
 42
0.0000000001
 43
0.0000000001
 12
1.0
 22
0.0
 32
0.0
 13
1.0
 23
0.0
 33
0.0
 40
0.0
 40
0.0
 40
0.0
 40
0.0
 40
1.0
 40
1.0
 40
1.0
 40
2.0
 40
2.0
 40
2.0
 40
3.0
 40
3.0
 40
3.0
 40
4.0
 40
4.0
 40
4.0
 40
4.0
 10
90.7732829619584
 20
-119.2860905257339
 30
0.0
 10
90.81254712762335
 20
-119.3253546923909
 30
0.0
 10
90.87558851490392
 20
-119.3253546923909
 30
0.0
 10
90.91485268056887
 20
-119.2860905257339
 30
0.0
 10
90.95379934624192
 20
-119.2468263590772
 30
0.0
 10
90.95379934624192
 20
-119.1841024702039
 30
0.0
 10
90.91485268056887
 20
-119.1448383035472
 30
0.0
 10
90.87558851490392
 20
-119.1055741368901
 30
0.0
 10
90.81254712762335
 20
-119.1055741368901
 30
0.0
 10
90.7732829619584
 20
-119.1448383035472
 30
0.0
 10
90.75465629576694
 20
-119.1634296924315
 30
0.0
 10
90.74400240714985
 20
-119.1889355257584
 30
0.0
 10
90.74400240714985
 20
-119.2158171924181
 30
0.0
  0
SPLINE
  5
8D
330
1F
100
AcDbEntity
  8
_U+30EC_U+30A4_U+30E4_U+30FC 1
 62
     7
420
 16777215
370
     9
100
AcDbSpline
210
0.0
220
0.0
230
1.0
 70
    11
 71
     3
 72
    17
 73
    13
 74
     0
 42
0.0000000001
 43
0.0000000001
 12
1.0
 22
0.0
 32
0.0
 13
1.0
 23
0.0
 33
0.0
 40
0.0
 40
0.0
 40
0.0
 40
0.0
 40
1.0
 40
1.0
 40
1.0
 40
2.0
 40
2.0
 40
2.0
 40
3.0
 40
3.0
 40
3.0
 40
4.0
 40
4.0
 40
4.0
 40
4.0
 10
98.7433088697372
 20
-119.2158171924181
 30
0.0
 10
98.7433088697372
 20
-119.2709210812934
 30
0.0
 10
98.78811164637197
 20
-119.3157238590601
 30
0.0
 10
98.84321553385504
 20
-119.3157238590601
 30
0.0
 10
98.89835469911499
 20
-119.3157238590601
 30
0.0
 10
98.94315747574976
 20
-119.2709210812934
 30
0.0
 10
98.94315747574976
 20
-119.2158171924181
 30
0.0
 10
98.94315747574976
 20
-119.1600077479877
 30
0.0
 10
98.89835469911499
 20
-119.1152049702213
 30
0.0
 10
98.84321553385504
 20
-119.1152049702213
 30
0.0
 10
98.78811164637197
 20
-119.1152049702213
 30
0.0
 10
98.7433088697372
 20
-119.1600077479877
 30
0.0
 10
98.7433088697372
 20
-119.2158171924181
 30
0.0
  0
POLYLINE
  5
8E
330
1F
100
AcDbEntity
  8
_U+30EC_U+30A4_U+30E4_U+30FC 1
 62
     7
420
 16777215
370
     9
100
AcDb2dPolyline
 66
     1
 10
0.0
 20
0.0
 30
0.0
  0
VERTEX
  5
8F
330
8E
100
AcDbEntity
  8
_U+30EC_U+30A4_U+30E4_U+30FC 1
 62
     7
420
 16777215
370
     9
100
AcDbVertex
100
AcDb2dVertex
 10
98.84321553385504
 20
-119.2158171924181
 30
0.0
  0
VERTEX
  5
90
330
8E
100
AcDbEntity
  8
_U+30EC_U+30A4_U+30E4_U+30FC 1
 62
     7
420
 16777215
370
     9
100
AcDbVertex
100
AcDb2dVertex
 10
90.84422657125958
 20
-119.2158171924181
 30
0.0
  0
SEQEND
  5
91
330
8E
100
AcDbEntity
  8
_U+30EC_U+30A4_U+30E4_U+30FC 1
 62
     7
420
 16777215
370
     9
  0
POLYLINE
  5
92
330
1F
100
AcDbEntity
  8
_U+30EC_U+30A4_U+30E4_U+30FC 1
 62
     7
420
 16777215
370
     9
100
AcDb2dPolyline
 66
     1
 10
0.0
 20
0.0
 30
0.0
  0
VERTEX
  5
93
330
92
100
AcDbEntity
  8
_U+30EC_U+30A4_U+30E4_U+30FC 1
 62
     7
420
 16777215
370
     9
100
AcDbVertex
100
AcDb2dVertex
 10
98.84321553385504
 20
-127.6042730236547
 30
0.0
  0
VERTEX
  5
94
330
92
100
AcDbEntity
  8
_U+30EC_U+30A4_U+30E4_U+30FC 1
 62
     7
420
 16777215
370
     9
100
AcDbVertex
100
AcDb2dVertex
 10
98.84321553385504
 20
-118.2153394148907
 30
0.0
  0
SEQEND
  5
95
330
92
100
AcDbEntity
  8
_U+30EC_U+30A4_U+30E4_U+30FC 1
 62
     7
420
 16777215
370
     9
  0
POLYLINE
  5
96
330
1F
100
AcDbEntity
  8
_U+30EC_U+30A4_U+30E4_U+30FC 1
 62
     7
420
 16777215
370
     9
100
AcDb2dPolyline
 66
     1
 10
0.0
 20
0.0
 30
0.0
  0
VERTEX
  5
97
330
96
100
AcDbEntity
  8
_U+30EC_U+30A4_U+30E4_U+30FC 1
 62
     7
420
 16777215
370
     9
100
AcDbVertex
100
AcDb2dVertex
 10
90.84422657125958
 20
-120.6758233031643
 30
0.0
  0
VERTEX
  5
98
330
96
100
AcDbEntity
  8
_U+30EC_U+30A4_U+30E4_U+30FC 1
 62
     7
420
 16777215
370
     9
100
AcDbVertex
100
AcDb2dVertex
 10
90.84422657125958
 20
-118.2153394148907
 30
0.0
  0
SEQEND
  5
99
330
96
100
AcDbEntity
  8
_U+30EC_U+30A4_U+30E4_U+30FC 1
 62
     7
420
 16777215
370
     9
  0
INSERT
  5
9B
330
1F
100
AcDbEntity
  8
_U+30EC_U+30A4_U+30E4_U+30FC 1
100
AcDbBlockReference
  2
block 5
 10
0.0
 20
0.0
 30
0.0
  0
SPLINE
  5
A2
330
1F
100
AcDbEntity
  8
_U+30EC_U+30A4_U+30E4_U+30FC 1
 62
     7
420
 16777215
370
     9
100
AcDbSpline
210
0.0
220
0.0
230
1.0
 70
     8
 71
     3
 72
    17
 73
    13
 74
     0
 42
0.0000000001
 43
0.0000000001
 12
1.0
 22
0.0
 32
0.0
 13
1.0
 23
0.0
 33
0.0
 40
0.0
 40
0.0
 40
0.0
 40
0.0
 40
1.0
 40
1.0
 40
1.0
 40
2.0
 40
2.0
 40
2.0
 40
3.0
 40
3.0
 40
3.0
 40
4.0
 40
4.0
 40
4.0
 40
4.0
 10
88.16826608397346
 20
-139.4788082984635
 30
0.0
 10
88.20753024963842
 20
-139.518107742898
 30
0.0
 10
88.27092441468777
 20
-139.518107742898
 30
0.0
 10
88.31018858035273
 20
-139.4788082984635
 30
0.0
 10
88.348782468257
 20
-139.4395441318065
 30
0.0
 10
88.348782468257
 20
-139.3768555207116
 30
0.0
 10
88.31018858035273
 20
-139.3375913540546
 30
0.0
 10
88.27092441468777
 20
-139.29829190962
 30
0.0
 10
88.20753024963842
 20
-139.29829190962
 30
0.0
 10
88.16826608397346
 20
-139.3375913540546
 30
0.0
 10
88.14964164462911
 20
-139.3561827429389
 30
0.0
 10
88.1393383069337
 20
-139.3816885762658
 30
0.0
 10
88.1393383069337
 20
-139.408534965148
 30
0.0
  0
SPLINE
  5
A3
330
1F
100
AcDbEntity
  8
_U+30EC_U+30A4_U+30E4_U+30FC 1
 62
     7
420
 16777215
370
     9
100
AcDbSpline
210
0.0
220
0.0
230
1.0
 70
    11
 71
     3
 72
    17
 73
    13
 74
     0
 42
0.0000000001
 43
0.0000000001
 12
1.0
 22
0.0
 32
0.0
 13
1.0
 23
0.0
 33
0.0
 40
0.0
 40
0.0
 40
0.0
 40
0.0
 40
1.0
 40
1.0
 40
1.0
 40
2.0
 40
2.0
 40
2.0
 40
3.0
 40
3.0
 40
3.0
 40
4.0
 40
4.0
 40
4.0
 40
4.0
 10
105.0395833070734
 20
-139.408534965148
 30
0.0
 10
105.0395833070734
 20
-139.4636741318005
 30
0.0
 10
105.0843860848402
 20
-139.5084416317897
 30
0.0
 10
105.1394873176682
 20
-139.5084416317897
 30
0.0
 10
105.1946264829282
 20
-139.5084416317897
 30
0.0
 10
105.2393939817861
 20
-139.4636741318005
 30
0.0
 10
105.2393939817861
 20
-139.408534965148
 30
0.0
 10
105.2393939817861
 20
-139.3527255207176
 30
0.0
 10
105.1946264829282
 20
-139.3079580207284
 30
0.0
 10
105.1394873176682
 20
-139.3079580207284
 30
0.0
 10
105.0843860848402
 20
-139.3079580207284
 30
0.0
 10
105.0395833070734
 20
-139.3527255207176
 30
0.0
 10
105.0395833070734
 20
-139.408534965148
 30
0.0
  0
POLYLINE
  5
A4
330
1F
100
AcDbEntity
  8
_U+30EC_U+30A4_U+30E4_U+30FC 1
 62
     7
420
 16777215
370
     9
100
AcDb2dPolyline
 66
     1
 10
0.0
 20
0.0
 30
0.0
  0
VERTEX
  5
A5
330
A4
100
AcDbEntity
  8
_U+30EC_U+30A4_U+30E4_U+30FC 1
 62
     7
420
 16777215
370
     9
100
AcDbVertex
100
AcDb2dVertex
 10
105.2393939817861
 20
-139.408534965148
 30
0.0
  0
VERTEX
  5
A6
330
A4
100
AcDbEntity
  8
_U+30EC_U+30A4_U+30E4_U+30FC 1
 62
     7
420
 16777215
370
     9
100
AcDbVertex
100
AcDb2dVertex
 10
88.23924720016255
 20
-139.408534965148
 30
0.0
  0
SEQEND
  5
A7
330
A4
100
AcDbEntity
  8
_U+30EC_U+30A4_U+30E4_U+30FC 1
 62
     7
420
 16777215
370
     9
  0
POLYLINE
  5
A8
330
1F
100
AcDbEntity
  8
_U+30EC_U+30A4_U+30E4_U+30FC 1
 62
     7
420
 16777215
370
     9
100
AcDb2dPolyline
 66
     1
 10
0.0
 20
0.0
 30
0.0
  0
VERTEX
  5
A9
330
A8
100
AcDbEntity
  8
_U+30EC_U+30A4_U+30E4_U+30FC 1
 62
     7
420
 16777215
370
     9
100
AcDbVertex
100
AcDb2dVertex
 10
105.1394873176682
 20
-140.2966882982591
 30
0.0
  0
VERTEX
  5
AA
330
A8
100
AcDbEntity
  8
_U+30EC_U+30A4_U+30E4_U+30FC 1
 62
     7
420
 16777215
370
     9
100
AcDbVertex
100
AcDb2dVertex
 10
105.1394873176682
 20
-138.1597016321266
 30
0.0
  0
SEQEND
  5
AB
330
A8
100
AcDbEntity
  8
_U+30EC_U+30A4_U+30E4_U+30FC 1
 62
     7
420
 16777215
370
     9
  0
POLYLINE
  5
AC
330
1F
100
AcDbEntity
  8
_U+30EC_U+30A4_U+30E4_U+30FC 1
 62
     7
420
 16777215
370
     9
100
AcDb2dPolyline
 66
     1
 10
0.0
 20
0.0
 30
0.0
  0
VERTEX
  5
AD
330
AC
100
AcDbEntity
  8
_U+30EC_U+30A4_U+30E4_U+30FC 1
 62
     7
420
 16777215
370
     9
100
AcDbVertex
100
AcDb2dVertex
 10
88.23924720016255
 20
-140.2966882982591
 30
0.0
  0
VERTEX
  5
AE
330
AC
100
AcDbEntity
  8
_U+30EC_U+30A4_U+30E4_U+30FC 1
 62
     7
420
 16777215
370
     9
100
AcDbVertex
100
AcDb2dVertex
 10
88.23924720016255
 20
-138.1597016321266
 30
0.0
  0
SEQEND
  5
AF
330
AC
100
AcDbEntity
  8
_U+30EC_U+30A4_U+30E4_U+30FC 1
 62
     7
420
 16777215
370
     9
  0
SPLINE
  5
B0
330
1F
100
AcDbEntity
  8
_U+30EC_U+30A4_U+30E4_U+30FC 1
 62
     7
420
 16777215
370
     9
100
AcDbSpline
210
0.0
220
0.0
230
1.0
 70
    11
 71
     3
 72
    17
 73
    13
 74
     0
 42
0.0000000001
 43
0.0000000001
 12
1.0
 22
0.0
 32
0.0
 13
1.0
 23
0.0
 33
0.0
 40
0.0
 40
0.0
 40
0.0
 40
0.0
 40
1.0
 40
1.0
 40
1.0
 40
2.0
 40
2.0
 40
2.0
 40
3.0
 40
3.0
 40
3.0
 40
4.0
 40
4.0
 40
4.0
 40
4.0
 10
88.01583081008464
 20
-125.9533788574005
 30
0.0
 10
88.01583081008464
 20
-125.8982749685256
 30
0.0
 10
87.97102803344987
 20
-125.8534721907589
 30
0.0
 10
87.91557136819803
 20
-125.8534721907589
 30
0.0
 10
87.86043220293807
 20
-125.8534721907589
 30
0.0
 10
87.81566470408019
 20
-125.8982749685256
 30
0.0
 10
87.81566470408019
 20
-125.9533788574005
 30
0.0
 10
87.81566470408019
 20
-126.0091883018309
 30
0.0
 10
87.86043220293807
 20
-126.0539910795977
 30
0.0
 10
87.91557136819803
 20
-126.0539910795977
 30
0.0
 10
87.97102803344987
 20
-126.0539910795977
 30
0.0
 10
88.01583081008464
 20
-126.0091883018309
 30
0.0
 10
88.01583081008464
 20
-125.9533788574005
 30
0.0
  0
INSERT
  5
B2
330
1F
100
AcDbEntity
  8
_U+30EC_U+30A4_U+30E4_U+30FC 1
100
AcDbBlockReference
  2
block 6
 10
0.0
 20
0.0
 30
0.0
  0
SPLINE
  5
B9
330
1F
100
AcDbEntity
  8
_U+30EC_U+30A4_U+30E4_U+30FC 1
 62
     7
420
 16777215
370
    25
100
AcDbSpline
210
0.0
220
0.0
230
1.0
 70
    11
 71
     3
 72
    59
 73
    55
 74
     0
 42
0.0000000001
 43
0.0000000001
 12
1.0
 22
0.0
 32
0.0
 13
1.0
 23
0.0
 33
0.0
 40
0.0
 40
0.0
 40
0.0
 40
0.0
 40
1.0
 40
1.0
 40
1.0
 40
2.0
 40
2.0
 40
2.0
 40
3.0
 40
3.0
 40
3.0
 40
4.0
 40
4.0
 40
4.0
 40
5.0
 40
5.0
 40
5.0
 40
6.0
 40
6.0
 40
6.0
 40
7.0
 40
7.0
 40
7.0
 40
8.0
 40
8.0
 40
8.0
 40
9.0
 40
9.0
 40
9.0
 40
10.0
 40
10.0
 40
10.0
 40
11.0
 40
11.0
 40
11.0
 40
12.0
 40
12.0
 40
12.0
 40
13.0
 40
13.0
 40
13.0
 40
14.0
 40
14.0
 40
14.0
 40
15.0
 40
15.0
 40
15.0
 40
16.0
 40
16.0
 40
16.0
 40
17.0
 40
17.0
 40
17.0
 40
18.0
 40
18.0
 40
18.0
 40
18.0
 10
104.0150081796894
 20
-134.629172188565
 30
0.0
 10
104.0150081796894
 20
-134.629172188565
 30
0.0
 10
97.05798608684663
 20
-134.629172188565
 30
0.0
 10
97.05798608684663
 20
-134.629172188565
 30
0.0
 10
97.05798608684663
 20
-134.629172188565
 30
0.0
 10
96.65765142294676
 20
-134.2281696886649
 30
0.0
 10
96.65765142294676
 20
-134.2281696886649
 30
0.0
 10
96.65765142294676
 20
-134.2281696886649
 30
0.0
 10
89.06587383885136
 20
-134.2281696886649
 30
0.0
 10
89.06587383885136
 20
-134.2281696886649
 30
0.0
 10
89.06587383885136
 20
-134.2281696886649
 30
0.0
 10
90.91280656950997
 20
-129.7281716342343
 30
0.0
 10
90.91280656950997
 20
-129.7281716342343
 30
0.0
 10
90.91280656950997
 20
-129.7281716342343
 30
0.0
 10
98.91281858763487
 20
-129.7295474675679
 30
0.0
 10
98.91281858763487
 20
-129.7295474675679
 30
0.0
 10
98.91281858763487
 20
-129.7295474675679
 30
0.0
 10
97.91304639091896
 20
-128.7283994122624
 30
0.0
 10
97.91304639091896
 20
-128.7283994122624
 30
0.0
 10
97.91304639091896
 20
-128.7283994122624
 30
0.0
 10
90.78326657281481
 20
-128.7291049678176
 30
0.0
 10
90.78326657281481
 20
-128.7291049678176
 30
0.0
 10
90.78326657281481
 20
-128.7291049678176
 30
0.0
 10
85.6945178137507
 20
-123.7116524690722
 30
0.0
 10
85.6945178137507
 20
-123.7116524690722
 30
0.0
 10
85.6945178137507
 20
-123.7116524690722
 30
0.0
 10
84.27994951650602
 20
-123.7213185801809
 30
0.0
 10
84.27994951650602
 20
-123.7213185801809
 30
0.0
 10
84.27994951650602
 20
-123.7213185801809
 30
0.0
 10
89.98778798199804
 20
-129.348512189885
 30
0.0
 10
89.98778798199804
 20
-129.348512189885
 30
0.0
 10
89.98778798199804
 20
-129.348512189885
 30
0.0
 10
88.14053775134755
 20
-133.8485102443156
 30
0.0
 10
88.14053775134755
 20
-133.8485102443156
 30
0.0
 10
88.14053775134755
 20
-133.8485102443156
 30
0.0
 10
82.69297872365969
 20
-128.464168856773
 30
0.0
 10
82.69297872365969
 20
-128.464168856773
 30
0.0
 10
82.69297872365969
 20
-128.464168856773
 30
0.0
 10
82.1736192924652
 20
-128.518955245648
 30
0.0
 10
82.1736192924652
 20
-128.518955245648
 30
0.0
 10
82.1736192924652
 20
-128.518955245648
 30
0.0
 10
77.2219972029167
 20
-123.6303371913146
 30
0.0
 10
77.2219972029167
 20
-123.6303371913146
 30
0.0
 10
76.78963081871109
 20
-123.2038641358658
 30
0.0
 10
76.25048055468818
 20
-123.0495238581266
 30
0.0
 10
76.01757667174115
 20
-123.2851441358453
 30
0.0
 10
76.01757667174115
 20
-123.2851441358453
 30
0.0
 10
88.11503191866493
 20
-135.2286121884148
 30
0.0
 10
88.11503191866493
 20
-135.2286121884148
 30
0.0
 10
88.11503191866493
 20
-135.2286121884148
 30
0.0
 10
105.1153573182838
 20
-135.2286121884148
 30
0.0
 10
105.1153573182838
 20
-135.2286121884148
 30
0.0
 10
105.1153573182838
 20
-134.8978830218308
 30
0.0
 10
104.6220328864251
 20
-134.629172188565
 30
0.0
 10
104.0150081796894
 20
-134.629172188565
 30
0.0
  0
HATCH
  5
BA
330
1F
100
AcDbEntity
  8
_U+30EC_U+30A4_U+30E4_U+30FC 1
 62
   253
420
 11711154
100
AcDbHatch
 10
0.0
 20
0.0
 30
0.0
210
0.0
220
0.0
230
1.0
  2
SOLID
 70
     1
 71
     0
 91
        1
 92
        1
 93
        1
 72
     4
 94
        3
 73
     0
 74
     1
 95
       59
 96
       55
 40
0.0
 40
0.0
 40
0.0
 40
0.0
 40
1.0
 40
1.0
 40
1.0
 40
2.0
 40
2.0
 40
2.0
 40
3.0
 40
3.0
 40
3.0
 40
4.0
 40
4.0
 40
4.0
 40
5.0
 40
5.0
 40
5.0
 40
6.0
 40
6.0
 40
6.0
 40
7.0
 40
7.0
 40
7.0
 40
8.0
 40
8.0
 40
8.0
 40
9.0
 40
9.0
 40
9.0
 40
10.0
 40
10.0
 40
10.0
 40
11.0
 40
11.0
 40
11.0
 40
12.0
 40
12.0
 40
12.0
 40
13.0
 40
13.0
 40
13.0
 40
14.0
 40
14.0
 40
14.0
 40
15.0
 40
15.0
 40
15.0
 40
16.0
 40
16.0
 40
16.0
 40
17.0
 40
17.0
 40
17.0
 40
18.0
 40
18.0
 40
18.0
 40
18.0
 10
104.0150081796894
 20
-134.629172188565
 10
104.0150081796894
 20
-134.629172188565
 10
97.05798608684663
 20
-134.629172188565
 10
97.05798608684663
 20
-134.629172188565
 10
97.05798608684663
 20
-134.629172188565
 10
96.65765142294676
 20
-134.2281696886649
 10
96.65765142294676
 20
-134.2281696886649
 10
96.65765142294676
 20
-134.2281696886649
 10
89.06587383885136
 20
-134.2281696886649
 10
89.06587383885136
 20
-134.2281696886649
 10
89.06587383885136
 20
-134.2281696886649
 10
90.91280656950997
 20
-129.7281716342343
 10
90.91280656950997
 20
-129.7281716342343
 10
90.91280656950997
 20
-129.7281716342343
 10
98.91281858763487
 20
-129.7295474675679
 10
98.91281858763487
 20
-129.7295474675679
 10
98.91281858763487
 20
-129.7295474675679
 10
97.91304639091896
 20
-128.7283994122624
 10
97.91304639091896
 20
-128.7283994122624
 10
97.91304639091896
 20
-128.7283994122624
 10
90.78326657281481
 20
-128.7291049678176
 10
90.78326657281481
 20
-128.7291049678176
 10
90.78326657281481
 20
-128.7291049678176
 10
85.6945178137507
 20
-123.7116524690722
 10
85.6945178137507
 20
-123.7116524690722
 10
85.6945178137507
 20
-123.7116524690722
 10
84.27994951650602
 20
-123.7213185801809
 10
84.27994951650602
 20
-123.7213185801809
 10
84.27994951650602
 20
-123.7213185801809
 10
89.98778798199804
 20
-129.348512189885
 10
89.98778798199804
 20
-129.348512189885
 10
89.98778798199804
 20
-129.348512189885
 10
88.14053775134755
 20
-133.8485102443156
 10
88.14053775134755
 20
-133.8485102443156
 10
88.14053775134755
 20
-133.8485102443156
 10
82.69297872365969
 20
-128.464168856773
 10
82.69297872365969
 20
-128.464168856773
 10
82.69297872365969
 20
-128.464168856773
 10
82.1736192924652
 20
-128.518955245648
 10
82.1736192924652
 20
-128.518955245648
 10
82.1736192924652
 20
-128.518955245648
 10
77.2219972029167
 20
-123.6303371913146
 10
77.2219972029167
 20
-123.6303371913146
 10
76.78963081871109
 20
-123.2038641358658
 10
76.25048055468818
 20
-123.0495238581266
 10
76.01757667174115
 20
-123.2851441358453
 10
76.01757667174115
 20
-123.2851441358453
 10
88.11503191866493
 20
-135.2286121884148
 10
88.11503191866493
 20
-135.2286121884148
 10
88.11503191866493
 20
-135.2286121884148
 10
105.1153573182838
 20
-135.2286121884148
 10
105.1153573182838
 20
-135.2286121884148
 10
105.1153573182838
 20
-134.8978830218308
 10
104.6220328864251
 20
-134.629172188565
 10
104.0150081796894
 20
-134.629172188565
 97
        0
 97
        0
 75
     2
 76
     1
 98
        0
  0
ENDSEC
  0
SECTION
  2
OBJECTS
  0
DICTIONARY
  5
C
330
0
100
AcDbDictionary
281
     1
  3
ACAD_GROUP
350
D
  3
ACAD_LAYOUT
350
1A
  3
ACAD_MATERIAL
350
3B
  3
ACAD_MLEADERSTYLE
350
BC
  3
ACAD_MLINESTYLE
350
17
  3
ACAD_PLOTSETTINGS
350
19
  3
ACAD_PLOTSTYLENAME
350
E
  3
ACAD_TABLESTYLE
350
BB
  3
ACAD_VISUALSTYLE
350
2A
  0
SUN
  5
3F
330
29
100
AcDbSun
 90
        1
290
     0
 63
     7
421
 16777215
 40
1.0
291
     1
 91
  2455826
 92
 54000000
292
     0
 70
     2
 71
   256
280
     1
  0
DICTIONARY
  5
D
102
{ACAD_REACTORS
330
C
102
}
330
C
100
AcDbDictionary
281
     1
  0
DICTIONARY
  5
1A
102
{ACAD_REACTORS
330
C
102
}
330
C
100
AcDbDictionary
281
     1
  3
Layout1
350
1E
  3
Layout2
350
26
  3
Model
350
22
  0
DICTIONARY
  5
3B
102
{ACAD_REACTORS
330
C
102
}
330
C
100
AcDbDictionary
281
     1
  3
ByBlock
350
3D
  3
ByLayer
350
3C
  3
Global
350
3E
  0
DICTIONARY
  5
BC
102
{ACAD_REACTORS
330
C
102
}
330
C
100
AcDbDictionary
281
     1
  0
DICTIONARY
  5
17
102
{ACAD_REACTORS
330
C
102
}
330
C
100
AcDbDictionary
281
     1
  3
Standard
350
18
  0
DICTIONARY
  5
19
102
{ACAD_REACTORS
330
C
102
}
330
C
100
AcDbDictionary
281
     1
  0
ACDBDICTIONARYWDFLT
  5
E
102
{ACAD_REACTORS
330
C
102
}
330
C
100
AcDbDictionary
281
     1
  3
Normal
350
F
100
AcDbDictionaryWithDefault
340
F
  0
DICTIONARY
  5
BB
102
{ACAD_REACTORS
330
C
102
}
330
C
100
AcDbDictionary
281
     1
  0
DICTIONARY
  5
2A
102
{ACAD_REACTORS
330
C
102
}
330
C
100
AcDbDictionary
281
     1
  3
2dWireframe
350
2F
  3
3D Hidden
350
31
  3
3dWireframe
350
30
  3
Basic
350
32
  3
Brighten
350
36
  3
ColorChange
350
3A
  3
Conceptual
350
34
  3
Dim
350
35
  3
Facepattern
350
39
  3
Flat
350
2B
  3
FlatWithEdges
350
2C
  3
Gouraud
350
2D
  3
GouraudWithEdges
350
2E
  3
Linepattern
350
38
  3
Realistic
350
33
  3
Thicken
350
37
  0
LAYOUT
  5
1E
102
{ACAD_REACTORS
330
1A
102
}
330
1A
100
AcDbPlotSettings
  1

  2
none_device
  4

  6

 40
0.0
 41
0.0
 42
0.0
 43
0.0
 44
0.0
 45
0.0
 46
0.0
 47
0.0
 48
0.0
 49
0.0
140
0.0
141
0.0
142
1.0
143
1.0
 70
   688
 72
     0
 73
     0
 74
     5
  7

 75
    16
 76
     0
 77
     2
 78
   300
147
1.0
148
0.0
149
0.0
100
AcDbLayout
  1
Layout1
 70
     1
 71
     1
 10
0.0
 20
0.0
 11
12.0
 21
9.0
 12
0.0
 22
0.0
 32
0.0
 14
1.000000000000000E+20
 24
1.000000000000000E+20
 34
1.000000000000000E+20
 15
-1.000000000000000E+20
 25
-1.000000000000000E+20
 35
-1.000000000000000E+20
146
0.0
 13
0.0
 23
0.0
 33
0.0
 16
1.0
 26
0.0
 36
0.0
 17
0.0
 27
1.0
 37
0.0
 76
     0
330
1B
  0
LAYOUT
  5
26
102
{ACAD_REACTORS
330
1A
102
}
330
1A
100
AcDbPlotSettings
  1

  2
none_device
  4

  6

 40
0.0
 41
0.0
 42
0.0
 43
0.0
 44
0.0
 45
0.0
 46
0.0
 47
0.0
 48
0.0
 49
0.0
140
0.0
141
0.0
142
1.0
143
1.0
 70
   688
 72
     0
 73
     0
 74
     5
  7

 75
    16
 76
     0
 77
     2
 78
   300
147
1.0
148
0.0
149
0.0
100
AcDbLayout
  1
Layout2
 70
     1
 71
     2
 10
0.0
 20
0.0
 11
0.0
 21
0.0
 12
0.0
 22
0.0
 32
0.0
 14
0.0
 24
0.0
 34
0.0
 15
0.0
 25
0.0
 35
0.0
146
0.0
 13
0.0
 23
0.0
 33
0.0
 16
1.0
 26
0.0
 36
0.0
 17
0.0
 27
1.0
 37
0.0
 76
     0
330
23
  0
LAYOUT
  5
22
102
{ACAD_REACTORS
330
1A
102
}
330
1A
100
AcDbPlotSettings
  1

  2
none_device
  4

  6

 40
0.0
 41
0.0
 42
0.0
 43
0.0
 44
0.0
 45
0.0
 46
0.0
 47
0.0
 48
0.0
 49
0.0
140
0.0
141
0.0
142
1.0
143
1.0
 70
  1712
 72
     0
 73
     0
 74
     0
  7

 75
     0
 76
     0
 77
     2
 78
   300
147
1.0
148
0.0
149
0.0
100
AcDbLayout
  1
Model
 70
     1
 71
     0
 10
0.0
 20
0.0
 11
12.0
 21
9.0
 12
0.0
 22
0.0
 32
0.0
 14
1.000000000000000E+20
 24
1.000000000000000E+20
 34
1.000000000000000E+20
 15
-1.000000000000000E+20
 25
-1.000000000000000E+20
 35
-1.000000000000000E+20
146
0.0
 13
0.0
 23
0.0
 33
0.0
 16
1.0
 26
0.0
 36
0.0
 17
0.0
 27
1.0
 37
0.0
 76
     0
330
1F
331
29
  0
MATERIAL
  5
3D
102
{ACAD_REACTORS
330
3B
102
}
330
3B
100
AcDbMaterial
  1
ByBlock
 72
     1
 94
      127
  0
MATERIAL
  5
3C
102
{ACAD_REACTORS
330
3B
102
}
330
3B
100
AcDbMaterial
  1
ByLayer
 72
     1
 94
      127
  0
MATERIAL
  5
3E
102
{ACAD_REACTORS
330
3B
102
}
330
3B
100
AcDbMaterial
  1
Global
 72
     1
 94
      127
  0
MLINESTYLE
  5
18
102
{ACAD_REACTORS
330
17
102
}
330
17
100
AcDbMlineStyle
  2
Standard
 70
     0
  3

 62
   256
 51
90.0
 52
90.0
 71
     2
 49
0.5
 62
   256
  6
BYLAYER
 49
-0.5
 62
   256
  6
BYLAYER
  0
ACDBPLACEHOLDER
  5
F
102
{ACAD_REACTORS
330
E
102
}
330
E
  0
VISUALSTYLE
  5
2F
102
{ACAD_REACTORS
330
2A
102
}
330
2A
100
AcDbVisualStyle
  2
2dWireframe
 70
     4
177
     2
291
     0
 71
     0
176
     1
 72
     2
176
     1
 73
     0
176
     1
 90
        0
176
     1
 40
-0.6
176
     1
 41
-30.0
176
     1
 62
     5
 63
     7
421
 16777215
176
     1
 74
     1
176
     1
 91
        4
176
     1
 64
     7
176
     1
 65
   257
176
     1
 75
     1
176
     1
175
     1
176
     1
 42
1.0
176
     1
 92
        0
176
     1
 66
   257
176
     1
 43
1.0
176
     1
 76
     1
176
     1
 77
     6
176
     1
 78
     2
176
     1
 67
     7
176
     1
 79
     5
176
     1
170
     0
176
     1
171
     0
176
     1
290
     0
176
     1
 93
        1
176
     1
 44
0.0
176
     1
173
     0
176
     1
  0
VISUALSTYLE
  5
31
102
{ACAD_REACTORS
330
2A
102
}
330
2A
100
AcDbVisualStyle
  2
3D Hidden
 70
     6
177
     2
291
     0
 71
     1
176
     1
 72
     2
176
     1
 73
     2
176
     1
 90
        0
176
     1
 40
-0.6
176
     1
 41
-30.0
176
     1
 62
     5
 63
     7
421
 16777215
176
     1
 74
     2
176
     1
 91
        2
176
     1
 64
     7
176
     1
 65
   257
176
     1
 75
     2
176
     1
175
     1
176
     1
 42
40.0
176
     1
 92
        0
176
     1
 66
   257
176
     1
 43
1.0
176
     1
 76
     1
176
     1
 77
     6
176
     1
 78
     2
176
     1
 67
     7
176
     1
 79
     3
176
     1
170
     0
176
     1
171
     0
176
     1
290
     0
176
     1
 93
        1
176
     1
 44
0.0
176
     1
173
     0
176
     1
  0
VISUALSTYLE
  5
30
102
{ACAD_REACTORS
330
2A
102
}
330
2A
100
AcDbVisualStyle
  2
3dWireframe
 70
     5
177
     2
291
     0
 71
     0
176
     1
 72
     2
176
     1
 73
     0
176
     1
 90
        0
176
     1
 40
-0.6
176
     1
 41
-30.0
176
     1
 62
     5
 63
     7
421
 16777215
176
     1
 74
     1
176
     1
 91
        4
176
     1
 64
     7
176
     1
 65
   257
176
     1
 75
     1
176
     1
175
     1
176
     1
 42
1.0
176
     1
 92
        0
176
     1
 66
   257
176
     1
 43
1.0
176
     1
 76
     1
176
     1
 77
     6
176
     1
 78
     2
176
     1
 67
     7
176
     1
 79
     5
176
     1
170
     0
176
     1
171
     0
176
     1
290
     0
176
     1
 93
        1
176
     1
 44
0.0
176
     1
173
     0
176
     1
  0
VISUALSTYLE
  5
32
102
{ACAD_REACTORS
330
2A
102
}
330
2A
100
AcDbVisualStyle
  2
Basic
 70
     7
177
     2
291
     1
 71
     1
176
     1
 72
     0
176
     1
 73
     1
176
     1
 90
        0
176
     1
 40
-0.6
176
     1
 41
-30.0
176
     1
 62
     5
 63
     7
421
 16777215
176
     1
 74
     0
176
     1
 91
        4
176
     1
 64
     7
176
     1
 65
   257
176
     1
 75
     1
176
     1
175
     1
176
     1
 42
1.0
176
     1
 92
        8
176
     1
 66
     7
176
     1
 43
1.0
176
     1
 76
     1
176
     1
 77
     6
176
     1
 78
     2
176
     1
 67
     7
176
     1
 79
     5
176
     1
170
     0
176
     1
171
     0
176
     1
290
     0
176
     1
 93
        1
176
     1
 44
0.0
176
     1
173
     0
176
     1
  0
VISUALSTYLE
  5
36
102
{ACAD_REACTORS
330
2A
102
}
330
2A
100
AcDbVisualStyle
  2
Brighten
 70
    12
177
     2
291
     1
 71
     2
176
     1
 72
     2
176
     1
 73
     0
176
     1
 90
        0
176
     1
 40
-0.6
176
     1
 41
-30.0
176
     1
 62
     5
 63
     7
421
 16777215
176
     1
 74
     1
176
     1
 91
        4
176
     1
 64
     7
176
     1
 65
   257
176
     1
 75
     1
176
     1
175
     1
176
     1
 42
1.0
176
     1
 92
        8
176
     1
 66
     7
176
     1
 43
1.0
176
     1
 76
     1
176
     1
 77
     6
176
     1
 78
     2
176
     1
 67
     7
176
     1
 79
     5
176
     1
170
     0
176
     1
171
     0
176
     1
290
     0
176
     1
 93
        1
176
     1
 44
50.0
176
     1
173
     0
176
     1
  0
VISUALSTYLE
  5
3A
102
{ACAD_REACTORS
330
2A
102
}
330
2A
100
AcDbVisualStyle
  2
ColorChange
 70
    16
177
     2
291
     1
 71
     2
176
     1
 72
     2
176
     1
 73
     3
176
     1
 90
        0
176
     1
 40
-0.6
176
     1
 41
-30.0
176
     1
 62
     5
 63
     8
421
  8421504
176
     1
 74
     1
176
     1
 91
        4
176
     1
 64
     7
176
     1
 65
   257
176
     1
 75
     1
176
     1
175
     1
176
     1
 42
1.0
176
     1
 92
        8
176
     1
 66
     8
424
  8421504
176
     1
 43
1.0
176
     1
 76
     1
176
     1
 77
     6
176
     1
 78
     2
176
     1
 67
     7
176
     1
 79
     5
176
     1
170
     0
176
     1
171
     0
176
     1
290
     0
176
     1
 93
        1
176
     1
 44
0.0
176
     1
173
     0
176
     1
  0
VISUALSTYLE
  5
34
102
{ACAD_REACTORS
330
2A
102
}
330
2A
100
AcDbVisualStyle
  2
Conceptual
 70
     9
177
     2
291
     0
 71
     3
176
     1
 72
     2
176
     1
 73
     0
176
     1
 90
        0
176
     1
 40
-0.6
176
     1
 41
-30.0
176
     1
 62
     5
 63
     7
421
 16777215
176
     1
 74
     2
176
     1
 91
        2
176
     1
 64
     7
176
     1
 65
   257
176
     1
 75
     1
176
     1
175
     1
176
     1
 42
40.0
176
     1
 92
        8
176
     1
 66
     7
176
     1
 43
1.0
176
     1
 76
     1
176
     1
 77
     6
176
     1
 78
     2
176
     1
 67
     7
176
     1
 79
     3
176
     1
170
     0
176
     1
171
     0
176
     1
290
     0
176
     1
 93
        1
176
     1
 44
0.0
176
     1
173
     0
176
     1
  0
VISUALSTYLE
  5
35
102
{ACAD_REACTORS
330
2A
102
}
330
2A
100
AcDbVisualStyle
  2
Dim
 70
    11
177
     2
291
     1
 71
     2
176
     1
 72
     2
176
     1
 73
     0
176
     1
 90
        0
176
     1
 40
-0.6
176
     1
 41
-30.0
176
     1
 62
     5
 63
     7
421
 16777215
176
     1
 74
     1
176
     1
 91
        4
176
     1
 64
     7
176
     1
 65
   257
176
     1
 75
     1
176
     1
175
     1
176
     1
 42
1.0
176
     1
 92
        8
176
     1
 66
     7
176
     1
 43
1.0
176
     1
 76
     1
176
     1
 77
     6
176
     1
 78
     2
176
     1
 67
     7
176
     1
 79
     5
176
     1
170
     0
176
     1
171
     0
176
     1
290
     0
176
     1
 93
        1
176
     1
 44
-50.0
176
     1
173
     0
176
     1
  0
VISUALSTYLE
  5
39
102
{ACAD_REACTORS
330
2A
102
}
330
2A
100
AcDbVisualStyle
  2
Facepattern
 70
    15
177
     2
291
     1
 71
     2
176
     1
 72
     2
176
     1
 73
     0
176
     1
 90
        0
176
     1
 40
-0.6
176
     1
 41
-30.0
176
     1
 62
     5
 63
     7
421
 16777215
176
     1
 74
     1
176
     1
 91
        4
176
     1
 64
     7
176
     1
 65
   257
176
     1
 75
     1
176
     1
175
     1
176
     1
 42
1.0
176
     1
 92
        8
176
     1
 66
     7
176
     1
 43
1.0
176
     1
 76
     1
176
     1
 77
     6
176
     1
 78
     2
176
     1
 67
     7
176
     1
 79
     5
176
     1
170
     0
176
     1
171
     0
176
     1
290
     0
176
     1
 93
        1
176
     1
 44
0.0
176
     1
173
     0
176
     1
  0
VISUALSTYLE
  5
2B
102
{ACAD_REACTORS
330
2A
102
}
330
2A
100
AcDbVisualStyle
  2
Flat
 70
     0
177
     2
291
     1
 71
     2
176
     1
 72
     1
176
     1
 73
     1
176
     1
 90
        2
176
     1
 40
-0.6
176
     1
 41
30.0
176
     1
 62
     5
 63
     7
421
 16777215
176
     1
 74
     0
176
     1
 91
        4
176
     1
 64
     7
176
     1
 65
   257
176
     1
 75
     1
176
     1
175
     1
176
     1
 42
1.0
176
     1
 92
        8
176
     1
 66
     7
176
     1
 43
1.0
176
     1
 76
     1
176
     1
 77
     6
176
     1
 78
     2
176
     1
 67
     7
176
     1
 79
     5
176
     1
170
     0
176
     1
171
     0
176
     1
290
     0
176
     1
 93
       13
176
     1
 44
0.0
176
     1
173
     0
176
     1
  0
VISUALSTYLE
  5
2C
102
{ACAD_REACTORS
330
2A
102
}
330
2A
100
AcDbVisualStyle
  2
FlatWithEdges
 70
     1
177
     2
291
     1
 71
     2
176
     1
 72
     1
176
     1
 73
     1
176
     1
 90
        2
176
     1
 40
-0.6
176
     1
 41
30.0
176
     1
 62
     5
 63
     7
421
 16777215
176
     1
 74
     1
176
     1
 91
        4
176
     1
 64
     7
176
     1
 65
   257
176
     1
 75
     1
176
     1
175
     1
176
     1
 42
1.0
176
     1
 92
        0
176
     1
 66
   257
176
     1
 43
1.0
176
     1
 76
     1
176
     1
 77
     6
176
     1
 78
     2
176
     1
 67
     7
176
     1
 79
     5
176
     1
170
     0
176
     1
171
     0
176
     1
290
     0
176
     1
 93
       13
176
     1
 44
0.0
176
     1
173
     0
176
     1
  0
VISUALSTYLE
  5
2D
102
{ACAD_REACTORS
330
2A
102
}
330
2A
100
AcDbVisualStyle
  2
Gouraud
 70
     2
177
     2
291
     1
 71
     2
176
     1
 72
     2
176
     1
 73
     1
176
     1
 90
        2
176
     1
 40
-0.6
176
     1
 41
30.0
176
     1
 62
     5
 63
     7
421
 16777215
176
     1
 74
     0
176
     1
 91
        4
176
     1
 64
     7
176
     1
 65
   257
176
     1
 75
     1
176
     1
175
     1
176
     1
 42
1.0
176
     1
 92
        0
176
     1
 66
     7
176
     1
 43
1.0
176
     1
 76
     1
176
     1
 77
     6
176
     1
 78
     2
176
     1
 67
     7
176
     1
 79
     5
176
     1
170
     0
176
     1
171
     0
176
     1
290
     0
176
     1
 93
       13
176
     1
 44
0.0
176
     1
173
     0
176
     1
  0
VISUALSTYLE
  5
2E
102
{ACAD_REACTORS
330
2A
102
}
330
2A
100
AcDbVisualStyle
  2
GouraudWithEdges
 70
     3
177
     2
291
     1
 71
     2
176
     1
 72
     2
176
     1
 73
     1
176
     1
 90
        2
176
     1
 40
-0.6
176
     1
 41
30.0
176
     1
 62
     5
 63
     7
421
 16777215
176
     1
 74
     1
176
     1
 91
        4
176
     1
 64
     7
176
     1
 65
   257
176
     1
 75
     1
176
     1
175
     1
176
     1
 42
1.0
176
     1
 92
        0
176
     1
 66
   257
176
     1
 43
1.0
176
     1
 76
     1
176
     1
 77
     6
176
     1
 78
     2
176
     1
 67
     7
176
     1
 79
     5
176
     1
170
     0
176
     1
171
     0
176
     1
290
     0
176
     1
 93
       13
176
     1
 44
0.0
176
     1
173
     0
176
     1
  0
VISUALSTYLE
  5
38
102
{ACAD_REACTORS
330
2A
102
}
330
2A
100
AcDbVisualStyle
  2
Linepattern
 70
    14
177
     2
291
     1
 71
     2
176
     1
 72
     2
176
     1
 73
     0
176
     1
 90
        0
176
     1
 40
-0.6
176
     1
 41
-30.0
176
     1
 62
     5
 63
     7
421
 16777215
176
     1
 74
     1
176
     1
 91
        4
176
     1
 64
     7
176
     1
 65
   257
176
     1
 75
     7
176
     1
175
     7
176
     1
 42
1.0
176
     1
 92
        8
176
     1
 66
     7
176
     1
 43
1.0
176
     1
 76
     1
176
     1
 77
     6
176
     1
 78
     2
176
     1
 67
     7
176
     1
 79
     5
176
     1
170
     0
176
     1
171
     0
176
     1
290
     0
176
     1
 93
        1
176
     1
 44
0.0
176
     1
173
     0
176
     1
  0
VISUALSTYLE
  5
33
102
{ACAD_REACTORS
330
2A
102
}
330
2A
100
AcDbVisualStyle
  2
Realistic
 70
     8
177
     2
291
     0
 71
     2
176
     1
 72
     2
176
     1
 73
     0
176
     1
 90
        0
176
     1
 40
-0.6
176
     1
 41
-30.0
176
     1
 62
     5
 63
     7
421
 16777215
176
     1
 74
     1
176
     1
 91
        0
176
     1
 64
     7
176
     1
 65
   257
176
     1
 75
     1
176
     1
175
     1
176
     1
 42
1.0
176
     1
 92
        8
176
     1
 66
     8
424
  7895160
176
     1
 43
1.0
176
     1
 76
     1
176
     1
 77
     6
176
     1
 78
     2
176
     1
 67
     7
176
     1
 79
     5
176
     1
170
     0
176
     1
171
     0
176
     1
290
     0
176
     1
 93
       13
176
     1
 44
0.0
176
     1
173
     0
176
     1
  0
VISUALSTYLE
  5
37
102
{ACAD_REACTORS
330
2A
102
}
330
2A
100
AcDbVisualStyle
  2
Thicken
 70
    13
177
     2
291
     1
 71
     2
176
     1
 72
     2
176
     1
 73
     0
176
     1
 90
        0
176
     1
 40
-0.6
176
     1
 41
-30.0
176
     1
 62
     5
 63
     7
421
 16777215
176
     1
 74
     1
176
     1
 91
        4
176
     1
 64
     7
176
     1
 65
   257
176
     1
 75
     1
176
     1
175
     1
176
     1
 42
1.0
176
     1
 92
       12
176
     1
 66
     7
176
     1
 43
1.0
176
     1
 76
     1
176
     1
 77
     6
176
     1
 78
     2
176
     1
 67
     7
176
     1
 79
     5
176
     1
170
     0
176
     1
171
     0
176
     1
290
     0
176
     1
 93
        1
176
     1
 44
0.0
176
     1
173
     0
176
     1
  0
ENDSEC
  0
EOF
