  0
SECTION
  2
HEADER
  9
$ACADVER
  1
AC1024
  9
$ACADMAINTVER
 70
     6
  9
$DWGCODEPAGE
  3
UNDEFINED
  9
$INSBASE
 10
0.0
 20
0.0
 30
0.0
  9
$EXTMIN
 10
1.000000000000000E+20
 20
1.000000000000000E+20
 30
1.000000000000000E+20
  9
$EXTMAX
 10
-1.000000000000000E+20
 20
-1.000000000000000E+20
 30
-1.000000000000000E+20
  9
$LIMMIN
 10
0.0
 20
0.0
  9
$LIMMAX
 10
12.0
 20
9.0
  9
$ORTHOMODE
 70
     0
  9
$REGENMODE
 70
     1
  9
$FILLMODE
 70
     1
  9
$QTEXTMODE
 70
     0
  9
$MIRRTEXT
 70
     1
  9
$LTSCALE
 40
1.0
  9
$ATTMODE
 70
     1
  9
$TEXTSIZE
 40
0.2
  9
$TRACEWID
 40
0.05
  9
$TEXTSTYLE
  7
Standard
  9
$CLAYER
  8
0
  9
$CELTYPE
  6
ByLayer
  9
$CECOLOR
 62
   256
  9
$CELTSCALE
 40
1.0
  9
$DISPSILH
 70
     0
  9
$DIMSCALE
 40
1.0
  9
$DIMASZ
 40
0.18
  9
$DIMEXO
 40
0.0625
  9
$DIMDLI
 40
0.38
  9
$DIMRND
 40
0.0
  9
$DIMDLE
 40
0.0
  9
$DIMEXE
 40
0.18
  9
$DIMTP
 40
0.0
  9
$DIMTM
 40
0.0
  9
$DIMTXT
 40
0.18
  9
$DIMCEN
 40
0.09
  9
$DIMTSZ
 40
0.0
  9
$DIMTOL
 70
     0
  9
$DIMLIM
 70
     0
  9
$DIMTIH
 70
     1
  9
$DIMTOH
 70
     1
  9
$DIMSE1
 70
     0
  9
$DIMSE2
 70
     0
  9
$DIMTAD
 70
     0
  9
$DIMZIN
 70
     0
  9
$DIMBLK
  1

  9
$DIMASO
 70
     1
  9
$DIMSHO
 70
     1
  9
$DIMPOST
  1

  9
$DIMAPOST
  1

  9
$DIMALT
 70
     0
  9
$DIMALTD
 70
     2
  9
$DIMALTF
 40
25.4
  9
$DIMLFAC
 40
1.0
  9
$DIMTOFL
 70
     0
  9
$DIMTVP
 40
0.0
  9
$DIMTIX
 70
     0
  9
$DIMSOXD
 70
     0
  9
$DIMSAH
 70
     0
  9
$DIMBLK1
  1

  9
$DIMBLK2
  1

  9
$DIMSTYLE
  2
Standard
  9
$DIMCLRD
 70
     0
  9
$DIMCLRE
 70
     0
  9
$DIMCLRT
 70
     0
  9
$DIMTFAC
 40
1.0
  9
$DIMGAP
 40
0.09
  9
$DIMJUST
 70
     0
  9
$DIMSD1
 70
     0
  9
$DIMSD2
 70
     0
  9
$DIMTOLJ
 70
     1
  9
$DIMTZIN
 70
     0
  9
$DIMALTZ
 70
     0
  9
$DIMALTTZ
 70
     0
  9
$DIMUPT
 70
     0
  9
$DIMDEC
 70
     4
  9
$DIMTDEC
 70
     4
  9
$DIMALTU
 70
     2
  9
$DIMALTTD
 70
     2
  9
$DIMTXSTY
  7
Standard
  9
$DIMAUNIT
 70
     0
  9
$DIMADEC
 70
     0
  9
$DIMALTRND
 40
0.0
  9
$DIMAZIN
 70
     0
  9
$DIMDSEP
 70
    46
  9
$DIMATFIT
 70
     3
  9
$DIMFRAC
 70
     0
  9
$DIMLDRBLK
  1

  9
$DIMLUNIT
 70
     2
  9
$DIMLWD
 70
    -2
  9
$DIMLWE
 70
    -2
  9
$DIMTMOVE
 70
     0
  9
$DIMFXL
 40
1.0
  9
$DIMFXLON
 70
     0
  9
$DIMJOGANG
 40
0.7853981633974483
  9
$DIMTFILL
 70
     0
  9
$DIMTFILLCLR
 70
     0
  9
$DIMARCSYM
 70
     0
  9
$DIMLTYPE
  6

  9
$DIMLTEX1
  6

  9
$DIMLTEX2
  6

  9
$DIMTXTDIRECTION
 70
     0
  9
$LUNITS
 70
     2
  9
$LUPREC
 70
     4
  9
$SKETCHINC
 40
0.1
  9
$FILLETRAD
 40
0.5
  9
$AUNITS
 70
     0
  9
$AUPREC
 70
     0
  9
$MENU
  1
.
  9
$ELEVATION
 40
0.0
  9
$PELEVATION
 40
0.0
  9
$THICKNESS
 40
0.0
  9
$LIMCHECK
 70
     0
  9
$CHAMFERA
 40
0.5
  9
$CHAMFERB
 40
0.5
  9
$CHAMFERC
 40
1.0
  9
$CHAMFERD
 40
0.0
  9
$SKPOLY
 70
     0
  9
$TDCREATE
 40
2458263.583124988
  9
$TDUCREATE
 40
2458263.208125
  9
$TDUPDATE
 40
2458263.583124988
  9
$TDUUPDATE
 40
2458263.208125
  9
$TDINDWG
 40
0.0000000116
  9
$TDUSRTIMER
 40
0.0000000116
  9
$USRTIMER
 70
     1
  9
$ANGBASE
 50
0.0
  9
$ANGDIR
 70
     0
  9
$PDMODE
 70
     0
  9
$PDSIZE
 40
0.0
  9
$PLINEWID
 40
0.0
  9
$SPLFRAME
 70
     0
  9
$SPLINETYPE
 70
     6
  9
$SPLINESEGS
 70
     8
  9
$HANDSEED
  5
D2
  9
$SURFTAB1
 70
     6
  9
$SURFTAB2
 70
     6
  9
$SURFTYPE
 70
     6
  9
$SURFU
 70
     6
  9
$SURFV
 70
     6
  9
$UCSBASE
  2

  9
$UCSNAME
  2

  9
$UCSORG
 10
0.0
 20
0.0
 30
0.0
  9
$UCSXDIR
 10
1.0
 20
0.0
 30
0.0
  9
$UCSYDIR
 10
0.0
 20
1.0
 30
0.0
  9
$UCSORTHOREF
  2

  9
$UCSORTHOVIEW
 70
     0
  9
$UCSORGTOP
 10
0.0
 20
0.0
 30
0.0
  9
$UCSORGBOTTOM
 10
0.0
 20
0.0
 30
0.0
  9
$UCSORGLEFT
 10
0.0
 20
0.0
 30
0.0
  9
$UCSORGRIGHT
 10
0.0
 20
0.0
 30
0.0
  9
$UCSORGFRONT
 10
0.0
 20
0.0
 30
0.0
  9
$UCSORGBACK
 10
0.0
 20
0.0
 30
0.0
  9
$PUCSBASE
  2

  9
$PUCSNAME
  2

  9
$PUCSORG
 10
0.0
 20
0.0
 30
0.0
  9
$PUCSXDIR
 10
1.0
 20
0.0
 30
0.0
  9
$PUCSYDIR
 10
0.0
 20
1.0
 30
0.0
  9
$PUCSORTHOREF
  2

  9
$PUCSORTHOVIEW
 70
     0
  9
$PUCSORGTOP
 10
0.0
 20
0.0
 30
0.0
  9
$PUCSORGBOTTOM
 10
0.0
 20
0.0
 30
0.0
  9
$PUCSORGLEFT
 10
0.0
 20
0.0
 30
0.0
  9
$PUCSORGRIGHT
 10
0.0
 20
0.0
 30
0.0
  9
$PUCSORGFRONT
 10
0.0
 20
0.0
 30
0.0
  9
$PUCSORGBACK
 10
0.0
 20
0.0
 30
0.0
  9
$USERI1
 70
     0
  9
$USERI2
 70
     0
  9
$USERI3
 70
     0
  9
$USERI4
 70
     0
  9
$USERI5
 70
     0
  9
$USERR1
 40
0.0
  9
$USERR2
 40
0.0
  9
$USERR3
 40
0.0
  9
$USERR4
 40
0.0
  9
$USERR5
 40
0.0
  9
$WORLDVIEW
 70
     1
  9
$SHADEDGE
 70
     3
  9
$SHADEDIF
 70
    70
  9
$TILEMODE
 70
     1
  9
$MAXACTVP
 70
    64
  9
$PINSBASE
 10
0.0
 20
0.0
 30
0.0
  9
$PLIMCHECK
 70
     0
  9
$PEXTMIN
 10
1.000000000000000E+20
 20
1.000000000000000E+20
 30
1.000000000000000E+20
  9
$PEXTMAX
 10
-1.000000000000000E+20
 20
-1.000000000000000E+20
 30
-1.000000000000000E+20
  9
$PLIMMIN
 10
0.0
 20
0.0
  9
$PLIMMAX
 10
12.0
 20
9.0
  9
$UNITMODE
 70
     0
  9
$VISRETAIN
 70
     1
  9
$PLINEGEN
 70
     0
  9
$PSLTSCALE
 70
     1
  9
$TREEDEPTH
 70
  3020
  9
$CMLSTYLE
  2
Standard
  9
$CMLJUST
 70
     0
  9
$CMLSCALE
 40
1.0
  9
$PROXYGRAPHICS
 70
     1
  9
$MEASUREMENT
 70
     0
  9
$CELWEIGHT
370
    -1
  9
$ENDCAPS
280
     0
  9
$JOINSTYLE
280
     0
  9
$LWDISPLAY
290
     1
  9
$INSUNITS
 70
     1
  9
$HYPERLINKBASE
  1

  9
$STYLESHEET
  1

  9
$XEDIT
290
     1
  9
$CEPSNTYPE
380
     0
  9
$PSTYLEMODE
290
     1
  9
$FINGERPRINTGUID
  2
{6AB30001-582C-FD8C-5E8A-5071A462C706}
  9
$VERSIONGUID
  2
{FAEB1C32-E019-11D5-929B-00C0DF256EC4}
  9
$EXTNAMES
290
     1
  9
$PSVPSCALE
 40
0.0
  9
$OLESTARTUP
290
     0
  9
$SORTENTS
280
   127
  9
$INDEXCTL
280
     0
  9
$HIDETEXT
280
     1
  9
$XCLIPFRAME
280
     2
  9
$HALOGAP
280
     0
  9
$OBSCOLOR
 70
   257
  9
$OBSLTYPE
280
     0
  9
$INTERSECTIONDISPLAY
280
     0
  9
$INTERSECTIONCOLOR
 70
   257
  9
$DIMASSOC
280
     2
  9
$PROJECTNAME
  1

  9
$CAMERADISPLAY
290
     0
  9
$LENSLENGTH
 40
50.0
  9
$CAMERAHEIGHT
 40
0.0
  9
$STEPSPERSEC
 40
2.0
  9
$STEPSIZE
 40
6.0
  9
$3DDWFPREC
 40
2.0
  9
$PSOLWIDTH
 40
0.25
  9
$PSOLHEIGHT
 40
4.0
  9
$LOFTANG1
 40
1.570796326794897
  9
$LOFTANG2
 40
1.570796326794897
  9
$LOFTMAG1
 40
0.0
  9
$LOFTMAG2
 40
0.0
  9
$LOFTPARAM
 70
     7
  9
$LOFTNORMALS
280
     1
  9
$LATITUDE
 40
37.795
  9
$LONGITUDE
 40
-122.394
  9
$NORTHDIRECTION
 40
0.0
  9
$TIMEZONE
 70
 -8000
  9
$LIGHTGLYPHDISPLAY
280
     1
  9
$TILEMODELIGHTSYNCH
280
     1
  9
$CMATERIAL
347
3C
  9
$SOLIDHIST
280
     1
  9
$SHOWHIST
280
     1
  9
$DWFFRAME
280
     2
  9
$DGNFRAME
280
     2
  9
$REALWORLDSCALE
290
     1
  9
$INTERFERECOLOR
 62
   256
  9
$CSHADOW
280
     0
  9
$SHADOWPLANELOCATION
 40
0.0
  0
ENDSEC
  0
SECTION
  2
CLASSES
  0
CLASS
  1
ACDBDICTIONARYWDFLT
  2
AcDbDictionaryWithDefault
  3
ObjectDBX Classes
 90
        0
 91
        4
280
     0
281
     0
  0
CLASS
  1
VISUALSTYLE
  2
AcDbVisualStyle
  3
ObjectDBX Classes
 90
     4095
 91
        4
280
     0
281
     0
  0
CLASS
  1
MATERIAL
  2
AcDbMaterial
  3
ObjectDBX Classes
 90
     1153
 91
        4
280
     0
281
     0
  0
CLASS
  1
SUN
  2
AcDbSun
  3
SCENEOE
 90
     1024
 91
        4
280
     0
281
     0
  0
ENDSEC
  0
SECTION
  2
TABLES
  0
TABLE
  2
VPORT
  5
8
330
0
100
AcDbSymbolTable
 70
     1
  0
VPORT
  5
29
330
8
100
AcDbSymbolTableRecord
100
AcDbViewportTableRecord
  2
*Active
 70
     0
 10
0.0
 20
0.0
 11
1.0
 21
1.0
 12
0.0
 22
0.0
 13
0.0
 23
0.0
 14
0.5
 24
0.5
 15
0.5
 25
0.5
 16
0.0
 26
0.0
 36
1.0
 17
105.0007777515277
 27
-148.5000416295416
 37
0.0
 40
297.0000832590831
 41
0.7070757462376333
 42
50.0
 43
0.0
 44
0.0
 50
0.0
 51
0.0
 71
     0
 72
   100
 73
     1
 74
     3
 75
     0
 76
     0
 77
     0
 78
     0
281
     0
 65
     1
110
0.0
120
0.0
130
0.0
111
1.0
121
0.0
131
0.0
112
0.0
122
1.0
132
0.0
 79
     0
146
0.0
 60
     3
 61
     5
292
     1
282
     1
141
0.0
142
0.0
 63
   250
361
3F
  0
ENDTAB
  0
TABLE
  2
LTYPE
  5
5
330
0
100
AcDbSymbolTable
 70
     2
  0
LTYPE
  5
14
330
5
100
AcDbSymbolTableRecord
100
AcDbLinetypeTableRecord
  2
ByBlock
 70
     0
  3

 72
    65
 73
     0
 40
0.0
  0
LTYPE
  5
15
330
5
100
AcDbSymbolTableRecord
100
AcDbLinetypeTableRecord
  2
ByLayer
 70
     0
  3

 72
    65
 73
     0
 40
0.0
  0
LTYPE
  5
16
330
5
100
AcDbSymbolTableRecord
100
AcDbLinetypeTableRecord
  2
Continuous
 70
     0
  3
Solid line
 72
    65
 73
     0
 40
0.0
  0
LTYPE
  5
CE
330
5
100
AcDbSymbolTableRecord
100
AcDbLinetypeTableRecord
  2
AI-Linetype-1
 70
     0
  3
Adobe Illustrator Linetype No. 1
 72
    65
 73
     2
 40
1.411111110758333
 49
0.7055555553791667
 74
     0
 49
-0.7055555553791667
 74
     0
  0
ENDTAB
  0
TABLE
  2
LAYER
  5
2
330
0
100
AcDbSymbolTable
 70
     2
  0
LAYER
  5
10
330
2
100
AcDbSymbolTableRecord
100
AcDbLayerTableRecord
  2
0
 70
     0
 62
     7
  6
Continuous
370
    -3
390
F
347
3E
  0
LAYER
  5
40
330
2
100
AcDbSymbolTableRecord
100
AcDbLayerTableRecord
  2
_U+30EC_U+30A4_U+30E4_U+30FC 1
 70
     0
 62
     7
  6
Continuous
370
    -3
390
F
347
3E
  0
ENDTAB
  0
TABLE
  2
STYLE
  5
3
330
0
100
AcDbSymbolTable
 70
     1
  0
STYLE
  5
11
330
3
100
AcDbSymbolTableRecord
100
AcDbTextStyleTableRecord
  2
Standard
 70
     0
 40
0.0
 41
1.0
 50
0.0
 71
     0
 42
0.2
  3
txt
  4

  0
ENDTAB
  0
TABLE
  2
VIEW
  5
6
330
0
100
AcDbSymbolTable
 70
     0
  0
ENDTAB
  0
TABLE
  2
UCS
  5
7
330
0
100
AcDbSymbolTable
 70
     0
  0
ENDTAB
  0
TABLE
  2
APPID
  5
9
330
0
100
AcDbSymbolTable
 70
     1
  0
APPID
  5
12
330
9
100
AcDbSymbolTableRecord
100
AcDbRegAppTableRecord
  2
ACAD
 70
     0
  0
ENDTAB
  0
TABLE
  2
DIMSTYLE
  5
A
330
0
100
AcDbSymbolTable
 70
     1
100
AcDbDimStyleTable
  0
DIMSTYLE
105
27
330
A
100
AcDbSymbolTableRecord
100
AcDbDimStyleTableRecord
  2
Standard
 70
     0
178
     0
340
11
  0
ENDTAB
  0
TABLE
  2
BLOCK_RECORD
  5
1
330
0
100
AcDbSymbolTable
 70
     7
  0
BLOCK_RECORD
  5
1F
330
1
100
AcDbSymbolTableRecord
100
AcDbBlockTableRecord
  2
*Model_Space
340
22
 70
     0
280
     1
281
     0
  0
BLOCK_RECORD
  5
1B
330
1
100
AcDbSymbolTableRecord
100
AcDbBlockTableRecord
  2
*Paper_Space
340
1E
 70
     0
280
     1
281
     0
  0
BLOCK_RECORD
  5
23
330
1
100
AcDbSymbolTableRecord
100
AcDbBlockTableRecord
  2
*Paper_Space0
340
26
 70
     0
280
     1
281
     0
  0
BLOCK_RECORD
  5
5E
330
1
100
AcDbSymbolTableRecord
100
AcDbBlockTableRecord
  2
block 2
340
0
102
{BLKREFS
331
5F
102
}
 70
     0
280
     1
281
     0
  0
BLOCK_RECORD
  5
73
330
1
100
AcDbSymbolTableRecord
100
AcDbBlockTableRecord
  2
block 3
340
0
102
{BLKREFS
331
74
102
}
 70
     0
280
     1
281
     0
  0
BLOCK_RECORD
  5
83
330
1
100
AcDbSymbolTableRecord
100
AcDbBlockTableRecord
  2
block 4
340
0
102
{BLKREFS
331
84
102
}
 70
     0
280
     1
281
     0
  0
BLOCK_RECORD
  5
95
330
1
100
AcDbSymbolTableRecord
100
AcDbBlockTableRecord
  2
block 5
340
0
102
{BLKREFS
331
96
102
}
 70
     0
280
     1
281
     0
  0
BLOCK_RECORD
  5
AA
330
1
100
AcDbSymbolTableRecord
100
AcDbBlockTableRecord
  2
block 6
340
0
102
{BLKREFS
331
AB
102
}
 70
     0
280
     1
281
     0
  0
BLOCK_RECORD
  5
BE
330
1
100
AcDbSymbolTableRecord
100
AcDbBlockTableRecord
  2
block 7
340
0
102
{BLKREFS
331
BF
102
}
 70
     0
280
     1
281
     0
  0
ENDTAB
  0
ENDSEC
  0
SECTION
  2
BLOCKS
  0
BLOCK
  5
20
330
1F
100
AcDbEntity
  8
0
100
AcDbBlockBegin
  2
*Model_Space
 70
     0
 10
0.0
 20
0.0
 30
0.0
  3
*Model_Space
  1

  0
ENDBLK
  5
21
330
1F
100
AcDbEntity
  8
0
100
AcDbBlockEnd
  0
BLOCK
  5
1C
330
1B
100
AcDbEntity
 67
     1
  8
0
100
AcDbBlockBegin
  2
*Paper_Space
 70
     0
 10
0.0
 20
0.0
 30
0.0
  3
*Paper_Space
  1

  0
ENDBLK
  5
1D
330
1B
100
AcDbEntity
 67
     1
  8
0
100
AcDbBlockEnd
  0
BLOCK
  5
24
330
23
100
AcDbEntity
  8
0
100
AcDbBlockBegin
  2
*Paper_Space0
 70
     0
 10
0.0
 20
0.0
 30
0.0
  3
*Paper_Space0
  1

  0
ENDBLK
  5
25
330
23
100
AcDbEntity
  8
0
100
AcDbBlockEnd
  0
BLOCK
  5
60
330
5E
100
AcDbEntity
  8
0
100
AcDbBlockBegin
  2
block 2
 70
     0
 10
0.0
 20
0.0
 30
0.0
  3
block 2
  1

  0
SPLINE
  5
62
330
5E
100
AcDbEntity
  8
_U+30EC_U+30A4_U+30E4_U+30FC 1
370
     0
100
AcDbSpline
210
0.0
220
0.0
230
1.0
 70
    11
 71
     3
 72
    26
 73
    22
 74
     0
 42
0.0000000001
 43
0.0000000001
 12
1.0
 22
0.0
 32
0.0
 13
1.0
 23
0.0
 33
0.0
 40
0.0
 40
0.0
 40
0.0
 40
0.0
 40
1.0
 40
1.0
 40
1.0
 40
2.0
 40
2.0
 40
2.0
 40
3.0
 40
3.0
 40
3.0
 40
4.0
 40
4.0
 40
4.0
 40
5.0
 40
5.0
 40
5.0
 40
6.0
 40
6.0
 40
6.0
 40
7.0
 40
7.0
 40
7.0
 40
7.0
 10
89.80158146626489
 20
-161.522268297293
 30
0.0
 10
89.80158146626489
 20
-161.522268297293
 30
0.0
 10
89.80158146626489
 20
-160.4181151942705
 30
0.0
 10
89.80158146626489
 20
-160.4181151942705
 30
0.0
 10
89.80158146626489
 20
-160.4181151942705
 30
0.0
 10
89.47154131877795
 20
-160.4181151942705
 30
0.0
 10
89.47154131877795
 20
-160.4181151942705
 30
0.0
 10
89.47154131877795
 20
-160.4181151942705
 30
0.0
 10
89.47154131877795
 20
-160.2699760884047
 30
0.0
 10
89.47154131877795
 20
-160.2699760884047
 30
0.0
 10
89.80364852355603
 20
-160.2551621778182
 30
0.0
 10
89.85015731260691
 20
-160.0922091613658
 30
0.0
 10
89.87978513378006
 20
-159.9778319912556
 30
0.0
 10
89.87978513378006
 20
-159.9778319912556
 30
0.0
 10
90.02585718235466
 20
-159.9778319912556
 30
0.0
 10
90.02585718235466
 20
-159.9778319912556
 30
0.0
 10
90.02585718235466
 20
-159.9778319912556
 30
0.0
 10
90.02585718235466
 20
-161.522268297293
 30
0.0
 10
90.02585718235466
 20
-161.522268297293
 30
0.0
 10
90.02585718235466
 20
-161.522268297293
 30
0.0
 10
89.80158146626489
 20
-161.522268297293
 30
0.0
 10
89.80158146626489
 20
-161.522268297293
 30
0.0
  0
HATCH
  5
63
330
5E
100
AcDbEntity
  8
_U+30EC_U+30A4_U+30E4_U+30FC 1
 62
   179
420
  2234388
100
AcDbHatch
 10
0.0
 20
0.0
 30
0.0
210
0.0
220
0.0
230
1.0
  2
SOLID
 70
     1
 71
     0
 91
        1
 92
        1
 93
        1
 72
     4
 94
        3
 73
     0
 74
     1
 95
       26
 96
       22
 40
0.0
 40
0.0
 40
0.0
 40
0.0
 40
1.0
 40
1.0
 40
1.0
 40
2.0
 40
2.0
 40
2.0
 40
3.0
 40
3.0
 40
3.0
 40
4.0
 40
4.0
 40
4.0
 40
5.0
 40
5.0
 40
5.0
 40
6.0
 40
6.0
 40
6.0
 40
7.0
 40
7.0
 40
7.0
 40
7.0
 10
89.80158146626489
 20
-161.522268297293
 10
89.80158146626489
 20
-161.522268297293
 10
89.80158146626489
 20
-160.4181151942705
 10
89.80158146626489
 20
-160.4181151942705
 10
89.80158146626489
 20
-160.4181151942705
 10
89.47154131877795
 20
-160.4181151942705
 10
89.47154131877795
 20
-160.4181151942705
 10
89.47154131877795
 20
-160.4181151942705
 10
89.47154131877795
 20
-160.2699760884047
 10
89.47154131877795
 20
-160.2699760884047
 10
89.80364852355603
 20
-160.2551621778182
 10
89.85015731260691
 20
-160.0922091613658
 10
89.87978513378006
 20
-159.9778319912556
 10
89.87978513378006
 20
-159.9778319912556
 10
90.02585718235466
 20
-159.9778319912556
 10
90.02585718235466
 20
-159.9778319912556
 10
90.02585718235466
 20
-159.9778319912556
 10
90.02585718235466
 20
-161.522268297293
 10
90.02585718235466
 20
-161.522268297293
 10
90.02585718235466
 20
-161.522268297293
 10
89.80158146626489
 20
-161.522268297293
 10
89.80158146626489
 20
-161.522268297293
 97
        0
 97
        0
 75
     2
 76
     1
 98
        0
  0
SPLINE
  5
64
330
5E
100
AcDbEntity
  8
_U+30EC_U+30A4_U+30E4_U+30FC 1
370
     0
100
AcDbSpline
210
0.0
220
0.0
230
1.0
 70
    11
 71
     3
 72
    44
 73
    40
 74
     0
 42
0.0000000001
 43
0.0000000001
 12
1.0
 22
0.0
 32
0.0
 13
1.0
 23
0.0
 33
0.0
 40
0.0
 40
0.0
 40
0.0
 40
0.0
 40
1.0
 40
1.0
 40
1.0
 40
2.0
 40
2.0
 40
2.0
 40
3.0
 40
3.0
 40
3.0
 40
4.0
 40
4.0
 40
4.0
 40
5.0
 40
5.0
 40
5.0
 40
6.0
 40
6.0
 40
6.0
 40
7.0
 40
7.0
 40
7.0
 40
8.0
 40
8.0
 40
8.0
 40
9.0
 40
9.0
 40
9.0
 40
10.0
 40
10.0
 40
10.0
 40
11.0
 40
11.0
 40
11.0
 40
12.0
 40
12.0
 40
12.0
 40
13.0
 40
13.0
 40
13.0
 40
13.0
 10
91.54101017676753
 20
-161.522268297293
 30
0.0
 10
91.51792803701636
 20
-161.4778265655333
 30
0.0
 10
91.49656844500781
 20
-161.425116604609
 30
0.0
 10
91.49450138771665
 20
-161.1942952070973
 30
0.0
 10
91.49036727313435
 20
-160.9510714658386
 30
0.0
 10
91.43111163078807
 20
-160.8811360274881
 30
0.0
 10
91.25334470374916
 20
-160.8811360274881
 30
0.0
 10
91.25334470374916
 20
-160.8811360274881
 30
0.0
 10
90.84510088874707
 20
-160.8811360274881
 30
0.0
 10
90.84510088874707
 20
-160.8811360274881
 30
0.0
 10
90.84510088874707
 20
-160.8811360274881
 30
0.0
 10
90.84510088874707
 20
-161.522268297293
 30
0.0
 10
90.84510088874707
 20
-161.522268297293
 30
0.0
 10
90.84510088874707
 20
-161.522268297293
 30
0.0
 10
90.61014537665302
 20
-161.522268297293
 30
0.0
 10
90.61014537665302
 20
-161.522268297293
 30
0.0
 10
90.61014537665302
 20
-161.522268297293
 30
0.0
 10
90.61014537665302
 20
-159.9778319912556
 30
0.0
 10
90.61014537665302
 20
-159.9778319912556
 30
0.0
 10
90.61014537665302
 20
-159.9778319912556
 30
0.0
 10
91.28503958221347
 20
-159.9778319912556
 30
0.0
 10
91.28503958221347
 20
-159.9778319912556
 30
0.0
 10
91.59199758994923
 20
-159.9778319912556
 30
0.0
 10
91.75908472098385
 20
-160.149397746421
 30
0.0
 10
91.75908472098385
 20
-160.4053683409751
 30
0.0
 10
91.75908472098385
 20
-160.4560112446082
 30
0.0
 10
91.75047198227072
 20
-160.5386935362542
 30
0.0
 10
91.70603025051099
 20
-160.6189642610605
 30
0.0
 10
91.6467746081647
 20
-160.7226616351666
 30
0.0
 10
91.58131779394495
 20
-160.7416096603354
 30
0.0
 10
91.5199950943075
 20
-160.7584906282132
 30
0.0
 10
91.65745440416897
 20
-160.8008653026817
 30
0.0
 10
91.72497827567987
 20
-160.8494411490238
 30
0.0
 10
91.7294568998107
 20
-161.1646673859241
 30
0.0
 10
91.733591014393
 20
-161.4354518910648
 30
0.0
 10
91.76942000743959
 20
-161.4671467695291
 30
0.0
 10
91.83728838849902
 20
-161.522268297293
 30
0.0
 10
91.83728838849902
 20
-161.522268297293
 30
0.0
 10
91.54101017676753
 20
-161.522268297293
 30
0.0
 10
91.54101017676753
 20
-161.522268297293
 30
0.0
  0
SPLINE
  5
65
330
5E
100
AcDbEntity
  8
_U+30EC_U+30A4_U+30E4_U+30FC 1
370
     0
100
AcDbSpline
210
0.0
220
0.0
230
1.0
 70
    11
 71
     3
 72
    20
 73
    16
 74
     0
 42
0.0000000001
 43
0.0000000001
 12
1.0
 22
0.0
 32
0.0
 13
1.0
 23
0.0
 33
0.0
 40
0.0
 40
0.0
 40
0.0
 40
0.0
 40
1.0
 40
1.0
 40
1.0
 40
2.0
 40
2.0
 40
2.0
 40
3.0
 40
3.0
 40
3.0
 40
4.0
 40
4.0
 40
4.0
 40
5.0
 40
5.0
 40
5.0
 40
5.0
 10
91.2895182063443
 20
-160.1893608540499
 30
0.0
 10
91.2895182063443
 20
-160.1893608540499
 30
0.0
 10
90.84510088874707
 20
-160.1893608540499
 30
0.0
 10
90.84510088874707
 20
-160.1893608540499
 30
0.0
 10
90.84510088874707
 20
-160.1893608540499
 30
0.0
 10
90.84510088874707
 20
-160.6696071646937
 30
0.0
 10
90.84510088874707
 20
-160.6696071646937
 30
0.0
 10
90.84510088874707
 20
-160.6696071646937
 30
0.0
 10
91.28710663950461
 20
-160.6696071646937
 30
0.0
 10
91.28710663950461
 20
-160.6696071646937
 30
0.0
 10
91.38666989902833
 20
-160.6696071646937
 30
0.0
 10
91.52206215159866
 20
-160.5934705544697
 30
0.0
 10
91.52206215159866
 20
-160.4222493088528
 30
0.0
 10
91.52206215159866
 20
-160.3440456413376
 30
0.0
 10
91.48830021584321
 20
-160.1893608540499
 30
0.0
 10
91.2895182063443
 20
-160.1893608540499
 30
0.0
  0
HATCH
  5
66
330
5E
100
AcDbEntity
  8
_U+30EC_U+30A4_U+30E4_U+30FC 1
 62
   179
420
  2234388
100
AcDbHatch
 10
0.0
 20
0.0
 30
0.0
210
0.0
220
0.0
230
1.0
  2
SOLID
 70
     1
 71
     0
 91
        2
 92
        1
 93
        1
 72
     4
 94
        3
 73
     0
 74
     1
 95
       44
 96
       40
 40
0.0
 40
0.0
 40
0.0
 40
0.0
 40
1.0
 40
1.0
 40
1.0
 40
2.0
 40
2.0
 40
2.0
 40
3.0
 40
3.0
 40
3.0
 40
4.0
 40
4.0
 40
4.0
 40
5.0
 40
5.0
 40
5.0
 40
6.0
 40
6.0
 40
6.0
 40
7.0
 40
7.0
 40
7.0
 40
8.0
 40
8.0
 40
8.0
 40
9.0
 40
9.0
 40
9.0
 40
10.0
 40
10.0
 40
10.0
 40
11.0
 40
11.0
 40
11.0
 40
12.0
 40
12.0
 40
12.0
 40
13.0
 40
13.0
 40
13.0
 40
13.0
 10
91.54101017676753
 20
-161.522268297293
 10
91.51792803701636
 20
-161.4778265655333
 10
91.49656844500781
 20
-161.425116604609
 10
91.49450138771665
 20
-161.1942952070973
 10
91.49036727313435
 20
-160.9510714658386
 10
91.43111163078807
 20
-160.8811360274881
 10
91.25334470374916
 20
-160.8811360274881
 10
91.25334470374916
 20
-160.8811360274881
 10
90.84510088874707
 20
-160.8811360274881
 10
90.84510088874707
 20
-160.8811360274881
 10
90.84510088874707
 20
-160.8811360274881
 10
90.84510088874707
 20
-161.522268297293
 10
90.84510088874707
 20
-161.522268297293
 10
90.84510088874707
 20
-161.522268297293
 10
90.61014537665302
 20
-161.522268297293
 10
90.61014537665302
 20
-161.522268297293
 10
90.61014537665302
 20
-161.522268297293
 10
90.61014537665302
 20
-159.9778319912556
 10
90.61014537665302
 20
-159.9778319912556
 10
90.61014537665302
 20
-159.9778319912556
 10
91.28503958221347
 20
-159.9778319912556
 10
91.28503958221347
 20
-159.9778319912556
 10
91.59199758994923
 20
-159.9778319912556
 10
91.75908472098385
 20
-160.149397746421
 10
91.75908472098385
 20
-160.4053683409751
 10
91.75908472098385
 20
-160.4560112446082
 10
91.75047198227072
 20
-160.5386935362542
 10
91.70603025051099
 20
-160.6189642610605
 10
91.6467746081647
 20
-160.7226616351666
 10
91.58131779394495
 20
-160.7416096603354
 10
91.5199950943075
 20
-160.7584906282132
 10
91.65745440416897
 20
-160.8008653026817
 10
91.72497827567987
 20
-160.8494411490238
 10
91.7294568998107
 20
-161.1646673859241
 10
91.733591014393
 20
-161.4354518910648
 10
91.76942000743959
 20
-161.4671467695291
 10
91.83728838849902
 20
-161.522268297293
 10
91.83728838849902
 20
-161.522268297293
 10
91.54101017676753
 20
-161.522268297293
 10
91.54101017676753
 20
-161.522268297293
 97
        0
 97
        0
 92
        1
 93
        1
 72
     4
 94
        3
 73
     0
 74
     1
 95
       20
 96
       16
 40
0.0
 40
0.0
 40
0.0
 40
0.0
 40
1.0
 40
1.0
 40
1.0
 40
2.0
 40
2.0
 40
2.0
 40
3.0
 40
3.0
 40
3.0
 40
4.0
 40
4.0
 40
4.0
 40
5.0
 40
5.0
 40
5.0
 40
5.0
 10
91.2895182063443
 20
-160.1893608540499
 10
91.2895182063443
 20
-160.1893608540499
 10
90.84510088874707
 20
-160.1893608540499
 10
90.84510088874707
 20
-160.1893608540499
 10
90.84510088874707
 20
-160.1893608540499
 10
90.84510088874707
 20
-160.6696071646937
 10
90.84510088874707
 20
-160.6696071646937
 10
90.84510088874707
 20
-160.6696071646937
 10
91.28710663950461
 20
-160.6696071646937
 10
91.28710663950461
 20
-160.6696071646937
 10
91.38666989902833
 20
-160.6696071646937
 10
91.52206215159866
 20
-160.5934705544697
 10
91.52206215159866
 20
-160.4222493088528
 10
91.52206215159866
 20
-160.3440456413376
 10
91.48830021584321
 20
-160.1893608540499
 10
91.2895182063443
 20
-160.1893608540499
 97
        0
 97
        0
 75
     2
 76
     1
 98
        0
  0
ENDBLK
  5
61
330
5E
100
AcDbEntity
  8
0
100
AcDbBlockEnd
  0
BLOCK
  5
75
330
73
100
AcDbEntity
  8
0
100
AcDbBlockBegin
  2
block 3
 70
     0
 10
0.0
 20
0.0
 30
0.0
  3
block 3
  1

  0
SPLINE
  5
77
330
73
100
AcDbEntity
  8
_U+30EC_U+30A4_U+30E4_U+30FC 1
370
     0
100
AcDbSpline
210
0.0
220
0.0
230
1.0
 70
    11
 71
     3
 72
    44
 73
    40
 74
     0
 42
0.0000000001
 43
0.0000000001
 12
1.0
 22
0.0
 32
0.0
 13
1.0
 23
0.0
 33
0.0
 40
0.0
 40
0.0
 40
0.0
 40
0.0
 40
1.0
 40
1.0
 40
1.0
 40
2.0
 40
2.0
 40
2.0
 40
3.0
 40
3.0
 40
3.0
 40
4.0
 40
4.0
 40
4.0
 40
5.0
 40
5.0
 40
5.0
 40
6.0
 40
6.0
 40
6.0
 40
7.0
 40
7.0
 40
7.0
 40
8.0
 40
8.0
 40
8.0
 40
9.0
 40
9.0
 40
9.0
 40
10.0
 40
10.0
 40
10.0
 40
11.0
 40
11.0
 40
11.0
 40
12.0
 40
12.0
 40
12.0
 40
13.0
 40
13.0
 40
13.0
 40
13.0
 10
109.2553466523737
 20
-135.4906100464225
 30
0.0
 10
109.0376166177059
 20
-135.6494289482925
 30
0.0
 10
108.9445990396041
 20
-135.7234985012254
 30
0.0
 10
108.8956786837136
 20
-135.8671589829603
 30
0.0
 10
108.8956786837136
 20
-135.8671589829603
 30
0.0
 10
109.6742702633801
 20
-135.8671589829603
 30
0.0
 10
109.6742702633801
 20
-135.8671589829603
 30
0.0
 10
109.6742702633801
 20
-135.8671589829603
 30
0.0
 10
109.6742702633801
 20
-136.0724866738812
 30
0.0
 10
109.6742702633801
 20
-136.0724866738812
 30
0.0
 10
109.6742702633801
 20
-136.0724866738812
 30
0.0
 10
108.6462537705815
 20
-136.0724866738812
 30
0.0
 10
108.6462537705815
 20
-136.0724866738812
 30
0.0
 10
108.6779486490458
 20
-135.7148857625123
 30
0.0
 10
108.7434054632655
 20
-135.6366820949971
 30
0.0
 10
109.1285671385165
 20
-135.3383368259744
 30
0.0
 10
109.3845377330705
 20
-135.1395548164755
 30
0.0
 10
109.4499945472903
 20
-135.0716864354161
 30
0.0
 10
109.4499945472903
 20
-134.9342271255547
 30
0.0
 10
109.4499945472903
 20
-134.8157158408621
 30
0.0
 10
109.3779920516486
 20
-134.6848022124226
 30
0.0
 10
109.1812770994408
 20
-134.6848022124226
 30
0.0
 10
108.9211723903044
 20
-134.6848022124226
 30
0.0
 10
108.9125596515913
 20
-134.9152791003858
 30
0.0
 10
108.908425537009
 20
-135.0317233277872
 30
0.0
 10
108.908425537009
 20
-135.0317233277872
 30
0.0
 10
108.6841498209192
 20
-135.0317233277872
 30
0.0
 10
108.6841498209192
 20
-135.0317233277872
 30
0.0
 10
108.6927625596324
 20
-134.9045993043815
 30
0.0
 10
108.7034423556366
 20
-134.7926337011109
 30
0.0
 10
108.783713080443
 20
-134.6741224164183
 30
0.0
 10
108.8936116264224
 20
-134.5132364572571
 30
0.0
 10
109.0799912921745
 20
-134.4794745215017
 30
0.0
 10
109.1960910100274
 20
-134.4794745215017
 30
0.0
 10
109.47342119659
 20
-134.4794745215017
 30
0.0
 10
109.680815944802
 20
-134.663442620414
 30
0.0
 10
109.680815944802
 20
-134.9362941828458
 30
0.0
 10
109.680815944802
 20
-135.1650485230664
 30
0.0
 10
109.5643717174006
 20
-135.2642672730416
 30
0.0
 10
109.2553466523737
 20
-135.4906100464225
 30
0.0
  0
HATCH
  5
78
330
73
100
AcDbEntity
  8
_U+30EC_U+30A4_U+30E4_U+30FC 1
 62
   179
420
  2234388
100
AcDbHatch
 10
0.0
 20
0.0
 30
0.0
210
0.0
220
0.0
230
1.0
  2
SOLID
 70
     1
 71
     0
 91
        1
 92
        1
 93
        1
 72
     4
 94
        3
 73
     0
 74
     1
 95
       44
 96
       40
 40
0.0
 40
0.0
 40
0.0
 40
0.0
 40
1.0
 40
1.0
 40
1.0
 40
2.0
 40
2.0
 40
2.0
 40
3.0
 40
3.0
 40
3.0
 40
4.0
 40
4.0
 40
4.0
 40
5.0
 40
5.0
 40
5.0
 40
6.0
 40
6.0
 40
6.0
 40
7.0
 40
7.0
 40
7.0
 40
8.0
 40
8.0
 40
8.0
 40
9.0
 40
9.0
 40
9.0
 40
10.0
 40
10.0
 40
10.0
 40
11.0
 40
11.0
 40
11.0
 40
12.0
 40
12.0
 40
12.0
 40
13.0
 40
13.0
 40
13.0
 40
13.0
 10
109.2553466523737
 20
-135.4906100464225
 10
109.0376166177059
 20
-135.6494289482925
 10
108.9445990396041
 20
-135.7234985012254
 10
108.8956786837136
 20
-135.8671589829603
 10
108.8956786837136
 20
-135.8671589829603
 10
109.6742702633801
 20
-135.8671589829603
 10
109.6742702633801
 20
-135.8671589829603
 10
109.6742702633801
 20
-135.8671589829603
 10
109.6742702633801
 20
-136.0724866738812
 10
109.6742702633801
 20
-136.0724866738812
 10
109.6742702633801
 20
-136.0724866738812
 10
108.6462537705815
 20
-136.0724866738812
 10
108.6462537705815
 20
-136.0724866738812
 10
108.6779486490458
 20
-135.7148857625123
 10
108.7434054632655
 20
-135.6366820949971
 10
109.1285671385165
 20
-135.3383368259744
 10
109.3845377330705
 20
-135.1395548164755
 10
109.4499945472903
 20
-135.0716864354161
 10
109.4499945472903
 20
-134.9342271255547
 10
109.4499945472903
 20
-134.8157158408621
 10
109.3779920516486
 20
-134.6848022124226
 10
109.1812770994408
 20
-134.6848022124226
 10
108.9211723903044
 20
-134.6848022124226
 10
108.9125596515913
 20
-134.9152791003858
 10
108.908425537009
 20
-135.0317233277872
 10
108.908425537009
 20
-135.0317233277872
 10
108.6841498209192
 20
-135.0317233277872
 10
108.6841498209192
 20
-135.0317233277872
 10
108.6927625596324
 20
-134.9045993043815
 10
108.7034423556366
 20
-134.7926337011109
 10
108.783713080443
 20
-134.6741224164183
 10
108.8936116264224
 20
-134.5132364572571
 10
109.0799912921745
 20
-134.4794745215017
 10
109.1960910100274
 20
-134.4794745215017
 10
109.47342119659
 20
-134.4794745215017
 10
109.680815944802
 20
-134.663442620414
 10
109.680815944802
 20
-134.9362941828458
 10
109.680815944802
 20
-135.1650485230664
 10
109.5643717174006
 20
-135.2642672730416
 10
109.2553466523737
 20
-135.4906100464225
 97
        0
 97
        0
 75
     2
 76
     1
 98
        0
  0
SPLINE
  5
79
330
73
100
AcDbEntity
  8
_U+30EC_U+30A4_U+30E4_U+30FC 1
370
     0
100
AcDbSpline
210
0.0
220
0.0
230
1.0
 70
    11
 71
     3
 72
    62
 73
    58
 74
     0
 42
0.0000000001
 43
0.0000000001
 12
1.0
 22
0.0
 32
0.0
 13
1.0
 23
0.0
 33
0.0
 40
0.0
 40
0.0
 40
0.0
 40
0.0
 40
1.0
 40
1.0
 40
1.0
 40
2.0
 40
2.0
 40
2.0
 40
3.0
 40
3.0
 40
3.0
 40
4.0
 40
4.0
 40
4.0
 40
5.0
 40
5.0
 40
5.0
 40
6.0
 40
6.0
 40
6.0
 40
7.0
 40
7.0
 40
7.0
 40
8.0
 40
8.0
 40
8.0
 40
9.0
 40
9.0
 40
9.0
 40
10.0
 40
10.0
 40
10.0
 40
11.0
 40
11.0
 40
11.0
 40
12.0
 40
12.0
 40
12.0
 40
13.0
 40
13.0
 40
13.0
 40
14.0
 40
14.0
 40
14.0
 40
15.0
 40
15.0
 40
15.0
 40
16.0
 40
16.0
 40
16.0
 40
17.0
 40
17.0
 40
17.0
 40
18.0
 40
18.0
 40
18.0
 40
19.0
 40
19.0
 40
19.0
 40
19.0
 10
110.3309054628687
 20
-136.1231295775144
 30
0.0
 10
110.2354763179273
 20
-136.1231295775144
 30
0.0
 10
110.0177462832595
 20
-136.1021144950543
 30
0.0
 10
109.8926893171449
 20
-135.9160793388508
 30
0.0
 10
109.818619764212
 20
-135.8037692260317
 30
0.0
 10
109.8144856496297
 20
-135.7045504760565
 30
0.0
 10
109.8103515350474
 20
-135.6198011271194
 30
0.0
 10
109.8103515350474
 20
-135.6198011271194
 30
0.0
 10
110.0304931365549
 20
-135.6198011271194
 30
0.0
 10
110.0304931365549
 20
-135.6198011271194
 30
0.0
 10
110.032560193846
 20
-135.6938706800522
 30
0.0
 10
110.0428954803018
 20
-135.9284816825977
 30
0.0
 10
110.3264268387378
 20
-135.9284816825977
 30
0.0
 10
110.4638861485993
 20
-135.9284816825977
 30
0.0
 10
110.6165038785959
 20
-135.8588907537957
 30
0.0
 10
110.6165038785959
 20
-135.6304809231236
 30
0.0
 10
110.6165038785959
 20
-135.5140366957222
 30
0.0
 10
110.5782633187096
 20
-135.4654608493802
 30
0.0
 10
110.5465684402453
 20
-135.4337659709159
 30
0.0
 10
110.4724988873124
 20
-135.359696417983
 30
0.0
 10
110.356054659911
 20
-135.3469495646876
 30
0.0
 10
110.3012776416955
 20
-135.3469495646876
 30
0.0
 10
110.2819851069781
 20
-135.3469495646876
 30
0.0
 10
110.2461561139315
 20
-135.3490166219787
 30
0.0
 10
110.2185953500495
 20
-135.353150736561
 30
0.0
 10
110.2185953500495
 20
-135.353150736561
 30
0.0
 10
110.2185953500495
 20
-135.1585028416444
 30
0.0
 10
110.2185953500495
 20
-135.1585028416444
 30
0.0
 10
110.2568359099358
 20
-135.1650485230664
 30
0.0
 10
110.2988660748558
 20
-135.1671155803575
 30
0.0
 10
110.3054117562778
 20
-135.1671155803575
 30
0.0
 10
110.3708685704976
 20
-135.1671155803575
 30
0.0
 10
110.5696505799965
 20
-135.145755988349
 30
0.0
 10
110.5696505799965
 20
-134.9090779285123
 30
0.0
 10
110.5696505799965
 20
-134.7313110014734
 30
0.0
 10
110.438736951557
 20
-134.6761894737094
 30
0.0
 10
110.328493896029
 20
-134.6761894737094
 30
0.0
 10
110.0642550723103
 20
-134.6761894737094
 30
0.0
 10
110.0556423335972
 20
-134.9090779285123
 30
0.0
 10
110.0515082190149
 20
-134.9807359146055
 30
0.0
 10
110.0515082190149
 20
-134.9807359146055
 30
0.0
 10
109.8482475853852
 20
-134.9807359146055
 30
0.0
 10
109.8482475853852
 20
-134.9807359146055
 30
0.0
 10
109.8568603240983
 20
-134.8560234580395
 30
0.0
 10
109.8844210879803
 20
-134.4794745215017
 30
0.0
 10
110.3412407493244
 20
-134.4794745215017
 30
0.0
 10
110.5655164654142
 20
-134.4794745215017
 30
0.0
 10
110.8066731493817
 20
-134.6065985449074
 30
0.0
 10
110.8066731493817
 20
-134.9025322470903
 30
0.0
 10
110.8066731493817
 20
-135.0889119128423
 30
0.0
 10
110.7115885139888
 20
-135.1712496949398
 30
0.0
 10
110.6120252544651
 20
-135.2325723945773
 30
0.0
 10
110.6733479541025
 20
-135.2601331584593
 30
0.0
 10
110.8552489957237
 20
-135.3404038832656
 30
0.0
 10
110.8552489957237
 20
-135.6177340698282
 30
0.0
 10
110.8552489957237
 20
-135.9560424464798
 30
0.0
 10
110.6078911398828
 20
-136.1231295775144
 30
0.0
 10
110.3309054628687
 20
-136.1231295775144
 30
0.0
  0
HATCH
  5
7A
330
73
100
AcDbEntity
  8
_U+30EC_U+30A4_U+30E4_U+30FC 1
 62
   179
420
  2234388
100
AcDbHatch
 10
0.0
 20
0.0
 30
0.0
210
0.0
220
0.0
230
1.0
  2
SOLID
 70
     1
 71
     0
 91
        1
 92
        1
 93
        1
 72
     4
 94
        3
 73
     0
 74
     1
 95
       62
 96
       58
 40
0.0
 40
0.0
 40
0.0
 40
0.0
 40
1.0
 40
1.0
 40
1.0
 40
2.0
 40
2.0
 40
2.0
 40
3.0
 40
3.0
 40
3.0
 40
4.0
 40
4.0
 40
4.0
 40
5.0
 40
5.0
 40
5.0
 40
6.0
 40
6.0
 40
6.0
 40
7.0
 40
7.0
 40
7.0
 40
8.0
 40
8.0
 40
8.0
 40
9.0
 40
9.0
 40
9.0
 40
10.0
 40
10.0
 40
10.0
 40
11.0
 40
11.0
 40
11.0
 40
12.0
 40
12.0
 40
12.0
 40
13.0
 40
13.0
 40
13.0
 40
14.0
 40
14.0
 40
14.0
 40
15.0
 40
15.0
 40
15.0
 40
16.0
 40
16.0
 40
16.0
 40
17.0
 40
17.0
 40
17.0
 40
18.0
 40
18.0
 40
18.0
 40
19.0
 40
19.0
 40
19.0
 40
19.0
 10
110.3309054628687
 20
-136.1231295775144
 10
110.2354763179273
 20
-136.1231295775144
 10
110.0177462832595
 20
-136.1021144950543
 10
109.8926893171449
 20
-135.9160793388508
 10
109.818619764212
 20
-135.8037692260317
 10
109.8144856496297
 20
-135.7045504760565
 10
109.8103515350474
 20
-135.6198011271194
 10
109.8103515350474
 20
-135.6198011271194
 10
110.0304931365549
 20
-135.6198011271194
 10
110.0304931365549
 20
-135.6198011271194
 10
110.032560193846
 20
-135.6938706800522
 10
110.0428954803018
 20
-135.9284816825977
 10
110.3264268387378
 20
-135.9284816825977
 10
110.4638861485993
 20
-135.9284816825977
 10
110.6165038785959
 20
-135.8588907537957
 10
110.6165038785959
 20
-135.6304809231236
 10
110.6165038785959
 20
-135.5140366957222
 10
110.5782633187096
 20
-135.4654608493802
 10
110.5465684402453
 20
-135.4337659709159
 10
110.4724988873124
 20
-135.359696417983
 10
110.356054659911
 20
-135.3469495646876
 10
110.3012776416955
 20
-135.3469495646876
 10
110.2819851069781
 20
-135.3469495646876
 10
110.2461561139315
 20
-135.3490166219787
 10
110.2185953500495
 20
-135.353150736561
 10
110.2185953500495
 20
-135.353150736561
 10
110.2185953500495
 20
-135.1585028416444
 10
110.2185953500495
 20
-135.1585028416444
 10
110.2568359099358
 20
-135.1650485230664
 10
110.2988660748558
 20
-135.1671155803575
 10
110.3054117562778
 20
-135.1671155803575
 10
110.3708685704976
 20
-135.1671155803575
 10
110.5696505799965
 20
-135.145755988349
 10
110.5696505799965
 20
-134.9090779285123
 10
110.5696505799965
 20
-134.7313110014734
 10
110.438736951557
 20
-134.6761894737094
 10
110.328493896029
 20
-134.6761894737094
 10
110.0642550723103
 20
-134.6761894737094
 10
110.0556423335972
 20
-134.9090779285123
 10
110.0515082190149
 20
-134.9807359146055
 10
110.0515082190149
 20
-134.9807359146055
 10
109.8482475853852
 20
-134.9807359146055
 10
109.8482475853852
 20
-134.9807359146055
 10
109.8568603240983
 20
-134.8560234580395
 10
109.8844210879803
 20
-134.4794745215017
 10
110.3412407493244
 20
-134.4794745215017
 10
110.5655164654142
 20
-134.4794745215017
 10
110.8066731493817
 20
-134.6065985449074
 10
110.8066731493817
 20
-134.9025322470903
 10
110.8066731493817
 20
-135.0889119128423
 10
110.7115885139888
 20
-135.1712496949398
 10
110.6120252544651
 20
-135.2325723945773
 10
110.6733479541025
 20
-135.2601331584593
 10
110.8552489957237
 20
-135.3404038832656
 10
110.8552489957237
 20
-135.6177340698282
 10
110.8552489957237
 20
-135.9560424464798
 10
110.6078911398828
 20
-136.1231295775144
 10
110.3309054628687
 20
-136.1231295775144
 97
        0
 97
        0
 75
     2
 76
     1
 98
        0
  0
ENDBLK
  5
76
330
73
100
AcDbEntity
  8
0
100
AcDbBlockEnd
  0
BLOCK
  5
85
330
83
100
AcDbEntity
  8
0
100
AcDbBlockBegin
  2
block 4
 70
     0
 10
0.0
 20
0.0
 30
0.0
  3
block 4
  1

  0
SPLINE
  5
87
330
83
100
AcDbEntity
  8
_U+30EC_U+30A4_U+30E4_U+30FC 1
370
     0
100
AcDbSpline
210
0.0
220
0.0
230
1.0
 70
    11
 71
     3
 72
    26
 73
    22
 74
     0
 42
0.0000000001
 43
0.0000000001
 12
1.0
 22
0.0
 32
0.0
 13
1.0
 23
0.0
 33
0.0
 40
0.0
 40
0.0
 40
0.0
 40
0.0
 40
1.0
 40
1.0
 40
1.0
 40
2.0
 40
2.0
 40
2.0
 40
3.0
 40
3.0
 40
3.0
 40
4.0
 40
4.0
 40
4.0
 40
5.0
 40
5.0
 40
5.0
 40
6.0
 40
6.0
 40
6.0
 40
7.0
 40
7.0
 40
7.0
 40
7.0
 10
99.52260739699435
 20
-141.323501212499
 30
0.0
 10
99.52260739699435
 20
-141.323501212499
 30
0.0
 10
99.52260739699435
 20
-140.2193481094764
 30
0.0
 10
99.52260739699435
 20
-140.2193481094764
 30
0.0
 10
99.52260739699435
 20
-140.2193481094764
 30
0.0
 10
99.19256724950742
 20
-140.2193481094764
 30
0.0
 10
99.19256724950742
 20
-140.2193481094764
 30
0.0
 10
99.19256724950742
 20
-140.2193481094764
 30
0.0
 10
99.19256724950742
 20
-140.0712090036107
 30
0.0
 10
99.19256724950742
 20
-140.0712090036107
 30
0.0
 10
99.5246744542855
 20
-140.0563950930241
 30
0.0
 10
99.57118324333638
 20
-139.8934420765718
 30
0.0
 10
99.60081106450953
 20
-139.7790649064615
 30
0.0
 10
99.60081106450953
 20
-139.7790649064615
 30
0.0
 10
99.74688311308412
 20
-139.7790649064615
 30
0.0
 10
99.74688311308412
 20
-139.7790649064615
 30
0.0
 10
99.74688311308412
 20
-139.7790649064615
 30
0.0
 10
99.74688311308412
 20
-141.323501212499
 30
0.0
 10
99.74688311308412
 20
-141.323501212499
 30
0.0
 10
99.74688311308412
 20
-141.323501212499
 30
0.0
 10
99.52260739699435
 20
-141.323501212499
 30
0.0
 10
99.52260739699435
 20
-141.323501212499
 30
0.0
  0
HATCH
  5
88
330
83
100
AcDbEntity
  8
_U+30EC_U+30A4_U+30E4_U+30FC 1
 62
   179
420
  2234388
100
AcDbHatch
 10
0.0
 20
0.0
 30
0.0
210
0.0
220
0.0
230
1.0
  2
SOLID
 70
     1
 71
     0
 91
        1
 92
        1
 93
        1
 72
     4
 94
        3
 73
     0
 74
     1
 95
       26
 96
       22
 40
0.0
 40
0.0
 40
0.0
 40
0.0
 40
1.0
 40
1.0
 40
1.0
 40
2.0
 40
2.0
 40
2.0
 40
3.0
 40
3.0
 40
3.0
 40
4.0
 40
4.0
 40
4.0
 40
5.0
 40
5.0
 40
5.0
 40
6.0
 40
6.0
 40
6.0
 40
7.0
 40
7.0
 40
7.0
 40
7.0
 10
99.52260739699435
 20
-141.323501212499
 10
99.52260739699435
 20
-141.323501212499
 10
99.52260739699435
 20
-140.2193481094764
 10
99.52260739699435
 20
-140.2193481094764
 10
99.52260739699435
 20
-140.2193481094764
 10
99.19256724950742
 20
-140.2193481094764
 10
99.19256724950742
 20
-140.2193481094764
 10
99.19256724950742
 20
-140.2193481094764
 10
99.19256724950742
 20
-140.0712090036107
 10
99.19256724950742
 20
-140.0712090036107
 10
99.5246744542855
 20
-140.0563950930241
 10
99.57118324333638
 20
-139.8934420765718
 10
99.60081106450953
 20
-139.7790649064615
 10
99.60081106450953
 20
-139.7790649064615
 10
99.74688311308412
 20
-139.7790649064615
 10
99.74688311308412
 20
-139.7790649064615
 10
99.74688311308412
 20
-139.7790649064615
 10
99.74688311308412
 20
-141.323501212499
 10
99.74688311308412
 20
-141.323501212499
 10
99.74688311308412
 20
-141.323501212499
 10
99.52260739699435
 20
-141.323501212499
 10
99.52260739699435
 20
-141.323501212499
 97
        0
 97
        0
 75
     2
 76
     1
 98
        0
  0
ENDBLK
  5
86
330
83
100
AcDbEntity
  8
0
100
AcDbBlockEnd
  0
BLOCK
  5
97
330
95
100
AcDbEntity
  8
0
100
AcDbBlockBegin
  2
block 5
 70
     0
 10
0.0
 20
0.0
 30
0.0
  3
block 5
  1

  0
SPLINE
  5
99
330
95
100
AcDbEntity
  8
_U+30EC_U+30A4_U+30E4_U+30FC 1
370
     0
100
AcDbSpline
210
0.0
220
0.0
230
1.0
 70
    11
 71
     3
 72
    26
 73
    22
 74
     0
 42
0.0000000001
 43
0.0000000001
 12
1.0
 22
0.0
 32
0.0
 13
1.0
 23
0.0
 33
0.0
 40
0.0
 40
0.0
 40
0.0
 40
0.0
 40
1.0
 40
1.0
 40
1.0
 40
2.0
 40
2.0
 40
2.0
 40
3.0
 40
3.0
 40
3.0
 40
4.0
 40
4.0
 40
4.0
 40
5.0
 40
5.0
 40
5.0
 40
6.0
 40
6.0
 40
6.0
 40
7.0
 40
7.0
 40
7.0
 40
7.0
 10
106.1137640793743
 20
-162.0724500462875
 30
0.0
 10
106.1137640793743
 20
-162.0724500462875
 30
0.0
 10
106.1137640793743
 20
-160.9682969432649
 30
0.0
 10
106.1137640793743
 20
-160.9682969432649
 30
0.0
 10
106.1137640793743
 20
-160.9682969432649
 30
0.0
 10
105.7837239318874
 20
-160.9682969432649
 30
0.0
 10
105.7837239318874
 20
-160.9682969432649
 30
0.0
 10
105.7837239318874
 20
-160.9682969432649
 30
0.0
 10
105.7837239318874
 20
-160.8201578373991
 30
0.0
 10
105.7837239318874
 20
-160.8201578373991
 30
0.0
 10
106.1158311366655
 20
-160.8053439268126
 30
0.0
 10
106.1623399257164
 20
-160.6423909103602
 30
0.0
 10
106.1919677468895
 20
-160.5280137402499
 30
0.0
 10
106.1919677468895
 20
-160.5280137402499
 30
0.0
 10
106.3380397954641
 20
-160.5280137402499
 30
0.0
 10
106.3380397954641
 20
-160.5280137402499
 30
0.0
 10
106.3380397954641
 20
-160.5280137402499
 30
0.0
 10
106.3380397954641
 20
-162.0724500462875
 30
0.0
 10
106.3380397954641
 20
-162.0724500462875
 30
0.0
 10
106.3380397954641
 20
-162.0724500462875
 30
0.0
 10
106.1137640793743
 20
-162.0724500462875
 30
0.0
 10
106.1137640793743
 20
-162.0724500462875
 30
0.0
  0
HATCH
  5
9A
330
95
100
AcDbEntity
  8
_U+30EC_U+30A4_U+30E4_U+30FC 1
 62
   179
420
  2234388
100
AcDbHatch
 10
0.0
 20
0.0
 30
0.0
210
0.0
220
0.0
230
1.0
  2
SOLID
 70
     1
 71
     0
 91
        1
 92
        1
 93
        1
 72
     4
 94
        3
 73
     0
 74
     1
 95
       26
 96
       22
 40
0.0
 40
0.0
 40
0.0
 40
0.0
 40
1.0
 40
1.0
 40
1.0
 40
2.0
 40
2.0
 40
2.0
 40
3.0
 40
3.0
 40
3.0
 40
4.0
 40
4.0
 40
4.0
 40
5.0
 40
5.0
 40
5.0
 40
6.0
 40
6.0
 40
6.0
 40
7.0
 40
7.0
 40
7.0
 40
7.0
 10
106.1137640793743
 20
-162.0724500462875
 10
106.1137640793743
 20
-162.0724500462875
 10
106.1137640793743
 20
-160.9682969432649
 10
106.1137640793743
 20
-160.9682969432649
 10
106.1137640793743
 20
-160.9682969432649
 10
105.7837239318874
 20
-160.9682969432649
 10
105.7837239318874
 20
-160.9682969432649
 10
105.7837239318874
 20
-160.9682969432649
 10
105.7837239318874
 20
-160.8201578373991
 10
105.7837239318874
 20
-160.8201578373991
 10
106.1158311366655
 20
-160.8053439268126
 10
106.1623399257164
 20
-160.6423909103602
 10
106.1919677468895
 20
-160.5280137402499
 10
106.1919677468895
 20
-160.5280137402499
 10
106.3380397954641
 20
-160.5280137402499
 10
106.3380397954641
 20
-160.5280137402499
 10
106.3380397954641
 20
-160.5280137402499
 10
106.3380397954641
 20
-162.0724500462875
 10
106.3380397954641
 20
-162.0724500462875
 10
106.3380397954641
 20
-162.0724500462875
 10
106.1137640793743
 20
-162.0724500462875
 10
106.1137640793743
 20
-162.0724500462875
 97
        0
 97
        0
 75
     2
 76
     1
 98
        0
  0
SPLINE
  5
9B
330
95
100
AcDbEntity
  8
_U+30EC_U+30A4_U+30E4_U+30FC 1
370
     0
100
AcDbSpline
210
0.0
220
0.0
230
1.0
 70
    11
 71
     3
 72
    32
 73
    28
 74
     0
 42
0.0000000001
 43
0.0000000001
 12
1.0
 22
0.0
 32
0.0
 13
1.0
 23
0.0
 33
0.0
 40
0.0
 40
0.0
 40
0.0
 40
0.0
 40
1.0
 40
1.0
 40
1.0
 40
2.0
 40
2.0
 40
2.0
 40
3.0
 40
3.0
 40
3.0
 40
4.0
 40
4.0
 40
4.0
 40
5.0
 40
5.0
 40
5.0
 40
6.0
 40
6.0
 40
6.0
 40
7.0
 40
7.0
 40
7.0
 40
8.0
 40
8.0
 40
8.0
 40
9.0
 40
9.0
 40
9.0
 40
9.0
 10
107.2968098690091
 20
-162.1230929499206
 30
0.0
 10
107.1235215661011
 20
-162.1230929499206
 30
0.0
 10
106.8778862580028
 20
-162.0535020211186
 30
0.0
 10
106.839990207665
 20
-161.7213948163405
 30
0.0
 10
106.839990207665
 20
-161.7213948163405
 30
0.0
 10
107.0535861277505
 20
-161.7213948163405
 30
0.0
 10
107.0535861277505
 20
-161.7213948163405
 30
0.0
 10
107.0642659237548
 20
-161.7806504586868
 30
0.0
 10
107.0959608022191
 20
-161.928445055004
 30
0.0
 10
107.2988769263003
 20
-161.928445055004
 30
0.0
 10
107.5910210234495
 20
-161.928445055004
 30
0.0
 10
107.6289170737872
 20
-161.5984049075171
 30
0.0
 10
107.6416639270826
 20
-161.3934217261447
 30
0.0
 10
107.5507134062721
 20
-161.473692450951
 30
0.0
 10
107.4831895347612
 20
-161.5308810360062
 30
0.0
 10
107.30128849314
 20
-161.5308810360062
 30
0.0
 10
107.1214545088099
 20
-161.5308810360062
 30
0.0
 10
106.8186306156565
 20
-161.425116604609
 30
0.0
 10
106.8186306156565
 20
-161.0189398468981
 30
0.0
 10
106.8186306156565
 20
-160.6995794954154
 30
0.0
 10
107.0177571347039
 20
-160.4794378939079
 30
0.0
 10
107.3350504288954
 20
-160.4794378939079
 30
0.0
 10
107.8490586752947
 20
-160.4794378939079
 30
0.0
 10
107.859738471299
 20
-161.0337537574846
 30
0.0
 10
107.859738471299
 20
-161.2473496775701
 30
0.0
 10
107.859738471299
 20
-161.4778265655333
 30
0.0
 10
107.8404459365816
 20
-162.1230929499206
 30
0.0
 10
107.2968098690091
 20
-162.1230929499206
 30
0.0
  0
SPLINE
  5
9C
330
95
100
AcDbEntity
  8
_U+30EC_U+30A4_U+30E4_U+30FC 1
370
     0
100
AcDbSpline
210
0.0
220
0.0
230
1.0
 70
    11
 71
     3
 72
    17
 73
    13
 74
     0
 42
0.0000000001
 43
0.0000000001
 12
1.0
 22
0.0
 32
0.0
 13
1.0
 23
0.0
 33
0.0
 40
0.0
 40
0.0
 40
0.0
 40
0.0
 40
1.0
 40
1.0
 40
1.0
 40
2.0
 40
2.0
 40
2.0
 40
3.0
 40
3.0
 40
3.0
 40
4.0
 40
4.0
 40
4.0
 40
4.0
 10
107.3371174861866
 20
-160.6720187315334
 30
0.0
 10
107.218606201494
 20
-160.6720187315334
 30
0.0
 10
107.0429063317462
 20
-160.7292073165885
 30
0.0
 10
107.0429063317462
 20
-161.0148057323158
 30
0.0
 10
107.0429063317462
 20
-161.2411485056967
 30
0.0
 10
107.1827772084474
 20
-161.3362331410896
 30
0.0
 10
107.3181694610177
 20
-161.3362331410896
 30
0.0
 10
107.5803412274452
 20
-161.3362331410896
 30
0.0
 10
107.6185817873315
 20
-161.1267713355864
 30
0.0
 10
107.6185817873315
 20
-161.0103271081849
 30
0.0
 10
107.6185817873315
 20
-160.8349717479857
 30
0.0
 10
107.52315264239
 20
-160.6720187315334
 30
0.0
 10
107.3371174861866
 20
-160.6720187315334
 30
0.0
  0
HATCH
  5
9D
330
95
100
AcDbEntity
  8
_U+30EC_U+30A4_U+30E4_U+30FC 1
 62
   179
420
  2234388
100
AcDbHatch
 10
0.0
 20
0.0
 30
0.0
210
0.0
220
0.0
230
1.0
  2
SOLID
 70
     1
 71
     0
 91
        2
 92
        1
 93
        1
 72
     4
 94
        3
 73
     0
 74
     1
 95
       32
 96
       28
 40
0.0
 40
0.0
 40
0.0
 40
0.0
 40
1.0
 40
1.0
 40
1.0
 40
2.0
 40
2.0
 40
2.0
 40
3.0
 40
3.0
 40
3.0
 40
4.0
 40
4.0
 40
4.0
 40
5.0
 40
5.0
 40
5.0
 40
6.0
 40
6.0
 40
6.0
 40
7.0
 40
7.0
 40
7.0
 40
8.0
 40
8.0
 40
8.0
 40
9.0
 40
9.0
 40
9.0
 40
9.0
 10
107.2968098690091
 20
-162.1230929499206
 10
107.1235215661011
 20
-162.1230929499206
 10
106.8778862580028
 20
-162.0535020211186
 10
106.839990207665
 20
-161.7213948163405
 10
106.839990207665
 20
-161.7213948163405
 10
107.0535861277505
 20
-161.7213948163405
 10
107.0535861277505
 20
-161.7213948163405
 10
107.0642659237548
 20
-161.7806504586868
 10
107.0959608022191
 20
-161.928445055004
 10
107.2988769263003
 20
-161.928445055004
 10
107.5910210234495
 20
-161.928445055004
 10
107.6289170737872
 20
-161.5984049075171
 10
107.6416639270826
 20
-161.3934217261447
 10
107.5507134062721
 20
-161.473692450951
 10
107.4831895347612
 20
-161.5308810360062
 10
107.30128849314
 20
-161.5308810360062
 10
107.1214545088099
 20
-161.5308810360062
 10
106.8186306156565
 20
-161.425116604609
 10
106.8186306156565
 20
-161.0189398468981
 10
106.8186306156565
 20
-160.6995794954154
 10
107.0177571347039
 20
-160.4794378939079
 10
107.3350504288954
 20
-160.4794378939079
 10
107.8490586752947
 20
-160.4794378939079
 10
107.859738471299
 20
-161.0337537574846
 10
107.859738471299
 20
-161.2473496775701
 10
107.859738471299
 20
-161.4778265655333
 10
107.8404459365816
 20
-162.1230929499206
 10
107.2968098690091
 20
-162.1230929499206
 97
        0
 97
        0
 92
        1
 93
        1
 72
     4
 94
        3
 73
     0
 74
     1
 95
       17
 96
       13
 40
0.0
 40
0.0
 40
0.0
 40
0.0
 40
1.0
 40
1.0
 40
1.0
 40
2.0
 40
2.0
 40
2.0
 40
3.0
 40
3.0
 40
3.0
 40
4.0
 40
4.0
 40
4.0
 40
4.0
 10
107.3371174861866
 20
-160.6720187315334
 10
107.218606201494
 20
-160.6720187315334
 10
107.0429063317462
 20
-160.7292073165885
 10
107.0429063317462
 20
-161.0148057323158
 10
107.0429063317462
 20
-161.2411485056967
 10
107.1827772084474
 20
-161.3362331410896
 10
107.3181694610177
 20
-161.3362331410896
 10
107.5803412274452
 20
-161.3362331410896
 10
107.6185817873315
 20
-161.1267713355864
 10
107.6185817873315
 20
-161.0103271081849
 10
107.6185817873315
 20
-160.8349717479857
 10
107.52315264239
 20
-160.6720187315334
 10
107.3371174861866
 20
-160.6720187315334
 97
        0
 97
        0
 75
     2
 76
     1
 98
        0
  0
ENDBLK
  5
98
330
95
100
AcDbEntity
  8
0
100
AcDbBlockEnd
  0
BLOCK
  5
AC
330
AA
100
AcDbEntity
  8
0
100
AcDbBlockBegin
  2
block 6
 70
     0
 10
0.0
 20
0.0
 30
0.0
  3
block 6
  1

  0
SPLINE
  5
AE
330
AA
100
AcDbEntity
  8
_U+30EC_U+30A4_U+30E4_U+30FC 1
370
     0
100
AcDbSpline
210
0.0
220
0.0
230
1.0
 70
    11
 71
     3
 72
    26
 73
    22
 74
     0
 42
0.0000000001
 43
0.0000000001
 12
1.0
 22
0.0
 32
0.0
 13
1.0
 23
0.0
 33
0.0
 40
0.0
 40
0.0
 40
0.0
 40
0.0
 40
1.0
 40
1.0
 40
1.0
 40
2.0
 40
2.0
 40
2.0
 40
3.0
 40
3.0
 40
3.0
 40
4.0
 40
4.0
 40
4.0
 40
5.0
 40
5.0
 40
5.0
 40
6.0
 40
6.0
 40
6.0
 40
7.0
 40
7.0
 40
7.0
 40
7.0
 10
118.7355604086842
 20
-151.9207871799018
 30
0.0
 10
118.7355604086842
 20
-151.9207871799018
 30
0.0
 10
117.6314073056616
 20
-151.9207871799018
 30
0.0
 10
117.6314073056616
 20
-151.9207871799018
 30
0.0
 10
117.6314073056616
 20
-151.9207871799018
 30
0.0
 10
117.6314073056616
 20
-152.2508273273887
 30
0.0
 10
117.6314073056616
 20
-152.2508273273887
 30
0.0
 10
117.6314073056616
 20
-152.2508273273887
 30
0.0
 10
117.4832681997959
 20
-152.2508273273887
 30
0.0
 10
117.4832681997959
 20
-152.2508273273887
 30
0.0
 10
117.4684542892093
 20
-151.9187201226106
 30
0.0
 10
117.305501272757
 20
-151.8722113335597
 30
0.0
 10
117.1911241026467
 20
-151.8425835123866
 30
0.0
 10
117.1911241026467
 20
-151.8425835123866
 30
0.0
 10
117.1911241026467
 20
-151.696511463812
 30
0.0
 10
117.1911241026467
 20
-151.696511463812
 30
0.0
 10
117.1911241026467
 20
-151.696511463812
 30
0.0
 10
118.7355604086842
 20
-151.696511463812
 30
0.0
 10
118.7355604086842
 20
-151.696511463812
 30
0.0
 10
118.7355604086842
 20
-151.696511463812
 30
0.0
 10
118.7355604086842
 20
-151.9207871799018
 30
0.0
 10
118.7355604086842
 20
-151.9207871799018
 30
0.0
  0
HATCH
  5
AF
330
AA
100
AcDbEntity
  8
_U+30EC_U+30A4_U+30E4_U+30FC 1
 62
   179
420
  2234388
100
AcDbHatch
 10
0.0
 20
0.0
 30
0.0
210
0.0
220
0.0
230
1.0
  2
SOLID
 70
     1
 71
     0
 91
        1
 92
        1
 93
        1
 72
     4
 94
        3
 73
     0
 74
     1
 95
       26
 96
       22
 40
0.0
 40
0.0
 40
0.0
 40
0.0
 40
1.0
 40
1.0
 40
1.0
 40
2.0
 40
2.0
 40
2.0
 40
3.0
 40
3.0
 40
3.0
 40
4.0
 40
4.0
 40
4.0
 40
5.0
 40
5.0
 40
5.0
 40
6.0
 40
6.0
 40
6.0
 40
7.0
 40
7.0
 40
7.0
 40
7.0
 10
118.7355604086842
 20
-151.9207871799018
 10
118.7355604086842
 20
-151.9207871799018
 10
117.6314073056616
 20
-151.9207871799018
 10
117.6314073056616
 20
-151.9207871799018
 10
117.6314073056616
 20
-151.9207871799018
 10
117.6314073056616
 20
-152.2508273273887
 10
117.6314073056616
 20
-152.2508273273887
 10
117.6314073056616
 20
-152.2508273273887
 10
117.4832681997959
 20
-152.2508273273887
 10
117.4832681997959
 20
-152.2508273273887
 10
117.4684542892093
 20
-151.9187201226106
 10
117.305501272757
 20
-151.8722113335597
 10
117.1911241026467
 20
-151.8425835123866
 10
117.1911241026467
 20
-151.8425835123866
 10
117.1911241026467
 20
-151.696511463812
 10
117.1911241026467
 20
-151.696511463812
 10
117.1911241026467
 20
-151.696511463812
 10
118.7355604086842
 20
-151.696511463812
 10
118.7355604086842
 20
-151.696511463812
 10
118.7355604086842
 20
-151.696511463812
 10
118.7355604086842
 20
-151.9207871799018
 10
118.7355604086842
 20
-151.9207871799018
 97
        0
 97
        0
 75
     2
 76
     1
 98
        0
  0
SPLINE
  5
B0
330
AA
100
AcDbEntity
  8
_U+30EC_U+30A4_U+30E4_U+30FC 1
370
     0
100
AcDbSpline
210
0.0
220
0.0
230
1.0
 70
    11
 71
     3
 72
    62
 73
    58
 74
     0
 42
0.0000000001
 43
0.0000000001
 12
1.0
 22
0.0
 32
0.0
 13
1.0
 23
0.0
 33
0.0
 40
0.0
 40
0.0
 40
0.0
 40
0.0
 40
1.0
 40
1.0
 40
1.0
 40
2.0
 40
2.0
 40
2.0
 40
3.0
 40
3.0
 40
3.0
 40
4.0
 40
4.0
 40
4.0
 40
5.0
 40
5.0
 40
5.0
 40
6.0
 40
6.0
 40
6.0
 40
7.0
 40
7.0
 40
7.0
 40
8.0
 40
8.0
 40
8.0
 40
9.0
 40
9.0
 40
9.0
 40
10.0
 40
10.0
 40
10.0
 40
11.0
 40
11.0
 40
11.0
 40
12.0
 40
12.0
 40
12.0
 40
13.0
 40
13.0
 40
13.0
 40
14.0
 40
14.0
 40
14.0
 40
15.0
 40
15.0
 40
15.0
 40
16.0
 40
16.0
 40
16.0
 40
17.0
 40
17.0
 40
17.0
 40
18.0
 40
18.0
 40
18.0
 40
19.0
 40
19.0
 40
19.0
 40
19.0
 10
118.7862033123173
 20
-150.703634944963
 30
0.0
 10
118.7862033123173
 20
-150.7990640899044
 30
0.0
 10
118.7651882298573
 20
-151.0167941245722
 30
0.0
 10
118.5791530736538
 20
-151.1418510906868
 30
0.0
 10
118.4668429608347
 20
-151.2155761340711
 30
0.0
 10
118.3676242108595
 20
-151.2200547582019
 30
0.0
 10
118.2828748619223
 20
-151.2241888727842
 30
0.0
 10
118.2828748619223
 20
-151.2241888727842
 30
0.0
 10
118.2828748619223
 20
-151.0040472712768
 30
0.0
 10
118.2828748619223
 20
-151.0040472712768
 30
0.0
 10
118.3569444148552
 20
-151.0019802139856
 30
0.0
 10
118.5915554174007
 20
-150.9916449275299
 30
0.0
 10
118.5915554174007
 20
-150.7081135690938
 30
0.0
 10
118.5915554174007
 20
-150.5706542592324
 30
0.0
 10
118.5219644885987
 20
-150.4180365292358
 30
0.0
 10
118.2935546579266
 20
-150.4180365292358
 30
0.0
 10
118.1771104305252
 20
-150.4180365292358
 30
0.0
 10
118.1285345841831
 20
-150.456277089122
 30
0.0
 10
118.0968397057188
 20
-150.4879719675864
 30
0.0
 10
118.022770152786
 20
-150.5620415205192
 30
0.0
 10
118.0100232994906
 20
-150.6784857479207
 30
0.0
 10
118.0100232994906
 20
-150.7332627661361
 30
0.0
 10
118.0100232994906
 20
-150.7525553008535
 30
0.0
 10
118.0120903567817
 20
-150.7883842939001
 30
0.0
 10
118.016224471364
 20
-150.8159450577821
 30
0.0
 10
118.016224471364
 20
-150.8159450577821
 30
0.0
 10
117.8215765764474
 20
-150.8159450577821
 30
0.0
 10
117.8215765764474
 20
-150.8159450577821
 30
0.0
 10
117.8281222578694
 20
-150.7777044978959
 30
0.0
 10
117.8301893151605
 20
-150.7356743329758
 30
0.0
 10
117.8301893151605
 20
-150.7291286515538
 30
0.0
 10
117.8301893151605
 20
-150.6636718373341
 30
0.0
 10
117.808829723152
 20
-150.4648898278352
 30
0.0
 10
117.5721516633153
 20
-150.4648898278352
 30
0.0
 10
117.3943847362764
 20
-150.4648898278352
 30
0.0
 10
117.3392632085124
 20
-150.5958034562747
 30
0.0
 10
117.3392632085124
 20
-150.7060465118027
 30
0.0
 10
117.3392632085124
 20
-150.9702853355213
 30
0.0
 10
117.5721516633153
 20
-150.9788980742345
 30
0.0
 10
117.6438096494085
 20
-150.9830321888167
 30
0.0
 10
117.6438096494085
 20
-150.9830321888167
 30
0.0
 10
117.6438096494085
 20
-151.1862928224465
 30
0.0
 10
117.6438096494085
 20
-151.1862928224465
 30
0.0
 10
117.5190971928425
 20
-151.1776800837334
 30
0.0
 10
117.1425482563047
 20
-151.1501193198514
 30
0.0
 10
117.1425482563047
 20
-150.6932996585072
 30
0.0
 10
117.1425482563047
 20
-150.4690239424175
 30
0.0
 10
117.2696722797104
 20
-150.22786725845
 30
0.0
 10
117.5656059818933
 20
-150.22786725845
 30
0.0
 10
117.7519856476453
 20
-150.22786725845
 30
0.0
 10
117.8343234297428
 20
-150.3229518938429
 30
0.0
 10
117.8956461293803
 20
-150.4225151533666
 30
0.0
 10
117.9232068932623
 20
-150.3611924537292
 30
0.0
 10
118.0034776180686
 20
-150.179291412108
 30
0.0
 10
118.2808078046312
 20
-150.179291412108
 30
0.0
 10
118.6191161812827
 20
-150.179291412108
 30
0.0
 10
118.7862033123173
 20
-150.4266492679489
 30
0.0
 10
118.7862033123173
 20
-150.703634944963
 30
0.0
  0
HATCH
  5
B1
330
AA
100
AcDbEntity
  8
_U+30EC_U+30A4_U+30E4_U+30FC 1
 62
   179
420
  2234388
100
AcDbHatch
 10
0.0
 20
0.0
 30
0.0
210
0.0
220
0.0
230
1.0
  2
SOLID
 70
     1
 71
     0
 91
        1
 92
        1
 93
        1
 72
     4
 94
        3
 73
     0
 74
     1
 95
       62
 96
       58
 40
0.0
 40
0.0
 40
0.0
 40
0.0
 40
1.0
 40
1.0
 40
1.0
 40
2.0
 40
2.0
 40
2.0
 40
3.0
 40
3.0
 40
3.0
 40
4.0
 40
4.0
 40
4.0
 40
5.0
 40
5.0
 40
5.0
 40
6.0
 40
6.0
 40
6.0
 40
7.0
 40
7.0
 40
7.0
 40
8.0
 40
8.0
 40
8.0
 40
9.0
 40
9.0
 40
9.0
 40
10.0
 40
10.0
 40
10.0
 40
11.0
 40
11.0
 40
11.0
 40
12.0
 40
12.0
 40
12.0
 40
13.0
 40
13.0
 40
13.0
 40
14.0
 40
14.0
 40
14.0
 40
15.0
 40
15.0
 40
15.0
 40
16.0
 40
16.0
 40
16.0
 40
17.0
 40
17.0
 40
17.0
 40
18.0
 40
18.0
 40
18.0
 40
19.0
 40
19.0
 40
19.0
 40
19.0
 10
118.7862033123173
 20
-150.703634944963
 10
118.7862033123173
 20
-150.7990640899044
 10
118.7651882298573
 20
-151.0167941245722
 10
118.5791530736538
 20
-151.1418510906868
 10
118.4668429608347
 20
-151.2155761340711
 10
118.3676242108595
 20
-151.2200547582019
 10
118.2828748619223
 20
-151.2241888727842
 10
118.2828748619223
 20
-151.2241888727842
 10
118.2828748619223
 20
-151.0040472712768
 10
118.2828748619223
 20
-151.0040472712768
 10
118.3569444148552
 20
-151.0019802139856
 10
118.5915554174007
 20
-150.9916449275299
 10
118.5915554174007
 20
-150.7081135690938
 10
118.5915554174007
 20
-150.5706542592324
 10
118.5219644885987
 20
-150.4180365292358
 10
118.2935546579266
 20
-150.4180365292358
 10
118.1771104305252
 20
-150.4180365292358
 10
118.1285345841831
 20
-150.456277089122
 10
118.0968397057188
 20
-150.4879719675864
 10
118.022770152786
 20
-150.5620415205192
 10
118.0100232994906
 20
-150.6784857479207
 10
118.0100232994906
 20
-150.7332627661361
 10
118.0100232994906
 20
-150.7525553008535
 10
118.0120903567817
 20
-150.7883842939001
 10
118.016224471364
 20
-150.8159450577821
 10
118.016224471364
 20
-150.8159450577821
 10
117.8215765764474
 20
-150.8159450577821
 10
117.8215765764474
 20
-150.8159450577821
 10
117.8281222578694
 20
-150.7777044978959
 10
117.8301893151605
 20
-150.7356743329758
 10
117.8301893151605
 20
-150.7291286515538
 10
117.8301893151605
 20
-150.6636718373341
 10
117.808829723152
 20
-150.4648898278352
 10
117.5721516633153
 20
-150.4648898278352
 10
117.3943847362764
 20
-150.4648898278352
 10
117.3392632085124
 20
-150.5958034562747
 10
117.3392632085124
 20
-150.7060465118027
 10
117.3392632085124
 20
-150.9702853355213
 10
117.5721516633153
 20
-150.9788980742345
 10
117.6438096494085
 20
-150.9830321888167
 10
117.6438096494085
 20
-150.9830321888167
 10
117.6438096494085
 20
-151.1862928224465
 10
117.6438096494085
 20
-151.1862928224465
 10
117.5190971928425
 20
-151.1776800837334
 10
117.1425482563047
 20
-151.1501193198514
 10
117.1425482563047
 20
-150.6932996585072
 10
117.1425482563047
 20
-150.4690239424175
 10
117.2696722797104
 20
-150.22786725845
 10
117.5656059818933
 20
-150.22786725845
 10
117.7519856476453
 20
-150.22786725845
 10
117.8343234297428
 20
-150.3229518938429
 10
117.8956461293803
 20
-150.4225151533666
 10
117.9232068932623
 20
-150.3611924537292
 10
118.0034776180686
 20
-150.179291412108
 10
118.2808078046312
 20
-150.179291412108
 10
118.6191161812827
 20
-150.179291412108
 10
118.7862033123173
 20
-150.4266492679489
 10
118.7862033123173
 20
-150.703634944963
 97
        0
 97
        0
 75
     2
 76
     1
 98
        0
  0
ENDBLK
  5
AD
330
AA
100
AcDbEntity
  8
0
100
AcDbBlockEnd
  0
BLOCK
  5
C0
330
BE
100
AcDbEntity
  8
0
100
AcDbBlockBegin
  2
block 7
 70
     0
 10
0.0
 20
0.0
 30
0.0
  3
block 7
  1

  0
SPLINE
  5
C2
330
BE
100
AcDbEntity
  8
_U+30EC_U+30A4_U+30E4_U+30FC 1
370
     0
100
AcDbSpline
210
0.0
220
0.0
230
1.0
 70
    11
 71
     3
 72
    26
 73
    22
 74
     0
 42
0.0000000001
 43
0.0000000001
 12
1.0
 22
0.0
 32
0.0
 13
1.0
 23
0.0
 33
0.0
 40
0.0
 40
0.0
 40
0.0
 40
0.0
 40
1.0
 40
1.0
 40
1.0
 40
2.0
 40
2.0
 40
2.0
 40
3.0
 40
3.0
 40
3.0
 40
4.0
 40
4.0
 40
4.0
 40
5.0
 40
5.0
 40
5.0
 40
6.0
 40
6.0
 40
6.0
 40
7.0
 40
7.0
 40
7.0
 40
7.0
 10
92.73525252672938
 20
-149.7541666292281
 30
0.0
 10
92.73525252672938
 20
-149.7541666292281
 30
0.0
 10
91.63109942370681
 20
-149.7541666292281
 30
0.0
 10
91.63109942370681
 20
-149.7541666292281
 30
0.0
 10
91.63109942370681
 20
-149.7541666292281
 30
0.0
 10
91.63109942370681
 20
-150.0842067767151
 30
0.0
 10
91.63109942370681
 20
-150.0842067767151
 30
0.0
 10
91.63109942370681
 20
-150.0842067767151
 30
0.0
 10
91.48296031784108
 20
-150.0842067767151
 30
0.0
 10
91.48296031784108
 20
-150.0842067767151
 30
0.0
 10
91.4681464072545
 20
-149.752099571937
 30
0.0
 10
91.30519339080217
 20
-149.7055907828861
 30
0.0
 10
91.19081622069189
 20
-149.675962961713
 30
0.0
 10
91.19081622069189
 20
-149.675962961713
 30
0.0
 10
91.19081622069189
 20
-149.5298909131384
 30
0.0
 10
91.19081622069189
 20
-149.5298909131384
 30
0.0
 10
91.19081622069189
 20
-149.5298909131384
 30
0.0
 10
92.73525252672938
 20
-149.5298909131384
 30
0.0
 10
92.73525252672938
 20
-149.5298909131384
 30
0.0
 10
92.73525252672938
 20
-149.5298909131384
 30
0.0
 10
92.73525252672938
 20
-149.7541666292281
 30
0.0
 10
92.73525252672938
 20
-149.7541666292281
 30
0.0
  0
HATCH
  5
C3
330
BE
100
AcDbEntity
  8
_U+30EC_U+30A4_U+30E4_U+30FC 1
 62
   179
420
  2234388
100
AcDbHatch
 10
0.0
 20
0.0
 30
0.0
210
0.0
220
0.0
230
1.0
  2
SOLID
 70
     1
 71
     0
 91
        1
 92
        1
 93
        1
 72
     4
 94
        3
 73
     0
 74
     1
 95
       26
 96
       22
 40
0.0
 40
0.0
 40
0.0
 40
0.0
 40
1.0
 40
1.0
 40
1.0
 40
2.0
 40
2.0
 40
2.0
 40
3.0
 40
3.0
 40
3.0
 40
4.0
 40
4.0
 40
4.0
 40
5.0
 40
5.0
 40
5.0
 40
6.0
 40
6.0
 40
6.0
 40
7.0
 40
7.0
 40
7.0
 40
7.0
 10
92.73525252672938
 20
-149.7541666292281
 10
92.73525252672938
 20
-149.7541666292281
 10
91.63109942370681
 20
-149.7541666292281
 10
91.63109942370681
 20
-149.7541666292281
 10
91.63109942370681
 20
-149.7541666292281
 10
91.63109942370681
 20
-150.0842067767151
 10
91.63109942370681
 20
-150.0842067767151
 10
91.63109942370681
 20
-150.0842067767151
 10
91.48296031784108
 20
-150.0842067767151
 10
91.48296031784108
 20
-150.0842067767151
 10
91.4681464072545
 20
-149.752099571937
 10
91.30519339080217
 20
-149.7055907828861
 10
91.19081622069189
 20
-149.675962961713
 10
91.19081622069189
 20
-149.675962961713
 10
91.19081622069189
 20
-149.5298909131384
 10
91.19081622069189
 20
-149.5298909131384
 10
91.19081622069189
 20
-149.5298909131384
 10
92.73525252672938
 20
-149.5298909131384
 10
92.73525252672938
 20
-149.5298909131384
 10
92.73525252672938
 20
-149.5298909131384
 10
92.73525252672938
 20
-149.7541666292281
 10
92.73525252672938
 20
-149.7541666292281
 97
        0
 97
        0
 75
     2
 76
     1
 98
        0
  0
SPLINE
  5
C4
330
BE
100
AcDbEntity
  8
_U+30EC_U+30A4_U+30E4_U+30FC 1
370
     0
100
AcDbSpline
210
0.0
220
0.0
230
1.0
 70
    11
 71
     3
 72
    32
 73
    28
 74
     0
 42
0.0000000001
 43
0.0000000001
 12
1.0
 22
0.0
 32
0.0
 13
1.0
 23
0.0
 33
0.0
 40
0.0
 40
0.0
 40
0.0
 40
0.0
 40
1.0
 40
1.0
 40
1.0
 40
2.0
 40
2.0
 40
2.0
 40
3.0
 40
3.0
 40
3.0
 40
4.0
 40
4.0
 40
4.0
 40
5.0
 40
5.0
 40
5.0
 40
6.0
 40
6.0
 40
6.0
 40
7.0
 40
7.0
 40
7.0
 40
8.0
 40
8.0
 40
8.0
 40
9.0
 40
9.0
 40
9.0
 40
9.0
 10
92.78589543036256
 20
-148.5711208395933
 30
0.0
 10
92.78589543036256
 20
-148.7444091425014
 30
0.0
 10
92.71630450156051
 20
-148.9900444505997
 30
0.0
 10
92.38419729678243
 20
-149.0279405009375
 30
0.0
 10
92.38419729678243
 20
-149.0279405009375
 30
0.0
 10
92.38419729678243
 20
-148.814344580852
 30
0.0
 10
92.38419729678243
 20
-148.814344580852
 30
0.0
 10
92.44345293912872
 20
-148.8036647848477
 30
0.0
 10
92.59124753544594
 20
-148.7719699063834
 30
0.0
 10
92.59124753544594
 20
-148.5690537823022
 30
0.0
 10
92.59124753544594
 20
-148.276909685153
 30
0.0
 10
92.26155189750753
 20
-148.2390136348153
 30
0.0
 10
92.05622420658665
 20
-148.2262667815198
 30
0.0
 10
92.13649493139296
 20
-148.3172173023304
 30
0.0
 10
92.19368351644812
 20
-148.3847411738413
 30
0.0
 10
92.19368351644812
 20
-148.5666422154625
 30
0.0
 10
92.19368351644812
 20
-148.7464761997926
 30
0.0
 10
92.08791908505094
 20
-149.049300092946
 30
0.0
 10
91.68174232733999
 20
-149.049300092946
 30
0.0
 10
91.36238197585733
 20
-149.049300092946
 30
0.0
 10
91.14224037434987
 20
-148.8501735738986
 30
0.0
 10
91.14224037434987
 20
-148.5328802797071
 30
0.0
 10
91.14224037434987
 20
-148.0188720333078
 30
0.0
 10
91.69655623792656
 20
-148.0081922373035
 30
0.0
 10
91.91015215801205
 20
-148.0081922373035
 30
0.0
 10
92.14062904597526
 20
-148.0081922373035
 30
0.0
 10
92.78589543036256
 20
-148.0274847720209
 30
0.0
 10
92.78589543036256
 20
-148.5711208395933
 30
0.0
  0
SPLINE
  5
C5
330
BE
100
AcDbEntity
  8
_U+30EC_U+30A4_U+30E4_U+30FC 1
370
     0
100
AcDbSpline
210
0.0
220
0.0
230
1.0
 70
    11
 71
     3
 72
    17
 73
    13
 74
     0
 42
0.0000000001
 43
0.0000000001
 12
1.0
 22
0.0
 32
0.0
 13
1.0
 23
0.0
 33
0.0
 40
0.0
 40
0.0
 40
0.0
 40
0.0
 40
1.0
 40
1.0
 40
1.0
 40
2.0
 40
2.0
 40
2.0
 40
3.0
 40
3.0
 40
3.0
 40
4.0
 40
4.0
 40
4.0
 40
4.0
 10
91.33482121197532
 20
-148.5308132224159
 30
0.0
 10
91.33482121197532
 20
-148.6493245071085
 30
0.0
 10
91.39200979703047
 20
-148.8250243768562
 30
0.0
 10
91.67760821275769
 20
-148.8250243768562
 30
0.0
 10
91.9039509861386
 20
-148.8250243768562
 30
0.0
 10
91.99903562153149
 20
-148.6851535001551
 30
0.0
 10
91.99903562153149
 20
-148.5497612475848
 30
0.0
 10
91.99903562153149
 20
-148.2875894811573
 30
0.0
 10
91.78957381602831
 20
-148.249348921271
 30
0.0
 10
91.67312958862686
 20
-148.249348921271
 30
0.0
 10
91.49777422842764
 20
-148.249348921271
 30
0.0
 10
91.33482121197532
 20
-148.3447780662124
 30
0.0
 10
91.33482121197532
 20
-148.5308132224159
 30
0.0
  0
HATCH
  5
C6
330
BE
100
AcDbEntity
  8
_U+30EC_U+30A4_U+30E4_U+30FC 1
 62
   179
420
  2234388
100
AcDbHatch
 10
0.0
 20
0.0
 30
0.0
210
0.0
220
0.0
230
1.0
  2
SOLID
 70
     1
 71
     0
 91
        2
 92
        1
 93
        1
 72
     4
 94
        3
 73
     0
 74
     1
 95
       32
 96
       28
 40
0.0
 40
0.0
 40
0.0
 40
0.0
 40
1.0
 40
1.0
 40
1.0
 40
2.0
 40
2.0
 40
2.0
 40
3.0
 40
3.0
 40
3.0
 40
4.0
 40
4.0
 40
4.0
 40
5.0
 40
5.0
 40
5.0
 40
6.0
 40
6.0
 40
6.0
 40
7.0
 40
7.0
 40
7.0
 40
8.0
 40
8.0
 40
8.0
 40
9.0
 40
9.0
 40
9.0
 40
9.0
 10
92.78589543036256
 20
-148.5711208395933
 10
92.78589543036256
 20
-148.7444091425014
 10
92.71630450156051
 20
-148.9900444505997
 10
92.38419729678243
 20
-149.0279405009375
 10
92.38419729678243
 20
-149.0279405009375
 10
92.38419729678243
 20
-148.814344580852
 10
92.38419729678243
 20
-148.814344580852
 10
92.44345293912872
 20
-148.8036647848477
 10
92.59124753544594
 20
-148.7719699063834
 10
92.59124753544594
 20
-148.5690537823022
 10
92.59124753544594
 20
-148.276909685153
 10
92.26155189750753
 20
-148.2390136348153
 10
92.05622420658665
 20
-148.2262667815198
 10
92.13649493139296
 20
-148.3172173023304
 10
92.19368351644812
 20
-148.3847411738413
 10
92.19368351644812
 20
-148.5666422154625
 10
92.19368351644812
 20
-148.7464761997926
 10
92.08791908505094
 20
-149.049300092946
 10
91.68174232733999
 20
-149.049300092946
 10
91.36238197585733
 20
-149.049300092946
 10
91.14224037434987
 20
-148.8501735738986
 10
91.14224037434987
 20
-148.5328802797071
 10
91.14224037434987
 20
-148.0188720333078
 10
91.69655623792656
 20
-148.0081922373035
 10
91.91015215801205
 20
-148.0081922373035
 10
92.14062904597526
 20
-148.0081922373035
 10
92.78589543036256
 20
-148.0274847720209
 10
92.78589543036256
 20
-148.5711208395933
 97
        0
 97
        0
 92
        1
 93
        1
 72
     4
 94
        3
 73
     0
 74
     1
 95
       17
 96
       13
 40
0.0
 40
0.0
 40
0.0
 40
0.0
 40
1.0
 40
1.0
 40
1.0
 40
2.0
 40
2.0
 40
2.0
 40
3.0
 40
3.0
 40
3.0
 40
4.0
 40
4.0
 40
4.0
 40
4.0
 10
91.33482121197532
 20
-148.5308132224159
 10
91.33482121197532
 20
-148.6493245071085
 10
91.39200979703047
 20
-148.8250243768562
 10
91.67760821275769
 20
-148.8250243768562
 10
91.9039509861386
 20
-148.8250243768562
 10
91.99903562153149
 20
-148.6851535001551
 10
91.99903562153149
 20
-148.5497612475848
 10
91.99903562153149
 20
-148.2875894811573
 10
91.78957381602831
 20
-148.249348921271
 10
91.67312958862686
 20
-148.249348921271
 10
91.49777422842764
 20
-148.249348921271
 10
91.33482121197532
 20
-148.3447780662124
 10
91.33482121197532
 20
-148.5308132224159
 97
        0
 97
        0
 75
     2
 76
     1
 98
        0
  0
ENDBLK
  5
C1
330
BE
100
AcDbEntity
  8
0
100
AcDbBlockEnd
  0
ENDSEC
  0
SECTION
  2
ENTITIES
  0
SPLINE
  5
41
330
1F
100
AcDbEntity
  8
_U+30EC_U+30A4_U+30E4_U+30FC 1
370
     0
100
AcDbSpline
210
0.0
220
0.0
230
1.0
 70
    11
 71
     3
 72
    74
 73
    70
 74
     0
 42
0.0000000001
 43
0.0000000001
 12
1.0
 22
0.0
 32
0.0
 13
1.0
 23
0.0
 33
0.0
 40
0.0
 40
0.0
 40
0.0
 40
0.0
 40
1.0
 40
1.0
 40
1.0
 40
2.0
 40
2.0
 40
2.0
 40
3.0
 40
3.0
 40
3.0
 40
4.0
 40
4.0
 40
4.0
 40
5.0
 40
5.0
 40
5.0
 40
6.0
 40
6.0
 40
6.0
 40
7.0
 40
7.0
 40
7.0
 40
8.0
 40
8.0
 40
8.0
 40
9.0
 40
9.0
 40
9.0
 40
10.0
 40
10.0
 40
10.0
 40
11.0
 40
11.0
 40
11.0
 40
12.0
 40
12.0
 40
12.0
 40
13.0
 40
13.0
 40
13.0
 40
14.0
 40
14.0
 40
14.0
 40
15.0
 40
15.0
 40
15.0
 40
16.0
 40
16.0
 40
16.0
 40
17.0
 40
17.0
 40
17.0
 40
18.0
 40
18.0
 40
18.0
 40
19.0
 40
19.0
 40
19.0
 40
20.0
 40
20.0
 40
20.0
 40
21.0
 40
21.0
 40
21.0
 40
22.0
 40
22.0
 40
22.0
 40
23.0
 40
23.0
 40
23.0
 40
23.0
 10
100.8187815096264
 20
-143.7380394470302
 30
0.0
 10
100.8187815096264
 20
-143.7380394470302
 30
0.0
 10
100.5361975524487
 20
-144.0206234042078
 30
0.0
 10
100.5361975524487
 20
-144.0206234042078
 30
0.0
 10
100.5361975524487
 20
-144.0206234042078
 30
0.0
 10
100.2529245761741
 20
-143.7380394470302
 30
0.0
 10
100.2529245761741
 20
-143.7380394470302
 30
0.0
 10
100.2529245761741
 20
-143.7380394470302
 30
0.0
 10
99.97068512854499
 20
-144.0206234042078
 30
0.0
 10
99.97068512854499
 20
-144.0206234042078
 30
0.0
 10
99.97068512854499
 20
-144.0206234042078
 30
0.0
 10
99.68741215227031
 20
-143.7380394470302
 30
0.0
 10
99.68741215227031
 20
-143.7380394470302
 30
0.0
 10
99.68741215227031
 20
-143.7380394470302
 30
0.0
 10
99.40482819509269
 20
-144.0206234042078
 30
0.0
 10
99.40482819509269
 20
-144.0206234042078
 30
0.0
 10
99.40482819509269
 20
-144.0206234042078
 30
0.0
 10
99.12155521881803
 20
-143.7380394470302
 30
0.0
 10
99.12155521881803
 20
-143.7380394470302
 30
0.0
 10
99.12155521881803
 20
-143.7380394470302
 30
0.0
 10
98.33273601192941
 20
-143.7380394470302
 30
0.0
 10
98.33273601192941
 20
-143.7380394470302
 30
0.0
 10
98.33273601192941
 20
-143.7380394470302
 30
0.0
 10
98.33273601192941
 20
-139.6694570404136
 30
0.0
 10
98.33273601192941
 20
-139.6694570404136
 30
0.0
 10
97.78100396996665
 20
-139.6694570404136
 30
0.0
 10
97.3329693021099
 20
-140.1171364327984
 30
0.0
 10
97.3329693021099
 20
-140.6695790257053
 30
0.0
 10
97.3329693021099
 20
-140.6695790257053
 30
0.0
 10
97.3329693021099
 20
-157.6692412088195
 30
0.0
 10
97.3329693021099
 20
-157.6692412088195
 30
0.0
 10
97.3329693021099
 20
-158.222039077198
 30
0.0
 10
97.78100396996665
 20
-158.6697184695828
 30
0.0
 10
98.33273601192941
 20
-158.6697184695828
 30
0.0
 10
98.33273601192941
 20
-158.6697184695828
 30
0.0
 10
115.2886562483046
 20
-158.6697184695828
 30
0.0
 10
115.2886562483046
 20
-158.6697184695828
 30
0.0
 10
115.8410988412112
 20
-158.6697184695828
 30
0.0
 10
116.3332307312791
 20
-158.2901227767252
 30
0.0
 10
116.3332307312791
 20
-157.7376801838186
 30
0.0
 10
116.3332307312791
 20
-157.7376801838186
 30
0.0
 10
98.33273601192941
 20
-157.7376801838186
 30
0.0
 10
98.33273601192941
 20
-157.7376801838186
 30
0.0
 10
98.33273601192941
 20
-157.7376801838186
 30
0.0
 10
98.33273601192941
 20
-144.7378169227728
 30
0.0
 10
98.33273601192941
 20
-144.7378169227728
 30
0.0
 10
98.33273601192941
 20
-144.7378169227728
 30
0.0
 10
116.3332307312791
 20
-144.7378169227728
 30
0.0
 10
116.3332307312791
 20
-144.7378169227728
 30
0.0
 10
116.3332307312791
 20
-144.7378169227728
 30
0.0
 10
116.8525142801402
 20
-144.437953658552
 30
0.0
 10
116.8525142801402
 20
-144.437953658552
 30
0.0
 10
116.8525142801402
 20
-144.437953658552
 30
0.0
 10
120.6332481930405
 20
-144.437953658552
 30
0.0
 10
120.6332481930405
 20
-144.437953658552
 30
0.0
 10
121.0198955657194
 20
-144.437953658552
 30
0.0
 10
121.3331624045625
 20
-144.1246868197088
 30
0.0
 10
121.3331624045625
 20
-143.7380394470302
 30
0.0
 10
121.3331624045625
 20
-143.7380394470302
 30
0.0
 10
116.6129940165282
 20
-143.7380394470302
 30
0.0
 10
116.6129940165282
 20
-143.7380394470302
 30
0.0
 10
116.6129940165282
 20
-143.7380394470302
 30
0.0
 10
116.3307545688991
 20
-144.0206234042078
 30
0.0
 10
116.3307545688991
 20
-144.0206234042078
 30
0.0
 10
116.3307545688991
 20
-144.0206234042078
 30
0.0
 10
116.0474815926244
 20
-143.7380394470302
 30
0.0
 10
116.0474815926244
 20
-143.7380394470302
 30
0.0
 10
116.0474815926244
 20
-143.7380394470302
 30
0.0
 10
100.8187815096264
 20
-143.7380394470302
 30
0.0
 10
100.8187815096264
 20
-143.7380394470302
 30
0.0
  0
HATCH
  5
42
330
1F
100
AcDbEntity
  8
_U+30EC_U+30A4_U+30E4_U+30FC 1
 62
     9
420
 13224394
100
AcDbHatch
 10
0.0
 20
0.0
 30
0.0
210
0.0
220
0.0
230
1.0
  2
SOLID
 70
     1
 71
     0
 91
        1
 92
        1
 93
        1
 72
     4
 94
        3
 73
     0
 74
     1
 95
       74
 96
       70
 40
0.0
 40
0.0
 40
0.0
 40
0.0
 40
1.0
 40
1.0
 40
1.0
 40
2.0
 40
2.0
 40
2.0
 40
3.0
 40
3.0
 40
3.0
 40
4.0
 40
4.0
 40
4.0
 40
5.0
 40
5.0
 40
5.0
 40
6.0
 40
6.0
 40
6.0
 40
7.0
 40
7.0
 40
7.0
 40
8.0
 40
8.0
 40
8.0
 40
9.0
 40
9.0
 40
9.0
 40
10.0
 40
10.0
 40
10.0
 40
11.0
 40
11.0
 40
11.0
 40
12.0
 40
12.0
 40
12.0
 40
13.0
 40
13.0
 40
13.0
 40
14.0
 40
14.0
 40
14.0
 40
15.0
 40
15.0
 40
15.0
 40
16.0
 40
16.0
 40
16.0
 40
17.0
 40
17.0
 40
17.0
 40
18.0
 40
18.0
 40
18.0
 40
19.0
 40
19.0
 40
19.0
 40
20.0
 40
20.0
 40
20.0
 40
21.0
 40
21.0
 40
21.0
 40
22.0
 40
22.0
 40
22.0
 40
23.0
 40
23.0
 40
23.0
 40
23.0
 10
100.8187815096264
 20
-143.7380394470302
 10
100.8187815096264
 20
-143.7380394470302
 10
100.5361975524487
 20
-144.0206234042078
 10
100.5361975524487
 20
-144.0206234042078
 10
100.5361975524487
 20
-144.0206234042078
 10
100.2529245761741
 20
-143.7380394470302
 10
100.2529245761741
 20
-143.7380394470302
 10
100.2529245761741
 20
-143.7380394470302
 10
99.97068512854499
 20
-144.0206234042078
 10
99.97068512854499
 20
-144.0206234042078
 10
99.97068512854499
 20
-144.0206234042078
 10
99.68741215227031
 20
-143.7380394470302
 10
99.68741215227031
 20
-143.7380394470302
 10
99.68741215227031
 20
-143.7380394470302
 10
99.40482819509269
 20
-144.0206234042078
 10
99.40482819509269
 20
-144.0206234042078
 10
99.40482819509269
 20
-144.0206234042078
 10
99.12155521881803
 20
-143.7380394470302
 10
99.12155521881803
 20
-143.7380394470302
 10
99.12155521881803
 20
-143.7380394470302
 10
98.33273601192941
 20
-143.7380394470302
 10
98.33273601192941
 20
-143.7380394470302
 10
98.33273601192941
 20
-143.7380394470302
 10
98.33273601192941
 20
-139.6694570404136
 10
98.33273601192941
 20
-139.6694570404136
 10
97.78100396996665
 20
-139.6694570404136
 10
97.3329693021099
 20
-140.1171364327984
 10
97.3329693021099
 20
-140.6695790257053
 10
97.3329693021099
 20
-140.6695790257053
 10
97.3329693021099
 20
-157.6692412088195
 10
97.3329693021099
 20
-157.6692412088195
 10
97.3329693021099
 20
-158.222039077198
 10
97.78100396996665
 20
-158.6697184695828
 10
98.33273601192941
 20
-158.6697184695828
 10
98.33273601192941
 20
-158.6697184695828
 10
115.2886562483046
 20
-158.6697184695828
 10
115.2886562483046
 20
-158.6697184695828
 10
115.8410988412112
 20
-158.6697184695828
 10
116.3332307312791
 20
-158.2901227767252
 10
116.3332307312791
 20
-157.7376801838186
 10
116.3332307312791
 20
-157.7376801838186
 10
98.33273601192941
 20
-157.7376801838186
 10
98.33273601192941
 20
-157.7376801838186
 10
98.33273601192941
 20
-157.7376801838186
 10
98.33273601192941
 20
-144.7378169227728
 10
98.33273601192941
 20
-144.7378169227728
 10
98.33273601192941
 20
-144.7378169227728
 10
116.3332307312791
 20
-144.7378169227728
 10
116.3332307312791
 20
-144.7378169227728
 10
116.3332307312791
 20
-144.7378169227728
 10
116.8525142801402
 20
-144.437953658552
 10
116.8525142801402
 20
-144.437953658552
 10
116.8525142801402
 20
-144.437953658552
 10
120.6332481930405
 20
-144.437953658552
 10
120.6332481930405
 20
-144.437953658552
 10
121.0198955657194
 20
-144.437953658552
 10
121.3331624045625
 20
-144.1246868197088
 10
121.3331624045625
 20
-143.7380394470302
 10
121.3331624045625
 20
-143.7380394470302
 10
116.6129940165282
 20
-143.7380394470302
 10
116.6129940165282
 20
-143.7380394470302
 10
116.6129940165282
 20
-143.7380394470302
 10
116.3307545688991
 20
-144.0206234042078
 10
116.3307545688991
 20
-144.0206234042078
 10
116.3307545688991
 20
-144.0206234042078
 10
116.0474815926244
 20
-143.7380394470302
 10
116.0474815926244
 20
-143.7380394470302
 10
116.0474815926244
 20
-143.7380394470302
 10
100.8187815096264
 20
-143.7380394470302
 10
100.8187815096264
 20
-143.7380394470302
 97
        0
 97
        0
 75
     2
 76
     1
 98
        0
  0
SPLINE
  5
43
330
1F
100
AcDbEntity
  8
_U+30EC_U+30A4_U+30E4_U+30FC 1
 62
     9
420
 13224394
370
     9
100
AcDbSpline
210
0.0
220
0.0
230
1.0
 70
    11
 71
     3
 72
    74
 73
    70
 74
     0
 42
0.0000000001
 43
0.0000000001
 12
1.0
 22
0.0
 32
0.0
 13
1.0
 23
0.0
 33
0.0
 40
0.0
 40
0.0
 40
0.0
 40
0.0
 40
1.0
 40
1.0
 40
1.0
 40
2.0
 40
2.0
 40
2.0
 40
3.0
 40
3.0
 40
3.0
 40
4.0
 40
4.0
 40
4.0
 40
5.0
 40
5.0
 40
5.0
 40
6.0
 40
6.0
 40
6.0
 40
7.0
 40
7.0
 40
7.0
 40
8.0
 40
8.0
 40
8.0
 40
9.0
 40
9.0
 40
9.0
 40
10.0
 40
10.0
 40
10.0
 40
11.0
 40
11.0
 40
11.0
 40
12.0
 40
12.0
 40
12.0
 40
13.0
 40
13.0
 40
13.0
 40
14.0
 40
14.0
 40
14.0
 40
15.0
 40
15.0
 40
15.0
 40
16.0
 40
16.0
 40
16.0
 40
17.0
 40
17.0
 40
17.0
 40
18.0
 40
18.0
 40
18.0
 40
19.0
 40
19.0
 40
19.0
 40
20.0
 40
20.0
 40
20.0
 40
21.0
 40
21.0
 40
21.0
 40
22.0
 40
22.0
 40
22.0
 40
23.0
 40
23.0
 40
23.0
 40
23.0
 10
100.8187815096264
 20
-143.7380394470302
 30
0.0
 10
100.8187815096264
 20
-143.7380394470302
 30
0.0
 10
100.5361975524487
 20
-144.0206234042078
 30
0.0
 10
100.5361975524487
 20
-144.0206234042078
 30
0.0
 10
100.5361975524487
 20
-144.0206234042078
 30
0.0
 10
100.2529245761741
 20
-143.7380394470302
 30
0.0
 10
100.2529245761741
 20
-143.7380394470302
 30
0.0
 10
100.2529245761741
 20
-143.7380394470302
 30
0.0
 10
99.97068512854499
 20
-144.0206234042078
 30
0.0
 10
99.97068512854499
 20
-144.0206234042078
 30
0.0
 10
99.97068512854499
 20
-144.0206234042078
 30
0.0
 10
99.68741215227031
 20
-143.7380394470302
 30
0.0
 10
99.68741215227031
 20
-143.7380394470302
 30
0.0
 10
99.68741215227031
 20
-143.7380394470302
 30
0.0
 10
99.40482819509269
 20
-144.0206234042078
 30
0.0
 10
99.40482819509269
 20
-144.0206234042078
 30
0.0
 10
99.40482819509269
 20
-144.0206234042078
 30
0.0
 10
99.12155521881803
 20
-143.7380394470302
 30
0.0
 10
99.12155521881803
 20
-143.7380394470302
 30
0.0
 10
99.12155521881803
 20
-143.7380394470302
 30
0.0
 10
98.33273601192941
 20
-143.7380394470302
 30
0.0
 10
98.33273601192941
 20
-143.7380394470302
 30
0.0
 10
98.33273601192941
 20
-143.7380394470302
 30
0.0
 10
98.33273601192941
 20
-139.6694570404136
 30
0.0
 10
98.33273601192941
 20
-139.6694570404136
 30
0.0
 10
97.78100396996665
 20
-139.6694570404136
 30
0.0
 10
97.3329693021099
 20
-140.1171364327984
 30
0.0
 10
97.3329693021099
 20
-140.6695790257053
 30
0.0
 10
97.3329693021099
 20
-140.6695790257053
 30
0.0
 10
97.3329693021099
 20
-157.6692412088195
 30
0.0
 10
97.3329693021099
 20
-157.6692412088195
 30
0.0
 10
97.3329693021099
 20
-158.222039077198
 30
0.0
 10
97.78100396996665
 20
-158.6697184695828
 30
0.0
 10
98.33273601192941
 20
-158.6697184695828
 30
0.0
 10
98.33273601192941
 20
-158.6697184695828
 30
0.0
 10
115.2886562483046
 20
-158.6697184695828
 30
0.0
 10
115.2886562483046
 20
-158.6697184695828
 30
0.0
 10
115.8410988412112
 20
-158.6697184695828
 30
0.0
 10
116.3332307312791
 20
-158.2901227767252
 30
0.0
 10
116.3332307312791
 20
-157.7376801838186
 30
0.0
 10
116.3332307312791
 20
-157.7376801838186
 30
0.0
 10
98.33273601192941
 20
-157.7376801838186
 30
0.0
 10
98.33273601192941
 20
-157.7376801838186
 30
0.0
 10
98.33273601192941
 20
-157.7376801838186
 30
0.0
 10
98.33273601192941
 20
-144.7378169227728
 30
0.0
 10
98.33273601192941
 20
-144.7378169227728
 30
0.0
 10
98.33273601192941
 20
-144.7378169227728
 30
0.0
 10
116.3332307312791
 20
-144.7378169227728
 30
0.0
 10
116.3332307312791
 20
-144.7378169227728
 30
0.0
 10
116.3332307312791
 20
-144.7378169227728
 30
0.0
 10
116.8525142801402
 20
-144.437953658552
 30
0.0
 10
116.8525142801402
 20
-144.437953658552
 30
0.0
 10
116.8525142801402
 20
-144.437953658552
 30
0.0
 10
120.6332481930405
 20
-144.437953658552
 30
0.0
 10
120.6332481930405
 20
-144.437953658552
 30
0.0
 10
121.0198955657194
 20
-144.437953658552
 30
0.0
 10
121.3331624045625
 20
-144.1246868197088
 30
0.0
 10
121.3331624045625
 20
-143.7380394470302
 30
0.0
 10
121.3331624045625
 20
-143.7380394470302
 30
0.0
 10
116.6129940165282
 20
-143.7380394470302
 30
0.0
 10
116.6129940165282
 20
-143.7380394470302
 30
0.0
 10
116.6129940165282
 20
-143.7380394470302
 30
0.0
 10
116.3307545688991
 20
-144.0206234042078
 30
0.0
 10
116.3307545688991
 20
-144.0206234042078
 30
0.0
 10
116.3307545688991
 20
-144.0206234042078
 30
0.0
 10
116.0474815926244
 20
-143.7380394470302
 30
0.0
 10
116.0474815926244
 20
-143.7380394470302
 30
0.0
 10
116.0474815926244
 20
-143.7380394470302
 30
0.0
 10
100.8187815096264
 20
-143.7380394470302
 30
0.0
 10
100.8187815096264
 20
-143.7380394470302
 30
0.0
  0
POLYLINE
  5
44
330
1F
100
AcDbEntity
  8
_U+30EC_U+30A4_U+30E4_U+30FC 1
 62
   179
420
  2234388
370
     9
100
AcDb2dPolyline
 66
     1
 10
0.0
 20
0.0
 30
0.0
  0
VERTEX
  5
45
330
44
100
AcDbEntity
  8
_U+30EC_U+30A4_U+30E4_U+30FC 1
 62
   179
420
  2234388
370
     9
100
AcDbVertex
100
AcDb2dVertex
 10
97.62584548204971
 20
-158.3769822466471
 30
0.0
  0
VERTEX
  5
46
330
44
100
AcDbEntity
  8
_U+30EC_U+30A4_U+30E4_U+30FC 1
 62
   179
420
  2234388
370
     9
100
AcDbVertex
100
AcDb2dVertex
 10
93.33323497558163
 20
-162.6695927531152
 30
0.0
  0
SEQEND
  5
47
330
44
100
AcDbEntity
  8
_U+30EC_U+30A4_U+30E4_U+30FC 1
 62
   179
420
  2234388
370
     9
  0
POLYLINE
  5
48
330
1F
100
AcDbEntity
  8
_U+30EC_U+30A4_U+30E4_U+30FC 1
 62
   179
420
  2234388
370
     9
100
AcDb2dPolyline
 66
     1
 10
0.0
 20
0.0
 30
0.0
  0
VERTEX
  5
49
330
48
100
AcDbEntity
  8
_U+30EC_U+30A4_U+30E4_U+30FC 1
 62
   179
420
  2234388
370
     9
100
AcDbVertex
100
AcDb2dVertex
 10
89.12062604583508
 20
-162.6695819871918
 30
0.0
  0
VERTEX
  5
4A
330
48
100
AcDbEntity
  8
_U+30EC_U+30A4_U+30E4_U+30FC 1
 62
   179
420
  2234388
370
     9
100
AcDbVertex
100
AcDb2dVertex
 10
93.3331380822711
 20
-162.6695819871918
 30
0.0
  0
SEQEND
  5
4B
330
48
100
AcDbEntity
  8
_U+30EC_U+30A4_U+30E4_U+30FC 1
 62
   179
420
  2234388
370
     9
  0
POLYLINE
  5
4C
330
1F
100
AcDbEntity
  8
_U+30EC_U+30A4_U+30E4_U+30FC 1
 62
   179
420
  2234388
370
     9
100
AcDb2dPolyline
 66
     1
 10
0.0
 20
0.0
 30
0.0
  0
VERTEX
  5
4D
330
4C
100
AcDbEntity
  8
_U+30EC_U+30A4_U+30E4_U+30FC 1
 62
   179
420
  2234388
370
     9
100
AcDbVertex
100
AcDb2dVertex
 10
97.62584548204971
 20
-158.3769822466471
 30
0.0
  0
VERTEX
  5
4E
330
4C
100
AcDbEntity
  8
_U+30EC_U+30A4_U+30E4_U+30FC 1
 62
   179
420
  2234388
370
     9
100
AcDbVertex
100
AcDb2dVertex
 10
96.32691529302983
 20
-159.1266350242375
 30
0.0
  0
SEQEND
  5
4F
330
4C
100
AcDbEntity
  8
_U+30EC_U+30A4_U+30E4_U+30FC 1
 62
   179
420
  2234388
370
     9
  0
POLYLINE
  5
50
330
1F
100
AcDbEntity
  8
_U+30EC_U+30A4_U+30E4_U+30FC 1
 62
   179
420
  2234388
370
     9
100
AcDb2dPolyline
 66
     1
 10
0.0
 20
0.0
 30
0.0
  0
VERTEX
  5
51
330
50
100
AcDbEntity
  8
_U+30EC_U+30A4_U+30E4_U+30FC 1
 62
   179
420
  2234388
370
     9
100
AcDbVertex
100
AcDb2dVertex
 10
97.62584548204971
 20
-158.3769822466471
 30
0.0
  0
VERTEX
  5
52
330
50
100
AcDbEntity
  8
_U+30EC_U+30A4_U+30E4_U+30FC 1
 62
   179
420
  2234388
370
     9
100
AcDbVertex
100
AcDb2dVertex
 10
96.87619270445934
 20
-159.675912435667
 30
0.0
  0
SEQEND
  5
53
330
50
100
AcDbEntity
  8
_U+30EC_U+30A4_U+30E4_U+30FC 1
 62
   179
420
  2234388
370
     9
  0
SPLINE
  5
54
330
1F
100
AcDbEntity
  8
_U+30EC_U+30A4_U+30E4_U+30FC 1
 62
   179
420
  2234388
370
     9
100
AcDbSpline
210
0.0
220
0.0
230
1.0
 70
    11
 71
     3
 72
    17
 73
    13
 74
     0
 42
0.0000000001
 43
0.0000000001
 12
1.0
 22
0.0
 32
0.0
 13
1.0
 23
0.0
 33
0.0
 40
0.0
 40
0.0
 40
0.0
 40
0.0
 40
1.0
 40
1.0
 40
1.0
 40
2.0
 40
2.0
 40
2.0
 40
3.0
 40
3.0
 40
3.0
 40
4.0
 40
4.0
 40
4.0
 40
4.0
 10
121.4331993647155
 20
-136.6697478058662
 30
0.0
 10
121.4331993647155
 20
-136.6147231714127
 30
0.0
 10
121.3883915915605
 20
-136.569915398258
 30
0.0
 10
121.3333561911836
 20
-136.569915398258
 30
0.0
 10
121.2783207908067
 20
-136.569915398258
 30
0.0
 10
121.2335130176517
 20
-136.6147231714127
 30
0.0
 10
121.2335130176517
 20
-136.6697478058662
 30
0.0
 10
121.2335130176517
 20
-136.7247832062431
 30
0.0
 10
121.2783207908067
 20
-136.7695909793981
 30
0.0
 10
121.3333561911836
 20
-136.7695909793981
 30
0.0
 10
121.3883915915605
 20
-136.7695909793981
 30
0.0
 10
121.4331993647155
 20
-136.7247832062431
 30
0.0
 10
121.4331993647155
 20
-136.6697478058662
 30
0.0
  0
SPLINE
  5
55
330
1F
100
AcDbEntity
  8
_U+30EC_U+30A4_U+30E4_U+30FC 1
 62
   179
420
  2234388
370
     9
100
AcDbSpline
210
0.0
220
0.0
230
1.0
 70
    11
 71
     3
 72
    17
 73
    13
 74
     0
 42
0.0000000001
 43
0.0000000001
 12
1.0
 22
0.0
 32
0.0
 13
1.0
 23
0.0
 33
0.0
 40
0.0
 40
0.0
 40
0.0
 40
0.0
 40
1.0
 40
1.0
 40
1.0
 40
2.0
 40
2.0
 40
2.0
 40
3.0
 40
3.0
 40
3.0
 40
4.0
 40
4.0
 40
4.0
 40
4.0
 10
98.43305288609085
 20
-136.6697478058662
 30
0.0
 10
98.43305288609085
 20
-136.6147231714127
 30
0.0
 10
98.3882451129355
 20
-136.569915398258
 30
0.0
 10
98.33320971255863
 20
-136.569915398258
 30
0.0
 10
98.27817431218176
 20
-136.569915398258
 30
0.0
 10
98.23336653902673
 20
-136.6147231714127
 30
0.0
 10
98.23336653902673
 20
-136.6697478058662
 30
0.0
 10
98.23336653902673
 20
-136.7247832062431
 30
0.0
 10
98.27817431218176
 20
-136.7695909793981
 30
0.0
 10
98.33320971255863
 20
-136.7695909793981
 30
0.0
 10
98.3882451129355
 20
-136.7695909793981
 30
0.0
 10
98.43305288609085
 20
-136.7247832062431
 30
0.0
 10
98.43305288609085
 20
-136.6697478058662
 30
0.0
  0
SPLINE
  5
56
330
1F
100
AcDbEntity
  8
_U+30EC_U+30A4_U+30E4_U+30FC 1
 62
   179
420
  2234388
370
     9
100
AcDbSpline
210
0.0
220
0.0
230
1.0
 70
    11
 71
     3
 72
    17
 73
    13
 74
     0
 42
0.0000000001
 43
0.0000000001
 12
1.0
 22
0.0
 32
0.0
 13
1.0
 23
0.0
 33
0.0
 40
0.0
 40
0.0
 40
0.0
 40
0.0
 40
1.0
 40
1.0
 40
1.0
 40
2.0
 40
2.0
 40
2.0
 40
3.0
 40
3.0
 40
3.0
 40
4.0
 40
4.0
 40
4.0
 40
4.0
 10
97.43296319856928
 20
-141.9197934113788
 30
0.0
 10
97.43296319856928
 20
-141.8647687769256
 30
0.0
 10
97.38815542541457
 20
-141.8199610037703
 30
0.0
 10
97.3331200250377
 20
-141.8199610037703
 30
0.0
 10
97.27808462466083
 20
-141.8199610037703
 30
0.0
 10
97.2332768515055
 20
-141.8647687769256
 30
0.0
 10
97.2332768515055
 20
-141.9197934113788
 30
0.0
 10
97.2332768515055
 20
-141.9748288117557
 30
0.0
 10
97.27808462466083
 20
-142.0196365849107
 30
0.0
 10
97.3331200250377
 20
-142.0196365849107
 30
0.0
 10
97.38815542541457
 20
-142.0196365849107
 30
0.0
 10
97.43296319856928
 20
-141.9748288117557
 30
0.0
 10
97.43296319856928
 20
-141.9197934113788
 30
0.0
  0
SPLINE
  5
57
330
1F
100
AcDbEntity
  8
_U+30EC_U+30A4_U+30E4_U+30FC 1
 62
   179
420
  2234388
370
     9
100
AcDbSpline
210
0.0
220
0.0
230
1.0
 70
    11
 71
     3
 72
    17
 73
    13
 74
     0
 42
0.0000000001
 43
0.0000000001
 12
1.0
 22
0.0
 32
0.0
 13
1.0
 23
0.0
 33
0.0
 40
0.0
 40
0.0
 40
0.0
 40
0.0
 40
1.0
 40
1.0
 40
1.0
 40
2.0
 40
2.0
 40
2.0
 40
3.0
 40
3.0
 40
3.0
 40
4.0
 40
4.0
 40
4.0
 40
4.0
 10
98.43272990838878
 20
-141.9197934113788
 30
0.0
 10
98.43272990838878
 20
-141.8647687769256
 30
0.0
 10
98.38792213523408
 20
-141.8199610037703
 30
0.0
 10
98.33288673485721
 20
-141.8199610037703
 30
0.0
 10
98.27785133448035
 20
-141.8199610037703
 30
0.0
 10
98.23304356132499
 20
-141.8647687769256
 30
0.0
 10
98.23304356132499
 20
-141.9197934113788
 30
0.0
 10
98.23304356132499
 20
-141.9748288117557
 30
0.0
 10
98.27785133448035
 20
-142.0196365849107
 30
0.0
 10
98.33288673485721
 20
-142.0196365849107
 30
0.0
 10
98.38792213523408
 20
-142.0196365849107
 30
0.0
 10
98.43272990838878
 20
-141.9748288117557
 30
0.0
 10
98.43272990838878
 20
-141.9197934113788
 30
0.0
  0
SPLINE
  5
58
330
1F
100
AcDbEntity
  8
_U+30EC_U+30A4_U+30E4_U+30FC 1
 62
   179
420
  2234388
370
     9
100
AcDbSpline
210
0.0
220
0.0
230
1.0
 70
    11
 71
     3
 72
    17
 73
    13
 74
     0
 42
0.0000000001
 43
0.0000000001
 12
1.0
 22
0.0
 32
0.0
 13
1.0
 23
0.0
 33
0.0
 40
0.0
 40
0.0
 40
0.0
 40
0.0
 40
1.0
 40
1.0
 40
1.0
 40
2.0
 40
2.0
 40
2.0
 40
3.0
 40
3.0
 40
3.0
 40
4.0
 40
4.0
 40
4.0
 40
4.0
 10
93.43316427650065
 20
-158.6698261288167
 30
0.0
 10
93.43316427650065
 20
-158.6140909434194
 30
0.0
 10
93.38835650334562
 20
-158.5692939361878
 30
0.0
 10
93.33332110296875
 20
-158.5692939361878
 30
0.0
 10
93.27758591757144
 20
-158.5692939361878
 30
0.0
 10
93.23277814441641
 20
-158.6140909434194
 30
0.0
 10
93.23277814441641
 20
-158.6698261288167
 30
0.0
 10
93.23277814441641
 20
-158.7248615291936
 30
0.0
 10
93.27758591757144
 20
-158.7696693023486
 30
0.0
 10
93.33332110296875
 20
-158.7696693023486
 30
0.0
 10
93.38835650334562
 20
-158.7696693023486
 30
0.0
 10
93.43316427650065
 20
-158.7248615291936
 30
0.0
 10
93.43316427650065
 20
-158.6698261288167
 30
0.0
  0
SPLINE
  5
59
330
1F
100
AcDbEntity
  8
_U+30EC_U+30A4_U+30E4_U+30FC 1
 62
   179
420
  2234388
370
     9
100
AcDbSpline
210
0.0
220
0.0
230
1.0
 70
    11
 71
     3
 72
    17
 73
    13
 74
     0
 42
0.0000000001
 43
0.0000000001
 12
1.0
 22
0.0
 32
0.0
 13
1.0
 23
0.0
 33
0.0
 40
0.0
 40
0.0
 40
0.0
 40
0.0
 40
1.0
 40
1.0
 40
1.0
 40
2.0
 40
2.0
 40
2.0
 40
3.0
 40
3.0
 40
3.0
 40
4.0
 40
4.0
 40
4.0
 40
4.0
 10
93.43316427650065
 20
-139.6694247426434
 30
0.0
 10
93.43316427650065
 20
-139.6144001081899
 30
0.0
 10
93.38835650334562
 20
-139.5695923350349
 30
0.0
 10
93.33332110296875
 20
-139.5695923350349
 30
0.0
 10
93.27758591757144
 20
-139.5695923350349
 30
0.0
 10
93.23277814441641
 20
-139.6144001081899
 30
0.0
 10
93.23277814441641
 20
-139.6694247426434
 30
0.0
 10
93.23277814441641
 20
-139.7248154184922
 30
0.0
 10
93.27758591757144
 20
-139.7696231916472
 30
0.0
 10
93.33332110296875
 20
-139.7696231916472
 30
0.0
 10
93.38835650334562
 20
-139.7696231916472
 30
0.0
 10
93.43316427650065
 20
-139.7248154184922
 30
0.0
 10
93.43316427650065
 20
-139.6694247426434
 30
0.0
  0
SPLINE
  5
5A
330
1F
100
AcDbEntity
  8
_U+30EC_U+30A4_U+30E4_U+30FC 1
 62
   179
420
  2234388
370
     9
100
AcDbSpline
210
0.0
220
0.0
230
1.0
 70
    11
 71
     3
 72
    17
 73
    13
 74
     0
 42
0.0000000001
 43
0.0000000001
 12
1.0
 22
0.0
 32
0.0
 13
1.0
 23
0.0
 33
0.0
 40
0.0
 40
0.0
 40
0.0
 40
0.0
 40
1.0
 40
1.0
 40
1.0
 40
2.0
 40
2.0
 40
2.0
 40
3.0
 40
3.0
 40
3.0
 40
4.0
 40
4.0
 40
4.0
 40
4.0
 10
116.4330093092707
 20
-162.6695819871918
 30
0.0
 10
116.4330093092707
 20
-162.6145573527383
 30
0.0
 10
116.3882015361156
 20
-162.5697495795833
 30
0.0
 10
116.3331661357388
 20
-162.5697495795833
 30
0.0
 10
116.2781307353619
 20
-162.5697495795833
 30
0.0
 10
116.2333229622069
 20
-162.6145573527383
 30
0.0
 10
116.2333229622069
 20
-162.6695819871918
 30
0.0
 10
116.2333229622069
 20
-162.7246173875686
 30
0.0
 10
116.2781307353619
 20
-162.7694251607237
 30
0.0
 10
116.3331661357388
 20
-162.7694251607237
 30
0.0
 10
116.3882015361156
 20
-162.7694251607237
 30
0.0
 10
116.4330093092707
 20
-162.7246173875686
 30
0.0
 10
116.4330093092707
 20
-162.6695819871918
 30
0.0
  0
SPLINE
  5
5B
330
1F
100
AcDbEntity
  8
_U+30EC_U+30A4_U+30E4_U+30FC 1
 62
   179
420
  2234388
370
     9
100
AcDbSpline
210
0.0
220
0.0
230
1.0
 70
    11
 71
     3
 72
    17
 73
    13
 74
     0
 42
0.0000000001
 43
0.0000000001
 12
1.0
 22
0.0
 32
0.0
 13
1.0
 23
0.0
 33
0.0
 40
0.0
 40
0.0
 40
0.0
 40
0.0
 40
1.0
 40
1.0
 40
1.0
 40
2.0
 40
2.0
 40
2.0
 40
3.0
 40
3.0
 40
3.0
 40
4.0
 40
4.0
 40
4.0
 40
4.0
 10
97.43296319856928
 20
-162.6695819871918
 30
0.0
 10
97.43296319856928
 20
-162.6145573527383
 30
0.0
 10
97.38815542541457
 20
-162.5697495795833
 30
0.0
 10
97.3331200250377
 20
-162.5697495795833
 30
0.0
 10
97.27808462466083
 20
-162.5697495795833
 30
0.0
 10
97.2332768515055
 20
-162.6145573527383
 30
0.0
 10
97.2332768515055
 20
-162.6695819871918
 30
0.0
 10
97.2332768515055
 20
-162.7246173875686
 30
0.0
 10
97.27808462466083
 20
-162.7694251607237
 30
0.0
 10
97.3331200250377
 20
-162.7694251607237
 30
0.0
 10
97.38815542541457
 20
-162.7694251607237
 30
0.0
 10
97.43296319856928
 20
-162.7246173875686
 30
0.0
 10
97.43296319856928
 20
-162.6695819871918
 30
0.0
  0
SPLINE
  5
5C
330
1F
100
AcDbEntity
  8
_U+30EC_U+30A4_U+30E4_U+30FC 1
 62
   179
420
  2234388
370
     9
100
AcDbSpline
210
0.0
220
0.0
230
1.0
 70
    11
 71
     3
 72
    17
 73
    13
 74
     0
 42
0.0000000001
 43
0.0000000001
 12
1.0
 22
0.0
 32
0.0
 13
1.0
 23
0.0
 33
0.0
 40
0.0
 40
0.0
 40
0.0
 40
0.0
 40
1.0
 40
1.0
 40
1.0
 40
2.0
 40
2.0
 40
2.0
 40
3.0
 40
3.0
 40
3.0
 40
4.0
 40
4.0
 40
4.0
 40
4.0
 10
119.4336228813829
 20
-144.737849220543
 30
0.0
 10
119.4336228813829
 20
-144.6828245860895
 30
0.0
 10
119.3888151082279
 20
-144.6380168129345
 30
0.0
 10
119.333779707851
 20
-144.6380168129345
 30
0.0
 10
119.2787443074742
 20
-144.6380168129345
 30
0.0
 10
119.2339365343191
 20
-144.6828245860895
 30
0.0
 10
119.2339365343191
 20
-144.737849220543
 30
0.0
 10
119.2339365343191
 20
-144.7935951718637
 30
0.0
 10
119.2787443074742
 20
-144.8383921790953
 30
0.0
 10
119.333779707851
 20
-144.8383921790953
 30
0.0
 10
119.3888151082279
 20
-144.8383921790953
 30
0.0
 10
119.4336228813829
 20
-144.7935951718637
 30
0.0
 10
119.4336228813829
 20
-144.737849220543
 30
0.0
  0
SPLINE
  5
5D
330
1F
100
AcDbEntity
  8
_U+30EC_U+30A4_U+30E4_U+30FC 1
 62
   179
420
  2234388
370
     9
100
AcDbSpline
210
0.0
220
0.0
230
1.0
 70
    11
 71
     3
 72
    17
 73
    13
 74
     0
 42
0.0000000001
 43
0.0000000001
 12
1.0
 22
0.0
 32
0.0
 13
1.0
 23
0.0
 33
0.0
 40
0.0
 40
0.0
 40
0.0
 40
0.0
 40
1.0
 40
1.0
 40
1.0
 40
2.0
 40
2.0
 40
2.0
 40
3.0
 40
3.0
 40
3.0
 40
4.0
 40
4.0
 40
4.0
 40
4.0
 10
119.4336228813829
 20
-157.7375725245847
 30
0.0
 10
119.4336228813829
 20
-157.6825478901312
 30
0.0
 10
119.3888151082279
 20
-157.6377401169762
 30
0.0
 10
119.333779707851
 20
-157.6377401169762
 30
0.0
 10
119.2787443074742
 20
-157.6377401169762
 30
0.0
 10
119.2339365343191
 20
-157.6825478901312
 30
0.0
 10
119.2339365343191
 20
-157.7375725245847
 30
0.0
 10
119.2339365343191
 20
-157.7933184759054
 30
0.0
 10
119.2787443074742
 20
-157.838115483137
 30
0.0
 10
119.333779707851
 20
-157.838115483137
 30
0.0
 10
119.3888151082279
 20
-157.838115483137
 30
0.0
 10
119.4336228813829
 20
-157.7933184759054
 30
0.0
 10
119.4336228813829
 20
-157.7375725245847
 30
0.0
  0
INSERT
  5
5F
330
1F
100
AcDbEntity
  8
_U+30EC_U+30A4_U+30E4_U+30FC 1
100
AcDbBlockReference
  2
block 2
 10
0.0
 20
0.0
 30
0.0
  0
POLYLINE
  5
67
330
1F
100
AcDbEntity
  8
_U+30EC_U+30A4_U+30E4_U+30FC 1
 62
   179
420
  2234388
370
     9
100
AcDb2dPolyline
 66
     1
 10
0.0
 20
0.0
 30
0.0
  0
VERTEX
  5
68
330
67
100
AcDbEntity
  8
_U+30EC_U+30A4_U+30E4_U+30FC 1
 62
   179
420
  2234388
370
     9
100
AcDbVertex
100
AcDb2dVertex
 10
98.3331451170186
 20
-136.6697478058662
 30
0.0
  0
VERTEX
  5
69
330
67
100
AcDbEntity
  8
_U+30EC_U+30A4_U+30E4_U+30FC 1
 62
   179
420
  2234388
370
     9
100
AcDbVertex
100
AcDb2dVertex
 10
121.3331839364093
 20
-136.6697478058662
 30
0.0
  0
SEQEND
  5
6A
330
67
100
AcDbEntity
  8
_U+30EC_U+30A4_U+30E4_U+30FC 1
 62
   179
420
  2234388
370
     9
  0
POLYLINE
  5
6B
330
1F
100
AcDbEntity
  8
_U+30EC_U+30A4_U+30E4_U+30FC 1
 62
   179
420
  2234388
370
     9
100
AcDb2dPolyline
 66
     1
 10
0.0
 20
0.0
 30
0.0
  0
VERTEX
  5
6C
330
6B
100
AcDbEntity
  8
_U+30EC_U+30A4_U+30E4_U+30FC 1
 62
   179
420
  2234388
370
     9
100
AcDbVertex
100
AcDb2dVertex
 10
98.3331451170186
 20
-139.1292445364796
 30
0.0
  0
VERTEX
  5
6D
330
6B
100
AcDbEntity
  8
_U+30EC_U+30A4_U+30E4_U+30FC 1
 62
   179
420
  2234388
370
     9
100
AcDbVertex
100
AcDb2dVertex
 10
98.3331451170186
 20
-135.6695612250344
 30
0.0
  0
SEQEND
  5
6E
330
6B
100
AcDbEntity
  8
_U+30EC_U+30A4_U+30E4_U+30FC 1
 62
   179
420
  2234388
370
     9
  0
POLYLINE
  5
6F
330
1F
100
AcDbEntity
  8
_U+30EC_U+30A4_U+30E4_U+30FC 1
 62
   179
420
  2234388
370
     9
100
AcDb2dPolyline
 66
     1
 10
0.0
 20
0.0
 30
0.0
  0
VERTEX
  5
70
330
6F
100
AcDbEntity
  8
_U+30EC_U+30A4_U+30E4_U+30FC 1
 62
   179
420
  2234388
370
     9
100
AcDbVertex
100
AcDb2dVertex
 10
121.3332915956432
 20
-142.2380987023691
 30
0.0
  0
VERTEX
  5
71
330
6F
100
AcDbEntity
  8
_U+30EC_U+30A4_U+30E4_U+30FC 1
 62
   179
420
  2234388
370
     9
100
AcDbVertex
100
AcDb2dVertex
 10
121.3332915956432
 20
-135.6697334798087
 30
0.0
  0
SEQEND
  5
72
330
6F
100
AcDbEntity
  8
_U+30EC_U+30A4_U+30E4_U+30FC 1
 62
   179
420
  2234388
370
     9
  0
INSERT
  5
74
330
1F
100
AcDbEntity
  8
_U+30EC_U+30A4_U+30E4_U+30FC 1
100
AcDbBlockReference
  2
block 3
 10
0.0
 20
0.0
 30
0.0
  0
POLYLINE
  5
7B
330
1F
100
AcDbEntity
  8
_U+30EC_U+30A4_U+30E4_U+30FC 1
 62
   179
420
  2234388
370
     9
100
AcDb2dPolyline
 66
     1
 10
0.0
 20
0.0
 30
0.0
  0
VERTEX
  5
7C
330
7B
100
AcDbEntity
  8
_U+30EC_U+30A4_U+30E4_U+30FC 1
 62
   179
420
  2234388
370
     9
100
AcDbVertex
100
AcDb2dVertex
 10
98.33277907562297
 20
-141.9197934113788
 30
0.0
  0
VERTEX
  5
7D
330
7B
100
AcDbEntity
  8
_U+30EC_U+30A4_U+30E4_U+30FC 1
 62
   179
420
  2234388
370
     9
100
AcDbVertex
100
AcDb2dVertex
 10
102.1032638294547
 20
-141.9197934113788
 30
0.0
  0
SEQEND
  5
7E
330
7B
100
AcDbEntity
  8
_U+30EC_U+30A4_U+30E4_U+30FC 1
 62
   179
420
  2234388
370
     9
  0
POLYLINE
  5
7F
330
1F
100
AcDbEntity
  8
_U+30EC_U+30A4_U+30E4_U+30FC 1
 62
   179
420
  2234388
370
     9
100
AcDb2dPolyline
 66
     1
 10
0.0
 20
0.0
 30
0.0
  0
VERTEX
  5
80
330
7F
100
AcDbEntity
  8
_U+30EC_U+30A4_U+30E4_U+30FC 1
 62
   179
420
  2234388
370
     9
100
AcDbVertex
100
AcDb2dVertex
 10
96.33323489006058
 20
-141.9197934113788
 30
0.0
  0
VERTEX
  5
81
330
7F
100
AcDbEntity
  8
_U+30EC_U+30A4_U+30E4_U+30FC 1
 62
   179
420
  2234388
370
     9
100
AcDbVertex
100
AcDb2dVertex
 10
98.33277907562297
 20
-141.9197934113788
 30
0.0
  0
SEQEND
  5
82
330
7F
100
AcDbEntity
  8
_U+30EC_U+30A4_U+30E4_U+30FC 1
 62
   179
420
  2234388
370
     9
  0
INSERT
  5
84
330
1F
100
AcDbEntity
  8
_U+30EC_U+30A4_U+30E4_U+30FC 1
100
AcDbBlockReference
  2
block 4
 10
0.0
 20
0.0
 30
0.0
  0
POLYLINE
  5
89
330
1F
100
AcDbEntity
  8
_U+30EC_U+30A4_U+30E4_U+30FC 1
 62
   179
420
  2234388
370
     9
100
AcDb2dPolyline
 66
     1
 10
0.0
 20
0.0
 30
0.0
  0
VERTEX
  5
8A
330
89
100
AcDbEntity
  8
_U+30EC_U+30A4_U+30E4_U+30FC 1
 62
   179
420
  2234388
370
     9
100
AcDbVertex
100
AcDb2dVertex
 10
97.33305542949704
 20
-162.6695819871918
 30
0.0
  0
VERTEX
  5
8B
330
89
100
AcDbEntity
  8
_U+30EC_U+30A4_U+30E4_U+30FC 1
 62
   179
420
  2234388
370
     9
100
AcDbVertex
100
AcDb2dVertex
 10
116.3329508172709
 20
-162.6695819871918
 30
0.0
  0
SEQEND
  5
8C
330
89
100
AcDbEntity
  8
_U+30EC_U+30A4_U+30E4_U+30FC 1
 62
   179
420
  2234388
370
     9
  0
POLYLINE
  5
8D
330
1F
100
AcDbEntity
  8
_U+30EC_U+30A4_U+30E4_U+30FC 1
 62
   179
420
  2234388
370
     9
100
AcDb2dPolyline
 66
     1
 10
0.0
 20
0.0
 30
0.0
  0
VERTEX
  5
8E
330
8D
100
AcDbEntity
  8
_U+30EC_U+30A4_U+30E4_U+30FC 1
 62
   179
420
  2234388
370
     9
100
AcDbVertex
100
AcDb2dVertex
 10
97.33305542949704
 20
-160.2097622788766
 30
0.0
  0
VERTEX
  5
8F
330
8D
100
AcDbEntity
  8
_U+30EC_U+30A4_U+30E4_U+30FC 1
 62
   179
420
  2234388
370
     9
100
AcDbVertex
100
AcDb2dVertex
 10
97.33305542949704
 20
-163.670166907189
 30
0.0
  0
SEQEND
  5
90
330
8D
100
AcDbEntity
  8
_U+30EC_U+30A4_U+30E4_U+30FC 1
 62
   179
420
  2234388
370
     9
  0
POLYLINE
  5
91
330
1F
100
AcDbEntity
  8
_U+30EC_U+30A4_U+30E4_U+30FC 1
 62
   179
420
  2234388
370
     9
100
AcDb2dPolyline
 66
     1
 10
0.0
 20
0.0
 30
0.0
  0
VERTEX
  5
92
330
91
100
AcDbEntity
  8
_U+30EC_U+30A4_U+30E4_U+30FC 1
 62
   179
420
  2234388
370
     9
100
AcDbVertex
100
AcDb2dVertex
 10
116.3331015401984
 20
-160.2097622788766
 30
0.0
  0
VERTEX
  5
93
330
91
100
AcDbEntity
  8
_U+30EC_U+30A4_U+30E4_U+30FC 1
 62
   179
420
  2234388
370
     9
100
AcDbVertex
100
AcDb2dVertex
 10
116.3331015401984
 20
-163.670166907189
 30
0.0
  0
SEQEND
  5
94
330
91
100
AcDbEntity
  8
_U+30EC_U+30A4_U+30E4_U+30FC 1
 62
   179
420
  2234388
370
     9
  0
INSERT
  5
96
330
1F
100
AcDbEntity
  8
_U+30EC_U+30A4_U+30E4_U+30FC 1
100
AcDbBlockReference
  2
block 5
 10
0.0
 20
0.0
 30
0.0
  0
POLYLINE
  5
9E
330
1F
100
AcDbEntity
  8
_U+30EC_U+30A4_U+30E4_U+30FC 1
 62
   179
420
  2234388
370
     9
100
AcDb2dPolyline
 66
     1
 10
0.0
 20
0.0
 30
0.0
  0
VERTEX
  5
9F
330
9E
100
AcDbEntity
  8
_U+30EC_U+30A4_U+30E4_U+30FC 1
 62
   179
420
  2234388
370
     9
100
AcDbVertex
100
AcDb2dVertex
 10
119.3337151123107
 20
-157.7375725245847
 30
0.0
  0
VERTEX
  5
A0
330
9E
100
AcDbEntity
  8
_U+30EC_U+30A4_U+30E4_U+30FC 1
 62
   179
420
  2234388
370
     9
100
AcDbVertex
100
AcDb2dVertex
 10
119.3337151123107
 20
-144.7377200294626
 30
0.0
  0
SEQEND
  5
A1
330
9E
100
AcDbEntity
  8
_U+30EC_U+30A4_U+30E4_U+30FC 1
 62
   179
420
  2234388
370
     9
  0
POLYLINE
  5
A2
330
1F
100
AcDbEntity
  8
_U+30EC_U+30A4_U+30E4_U+30FC 1
 62
   179
420
  2234388
370
     9
100
AcDb2dPolyline
 66
     1
 10
0.0
 20
0.0
 30
0.0
  0
VERTEX
  5
A3
330
A2
100
AcDbEntity
  8
_U+30EC_U+30A4_U+30E4_U+30FC 1
 62
   179
420
  2234388
370
     9
100
AcDbVertex
100
AcDb2dVertex
 10
117.8737051775086
 20
-157.7375725245847
 30
0.0
  0
VERTEX
  5
A4
330
A2
100
AcDbEntity
  8
_U+30EC_U+30A4_U+30E4_U+30FC 1
 62
   179
420
  2234388
370
     9
100
AcDbVertex
100
AcDb2dVertex
 10
120.3336110132109
 20
-157.7375725245847
 30
0.0
  0
SEQEND
  5
A5
330
A2
100
AcDbEntity
  8
_U+30EC_U+30A4_U+30E4_U+30FC 1
 62
   179
420
  2234388
370
     9
  0
POLYLINE
  5
A6
330
1F
100
AcDbEntity
  8
_U+30EC_U+30A4_U+30E4_U+30FC 1
 62
   179
420
  2234388
370
     9
100
AcDb2dPolyline
 66
     1
 10
0.0
 20
0.0
 30
0.0
  0
VERTEX
  5
A7
330
A6
100
AcDbEntity
  8
_U+30EC_U+30A4_U+30E4_U+30FC 1
 62
   179
420
  2234388
370
     9
100
AcDbVertex
100
AcDb2dVertex
 10
117.8737051775086
 20
-144.737849220543
 30
0.0
  0
VERTEX
  5
A8
330
A6
100
AcDbEntity
  8
_U+30EC_U+30A4_U+30E4_U+30FC 1
 62
   179
420
  2234388
370
     9
100
AcDbVertex
100
AcDb2dVertex
 10
120.3336110132109
 20
-144.737849220543
 30
0.0
  0
SEQEND
  5
A9
330
A6
100
AcDbEntity
  8
_U+30EC_U+30A4_U+30E4_U+30FC 1
 62
   179
420
  2234388
370
     9
  0
INSERT
  5
AB
330
1F
100
AcDbEntity
  8
_U+30EC_U+30A4_U+30E4_U+30FC 1
100
AcDbBlockReference
  2
block 6
 10
0.0
 20
0.0
 30
0.0
  0
POLYLINE
  5
B2
330
1F
100
AcDbEntity
  8
_U+30EC_U+30A4_U+30E4_U+30FC 1
 62
   179
420
  2234388
370
     9
100
AcDb2dPolyline
 66
     1
 10
0.0
 20
0.0
 30
0.0
  0
VERTEX
  5
B3
330
B2
100
AcDbEntity
  8
_U+30EC_U+30A4_U+30E4_U+30FC 1
 62
   179
420
  2234388
370
     9
100
AcDbVertex
100
AcDb2dVertex
 10
93.3332565074284
 20
-158.6698261288167
 30
0.0
  0
VERTEX
  5
B4
330
B2
100
AcDbEntity
  8
_U+30EC_U+30A4_U+30E4_U+30FC 1
 62
   179
420
  2234388
370
     9
100
AcDbVertex
100
AcDb2dVertex
 10
93.3332565074284
 20
-139.6695754655709
 30
0.0
  0
SEQEND
  5
B5
330
B2
100
AcDbEntity
  8
_U+30EC_U+30A4_U+30E4_U+30FC 1
 62
   179
420
  2234388
370
     9
  0
POLYLINE
  5
B6
330
1F
100
AcDbEntity
  8
_U+30EC_U+30A4_U+30E4_U+30FC 1
 62
   179
420
  2234388
370
     9
100
AcDb2dPolyline
 66
     1
 10
0.0
 20
0.0
 30
0.0
  0
VERTEX
  5
B7
330
B6
100
AcDbEntity
  8
_U+30EC_U+30A4_U+30E4_U+30FC 1
 62
   179
420
  2234388
370
     9
100
AcDbVertex
100
AcDb2dVertex
 10
95.79303315205001
 20
-158.6698261288167
 30
0.0
  0
VERTEX
  5
B8
330
B6
100
AcDbEntity
  8
_U+30EC_U+30A4_U+30E4_U+30FC 1
 62
   179
420
  2234388
370
     9
100
AcDbVertex
100
AcDb2dVertex
 10
92.3326285237376
 20
-158.6698261288167
 30
0.0
  0
SEQEND
  5
B9
330
B6
100
AcDbEntity
  8
_U+30EC_U+30A4_U+30E4_U+30FC 1
 62
   179
420
  2234388
370
     9
  0
POLYLINE
  5
BA
330
1F
100
AcDbEntity
  8
_U+30EC_U+30A4_U+30E4_U+30FC 1
 62
   179
420
  2234388
370
     9
100
AcDb2dPolyline
 66
     1
 10
0.0
 20
0.0
 30
0.0
  0
VERTEX
  5
BB
330
BA
100
AcDbEntity
  8
_U+30EC_U+30A4_U+30E4_U+30FC 1
 62
   179
420
  2234388
370
     9
100
AcDbVertex
100
AcDb2dVertex
 10
95.79303315205001
 20
-139.6694247426434
 30
0.0
  0
VERTEX
  5
BC
330
BA
100
AcDbEntity
  8
_U+30EC_U+30A4_U+30E4_U+30FC 1
 62
   179
420
  2234388
370
     9
100
AcDbVertex
100
AcDb2dVertex
 10
92.3326285237376
 20
-139.6694247426434
 30
0.0
  0
SEQEND
  5
BD
330
BA
100
AcDbEntity
  8
_U+30EC_U+30A4_U+30E4_U+30FC 1
 62
   179
420
  2234388
370
     9
  0
INSERT
  5
BF
330
1F
100
AcDbEntity
  8
_U+30EC_U+30A4_U+30E4_U+30FC 1
100
AcDbBlockReference
  2
block 7
 10
0.0
 20
0.0
 30
0.0
  0
SPLINE
  5
C7
330
1F
100
AcDbEntity
  8
_U+30EC_U+30A4_U+30E4_U+30FC 1
 62
   179
420
  2234388
370
    25
100
AcDbSpline
210
0.0
220
0.0
230
1.0
 70
    11
 71
     3
 72
    74
 73
    70
 74
     0
 42
0.0000000001
 43
0.0000000001
 12
1.0
 22
0.0
 32
0.0
 13
1.0
 23
0.0
 33
0.0
 40
0.0
 40
0.0
 40
0.0
 40
0.0
 40
1.0
 40
1.0
 40
1.0
 40
2.0
 40
2.0
 40
2.0
 40
3.0
 40
3.0
 40
3.0
 40
4.0
 40
4.0
 40
4.0
 40
5.0
 40
5.0
 40
5.0
 40
6.0
 40
6.0
 40
6.0
 40
7.0
 40
7.0
 40
7.0
 40
8.0
 40
8.0
 40
8.0
 40
9.0
 40
9.0
 40
9.0
 40
10.0
 40
10.0
 40
10.0
 40
11.0
 40
11.0
 40
11.0
 40
12.0
 40
12.0
 40
12.0
 40
13.0
 40
13.0
 40
13.0
 40
14.0
 40
14.0
 40
14.0
 40
15.0
 40
15.0
 40
15.0
 40
16.0
 40
16.0
 40
16.0
 40
17.0
 40
17.0
 40
17.0
 40
18.0
 40
18.0
 40
18.0
 40
19.0
 40
19.0
 40
19.0
 40
20.0
 40
20.0
 40
20.0
 40
21.0
 40
21.0
 40
21.0
 40
22.0
 40
22.0
 40
22.0
 40
23.0
 40
23.0
 40
23.0
 40
23.0
 10
116.0474815926244
 20
-143.7380394470302
 30
0.0
 10
116.0474815926244
 20
-143.7380394470302
 30
0.0
 10
100.8187599777793
 20
-143.7380394470302
 30
0.0
 10
100.8187599777793
 20
-143.7380394470302
 30
0.0
 10
100.8187599777793
 20
-143.7380394470302
 30
0.0
 10
100.5361760206016
 20
-144.0206234042078
 30
0.0
 10
100.5361760206016
 20
-144.0206234042078
 30
0.0
 10
100.5361760206016
 20
-144.0206234042078
 30
0.0
 10
100.2532475538755
 20
-143.7380394470302
 30
0.0
 10
100.2532475538755
 20
-143.7380394470302
 30
0.0
 10
100.2532475538755
 20
-143.7380394470302
 30
0.0
 10
99.97068512854499
 20
-144.0206234042078
 30
0.0
 10
99.97068512854499
 20
-144.0206234042078
 30
0.0
 10
99.97068512854499
 20
-144.0206234042078
 30
0.0
 10
99.68741215227031
 20
-143.7380394470302
 30
0.0
 10
99.68741215227031
 20
-143.7380394470302
 30
0.0
 10
99.68741215227031
 20
-143.7380394470302
 30
0.0
 10
99.40482819509269
 20
-144.0206234042078
 30
0.0
 10
99.40482819509269
 20
-144.0206234042078
 30
0.0
 10
99.40482819509269
 20
-144.0206234042078
 30
0.0
 10
99.12155521881803
 20
-143.7380394470302
 30
0.0
 10
99.12155521881803
 20
-143.7380394470302
 30
0.0
 10
99.12155521881803
 20
-143.7380394470302
 30
0.0
 10
98.33273601192941
 20
-143.7380394470302
 30
0.0
 10
98.33273601192941
 20
-143.7380394470302
 30
0.0
 10
98.33273601192941
 20
-143.7380394470302
 30
0.0
 10
98.33273601192941
 20
-139.6694570404136
 30
0.0
 10
98.33273601192941
 20
-139.6694570404136
 30
0.0
 10
97.78098243812019
 20
-139.6694570404136
 30
0.0
 10
97.3329693021099
 20
-140.1171364327984
 30
0.0
 10
97.3329693021099
 20
-140.6695790257053
 30
0.0
 10
97.3329693021099
 20
-140.6695790257053
 30
0.0
 10
97.3329693021099
 20
-157.6692412088195
 30
0.0
 10
97.3329693021099
 20
-157.6692412088195
 30
0.0
 10
97.3329693021099
 20
-158.222039077198
 30
0.0
 10
97.78098243812019
 20
-158.6697184695828
 30
0.0
 10
98.33273601192941
 20
-158.6697184695828
 30
0.0
 10
98.33273601192941
 20
-158.6697184695828
 30
0.0
 10
115.2886562483046
 20
-158.6697184695828
 30
0.0
 10
115.2886562483046
 20
-158.6697184695828
 30
0.0
 10
115.8410988412112
 20
-158.6697184695828
 30
0.0
 10
116.3332307312791
 20
-158.2901227767252
 30
0.0
 10
116.3332307312791
 20
-157.7376801838186
 30
0.0
 10
116.3332307312791
 20
-157.7376801838186
 30
0.0
 10
98.33273601192941
 20
-157.7376801838186
 30
0.0
 10
98.33273601192941
 20
-157.7376801838186
 30
0.0
 10
98.33273601192941
 20
-157.7376801838186
 30
0.0
 10
98.33273601192941
 20
-144.7378169227728
 30
0.0
 10
98.33273601192941
 20
-144.7378169227728
 30
0.0
 10
98.33273601192941
 20
-144.7378169227728
 30
0.0
 10
116.3332307312791
 20
-144.7378169227728
 30
0.0
 10
116.3332307312791
 20
-144.7378169227728
 30
0.0
 10
116.3332307312791
 20
-144.7378169227728
 30
0.0
 10
116.8525142801402
 20
-144.437953658552
 30
0.0
 10
116.8525142801402
 20
-144.437953658552
 30
0.0
 10
116.8525142801402
 20
-144.437953658552
 30
0.0
 10
120.6332266611937
 20
-144.437953658552
 30
0.0
 10
120.6332266611937
 20
-144.437953658552
 30
0.0
 10
121.0198740338726
 20
-144.437953658552
 30
0.0
 10
121.3331408727158
 20
-144.1246868197088
 30
0.0
 10
121.3331408727158
 20
-143.7380394470302
 30
0.0
 10
121.3331408727158
 20
-143.7380394470302
 30
0.0
 10
116.6133169942299
 20
-143.7380394470302
 30
0.0
 10
116.6133169942299
 20
-143.7380394470302
 30
0.0
 10
116.6133169942299
 20
-143.7380394470302
 30
0.0
 10
116.3307545688991
 20
-144.0206234042078
 30
0.0
 10
116.3307545688991
 20
-144.0206234042078
 30
0.0
 10
116.3307545688991
 20
-144.0206234042078
 30
0.0
 10
116.0474815926244
 20
-143.7380394470302
 30
0.0
 10
116.0474815926244
 20
-143.7380394470302
 30
0.0
  0
POLYLINE
  5
C8
330
1F
100
AcDbEntity
  8
_U+30EC_U+30A4_U+30E4_U+30FC 1
  6
AI-Linetype-1
 62
     8
420
  8223869
370
    25
100
AcDb2dPolyline
 66
     1
 10
0.0
 20
0.0
 30
0.0
  0
VERTEX
  5
C9
330
C8
100
AcDbEntity
  8
_U+30EC_U+30A4_U+30E4_U+30FC 1
  6
AI-Linetype-1
 62
     8
420
  8223869
370
    25
100
AcDbVertex
100
AcDb2dVertex
 10
98.43272990838878
 20
-138.8770850788061
 30
0.0
  0
VERTEX
  5
CA
330
C8
100
AcDbEntity
  8
_U+30EC_U+30A4_U+30E4_U+30FC 1
  6
AI-Linetype-1
 62
     8
420
  8223869
370
    25
100
AcDbVertex
100
AcDb2dVertex
 10
96.54183542169245
 20
-138.8770850788061
 30
0.0
  0
VERTEX
  5
CB
330
C8
100
AcDbEntity
  8
_U+30EC_U+30A4_U+30E4_U+30FC 1
  6
AI-Linetype-1
 62
     8
420
  8223869
370
    25
100
AcDbVertex
100
AcDb2dVertex
 10
96.54183542169245
 20
-159.4623811111218
 30
0.0
  0
VERTEX
  5
CC
330
C8
100
AcDbEntity
  8
_U+30EC_U+30A4_U+30E4_U+30FC 1
  6
AI-Linetype-1
 62
     8
420
  8223869
370
    25
100
AcDbVertex
100
AcDb2dVertex
 10
117.1249998011767
 20
-159.4623811111218
 30
0.0
  0
VERTEX
  5
CD
330
C8
100
AcDbEntity
  8
_U+30EC_U+30A4_U+30E4_U+30FC 1
  6
AI-Linetype-1
 62
     8
420
  8223869
370
    25
100
AcDbVertex
100
AcDb2dVertex
 10
117.1249998011767
 20
-157.3559420722061
 30
0.0
  0
SEQEND
  5
CF
330
C8
100
AcDbEntity
  8
_U+30EC_U+30A4_U+30E4_U+30FC 1
  6
AI-Linetype-1
 62
     8
420
  8223869
370
    25
  0
ENDSEC
  0
SECTION
  2
OBJECTS
  0
DICTIONARY
  5
C
330
0
100
AcDbDictionary
281
     1
  3
ACAD_GROUP
350
D
  3
ACAD_LAYOUT
350
1A
  3
ACAD_MATERIAL
350
3B
  3
ACAD_MLEADERSTYLE
350
D1
  3
ACAD_MLINESTYLE
350
17
  3
ACAD_PLOTSETTINGS
350
19
  3
ACAD_PLOTSTYLENAME
350
E
  3
ACAD_TABLESTYLE
350
D0
  3
ACAD_VISUALSTYLE
350
2A
  0
SUN
  5
3F
330
29
100
AcDbSun
 90
        1
290
     0
 63
     7
421
 16777215
 40
1.0
291
     1
 91
  2455826
 92
 54000000
292
     0
 70
     2
 71
   256
280
     1
  0
DICTIONARY
  5
D
102
{ACAD_REACTORS
330
C
102
}
330
C
100
AcDbDictionary
281
     1
  0
DICTIONARY
  5
1A
102
{ACAD_REACTORS
330
C
102
}
330
C
100
AcDbDictionary
281
     1
  3
Layout1
350
1E
  3
Layout2
350
26
  3
Model
350
22
  0
DICTIONARY
  5
3B
102
{ACAD_REACTORS
330
C
102
}
330
C
100
AcDbDictionary
281
     1
  3
ByBlock
350
3D
  3
ByLayer
350
3C
  3
Global
350
3E
  0
DICTIONARY
  5
D1
102
{ACAD_REACTORS
330
C
102
}
330
C
100
AcDbDictionary
281
     1
  0
DICTIONARY
  5
17
102
{ACAD_REACTORS
330
C
102
}
330
C
100
AcDbDictionary
281
     1
  3
Standard
350
18
  0
DICTIONARY
  5
19
102
{ACAD_REACTORS
330
C
102
}
330
C
100
AcDbDictionary
281
     1
  0
ACDBDICTIONARYWDFLT
  5
E
102
{ACAD_REACTORS
330
C
102
}
330
C
100
AcDbDictionary
281
     1
  3
Normal
350
F
100
AcDbDictionaryWithDefault
340
F
  0
DICTIONARY
  5
D0
102
{ACAD_REACTORS
330
C
102
}
330
C
100
AcDbDictionary
281
     1
  0
DICTIONARY
  5
2A
102
{ACAD_REACTORS
330
C
102
}
330
C
100
AcDbDictionary
281
     1
  3
2dWireframe
350
2F
  3
3D Hidden
350
31
  3
3dWireframe
350
30
  3
Basic
350
32
  3
Brighten
350
36
  3
ColorChange
350
3A
  3
Conceptual
350
34
  3
Dim
350
35
  3
Facepattern
350
39
  3
Flat
350
2B
  3
FlatWithEdges
350
2C
  3
Gouraud
350
2D
  3
GouraudWithEdges
350
2E
  3
Linepattern
350
38
  3
Realistic
350
33
  3
Thicken
350
37
  0
LAYOUT
  5
1E
102
{ACAD_REACTORS
330
1A
102
}
330
1A
100
AcDbPlotSettings
  1

  2
none_device
  4

  6

 40
0.0
 41
0.0
 42
0.0
 43
0.0
 44
0.0
 45
0.0
 46
0.0
 47
0.0
 48
0.0
 49
0.0
140
0.0
141
0.0
142
1.0
143
1.0
 70
   688
 72
     0
 73
     0
 74
     5
  7

 75
    16
 76
     0
 77
     2
 78
   300
147
1.0
148
0.0
149
0.0
100
AcDbLayout
  1
Layout1
 70
     1
 71
     1
 10
0.0
 20
0.0
 11
12.0
 21
9.0
 12
0.0
 22
0.0
 32
0.0
 14
1.000000000000000E+20
 24
1.000000000000000E+20
 34
1.000000000000000E+20
 15
-1.000000000000000E+20
 25
-1.000000000000000E+20
 35
-1.000000000000000E+20
146
0.0
 13
0.0
 23
0.0
 33
0.0
 16
1.0
 26
0.0
 36
0.0
 17
0.0
 27
1.0
 37
0.0
 76
     0
330
1B
  0
LAYOUT
  5
26
102
{ACAD_REACTORS
330
1A
102
}
330
1A
100
AcDbPlotSettings
  1

  2
none_device
  4

  6

 40
0.0
 41
0.0
 42
0.0
 43
0.0
 44
0.0
 45
0.0
 46
0.0
 47
0.0
 48
0.0
 49
0.0
140
0.0
141
0.0
142
1.0
143
1.0
 70
   688
 72
     0
 73
     0
 74
     5
  7

 75
    16
 76
     0
 77
     2
 78
   300
147
1.0
148
0.0
149
0.0
100
AcDbLayout
  1
Layout2
 70
     1
 71
     2
 10
0.0
 20
0.0
 11
0.0
 21
0.0
 12
0.0
 22
0.0
 32
0.0
 14
0.0
 24
0.0
 34
0.0
 15
0.0
 25
0.0
 35
0.0
146
0.0
 13
0.0
 23
0.0
 33
0.0
 16
1.0
 26
0.0
 36
0.0
 17
0.0
 27
1.0
 37
0.0
 76
     0
330
23
  0
LAYOUT
  5
22
102
{ACAD_REACTORS
330
1A
102
}
330
1A
100
AcDbPlotSettings
  1

  2
none_device
  4

  6

 40
0.0
 41
0.0
 42
0.0
 43
0.0
 44
0.0
 45
0.0
 46
0.0
 47
0.0
 48
0.0
 49
0.0
140
0.0
141
0.0
142
1.0
143
1.0
 70
  1712
 72
     0
 73
     0
 74
     0
  7

 75
     0
 76
     0
 77
     2
 78
   300
147
1.0
148
0.0
149
0.0
100
AcDbLayout
  1
Model
 70
     1
 71
     0
 10
0.0
 20
0.0
 11
12.0
 21
9.0
 12
0.0
 22
0.0
 32
0.0
 14
1.000000000000000E+20
 24
1.000000000000000E+20
 34
1.000000000000000E+20
 15
-1.000000000000000E+20
 25
-1.000000000000000E+20
 35
-1.000000000000000E+20
146
0.0
 13
0.0
 23
0.0
 33
0.0
 16
1.0
 26
0.0
 36
0.0
 17
0.0
 27
1.0
 37
0.0
 76
     0
330
1F
331
29
  0
MATERIAL
  5
3D
102
{ACAD_REACTORS
330
3B
102
}
330
3B
100
AcDbMaterial
  1
ByBlock
 72
     1
 94
      127
  0
MATERIAL
  5
3C
102
{ACAD_REACTORS
330
3B
102
}
330
3B
100
AcDbMaterial
  1
ByLayer
 72
     1
 94
      127
  0
MATERIAL
  5
3E
102
{ACAD_REACTORS
330
3B
102
}
330
3B
100
AcDbMaterial
  1
Global
 72
     1
 94
      127
  0
MLINESTYLE
  5
18
102
{ACAD_REACTORS
330
17
102
}
330
17
100
AcDbMlineStyle
  2
Standard
 70
     0
  3

 62
   256
 51
90.0
 52
90.0
 71
     2
 49
0.5
 62
   256
  6
BYLAYER
 49
-0.5
 62
   256
  6
BYLAYER
  0
ACDBPLACEHOLDER
  5
F
102
{ACAD_REACTORS
330
E
102
}
330
E
  0
VISUALSTYLE
  5
2F
102
{ACAD_REACTORS
330
2A
102
}
330
2A
100
AcDbVisualStyle
  2
2dWireframe
 70
     4
177
     2
291
     0
 71
     0
176
     1
 72
     2
176
     1
 73
     0
176
     1
 90
        0
176
     1
 40
-0.6
176
     1
 41
-30.0
176
     1
 62
     5
 63
     7
421
 16777215
176
     1
 74
     1
176
     1
 91
        4
176
     1
 64
     7
176
     1
 65
   257
176
     1
 75
     1
176
     1
175
     1
176
     1
 42
1.0
176
     1
 92
        0
176
     1
 66
   257
176
     1
 43
1.0
176
     1
 76
     1
176
     1
 77
     6
176
     1
 78
     2
176
     1
 67
     7
176
     1
 79
     5
176
     1
170
     0
176
     1
171
     0
176
     1
290
     0
176
     1
 93
        1
176
     1
 44
0.0
176
     1
173
     0
176
     1
  0
VISUALSTYLE
  5
31
102
{ACAD_REACTORS
330
2A
102
}
330
2A
100
AcDbVisualStyle
  2
3D Hidden
 70
     6
177
     2
291
     0
 71
     1
176
     1
 72
     2
176
     1
 73
     2
176
     1
 90
        0
176
     1
 40
-0.6
176
     1
 41
-30.0
176
     1
 62
     5
 63
     7
421
 16777215
176
     1
 74
     2
176
     1
 91
        2
176
     1
 64
     7
176
     1
 65
   257
176
     1
 75
     2
176
     1
175
     1
176
     1
 42
40.0
176
     1
 92
        0
176
     1
 66
   257
176
     1
 43
1.0
176
     1
 76
     1
176
     1
 77
     6
176
     1
 78
     2
176
     1
 67
     7
176
     1
 79
     3
176
     1
170
     0
176
     1
171
     0
176
     1
290
     0
176
     1
 93
        1
176
     1
 44
0.0
176
     1
173
     0
176
     1
  0
VISUALSTYLE
  5
30
102
{ACAD_REACTORS
330
2A
102
}
330
2A
100
AcDbVisualStyle
  2
3dWireframe
 70
     5
177
     2
291
     0
 71
     0
176
     1
 72
     2
176
     1
 73
     0
176
     1
 90
        0
176
     1
 40
-0.6
176
     1
 41
-30.0
176
     1
 62
     5
 63
     7
421
 16777215
176
     1
 74
     1
176
     1
 91
        4
176
     1
 64
     7
176
     1
 65
   257
176
     1
 75
     1
176
     1
175
     1
176
     1
 42
1.0
176
     1
 92
        0
176
     1
 66
   257
176
     1
 43
1.0
176
     1
 76
     1
176
     1
 77
     6
176
     1
 78
     2
176
     1
 67
     7
176
     1
 79
     5
176
     1
170
     0
176
     1
171
     0
176
     1
290
     0
176
     1
 93
        1
176
     1
 44
0.0
176
     1
173
     0
176
     1
  0
VISUALSTYLE
  5
32
102
{ACAD_REACTORS
330
2A
102
}
330
2A
100
AcDbVisualStyle
  2
Basic
 70
     7
177
     2
291
     1
 71
     1
176
     1
 72
     0
176
     1
 73
     1
176
     1
 90
        0
176
     1
 40
-0.6
176
     1
 41
-30.0
176
     1
 62
     5
 63
     7
421
 16777215
176
     1
 74
     0
176
     1
 91
        4
176
     1
 64
     7
176
     1
 65
   257
176
     1
 75
     1
176
     1
175
     1
176
     1
 42
1.0
176
     1
 92
        8
176
     1
 66
     7
176
     1
 43
1.0
176
     1
 76
     1
176
     1
 77
     6
176
     1
 78
     2
176
     1
 67
     7
176
     1
 79
     5
176
     1
170
     0
176
     1
171
     0
176
     1
290
     0
176
     1
 93
        1
176
     1
 44
0.0
176
     1
173
     0
176
     1
  0
VISUALSTYLE
  5
36
102
{ACAD_REACTORS
330
2A
102
}
330
2A
100
AcDbVisualStyle
  2
Brighten
 70
    12
177
     2
291
     1
 71
     2
176
     1
 72
     2
176
     1
 73
     0
176
     1
 90
        0
176
     1
 40
-0.6
176
     1
 41
-30.0
176
     1
 62
     5
 63
     7
421
 16777215
176
     1
 74
     1
176
     1
 91
        4
176
     1
 64
     7
176
     1
 65
   257
176
     1
 75
     1
176
     1
175
     1
176
     1
 42
1.0
176
     1
 92
        8
176
     1
 66
     7
176
     1
 43
1.0
176
     1
 76
     1
176
     1
 77
     6
176
     1
 78
     2
176
     1
 67
     7
176
     1
 79
     5
176
     1
170
     0
176
     1
171
     0
176
     1
290
     0
176
     1
 93
        1
176
     1
 44
50.0
176
     1
173
     0
176
     1
  0
VISUALSTYLE
  5
3A
102
{ACAD_REACTORS
330
2A
102
}
330
2A
100
AcDbVisualStyle
  2
ColorChange
 70
    16
177
     2
291
     1
 71
     2
176
     1
 72
     2
176
     1
 73
     3
176
     1
 90
        0
176
     1
 40
-0.6
176
     1
 41
-30.0
176
     1
 62
     5
 63
     8
421
  8421504
176
     1
 74
     1
176
     1
 91
        4
176
     1
 64
     7
176
     1
 65
   257
176
     1
 75
     1
176
     1
175
     1
176
     1
 42
1.0
176
     1
 92
        8
176
     1
 66
     8
424
  8421504
176
     1
 43
1.0
176
     1
 76
     1
176
     1
 77
     6
176
     1
 78
     2
176
     1
 67
     7
176
     1
 79
     5
176
     1
170
     0
176
     1
171
     0
176
     1
290
     0
176
     1
 93
        1
176
     1
 44
0.0
176
     1
173
     0
176
     1
  0
VISUALSTYLE
  5
34
102
{ACAD_REACTORS
330
2A
102
}
330
2A
100
AcDbVisualStyle
  2
Conceptual
 70
     9
177
     2
291
     0
 71
     3
176
     1
 72
     2
176
     1
 73
     0
176
     1
 90
        0
176
     1
 40
-0.6
176
     1
 41
-30.0
176
     1
 62
     5
 63
     7
421
 16777215
176
     1
 74
     2
176
     1
 91
        2
176
     1
 64
     7
176
     1
 65
   257
176
     1
 75
     1
176
     1
175
     1
176
     1
 42
40.0
176
     1
 92
        8
176
     1
 66
     7
176
     1
 43
1.0
176
     1
 76
     1
176
     1
 77
     6
176
     1
 78
     2
176
     1
 67
     7
176
     1
 79
     3
176
     1
170
     0
176
     1
171
     0
176
     1
290
     0
176
     1
 93
        1
176
     1
 44
0.0
176
     1
173
     0
176
     1
  0
VISUALSTYLE
  5
35
102
{ACAD_REACTORS
330
2A
102
}
330
2A
100
AcDbVisualStyle
  2
Dim
 70
    11
177
     2
291
     1
 71
     2
176
     1
 72
     2
176
     1
 73
     0
176
     1
 90
        0
176
     1
 40
-0.6
176
     1
 41
-30.0
176
     1
 62
     5
 63
     7
421
 16777215
176
     1
 74
     1
176
     1
 91
        4
176
     1
 64
     7
176
     1
 65
   257
176
     1
 75
     1
176
     1
175
     1
176
     1
 42
1.0
176
     1
 92
        8
176
     1
 66
     7
176
     1
 43
1.0
176
     1
 76
     1
176
     1
 77
     6
176
     1
 78
     2
176
     1
 67
     7
176
     1
 79
     5
176
     1
170
     0
176
     1
171
     0
176
     1
290
     0
176
     1
 93
        1
176
     1
 44
-50.0
176
     1
173
     0
176
     1
  0
VISUALSTYLE
  5
39
102
{ACAD_REACTORS
330
2A
102
}
330
2A
100
AcDbVisualStyle
  2
Facepattern
 70
    15
177
     2
291
     1
 71
     2
176
     1
 72
     2
176
     1
 73
     0
176
     1
 90
        0
176
     1
 40
-0.6
176
     1
 41
-30.0
176
     1
 62
     5
 63
     7
421
 16777215
176
     1
 74
     1
176
     1
 91
        4
176
     1
 64
     7
176
     1
 65
   257
176
     1
 75
     1
176
     1
175
     1
176
     1
 42
1.0
176
     1
 92
        8
176
     1
 66
     7
176
     1
 43
1.0
176
     1
 76
     1
176
     1
 77
     6
176
     1
 78
     2
176
     1
 67
     7
176
     1
 79
     5
176
     1
170
     0
176
     1
171
     0
176
     1
290
     0
176
     1
 93
        1
176
     1
 44
0.0
176
     1
173
     0
176
     1
  0
VISUALSTYLE
  5
2B
102
{ACAD_REACTORS
330
2A
102
}
330
2A
100
AcDbVisualStyle
  2
Flat
 70
     0
177
     2
291
     1
 71
     2
176
     1
 72
     1
176
     1
 73
     1
176
     1
 90
        2
176
     1
 40
-0.6
176
     1
 41
30.0
176
     1
 62
     5
 63
     7
421
 16777215
176
     1
 74
     0
176
     1
 91
        4
176
     1
 64
     7
176
     1
 65
   257
176
     1
 75
     1
176
     1
175
     1
176
     1
 42
1.0
176
     1
 92
        8
176
     1
 66
     7
176
     1
 43
1.0
176
     1
 76
     1
176
     1
 77
     6
176
     1
 78
     2
176
     1
 67
     7
176
     1
 79
     5
176
     1
170
     0
176
     1
171
     0
176
     1
290
     0
176
     1
 93
       13
176
     1
 44
0.0
176
     1
173
     0
176
     1
  0
VISUALSTYLE
  5
2C
102
{ACAD_REACTORS
330
2A
102
}
330
2A
100
AcDbVisualStyle
  2
FlatWithEdges
 70
     1
177
     2
291
     1
 71
     2
176
     1
 72
     1
176
     1
 73
     1
176
     1
 90
        2
176
     1
 40
-0.6
176
     1
 41
30.0
176
     1
 62
     5
 63
     7
421
 16777215
176
     1
 74
     1
176
     1
 91
        4
176
     1
 64
     7
176
     1
 65
   257
176
     1
 75
     1
176
     1
175
     1
176
     1
 42
1.0
176
     1
 92
        0
176
     1
 66
   257
176
     1
 43
1.0
176
     1
 76
     1
176
     1
 77
     6
176
     1
 78
     2
176
     1
 67
     7
176
     1
 79
     5
176
     1
170
     0
176
     1
171
     0
176
     1
290
     0
176
     1
 93
       13
176
     1
 44
0.0
176
     1
173
     0
176
     1
  0
VISUALSTYLE
  5
2D
102
{ACAD_REACTORS
330
2A
102
}
330
2A
100
AcDbVisualStyle
  2
Gouraud
 70
     2
177
     2
291
     1
 71
     2
176
     1
 72
     2
176
     1
 73
     1
176
     1
 90
        2
176
     1
 40
-0.6
176
     1
 41
30.0
176
     1
 62
     5
 63
     7
421
 16777215
176
     1
 74
     0
176
     1
 91
        4
176
     1
 64
     7
176
     1
 65
   257
176
     1
 75
     1
176
     1
175
     1
176
     1
 42
1.0
176
     1
 92
        0
176
     1
 66
     7
176
     1
 43
1.0
176
     1
 76
     1
176
     1
 77
     6
176
     1
 78
     2
176
     1
 67
     7
176
     1
 79
     5
176
     1
170
     0
176
     1
171
     0
176
     1
290
     0
176
     1
 93
       13
176
     1
 44
0.0
176
     1
173
     0
176
     1
  0
VISUALSTYLE
  5
2E
102
{ACAD_REACTORS
330
2A
102
}
330
2A
100
AcDbVisualStyle
  2
GouraudWithEdges
 70
     3
177
     2
291
     1
 71
     2
176
     1
 72
     2
176
     1
 73
     1
176
     1
 90
        2
176
     1
 40
-0.6
176
     1
 41
30.0
176
     1
 62
     5
 63
     7
421
 16777215
176
     1
 74
     1
176
     1
 91
        4
176
     1
 64
     7
176
     1
 65
   257
176
     1
 75
     1
176
     1
175
     1
176
     1
 42
1.0
176
     1
 92
        0
176
     1
 66
   257
176
     1
 43
1.0
176
     1
 76
     1
176
     1
 77
     6
176
     1
 78
     2
176
     1
 67
     7
176
     1
 79
     5
176
     1
170
     0
176
     1
171
     0
176
     1
290
     0
176
     1
 93
       13
176
     1
 44
0.0
176
     1
173
     0
176
     1
  0
VISUALSTYLE
  5
38
102
{ACAD_REACTORS
330
2A
102
}
330
2A
100
AcDbVisualStyle
  2
Linepattern
 70
    14
177
     2
291
     1
 71
     2
176
     1
 72
     2
176
     1
 73
     0
176
     1
 90
        0
176
     1
 40
-0.6
176
     1
 41
-30.0
176
     1
 62
     5
 63
     7
421
 16777215
176
     1
 74
     1
176
     1
 91
        4
176
     1
 64
     7
176
     1
 65
   257
176
     1
 75
     7
176
     1
175
     7
176
     1
 42
1.0
176
     1
 92
        8
176
     1
 66
     7
176
     1
 43
1.0
176
     1
 76
     1
176
     1
 77
     6
176
     1
 78
     2
176
     1
 67
     7
176
     1
 79
     5
176
     1
170
     0
176
     1
171
     0
176
     1
290
     0
176
     1
 93
        1
176
     1
 44
0.0
176
     1
173
     0
176
     1
  0
VISUALSTYLE
  5
33
102
{ACAD_REACTORS
330
2A
102
}
330
2A
100
AcDbVisualStyle
  2
Realistic
 70
     8
177
     2
291
     0
 71
     2
176
     1
 72
     2
176
     1
 73
     0
176
     1
 90
        0
176
     1
 40
-0.6
176
     1
 41
-30.0
176
     1
 62
     5
 63
     7
421
 16777215
176
     1
 74
     1
176
     1
 91
        0
176
     1
 64
     7
176
     1
 65
   257
176
     1
 75
     1
176
     1
175
     1
176
     1
 42
1.0
176
     1
 92
        8
176
     1
 66
     8
424
  7895160
176
     1
 43
1.0
176
     1
 76
     1
176
     1
 77
     6
176
     1
 78
     2
176
     1
 67
     7
176
     1
 79
     5
176
     1
170
     0
176
     1
171
     0
176
     1
290
     0
176
     1
 93
       13
176
     1
 44
0.0
176
     1
173
     0
176
     1
  0
VISUALSTYLE
  5
37
102
{ACAD_REACTORS
330
2A
102
}
330
2A
100
AcDbVisualStyle
  2
Thicken
 70
    13
177
     2
291
     1
 71
     2
176
     1
 72
     2
176
     1
 73
     0
176
     1
 90
        0
176
     1
 40
-0.6
176
     1
 41
-30.0
176
     1
 62
     5
 63
     7
421
 16777215
176
     1
 74
     1
176
     1
 91
        4
176
     1
 64
     7
176
     1
 65
   257
176
     1
 75
     1
176
     1
175
     1
176
     1
 42
1.0
176
     1
 92
       12
176
     1
 66
     7
176
     1
 43
1.0
176
     1
 76
     1
176
     1
 77
     6
176
     1
 78
     2
176
     1
 67
     7
176
     1
 79
     5
176
     1
170
     0
176
     1
171
     0
176
     1
290
     0
176
     1
 93
        1
176
     1
 44
0.0
176
     1
173
     0
176
     1
  0
ENDSEC
  0
EOF
