  0
SECTION
  2
HEADER
  9
$ACADVER
  1
AC1024
  9
$ACADMAINTVER
 70
     6
  9
$DWGCODEPAGE
  3
UNDEFINED
  9
$INSBASE
 10
0.0
 20
0.0
 30
0.0
  9
$EXTMIN
 10
1.000000000000000E+20
 20
1.000000000000000E+20
 30
1.000000000000000E+20
  9
$EXTMAX
 10
-1.000000000000000E+20
 20
-1.000000000000000E+20
 30
-1.000000000000000E+20
  9
$LIMMIN
 10
0.0
 20
0.0
  9
$LIMMAX
 10
12.0
 20
9.0
  9
$ORTHOMODE
 70
     0
  9
$REGENMODE
 70
     1
  9
$FILLMODE
 70
     1
  9
$QTEXTMODE
 70
     0
  9
$MIRRTEXT
 70
     1
  9
$LTSCALE
 40
1.0
  9
$ATTMODE
 70
     1
  9
$TEXTSIZE
 40
0.2
  9
$TRACEWID
 40
0.05
  9
$TEXTSTYLE
  7
Standard
  9
$CLAYER
  8
0
  9
$CELTYPE
  6
ByLayer
  9
$CECOLOR
 62
   256
  9
$CELTSCALE
 40
1.0
  9
$DISPSILH
 70
     0
  9
$DIMSCALE
 40
1.0
  9
$DIMASZ
 40
0.18
  9
$DIMEXO
 40
0.0625
  9
$DIMDLI
 40
0.38
  9
$DIMRND
 40
0.0
  9
$DIMDLE
 40
0.0
  9
$DIMEXE
 40
0.18
  9
$DIMTP
 40
0.0
  9
$DIMTM
 40
0.0
  9
$DIMTXT
 40
0.18
  9
$DIMCEN
 40
0.09
  9
$DIMTSZ
 40
0.0
  9
$DIMTOL
 70
     0
  9
$DIMLIM
 70
     0
  9
$DIMTIH
 70
     1
  9
$DIMTOH
 70
     1
  9
$DIMSE1
 70
     0
  9
$DIMSE2
 70
     0
  9
$DIMTAD
 70
     0
  9
$DIMZIN
 70
     0
  9
$DIMBLK
  1

  9
$DIMASO
 70
     1
  9
$DIMSHO
 70
     1
  9
$DIMPOST
  1

  9
$DIMAPOST
  1

  9
$DIMALT
 70
     0
  9
$DIMALTD
 70
     2
  9
$DIMALTF
 40
25.4
  9
$DIMLFAC
 40
1.0
  9
$DIMTOFL
 70
     0
  9
$DIMTVP
 40
0.0
  9
$DIMTIX
 70
     0
  9
$DIMSOXD
 70
     0
  9
$DIMSAH
 70
     0
  9
$DIMBLK1
  1

  9
$DIMBLK2
  1

  9
$DIMSTYLE
  2
Standard
  9
$DIMCLRD
 70
     0
  9
$DIMCLRE
 70
     0
  9
$DIMCLRT
 70
     0
  9
$DIMTFAC
 40
1.0
  9
$DIMGAP
 40
0.09
  9
$DIMJUST
 70
     0
  9
$DIMSD1
 70
     0
  9
$DIMSD2
 70
     0
  9
$DIMTOLJ
 70
     1
  9
$DIMTZIN
 70
     0
  9
$DIMALTZ
 70
     0
  9
$DIMALTTZ
 70
     0
  9
$DIMUPT
 70
     0
  9
$DIMDEC
 70
     4
  9
$DIMTDEC
 70
     4
  9
$DIMALTU
 70
     2
  9
$DIMALTTD
 70
     2
  9
$DIMTXSTY
  7
Standard
  9
$DIMAUNIT
 70
     0
  9
$DIMADEC
 70
     0
  9
$DIMALTRND
 40
0.0
  9
$DIMAZIN
 70
     0
  9
$DIMDSEP
 70
    46
  9
$DIMATFIT
 70
     3
  9
$DIMFRAC
 70
     0
  9
$DIMLDRBLK
  1

  9
$DIMLUNIT
 70
     2
  9
$DIMLWD
 70
    -2
  9
$DIMLWE
 70
    -2
  9
$DIMTMOVE
 70
     0
  9
$DIMFXL
 40
1.0
  9
$DIMFXLON
 70
     0
  9
$DIMJOGANG
 40
0.7853981633974483
  9
$DIMTFILL
 70
     0
  9
$DIMTFILLCLR
 70
     0
  9
$DIMARCSYM
 70
     0
  9
$DIMLTYPE
  6

  9
$DIMLTEX1
  6

  9
$DIMLTEX2
  6

  9
$DIMTXTDIRECTION
 70
     0
  9
$LUNITS
 70
     2
  9
$LUPREC
 70
     4
  9
$SKETCHINC
 40
0.1
  9
$FILLETRAD
 40
0.5
  9
$AUNITS
 70
     0
  9
$AUPREC
 70
     0
  9
$MENU
  1
.
  9
$ELEVATION
 40
0.0
  9
$PELEVATION
 40
0.0
  9
$THICKNESS
 40
0.0
  9
$LIMCHECK
 70
     0
  9
$CHAMFERA
 40
0.5
  9
$CHAMFERB
 40
0.5
  9
$CHAMFERC
 40
1.0
  9
$CHAMFERD
 40
0.0
  9
$SKPOLY
 70
     0
  9
$TDCREATE
 40
2457917.622268507
  9
$TDUCREATE
 40
2457917.247268518
  9
$TDUPDATE
 40
2457917.622268507
  9
$TDUUPDATE
 40
2457917.247268518
  9
$TDINDWG
 40
0.0000000116
  9
$TDUSRTIMER
 40
0.0000000116
  9
$USRTIMER
 70
     1
  9
$ANGBASE
 50
0.0
  9
$ANGDIR
 70
     0
  9
$PDMODE
 70
     0
  9
$PDSIZE
 40
0.0
  9
$PLINEWID
 40
0.0
  9
$SPLFRAME
 70
     0
  9
$SPLINETYPE
 70
     6
  9
$SPLINESEGS
 70
     8
  9
$HANDSEED
  5
C9
  9
$SURFTAB1
 70
     6
  9
$SURFTAB2
 70
     6
  9
$SURFTYPE
 70
     6
  9
$SURFU
 70
     6
  9
$SURFV
 70
     6
  9
$UCSBASE
  2

  9
$UCSNAME
  2

  9
$UCSORG
 10
0.0
 20
0.0
 30
0.0
  9
$UCSXDIR
 10
1.0
 20
0.0
 30
0.0
  9
$UCSYDIR
 10
0.0
 20
1.0
 30
0.0
  9
$UCSORTHOREF
  2

  9
$UCSORTHOVIEW
 70
     0
  9
$UCSORGTOP
 10
0.0
 20
0.0
 30
0.0
  9
$UCSORGBOTTOM
 10
0.0
 20
0.0
 30
0.0
  9
$UCSORGLEFT
 10
0.0
 20
0.0
 30
0.0
  9
$UCSORGRIGHT
 10
0.0
 20
0.0
 30
0.0
  9
$UCSORGFRONT
 10
0.0
 20
0.0
 30
0.0
  9
$UCSORGBACK
 10
0.0
 20
0.0
 30
0.0
  9
$PUCSBASE
  2

  9
$PUCSNAME
  2

  9
$PUCSORG
 10
0.0
 20
0.0
 30
0.0
  9
$PUCSXDIR
 10
1.0
 20
0.0
 30
0.0
  9
$PUCSYDIR
 10
0.0
 20
1.0
 30
0.0
  9
$PUCSORTHOREF
  2

  9
$PUCSORTHOVIEW
 70
     0
  9
$PUCSORGTOP
 10
0.0
 20
0.0
 30
0.0
  9
$PUCSORGBOTTOM
 10
0.0
 20
0.0
 30
0.0
  9
$PUCSORGLEFT
 10
0.0
 20
0.0
 30
0.0
  9
$PUCSORGRIGHT
 10
0.0
 20
0.0
 30
0.0
  9
$PUCSORGFRONT
 10
0.0
 20
0.0
 30
0.0
  9
$PUCSORGBACK
 10
0.0
 20
0.0
 30
0.0
  9
$USERI1
 70
     0
  9
$USERI2
 70
     0
  9
$USERI3
 70
     0
  9
$USERI4
 70
     0
  9
$USERI5
 70
     0
  9
$USERR1
 40
0.0
  9
$USERR2
 40
0.0
  9
$USERR3
 40
0.0
  9
$USERR4
 40
0.0
  9
$USERR5
 40
0.0
  9
$WORLDVIEW
 70
     1
  9
$SHADEDGE
 70
     3
  9
$SHADEDIF
 70
    70
  9
$TILEMODE
 70
     1
  9
$MAXACTVP
 70
    64
  9
$PINSBASE
 10
0.0
 20
0.0
 30
0.0
  9
$PLIMCHECK
 70
     0
  9
$PEXTMIN
 10
1.000000000000000E+20
 20
1.000000000000000E+20
 30
1.000000000000000E+20
  9
$PEXTMAX
 10
-1.000000000000000E+20
 20
-1.000000000000000E+20
 30
-1.000000000000000E+20
  9
$PLIMMIN
 10
0.0
 20
0.0
  9
$PLIMMAX
 10
12.0
 20
9.0
  9
$UNITMODE
 70
     0
  9
$VISRETAIN
 70
     1
  9
$PLINEGEN
 70
     0
  9
$PSLTSCALE
 70
     1
  9
$TREEDEPTH
 70
  3020
  9
$CMLSTYLE
  2
Standard
  9
$CMLJUST
 70
     0
  9
$CMLSCALE
 40
1.0
  9
$PROXYGRAPHICS
 70
     1
  9
$MEASUREMENT
 70
     0
  9
$CELWEIGHT
370
    -1
  9
$ENDCAPS
280
     0
  9
$JOINSTYLE
280
     0
  9
$LWDISPLAY
290
     1
  9
$INSUNITS
 70
     1
  9
$HYPERLINKBASE
  1

  9
$STYLESHEET
  1

  9
$XEDIT
290
     1
  9
$CEPSNTYPE
380
     0
  9
$PSTYLEMODE
290
     1
  9
$FINGERPRINTGUID
  2
{A309F6AB-156E-84C2-C440-09F1BE80F821}
  9
$VERSIONGUID
  2
{FAEB1C32-E019-11D5-929B-00C0DF256EC4}
  9
$EXTNAMES
290
     1
  9
$PSVPSCALE
 40
0.0
  9
$OLESTARTUP
290
     0
  9
$SORTENTS
280
   127
  9
$INDEXCTL
280
     0
  9
$HIDETEXT
280
     1
  9
$XCLIPFRAME
280
     2
  9
$HALOGAP
280
     0
  9
$OBSCOLOR
 70
   257
  9
$OBSLTYPE
280
     0
  9
$INTERSECTIONDISPLAY
280
     0
  9
$INTERSECTIONCOLOR
 70
   257
  9
$DIMASSOC
280
     2
  9
$PROJECTNAME
  1

  9
$CAMERADISPLAY
290
     0
  9
$LENSLENGTH
 40
50.0
  9
$CAMERAHEIGHT
 40
0.0
  9
$STEPSPERSEC
 40
2.0
  9
$STEPSIZE
 40
6.0
  9
$3DDWFPREC
 40
2.0
  9
$PSOLWIDTH
 40
0.25
  9
$PSOLHEIGHT
 40
4.0
  9
$LOFTANG1
 40
1.570796326794897
  9
$LOFTANG2
 40
1.570796326794897
  9
$LOFTMAG1
 40
0.0
  9
$LOFTMAG2
 40
0.0
  9
$LOFTPARAM
 70
     7
  9
$LOFTNORMALS
280
     1
  9
$LATITUDE
 40
37.795
  9
$LONGITUDE
 40
-122.394
  9
$NORTHDIRECTION
 40
0.0
  9
$TIMEZONE
 70
 -8000
  9
$LIGHTGLYPHDISPLAY
280
     1
  9
$TILEMODELIGHTSYNCH
280
     1
  9
$CMATERIAL
347
3C
  9
$SOLIDHIST
280
     1
  9
$SHOWHIST
280
     1
  9
$DWFFRAME
280
     2
  9
$DGNFRAME
280
     2
  9
$REALWORLDSCALE
290
     1
  9
$INTERFERECOLOR
 62
   256
  9
$CSHADOW
280
     0
  9
$SHADOWPLANELOCATION
 40
0.0
  0
ENDSEC
  0
SECTION
  2
CLASSES
  0
CLASS
  1
ACDBDICTIONARYWDFLT
  2
AcDbDictionaryWithDefault
  3
ObjectDBX Classes
 90
        0
 91
        4
280
     0
281
     0
  0
CLASS
  1
VISUALSTYLE
  2
AcDbVisualStyle
  3
ObjectDBX Classes
 90
     4095
 91
        4
280
     0
281
     0
  0
CLASS
  1
MATERIAL
  2
AcDbMaterial
  3
ObjectDBX Classes
 90
     1153
 91
        4
280
     0
281
     0
  0
CLASS
  1
SUN
  2
AcDbSun
  3
SCENEOE
 90
     1024
 91
        4
280
     0
281
     0
  0
ENDSEC
  0
SECTION
  2
TABLES
  0
TABLE
  2
VPORT
  5
8
330
0
100
AcDbSymbolTable
 70
     1
  0
VPORT
  5
29
330
8
100
AcDbSymbolTableRecord
100
AcDbViewportTableRecord
  2
*Active
 70
     0
 10
0.0
 20
0.0
 11
1.0
 21
1.0
 12
0.0
 22
0.0
 13
0.0
 23
0.0
 14
0.5
 24
0.5
 15
0.5
 25
0.5
 16
0.0
 26
0.0
 36
1.0
 17
91.00082462281999
 27
-128.4993055234307
 37
0.0
 40
256.9986110468615
 41
0.7081814508812795
 42
50.0
 43
0.0
 44
0.0
 50
0.0
 51
0.0
 71
     0
 72
   100
 73
     1
 74
     3
 75
     0
 76
     0
 77
     0
 78
     0
281
     0
 65
     1
110
0.0
120
0.0
130
0.0
111
1.0
121
0.0
131
0.0
112
0.0
122
1.0
132
0.0
 79
     0
146
0.0
 60
     3
 61
     5
292
     1
282
     1
141
0.0
142
0.0
 63
   250
361
3F
  0
ENDTAB
  0
TABLE
  2
LTYPE
  5
5
330
0
100
AcDbSymbolTable
 70
     1
  0
LTYPE
  5
14
330
5
100
AcDbSymbolTableRecord
100
AcDbLinetypeTableRecord
  2
ByBlock
 70
     0
  3

 72
    65
 73
     0
 40
0.0
  0
LTYPE
  5
15
330
5
100
AcDbSymbolTableRecord
100
AcDbLinetypeTableRecord
  2
ByLayer
 70
     0
  3

 72
    65
 73
     0
 40
0.0
  0
LTYPE
  5
16
330
5
100
AcDbSymbolTableRecord
100
AcDbLinetypeTableRecord
  2
Continuous
 70
     0
  3
Solid line
 72
    65
 73
     0
 40
0.0
  0
ENDTAB
  0
TABLE
  2
LAYER
  5
2
330
0
100
AcDbSymbolTable
 70
     2
  0
LAYER
  5
10
330
2
100
AcDbSymbolTableRecord
100
AcDbLayerTableRecord
  2
0
 70
     0
 62
     7
  6
Continuous
370
    -3
390
F
347
3E
  0
LAYER
  5
40
330
2
100
AcDbSymbolTableRecord
100
AcDbLayerTableRecord
  2
_U+30EC_U+30A4_U+30E4_U+30FC 1
 70
     0
 62
     7
  6
Continuous
370
    -3
390
F
347
3E
  0
ENDTAB
  0
TABLE
  2
STYLE
  5
3
330
0
100
AcDbSymbolTable
 70
     1
  0
STYLE
  5
11
330
3
100
AcDbSymbolTableRecord
100
AcDbTextStyleTableRecord
  2
Standard
 70
     0
 40
0.0
 41
1.0
 50
0.0
 71
     0
 42
0.2
  3
txt
  4

  0
ENDTAB
  0
TABLE
  2
VIEW
  5
6
330
0
100
AcDbSymbolTable
 70
     0
  0
ENDTAB
  0
TABLE
  2
UCS
  5
7
330
0
100
AcDbSymbolTable
 70
     0
  0
ENDTAB
  0
TABLE
  2
APPID
  5
9
330
0
100
AcDbSymbolTable
 70
     1
  0
APPID
  5
12
330
9
100
AcDbSymbolTableRecord
100
AcDbRegAppTableRecord
  2
ACAD
 70
     0
  0
ENDTAB
  0
TABLE
  2
DIMSTYLE
  5
A
330
0
100
AcDbSymbolTable
 70
     1
100
AcDbDimStyleTable
  0
DIMSTYLE
105
27
330
A
100
AcDbSymbolTableRecord
100
AcDbDimStyleTableRecord
  2
Standard
 70
     0
178
     0
340
11
  0
ENDTAB
  0
TABLE
  2
BLOCK_RECORD
  5
1
330
0
100
AcDbSymbolTable
 70
     7
  0
BLOCK_RECORD
  5
1F
330
1
100
AcDbSymbolTableRecord
100
AcDbBlockTableRecord
  2
*Model_Space
340
22
 70
     0
280
     1
281
     0
  0
BLOCK_RECORD
  5
1B
330
1
100
AcDbSymbolTableRecord
100
AcDbBlockTableRecord
  2
*Paper_Space
340
1E
 70
     0
280
     1
281
     0
  0
BLOCK_RECORD
  5
23
330
1
100
AcDbSymbolTableRecord
100
AcDbBlockTableRecord
  2
*Paper_Space0
340
26
 70
     0
280
     1
281
     0
  0
BLOCK_RECORD
  5
5D
330
1
100
AcDbSymbolTableRecord
100
AcDbBlockTableRecord
  2
block 2
340
0
102
{BLKREFS
331
5E
102
}
 70
     0
280
     1
281
     0
  0
BLOCK_RECORD
  5
72
330
1
100
AcDbSymbolTableRecord
100
AcDbBlockTableRecord
  2
block 3
340
0
102
{BLKREFS
331
73
102
}
 70
     0
280
     1
281
     0
  0
BLOCK_RECORD
  5
82
330
1
100
AcDbSymbolTableRecord
100
AcDbBlockTableRecord
  2
block 4
340
0
102
{BLKREFS
331
83
102
}
 70
     0
280
     1
281
     0
  0
BLOCK_RECORD
  5
94
330
1
100
AcDbSymbolTableRecord
100
AcDbBlockTableRecord
  2
block 5
340
0
102
{BLKREFS
331
95
102
}
 70
     0
280
     1
281
     0
  0
BLOCK_RECORD
  5
A9
330
1
100
AcDbSymbolTableRecord
100
AcDbBlockTableRecord
  2
block 6
340
0
102
{BLKREFS
331
AA
102
}
 70
     0
280
     1
281
     0
  0
BLOCK_RECORD
  5
BD
330
1
100
AcDbSymbolTableRecord
100
AcDbBlockTableRecord
  2
block 7
340
0
102
{BLKREFS
331
BE
102
}
 70
     0
280
     1
281
     0
  0
ENDTAB
  0
ENDSEC
  0
SECTION
  2
BLOCKS
  0
BLOCK
  5
20
330
1F
100
AcDbEntity
  8
0
100
AcDbBlockBegin
  2
*Model_Space
 70
     0
 10
0.0
 20
0.0
 30
0.0
  3
*Model_Space
  1

  0
ENDBLK
  5
21
330
1F
100
AcDbEntity
  8
0
100
AcDbBlockEnd
  0
BLOCK
  5
1C
330
1B
100
AcDbEntity
 67
     1
  8
0
100
AcDbBlockBegin
  2
*Paper_Space
 70
     0
 10
0.0
 20
0.0
 30
0.0
  3
*Paper_Space
  1

  0
ENDBLK
  5
1D
330
1B
100
AcDbEntity
 67
     1
  8
0
100
AcDbBlockEnd
  0
BLOCK
  5
24
330
23
100
AcDbEntity
  8
0
100
AcDbBlockBegin
  2
*Paper_Space0
 70
     0
 10
0.0
 20
0.0
 30
0.0
  3
*Paper_Space0
  1

  0
ENDBLK
  5
25
330
23
100
AcDbEntity
  8
0
100
AcDbBlockEnd
  0
BLOCK
  5
5F
330
5D
100
AcDbEntity
  8
0
100
AcDbBlockBegin
  2
block 2
 70
     0
 10
0.0
 20
0.0
 30
0.0
  3
block 2
  1

  0
SPLINE
  5
61
330
5D
100
AcDbEntity
  8
_U+30EC_U+30A4_U+30E4_U+30FC 1
370
     0
100
AcDbSpline
210
0.0
220
0.0
230
1.0
 70
    11
 71
     3
 72
    26
 73
    22
 74
     0
 42
0.0000000001
 43
0.0000000001
 12
1.0
 22
0.0
 32
0.0
 13
1.0
 23
0.0
 33
0.0
 40
0.0
 40
0.0
 40
0.0
 40
0.0
 40
1.0
 40
1.0
 40
1.0
 40
2.0
 40
2.0
 40
2.0
 40
3.0
 40
3.0
 40
3.0
 40
4.0
 40
4.0
 40
4.0
 40
5.0
 40
5.0
 40
5.0
 40
6.0
 40
6.0
 40
6.0
 40
7.0
 40
7.0
 40
7.0
 40
7.0
 10
75.37989500068628
 20
-140.9884656765584
 30
0.0
 10
75.37989500068628
 20
-140.9884656765584
 30
0.0
 10
75.37989500068628
 20
-139.8843125735359
 30
0.0
 10
75.37989500068628
 20
-139.8843125735359
 30
0.0
 10
75.37989500068628
 20
-139.8843125735359
 30
0.0
 10
75.04985485319935
 20
-139.8843125735359
 30
0.0
 10
75.04985485319935
 20
-139.8843125735359
 30
0.0
 10
75.04985485319935
 20
-139.8843125735359
 30
0.0
 10
75.04985485319935
 20
-139.7361734676701
 30
0.0
 10
75.04985485319935
 20
-139.7361734676701
 30
0.0
 10
75.38196205797743
 20
-139.7213595570836
 30
0.0
 10
75.42847084702831
 20
-139.5584065406312
 30
0.0
 10
75.45809866820144
 20
-139.444029370521
 30
0.0
 10
75.45809866820144
 20
-139.444029370521
 30
0.0
 10
75.60417071677604
 20
-139.444029370521
 30
0.0
 10
75.60417071677604
 20
-139.444029370521
 30
0.0
 10
75.60417071677604
 20
-139.444029370521
 30
0.0
 10
75.60417071677604
 20
-140.9884656765584
 30
0.0
 10
75.60417071677604
 20
-140.9884656765584
 30
0.0
 10
75.60417071677604
 20
-140.9884656765584
 30
0.0
 10
75.37989500068628
 20
-140.9884656765584
 30
0.0
 10
75.37989500068628
 20
-140.9884656765584
 30
0.0
  0
HATCH
  5
62
330
5D
100
AcDbEntity
  8
_U+30EC_U+30A4_U+30E4_U+30FC 1
 62
   179
420
  2234388
100
AcDbHatch
 10
0.0
 20
0.0
 30
0.0
210
0.0
220
0.0
230
1.0
  2
SOLID
 70
     1
 71
     0
 91
        1
 92
        1
 93
        1
 72
     4
 94
        3
 73
     0
 74
     1
 95
       26
 96
       22
 40
0.0
 40
0.0
 40
0.0
 40
0.0
 40
1.0
 40
1.0
 40
1.0
 40
2.0
 40
2.0
 40
2.0
 40
3.0
 40
3.0
 40
3.0
 40
4.0
 40
4.0
 40
4.0
 40
5.0
 40
5.0
 40
5.0
 40
6.0
 40
6.0
 40
6.0
 40
7.0
 40
7.0
 40
7.0
 40
7.0
 10
75.37989500068628
 20
-140.9884656765584
 10
75.37989500068628
 20
-140.9884656765584
 10
75.37989500068628
 20
-139.8843125735359
 10
75.37989500068628
 20
-139.8843125735359
 10
75.37989500068628
 20
-139.8843125735359
 10
75.04985485319935
 20
-139.8843125735359
 10
75.04985485319935
 20
-139.8843125735359
 10
75.04985485319935
 20
-139.8843125735359
 10
75.04985485319935
 20
-139.7361734676701
 10
75.04985485319935
 20
-139.7361734676701
 10
75.38196205797743
 20
-139.7213595570836
 10
75.42847084702831
 20
-139.5584065406312
 10
75.45809866820144
 20
-139.444029370521
 10
75.45809866820144
 20
-139.444029370521
 10
75.60417071677604
 20
-139.444029370521
 10
75.60417071677604
 20
-139.444029370521
 10
75.60417071677604
 20
-139.444029370521
 10
75.60417071677604
 20
-140.9884656765584
 10
75.60417071677604
 20
-140.9884656765584
 10
75.60417071677604
 20
-140.9884656765584
 10
75.37989500068628
 20
-140.9884656765584
 10
75.37989500068628
 20
-140.9884656765584
 97
        0
 97
        0
 75
     2
 76
     1
 98
        0
  0
SPLINE
  5
63
330
5D
100
AcDbEntity
  8
_U+30EC_U+30A4_U+30E4_U+30FC 1
370
     0
100
AcDbSpline
210
0.0
220
0.0
230
1.0
 70
    11
 71
     3
 72
    44
 73
    40
 74
     0
 42
0.0000000001
 43
0.0000000001
 12
1.0
 22
0.0
 32
0.0
 13
1.0
 23
0.0
 33
0.0
 40
0.0
 40
0.0
 40
0.0
 40
0.0
 40
1.0
 40
1.0
 40
1.0
 40
2.0
 40
2.0
 40
2.0
 40
3.0
 40
3.0
 40
3.0
 40
4.0
 40
4.0
 40
4.0
 40
5.0
 40
5.0
 40
5.0
 40
6.0
 40
6.0
 40
6.0
 40
7.0
 40
7.0
 40
7.0
 40
8.0
 40
8.0
 40
8.0
 40
9.0
 40
9.0
 40
9.0
 40
10.0
 40
10.0
 40
10.0
 40
11.0
 40
11.0
 40
11.0
 40
12.0
 40
12.0
 40
12.0
 40
13.0
 40
13.0
 40
13.0
 40
13.0
 10
77.11949596596318
 20
-140.9884656765584
 30
0.0
 10
77.09606931666349
 20
-140.9440239447987
 30
0.0
 10
77.07505423420346
 20
-140.8913139838744
 30
0.0
 10
77.07281492213805
 20
-140.6604925863627
 30
0.0
 10
77.06868080755575
 20
-140.417268845104
 30
0.0
 10
77.00942516520945
 20
-140.3473334067534
 30
0.0
 10
76.83165823817056
 20
-140.3473334067534
 30
0.0
 10
76.83165823817056
 20
-140.3473334067534
 30
0.0
 10
76.42341442316845
 20
-140.3473334067534
 30
0.0
 10
76.42341442316845
 20
-140.3473334067534
 30
0.0
 10
76.42341442316845
 20
-140.3473334067534
 30
0.0
 10
76.42341442316845
 20
-140.9884656765584
 30
0.0
 10
76.42341442316845
 20
-140.9884656765584
 30
0.0
 10
76.42341442316845
 20
-140.9884656765584
 30
0.0
 10
76.18863116584868
 20
-140.9884656765584
 30
0.0
 10
76.18863116584868
 20
-140.9884656765584
 30
0.0
 10
76.18863116584868
 20
-140.9884656765584
 30
0.0
 10
76.18863116584868
 20
-139.444029370521
 30
0.0
 10
76.18863116584868
 20
-139.444029370521
 30
0.0
 10
76.18863116584868
 20
-139.444029370521
 30
0.0
 10
76.86335311663485
 20
-139.444029370521
 30
0.0
 10
76.86335311663485
 20
-139.444029370521
 30
0.0
 10
77.17013886959636
 20
-139.444029370521
 30
0.0
 10
77.33739825540523
 20
-139.6155951256864
 30
0.0
 10
77.33739825540523
 20
-139.8715657202405
 30
0.0
 10
77.33739825540523
 20
-139.9222086238736
 30
0.0
 10
77.32878551669211
 20
-140.0048909155196
 30
0.0
 10
77.28434378493239
 20
-140.0851616403259
 30
0.0
 10
77.22526039736036
 20
-140.188859014432
 30
0.0
 10
77.15963132836634
 20
-140.2078070396008
 30
0.0
 10
77.0983086287289
 20
-140.2246880074786
 30
0.0
 10
77.23576793859037
 20
-140.2670626819471
 30
0.0
 10
77.30346406487553
 20
-140.3156385282892
 30
0.0
 10
77.30777043423208
 20
-140.6308647651895
 30
0.0
 10
77.31190454881438
 20
-140.9016492703302
 30
0.0
 10
77.34790579663525
 20
-140.9333441487944
 30
0.0
 10
77.4156019229204
 20
-140.9884656765584
 30
0.0
 10
77.4156019229204
 20
-140.9884656765584
 30
0.0
 10
77.11949596596318
 20
-140.9884656765584
 30
0.0
 10
77.11949596596318
 20
-140.9884656765584
 30
0.0
  0
SPLINE
  5
64
330
5D
100
AcDbEntity
  8
_U+30EC_U+30A4_U+30E4_U+30FC 1
370
     0
100
AcDbSpline
210
0.0
220
0.0
230
1.0
 70
    11
 71
     3
 72
    20
 73
    16
 74
     0
 42
0.0000000001
 43
0.0000000001
 12
1.0
 22
0.0
 32
0.0
 13
1.0
 23
0.0
 33
0.0
 40
0.0
 40
0.0
 40
0.0
 40
0.0
 40
1.0
 40
1.0
 40
1.0
 40
2.0
 40
2.0
 40
2.0
 40
3.0
 40
3.0
 40
3.0
 40
4.0
 40
4.0
 40
4.0
 40
5.0
 40
5.0
 40
5.0
 40
5.0
 10
76.86765948599142
 20
-139.6555582333153
 30
0.0
 10
76.86765948599142
 20
-139.6555582333153
 30
0.0
 10
76.42341442316845
 20
-139.6555582333153
 30
0.0
 10
76.42341442316845
 20
-139.6555582333153
 30
0.0
 10
76.42341442316845
 20
-139.6555582333153
 30
0.0
 10
76.42341442316845
 20
-140.1358045439591
 30
0.0
 10
76.42341442316845
 20
-140.1358045439591
 30
0.0
 10
76.42341442316845
 20
-140.1358045439591
 30
0.0
 10
76.86559242870027
 20
-140.1358045439591
 30
0.0
 10
76.86559242870027
 20
-140.1358045439591
 30
0.0
 10
76.96498343344973
 20
-140.1358045439591
 30
0.0
 10
77.10037568602004
 20
-140.0596679337351
 30
0.0
 10
77.10037568602004
 20
-139.8884466881182
 30
0.0
 10
77.10037568602004
 20
-139.810243020603
 30
0.0
 10
77.0666137502646
 20
-139.6555582333153
 30
0.0
 10
76.86765948599142
 20
-139.6555582333153
 30
0.0
  0
HATCH
  5
65
330
5D
100
AcDbEntity
  8
_U+30EC_U+30A4_U+30E4_U+30FC 1
 62
   179
420
  2234388
100
AcDbHatch
 10
0.0
 20
0.0
 30
0.0
210
0.0
220
0.0
230
1.0
  2
SOLID
 70
     1
 71
     0
 91
        2
 92
        1
 93
        1
 72
     4
 94
        3
 73
     0
 74
     1
 95
       44
 96
       40
 40
0.0
 40
0.0
 40
0.0
 40
0.0
 40
1.0
 40
1.0
 40
1.0
 40
2.0
 40
2.0
 40
2.0
 40
3.0
 40
3.0
 40
3.0
 40
4.0
 40
4.0
 40
4.0
 40
5.0
 40
5.0
 40
5.0
 40
6.0
 40
6.0
 40
6.0
 40
7.0
 40
7.0
 40
7.0
 40
8.0
 40
8.0
 40
8.0
 40
9.0
 40
9.0
 40
9.0
 40
10.0
 40
10.0
 40
10.0
 40
11.0
 40
11.0
 40
11.0
 40
12.0
 40
12.0
 40
12.0
 40
13.0
 40
13.0
 40
13.0
 40
13.0
 10
77.11949596596318
 20
-140.9884656765584
 10
77.09606931666349
 20
-140.9440239447987
 10
77.07505423420346
 20
-140.8913139838744
 10
77.07281492213805
 20
-140.6604925863627
 10
77.06868080755575
 20
-140.417268845104
 10
77.00942516520945
 20
-140.3473334067534
 10
76.83165823817056
 20
-140.3473334067534
 10
76.83165823817056
 20
-140.3473334067534
 10
76.42341442316845
 20
-140.3473334067534
 10
76.42341442316845
 20
-140.3473334067534
 10
76.42341442316845
 20
-140.3473334067534
 10
76.42341442316845
 20
-140.9884656765584
 10
76.42341442316845
 20
-140.9884656765584
 10
76.42341442316845
 20
-140.9884656765584
 10
76.18863116584868
 20
-140.9884656765584
 10
76.18863116584868
 20
-140.9884656765584
 10
76.18863116584868
 20
-140.9884656765584
 10
76.18863116584868
 20
-139.444029370521
 10
76.18863116584868
 20
-139.444029370521
 10
76.18863116584868
 20
-139.444029370521
 10
76.86335311663485
 20
-139.444029370521
 10
76.86335311663485
 20
-139.444029370521
 10
77.17013886959636
 20
-139.444029370521
 10
77.33739825540523
 20
-139.6155951256864
 10
77.33739825540523
 20
-139.8715657202405
 10
77.33739825540523
 20
-139.9222086238736
 10
77.32878551669211
 20
-140.0048909155196
 10
77.28434378493239
 20
-140.0851616403259
 10
77.22526039736036
 20
-140.188859014432
 10
77.15963132836634
 20
-140.2078070396008
 10
77.0983086287289
 20
-140.2246880074786
 10
77.23576793859037
 20
-140.2670626819471
 10
77.30346406487553
 20
-140.3156385282892
 10
77.30777043423208
 20
-140.6308647651895
 10
77.31190454881438
 20
-140.9016492703302
 10
77.34790579663525
 20
-140.9333441487944
 10
77.4156019229204
 20
-140.9884656765584
 10
77.4156019229204
 20
-140.9884656765584
 10
77.11949596596318
 20
-140.9884656765584
 10
77.11949596596318
 20
-140.9884656765584
 97
        0
 97
        0
 92
        1
 93
        1
 72
     4
 94
        3
 73
     0
 74
     1
 95
       20
 96
       16
 40
0.0
 40
0.0
 40
0.0
 40
0.0
 40
1.0
 40
1.0
 40
1.0
 40
2.0
 40
2.0
 40
2.0
 40
3.0
 40
3.0
 40
3.0
 40
4.0
 40
4.0
 40
4.0
 40
5.0
 40
5.0
 40
5.0
 40
5.0
 10
76.86765948599142
 20
-139.6555582333153
 10
76.86765948599142
 20
-139.6555582333153
 10
76.42341442316845
 20
-139.6555582333153
 10
76.42341442316845
 20
-139.6555582333153
 10
76.42341442316845
 20
-139.6555582333153
 10
76.42341442316845
 20
-140.1358045439591
 10
76.42341442316845
 20
-140.1358045439591
 10
76.42341442316845
 20
-140.1358045439591
 10
76.86559242870027
 20
-140.1358045439591
 10
76.86559242870027
 20
-140.1358045439591
 10
76.96498343344973
 20
-140.1358045439591
 10
77.10037568602004
 20
-140.0596679337351
 10
77.10037568602004
 20
-139.8884466881182
 10
77.10037568602004
 20
-139.810243020603
 10
77.0666137502646
 20
-139.6555582333153
 10
76.86765948599142
 20
-139.6555582333153
 97
        0
 97
        0
 75
     2
 76
     1
 98
        0
  0
ENDBLK
  5
60
330
5D
100
AcDbEntity
  8
0
100
AcDbBlockEnd
  0
BLOCK
  5
74
330
72
100
AcDbEntity
  8
0
100
AcDbBlockBegin
  2
block 3
 70
     0
 10
0.0
 20
0.0
 30
0.0
  3
block 3
  1

  0
SPLINE
  5
76
330
72
100
AcDbEntity
  8
_U+30EC_U+30A4_U+30E4_U+30FC 1
370
     0
100
AcDbSpline
210
0.0
220
0.0
230
1.0
 70
    11
 71
     3
 72
    44
 73
    40
 74
     0
 42
0.0000000001
 43
0.0000000001
 12
1.0
 22
0.0
 32
0.0
 13
1.0
 23
0.0
 33
0.0
 40
0.0
 40
0.0
 40
0.0
 40
0.0
 40
1.0
 40
1.0
 40
1.0
 40
2.0
 40
2.0
 40
2.0
 40
3.0
 40
3.0
 40
3.0
 40
4.0
 40
4.0
 40
4.0
 40
5.0
 40
5.0
 40
5.0
 40
6.0
 40
6.0
 40
6.0
 40
7.0
 40
7.0
 40
7.0
 40
8.0
 40
8.0
 40
8.0
 40
9.0
 40
9.0
 40
9.0
 40
10.0
 40
10.0
 40
10.0
 40
11.0
 40
11.0
 40
11.0
 40
12.0
 40
12.0
 40
12.0
 40
13.0
 40
13.0
 40
13.0
 40
13.0
 10
94.8334879320208
 20
-114.9568074256879
 30
0.0
 10
94.615757897353
 20
-115.1154540727836
 30
0.0
 10
94.52274031925127
 20
-115.1895236257165
 30
0.0
 10
94.47381996336071
 20
-115.3331841074514
 30
0.0
 10
94.47381996336071
 20
-115.3331841074514
 30
0.0
 10
95.25241154302718
 20
-115.3331841074514
 30
0.0
 10
95.25241154302718
 20
-115.3331841074514
 30
0.0
 10
95.25241154302718
 20
-115.3331841074514
 30
0.0
 10
95.25241154302718
 20
-115.5385117983723
 30
0.0
 10
95.25241154302718
 20
-115.5385117983723
 30
0.0
 10
95.25241154302718
 20
-115.5385117983723
 30
0.0
 10
94.22439505022862
 20
-115.5385117983723
 30
0.0
 10
94.22439505022862
 20
-115.5385117983723
 30
0.0
 10
94.25608992869293
 20
-115.1809108870034
 30
0.0
 10
94.32154674291267
 20
-115.1027072194882
 30
0.0
 10
94.7067084181636
 20
-114.8043619504656
 30
0.0
 10
94.96267901271767
 20
-114.6055799409667
 30
0.0
 10
95.02813582693742
 20
-114.5378838146815
 30
0.0
 10
95.02813582693742
 20
-114.40042450482
 30
0.0
 10
95.02813582693742
 20
-114.2819132201274
 30
0.0
 10
94.95613333129569
 20
-114.1508273369137
 30
0.0
 10
94.75941837908793
 20
-114.1508273369137
 30
0.0
 10
94.49931366995156
 20
-114.1508273369137
 30
0.0
 10
94.49070093123844
 20
-114.3813042248769
 30
0.0
 10
94.48656681665614
 20
-114.4977484522783
 30
0.0
 10
94.48656681665614
 20
-114.4977484522783
 30
0.0
 10
94.26229110056637
 20
-114.4977484522783
 30
0.0
 10
94.26229110056637
 20
-114.4977484522783
 30
0.0
 10
94.2709038392795
 20
-114.3707966836469
 30
0.0
 10
94.28158363528378
 20
-114.258658825602
 30
0.0
 10
94.36185436009009
 20
-114.1401475409094
 30
0.0
 10
94.47175290606957
 20
-113.9794338365225
 30
0.0
 10
94.65813257182158
 20
-113.9454996459928
 30
0.0
 10
94.7742322896745
 20
-113.9454996459928
 30
0.0
 10
95.05156247623711
 20
-113.9454996459928
 30
0.0
 10
95.25895722444915
 20
-114.1296399996794
 30
0.0
 10
95.25895722444915
 20
-114.4024915621112
 30
0.0
 10
95.25895722444915
 20
-114.6309013927833
 30
0.0
 10
95.1425129970477
 20
-114.730464652307
 30
0.0
 10
94.8334879320208
 20
-114.9568074256879
 30
0.0
  0
HATCH
  5
77
330
72
100
AcDbEntity
  8
_U+30EC_U+30A4_U+30E4_U+30FC 1
 62
   179
420
  2234388
100
AcDbHatch
 10
0.0
 20
0.0
 30
0.0
210
0.0
220
0.0
230
1.0
  2
SOLID
 70
     1
 71
     0
 91
        1
 92
        1
 93
        1
 72
     4
 94
        3
 73
     0
 74
     1
 95
       44
 96
       40
 40
0.0
 40
0.0
 40
0.0
 40
0.0
 40
1.0
 40
1.0
 40
1.0
 40
2.0
 40
2.0
 40
2.0
 40
3.0
 40
3.0
 40
3.0
 40
4.0
 40
4.0
 40
4.0
 40
5.0
 40
5.0
 40
5.0
 40
6.0
 40
6.0
 40
6.0
 40
7.0
 40
7.0
 40
7.0
 40
8.0
 40
8.0
 40
8.0
 40
9.0
 40
9.0
 40
9.0
 40
10.0
 40
10.0
 40
10.0
 40
11.0
 40
11.0
 40
11.0
 40
12.0
 40
12.0
 40
12.0
 40
13.0
 40
13.0
 40
13.0
 40
13.0
 10
94.8334879320208
 20
-114.9568074256879
 10
94.615757897353
 20
-115.1154540727836
 10
94.52274031925127
 20
-115.1895236257165
 10
94.47381996336071
 20
-115.3331841074514
 10
94.47381996336071
 20
-115.3331841074514
 10
95.25241154302718
 20
-115.3331841074514
 10
95.25241154302718
 20
-115.3331841074514
 10
95.25241154302718
 20
-115.3331841074514
 10
95.25241154302718
 20
-115.5385117983723
 10
95.25241154302718
 20
-115.5385117983723
 10
95.25241154302718
 20
-115.5385117983723
 10
94.22439505022862
 20
-115.5385117983723
 10
94.22439505022862
 20
-115.5385117983723
 10
94.25608992869293
 20
-115.1809108870034
 10
94.32154674291267
 20
-115.1027072194882
 10
94.7067084181636
 20
-114.8043619504656
 10
94.96267901271767
 20
-114.6055799409667
 10
95.02813582693742
 20
-114.5378838146815
 10
95.02813582693742
 20
-114.40042450482
 10
95.02813582693742
 20
-114.2819132201274
 10
94.95613333129569
 20
-114.1508273369137
 10
94.75941837908793
 20
-114.1508273369137
 10
94.49931366995156
 20
-114.1508273369137
 10
94.49070093123844
 20
-114.3813042248769
 10
94.48656681665614
 20
-114.4977484522783
 10
94.48656681665614
 20
-114.4977484522783
 10
94.26229110056637
 20
-114.4977484522783
 10
94.26229110056637
 20
-114.4977484522783
 10
94.2709038392795
 20
-114.3707966836469
 10
94.28158363528378
 20
-114.258658825602
 10
94.36185436009009
 20
-114.1401475409094
 10
94.47175290606957
 20
-113.9794338365225
 10
94.65813257182158
 20
-113.9454996459928
 10
94.7742322896745
 20
-113.9454996459928
 10
95.05156247623711
 20
-113.9454996459928
 10
95.25895722444915
 20
-114.1296399996794
 10
95.25895722444915
 20
-114.4024915621112
 10
95.25895722444915
 20
-114.6309013927833
 10
95.1425129970477
 20
-114.730464652307
 10
94.8334879320208
 20
-114.9568074256879
 97
        0
 97
        0
 75
     2
 76
     1
 98
        0
  0
SPLINE
  5
78
330
72
100
AcDbEntity
  8
_U+30EC_U+30A4_U+30E4_U+30FC 1
370
     0
100
AcDbSpline
210
0.0
220
0.0
230
1.0
 70
    11
 71
     3
 72
    62
 73
    58
 74
     0
 42
0.0000000001
 43
0.0000000001
 12
1.0
 22
0.0
 32
0.0
 13
1.0
 23
0.0
 33
0.0
 40
0.0
 40
0.0
 40
0.0
 40
0.0
 40
1.0
 40
1.0
 40
1.0
 40
2.0
 40
2.0
 40
2.0
 40
3.0
 40
3.0
 40
3.0
 40
4.0
 40
4.0
 40
4.0
 40
5.0
 40
5.0
 40
5.0
 40
6.0
 40
6.0
 40
6.0
 40
7.0
 40
7.0
 40
7.0
 40
8.0
 40
8.0
 40
8.0
 40
9.0
 40
9.0
 40
9.0
 40
10.0
 40
10.0
 40
10.0
 40
11.0
 40
11.0
 40
11.0
 40
12.0
 40
12.0
 40
12.0
 40
13.0
 40
13.0
 40
13.0
 40
14.0
 40
14.0
 40
14.0
 40
15.0
 40
15.0
 40
15.0
 40
16.0
 40
16.0
 40
16.0
 40
17.0
 40
17.0
 40
17.0
 40
18.0
 40
18.0
 40
18.0
 40
19.0
 40
19.0
 40
19.0
 40
19.0
 10
95.9090467425158
 20
-115.5891547020055
 30
0.0
 10
95.81361759757438
 20
-115.5891547020055
 30
0.0
 10
95.59588756290658
 20
-115.5681396195455
 30
0.0
 10
95.47083059679201
 20
-115.382104463342
 30
0.0
 10
95.39676104385914
 20
-115.2697943505228
 30
0.0
 10
95.39262692927684
 20
-115.1704033457734
 30
0.0
 10
95.38849281469454
 20
-115.0858262516105
 30
0.0
 10
95.38849281469454
 20
-115.0858262516105
 30
0.0
 10
95.60863441620201
 20
-115.0858262516105
 30
0.0
 10
95.60863441620201
 20
-115.0858262516105
 30
0.0
 10
95.61070147349317
 20
-115.1598958045434
 30
0.0
 10
95.62103675994891
 20
-115.3945068070889
 30
0.0
 10
95.90456811838497
 20
-115.3945068070889
 30
0.0
 10
96.04202742824644
 20
-115.3945068070889
 30
0.0
 10
96.194645158243
 20
-115.3249158782868
 30
0.0
 10
96.194645158243
 20
-115.0963337928405
 30
0.0
 10
96.194645158243
 20
-114.9800618202133
 30
0.0
 10
96.15640459835673
 20
-114.931313719097
 30
0.0
 10
96.12470971989244
 20
-114.8996188406327
 30
0.0
 10
96.05064016695957
 20
-114.8255492876999
 30
0.0
 10
95.93419593955812
 20
-114.8129746891787
 30
0.0
 10
95.87941892134265
 20
-114.8129746891787
 30
0.0
 10
95.86012638662525
 20
-114.8129746891787
 30
0.0
 10
95.82429739357865
 20
-114.8150417464699
 30
0.0
 10
95.79673662969665
 20
-114.8191758610522
 30
0.0
 10
95.79673662969665
 20
-114.8191758610522
 30
0.0
 10
95.79673662969665
 20
-114.6245279661355
 30
0.0
 10
95.79673662969665
 20
-114.6245279661355
 30
0.0
 10
95.83497718958293
 20
-114.6309013927833
 30
0.0
 10
95.87700735450298
 20
-114.6331407048487
 30
0.0
 10
95.88355303592495
 20
-114.6331407048487
 30
0.0
 10
95.94900985014469
 20
-114.6331407048487
 30
0.0
 10
96.14779185964362
 20
-114.6119533676144
 30
0.0
 10
96.14779185964362
 20
-114.3749307982292
 30
0.0
 10
96.14779185964362
 20
-114.1973361259646
 30
0.0
 10
96.01687823120412
 20
-114.1422145982006
 30
0.0
 10
95.90663517567613
 20
-114.1422145982006
 30
0.0
 10
95.64239635195746
 20
-114.1422145982006
 30
0.0
 10
95.63378361324433
 20
-114.3749307982292
 30
0.0
 10
95.62964949866203
 20
-114.4469332938709
 30
0.0
 10
95.62964949866203
 20
-114.4469332938709
 30
0.0
 10
95.4263888650323
 20
-114.4469332938709
 30
0.0
 10
95.4263888650323
 20
-114.4469332938709
 30
0.0
 10
95.43500160374542
 20
-114.3220485825306
 30
0.0
 10
95.46256236762741
 20
-113.9454996459928
 30
0.0
 10
95.91938202897155
 20
-113.9454996459928
 30
0.0
 10
96.14365774506132
 20
-113.9454996459928
 30
0.0
 10
96.38481442902881
 20
-114.0724514146243
 30
0.0
 10
96.38481442902881
 20
-114.3685573715815
 30
0.0
 10
96.38481442902881
 20
-114.5547647825592
 30
0.0
 10
96.2897297936359
 20
-114.637274819431
 30
0.0
 10
96.19016653411218
 20
-114.6985975190684
 30
0.0
 10
96.25148923374964
 20
-114.7261582829504
 30
0.0
 10
96.43339027537083
 20
-114.806601262531
 30
0.0
 10
96.43339027537083
 20
-115.0837591943193
 30
0.0
 10
96.43339027537083
 20
-115.4220675709709
 30
0.0
 10
96.18603241952988
 20
-115.5891547020055
 30
0.0
 10
95.9090467425158
 20
-115.5891547020055
 30
0.0
  0
HATCH
  5
79
330
72
100
AcDbEntity
  8
_U+30EC_U+30A4_U+30E4_U+30FC 1
 62
   179
420
  2234388
100
AcDbHatch
 10
0.0
 20
0.0
 30
0.0
210
0.0
220
0.0
230
1.0
  2
SOLID
 70
     1
 71
     0
 91
        1
 92
        1
 93
        1
 72
     4
 94
        3
 73
     0
 74
     1
 95
       62
 96
       58
 40
0.0
 40
0.0
 40
0.0
 40
0.0
 40
1.0
 40
1.0
 40
1.0
 40
2.0
 40
2.0
 40
2.0
 40
3.0
 40
3.0
 40
3.0
 40
4.0
 40
4.0
 40
4.0
 40
5.0
 40
5.0
 40
5.0
 40
6.0
 40
6.0
 40
6.0
 40
7.0
 40
7.0
 40
7.0
 40
8.0
 40
8.0
 40
8.0
 40
9.0
 40
9.0
 40
9.0
 40
10.0
 40
10.0
 40
10.0
 40
11.0
 40
11.0
 40
11.0
 40
12.0
 40
12.0
 40
12.0
 40
13.0
 40
13.0
 40
13.0
 40
14.0
 40
14.0
 40
14.0
 40
15.0
 40
15.0
 40
15.0
 40
16.0
 40
16.0
 40
16.0
 40
17.0
 40
17.0
 40
17.0
 40
18.0
 40
18.0
 40
18.0
 40
19.0
 40
19.0
 40
19.0
 40
19.0
 10
95.9090467425158
 20
-115.5891547020055
 10
95.81361759757438
 20
-115.5891547020055
 10
95.59588756290658
 20
-115.5681396195455
 10
95.47083059679201
 20
-115.382104463342
 10
95.39676104385914
 20
-115.2697943505228
 10
95.39262692927684
 20
-115.1704033457734
 10
95.38849281469454
 20
-115.0858262516105
 10
95.38849281469454
 20
-115.0858262516105
 10
95.60863441620201
 20
-115.0858262516105
 10
95.60863441620201
 20
-115.0858262516105
 10
95.61070147349317
 20
-115.1598958045434
 10
95.62103675994891
 20
-115.3945068070889
 10
95.90456811838497
 20
-115.3945068070889
 10
96.04202742824644
 20
-115.3945068070889
 10
96.194645158243
 20
-115.3249158782868
 10
96.194645158243
 20
-115.0963337928405
 10
96.194645158243
 20
-114.9800618202133
 10
96.15640459835673
 20
-114.931313719097
 10
96.12470971989244
 20
-114.8996188406327
 10
96.05064016695957
 20
-114.8255492876999
 10
95.93419593955812
 20
-114.8129746891787
 10
95.87941892134265
 20
-114.8129746891787
 10
95.86012638662525
 20
-114.8129746891787
 10
95.82429739357865
 20
-114.8150417464699
 10
95.79673662969665
 20
-114.8191758610522
 10
95.79673662969665
 20
-114.8191758610522
 10
95.79673662969665
 20
-114.6245279661355
 10
95.79673662969665
 20
-114.6245279661355
 10
95.83497718958293
 20
-114.6309013927833
 10
95.87700735450298
 20
-114.6331407048487
 10
95.88355303592495
 20
-114.6331407048487
 10
95.94900985014469
 20
-114.6331407048487
 10
96.14779185964362
 20
-114.6119533676144
 10
96.14779185964362
 20
-114.3749307982292
 10
96.14779185964362
 20
-114.1973361259646
 10
96.01687823120412
 20
-114.1422145982006
 10
95.90663517567613
 20
-114.1422145982006
 10
95.64239635195746
 20
-114.1422145982006
 10
95.63378361324433
 20
-114.3749307982292
 10
95.62964949866203
 20
-114.4469332938709
 10
95.62964949866203
 20
-114.4469332938709
 10
95.4263888650323
 20
-114.4469332938709
 10
95.4263888650323
 20
-114.4469332938709
 10
95.43500160374542
 20
-114.3220485825306
 10
95.46256236762741
 20
-113.9454996459928
 10
95.91938202897155
 20
-113.9454996459928
 10
96.14365774506132
 20
-113.9454996459928
 10
96.38481442902881
 20
-114.0724514146243
 10
96.38481442902881
 20
-114.3685573715815
 10
96.38481442902881
 20
-114.5547647825592
 10
96.2897297936359
 20
-114.637274819431
 10
96.19016653411218
 20
-114.6985975190684
 10
96.25148923374964
 20
-114.7261582829504
 10
96.43339027537083
 20
-114.806601262531
 10
96.43339027537083
 20
-115.0837591943193
 10
96.43339027537083
 20
-115.4220675709709
 10
96.18603241952988
 20
-115.5891547020055
 10
95.9090467425158
 20
-115.5891547020055
 97
        0
 97
        0
 75
     2
 76
     1
 98
        0
  0
ENDBLK
  5
75
330
72
100
AcDbEntity
  8
0
100
AcDbBlockEnd
  0
BLOCK
  5
84
330
82
100
AcDbEntity
  8
0
100
AcDbBlockBegin
  2
block 4
 70
     0
 10
0.0
 20
0.0
 30
0.0
  3
block 4
  1

  0
SPLINE
  5
86
330
82
100
AcDbEntity
  8
_U+30EC_U+30A4_U+30E4_U+30FC 1
370
     0
100
AcDbSpline
210
0.0
220
0.0
230
1.0
 70
    11
 71
     3
 72
    26
 73
    22
 74
     0
 42
0.0000000001
 43
0.0000000001
 12
1.0
 22
0.0
 32
0.0
 13
1.0
 23
0.0
 33
0.0
 40
0.0
 40
0.0
 40
0.0
 40
0.0
 40
1.0
 40
1.0
 40
1.0
 40
2.0
 40
2.0
 40
2.0
 40
3.0
 40
3.0
 40
3.0
 40
4.0
 40
4.0
 40
4.0
 40
5.0
 40
5.0
 40
5.0
 40
6.0
 40
6.0
 40
6.0
 40
7.0
 40
7.0
 40
7.0
 40
7.0
 10
85.09988740277016
 20
-120.7888373178931
 30
0.0
 10
85.09988740277016
 20
-120.7888373178931
 30
0.0
 10
85.09988740277016
 20
-119.6845119600962
 30
0.0
 10
85.09988740277016
 20
-119.6845119600962
 30
0.0
 10
85.09988740277016
 20
-119.6845119600962
 30
0.0
 10
84.76984725528324
 20
-119.6845119600962
 30
0.0
 10
84.76984725528324
 20
-119.6845119600962
 30
0.0
 10
84.76984725528324
 20
-119.6845119600962
 30
0.0
 10
84.76984725528324
 20
-119.5365451090048
 30
0.0
 10
84.76984725528324
 20
-119.5365451090048
 30
0.0
 10
85.10195446006132
 20
-119.5217311984182
 30
0.0
 10
85.1484632491122
 20
-119.3587781819659
 30
0.0
 10
85.17809107028535
 20
-119.2445732666298
 30
0.0
 10
85.17809107028535
 20
-119.2445732666298
 30
0.0
 10
85.32416311885993
 20
-119.2445732666298
 30
0.0
 10
85.32416311885993
 20
-119.2445732666298
 30
0.0
 10
85.32416311885993
 20
-119.2445732666298
 30
0.0
 10
85.32416311885993
 20
-120.7888373178931
 30
0.0
 10
85.32416311885993
 20
-120.7888373178931
 30
0.0
 10
85.32416311885993
 20
-120.7888373178931
 30
0.0
 10
85.09988740277016
 20
-120.7888373178931
 30
0.0
 10
85.09988740277016
 20
-120.7888373178931
 30
0.0
  0
HATCH
  5
87
330
82
100
AcDbEntity
  8
_U+30EC_U+30A4_U+30E4_U+30FC 1
 62
   179
420
  2234388
100
AcDbHatch
 10
0.0
 20
0.0
 30
0.0
210
0.0
220
0.0
230
1.0
  2
SOLID
 70
     1
 71
     0
 91
        1
 92
        1
 93
        1
 72
     4
 94
        3
 73
     0
 74
     1
 95
       26
 96
       22
 40
0.0
 40
0.0
 40
0.0
 40
0.0
 40
1.0
 40
1.0
 40
1.0
 40
2.0
 40
2.0
 40
2.0
 40
3.0
 40
3.0
 40
3.0
 40
4.0
 40
4.0
 40
4.0
 40
5.0
 40
5.0
 40
5.0
 40
6.0
 40
6.0
 40
6.0
 40
7.0
 40
7.0
 40
7.0
 40
7.0
 10
85.09988740277016
 20
-120.7888373178931
 10
85.09988740277016
 20
-120.7888373178931
 10
85.09988740277016
 20
-119.6845119600962
 10
85.09988740277016
 20
-119.6845119600962
 10
85.09988740277016
 20
-119.6845119600962
 10
84.76984725528324
 20
-119.6845119600962
 10
84.76984725528324
 20
-119.6845119600962
 10
84.76984725528324
 20
-119.6845119600962
 10
84.76984725528324
 20
-119.5365451090048
 10
84.76984725528324
 20
-119.5365451090048
 10
85.10195446006132
 20
-119.5217311984182
 10
85.1484632491122
 20
-119.3587781819659
 10
85.17809107028535
 20
-119.2445732666298
 10
85.17809107028535
 20
-119.2445732666298
 10
85.32416311885993
 20
-119.2445732666298
 10
85.32416311885993
 20
-119.2445732666298
 10
85.32416311885993
 20
-119.2445732666298
 10
85.32416311885993
 20
-120.7888373178931
 10
85.32416311885993
 20
-120.7888373178931
 10
85.32416311885993
 20
-120.7888373178931
 10
85.09988740277016
 20
-120.7888373178931
 10
85.09988740277016
 20
-120.7888373178931
 97
        0
 97
        0
 75
     2
 76
     1
 98
        0
  0
ENDBLK
  5
85
330
82
100
AcDbEntity
  8
0
100
AcDbBlockEnd
  0
BLOCK
  5
96
330
94
100
AcDbEntity
  8
0
100
AcDbBlockBegin
  2
block 5
 70
     0
 10
0.0
 20
0.0
 30
0.0
  3
block 5
  1

  0
SPLINE
  5
98
330
94
100
AcDbEntity
  8
_U+30EC_U+30A4_U+30E4_U+30FC 1
370
     0
100
AcDbSpline
210
0.0
220
0.0
230
1.0
 70
    11
 71
     3
 72
    26
 73
    22
 74
     0
 42
0.0000000001
 43
0.0000000001
 12
1.0
 22
0.0
 32
0.0
 13
1.0
 23
0.0
 33
0.0
 40
0.0
 40
0.0
 40
0.0
 40
0.0
 40
1.0
 40
1.0
 40
1.0
 40
2.0
 40
2.0
 40
2.0
 40
3.0
 40
3.0
 40
3.0
 40
4.0
 40
4.0
 40
4.0
 40
5.0
 40
5.0
 40
5.0
 40
6.0
 40
6.0
 40
6.0
 40
7.0
 40
7.0
 40
7.0
 40
7.0
 10
91.69190535902148
 20
-141.5386474255529
 30
0.0
 10
91.69190535902148
 20
-141.5386474255529
 30
0.0
 10
91.69190535902148
 20
-140.4344943225303
 30
0.0
 10
91.69190535902148
 20
-140.4344943225303
 30
0.0
 10
91.69190535902148
 20
-140.4344943225303
 30
0.0
 10
91.3620374663088
 20
-140.4344943225303
 30
0.0
 10
91.3620374663088
 20
-140.4344943225303
 30
0.0
 10
91.3620374663088
 20
-140.4344943225303
 30
0.0
 10
91.3620374663088
 20
-140.2863552166645
 30
0.0
 10
91.3620374663088
 20
-140.2863552166645
 30
0.0
 10
91.69397241631262
 20
-140.2715413060779
 30
0.0
 10
91.74082571491202
 20
-140.1085882896256
 30
0.0
 10
91.77045353608517
 20
-139.9942111195153
 30
0.0
 10
91.77045353608517
 20
-139.9942111195153
 30
0.0
 10
91.91652558465977
 20
-139.9942111195153
 30
0.0
 10
91.91652558465977
 20
-139.9942111195153
 30
0.0
 10
91.91652558465977
 20
-139.9942111195153
 30
0.0
 10
91.91652558465977
 20
-141.5386474255529
 30
0.0
 10
91.91652558465977
 20
-141.5386474255529
 30
0.0
 10
91.91652558465977
 20
-141.5386474255529
 30
0.0
 10
91.69190535902148
 20
-141.5386474255529
 30
0.0
 10
91.69190535902148
 20
-141.5386474255529
 30
0.0
  0
HATCH
  5
99
330
94
100
AcDbEntity
  8
_U+30EC_U+30A4_U+30E4_U+30FC 1
 62
   179
420
  2234388
100
AcDbHatch
 10
0.0
 20
0.0
 30
0.0
210
0.0
220
0.0
230
1.0
  2
SOLID
 70
     1
 71
     0
 91
        1
 92
        1
 93
        1
 72
     4
 94
        3
 73
     0
 74
     1
 95
       26
 96
       22
 40
0.0
 40
0.0
 40
0.0
 40
0.0
 40
1.0
 40
1.0
 40
1.0
 40
2.0
 40
2.0
 40
2.0
 40
3.0
 40
3.0
 40
3.0
 40
4.0
 40
4.0
 40
4.0
 40
5.0
 40
5.0
 40
5.0
 40
6.0
 40
6.0
 40
6.0
 40
7.0
 40
7.0
 40
7.0
 40
7.0
 10
91.69190535902148
 20
-141.5386474255529
 10
91.69190535902148
 20
-141.5386474255529
 10
91.69190535902148
 20
-140.4344943225303
 10
91.69190535902148
 20
-140.4344943225303
 10
91.69190535902148
 20
-140.4344943225303
 10
91.3620374663088
 20
-140.4344943225303
 10
91.3620374663088
 20
-140.4344943225303
 10
91.3620374663088
 20
-140.4344943225303
 10
91.3620374663088
 20
-140.2863552166645
 10
91.3620374663088
 20
-140.2863552166645
 10
91.69397241631262
 20
-140.2715413060779
 10
91.74082571491202
 20
-140.1085882896256
 10
91.77045353608517
 20
-139.9942111195153
 10
91.77045353608517
 20
-139.9942111195153
 10
91.91652558465977
 20
-139.9942111195153
 10
91.91652558465977
 20
-139.9942111195153
 10
91.91652558465977
 20
-139.9942111195153
 10
91.91652558465977
 20
-141.5386474255529
 10
91.91652558465977
 20
-141.5386474255529
 10
91.91652558465977
 20
-141.5386474255529
 10
91.69190535902148
 20
-141.5386474255529
 10
91.69190535902148
 20
-141.5386474255529
 97
        0
 97
        0
 75
     2
 76
     1
 98
        0
  0
SPLINE
  5
9A
330
94
100
AcDbEntity
  8
_U+30EC_U+30A4_U+30E4_U+30FC 1
370
     0
100
AcDbSpline
210
0.0
220
0.0
230
1.0
 70
    11
 71
     3
 72
    32
 73
    28
 74
     0
 42
0.0000000001
 43
0.0000000001
 12
1.0
 22
0.0
 32
0.0
 13
1.0
 23
0.0
 33
0.0
 40
0.0
 40
0.0
 40
0.0
 40
0.0
 40
1.0
 40
1.0
 40
1.0
 40
2.0
 40
2.0
 40
2.0
 40
3.0
 40
3.0
 40
3.0
 40
4.0
 40
4.0
 40
4.0
 40
5.0
 40
5.0
 40
5.0
 40
6.0
 40
6.0
 40
6.0
 40
7.0
 40
7.0
 40
7.0
 40
8.0
 40
8.0
 40
8.0
 40
9.0
 40
9.0
 40
9.0
 40
9.0
 10
92.87495114865627
 20
-141.589290329186
 30
0.0
 10
92.70200735529673
 20
-141.589290329186
 30
0.0
 10
92.45602753764989
 20
-141.519699400384
 30
0.0
 10
92.41813148731214
 20
-141.1875921956059
 30
0.0
 10
92.41813148731214
 20
-141.1875921956059
 30
0.0
 10
92.63172740739763
 20
-141.1875921956059
 30
0.0
 10
92.63172740739763
 20
-141.1875921956059
 30
0.0
 10
92.64275171295043
 20
-141.2468478379522
 30
0.0
 10
92.67444659141472
 20
-141.3946424342694
 30
0.0
 10
92.87701820594742
 20
-141.3946424342694
 30
0.0
 10
93.1691623030966
 20
-141.3946424342694
 30
0.0
 10
93.20705835343435
 20
-141.064946796331
 30
0.0
 10
93.2201497162783
 20
-140.8596191054101
 30
0.0
 10
93.1291991954677
 20
-140.9398898302164
 30
0.0
 10
93.0616753239568
 20
-140.9970784152716
 30
0.0
 10
92.87977428233562
 20
-140.9970784152716
 30
0.0
 10
92.69994029800557
 20
-140.9970784152716
 30
0.0
 10
92.39746091440064
 20
-140.8913139838744
 30
0.0
 10
92.39746091440064
 20
-140.4851372261634
 30
0.0
 10
92.39746091440064
 20
-140.1657768746808
 30
0.0
 10
92.59589841435103
 20
-139.9456352731733
 30
0.0
 10
92.91353621809107
 20
-139.9456352731733
 30
0.0
 10
93.42754446449034
 20
-139.9456352731733
 30
0.0
 10
93.4378797509461
 20
-140.49995113675
 30
0.0
 10
93.4378797509461
 20
-140.7135470568355
 30
0.0
 10
93.4378797509461
 20
-140.9440239447987
 30
0.0
 10
93.41858721622869
 20
-141.589290329186
 30
0.0
 10
92.87495114865627
 20
-141.589290329186
 30
0.0
  0
SPLINE
  5
9B
330
94
100
AcDbEntity
  8
_U+30EC_U+30A4_U+30E4_U+30FC 1
370
     0
100
AcDbSpline
210
0.0
220
0.0
230
1.0
 70
    11
 71
     3
 72
    17
 73
    13
 74
     0
 42
0.0000000001
 43
0.0000000001
 12
1.0
 22
0.0
 32
0.0
 13
1.0
 23
0.0
 33
0.0
 40
0.0
 40
0.0
 40
0.0
 40
0.0
 40
1.0
 40
1.0
 40
1.0
 40
2.0
 40
2.0
 40
2.0
 40
3.0
 40
3.0
 40
3.0
 40
4.0
 40
4.0
 40
4.0
 40
4.0
 10
92.91560327538221
 20
-140.1382161107988
 30
0.0
 10
92.79709199068962
 20
-140.1382161107988
 30
0.0
 10
92.62139212094188
 20
-140.1954046958539
 30
0.0
 10
92.62139212094188
 20
-140.4810031115811
 30
0.0
 10
92.62139212094188
 20
-140.7073458849621
 30
0.0
 10
92.76126299764302
 20
-140.802430520355
 30
0.0
 10
92.89631074066482
 20
-140.802430520355
 30
0.0
 10
93.15882701664086
 20
-140.802430520355
 30
0.0
 10
93.1967230669786
 20
-140.5929687148518
 30
0.0
 10
93.1967230669786
 20
-140.4765244874503
 30
0.0
 10
93.1967230669786
 20
-140.3011691272511
 30
0.0
 10
93.10163843158571
 20
-140.1382161107988
 30
0.0
 10
92.91560327538221
 20
-140.1382161107988
 30
0.0
  0
HATCH
  5
9C
330
94
100
AcDbEntity
  8
_U+30EC_U+30A4_U+30E4_U+30FC 1
 62
   179
420
  2234388
100
AcDbHatch
 10
0.0
 20
0.0
 30
0.0
210
0.0
220
0.0
230
1.0
  2
SOLID
 70
     1
 71
     0
 91
        2
 92
        1
 93
        1
 72
     4
 94
        3
 73
     0
 74
     1
 95
       32
 96
       28
 40
0.0
 40
0.0
 40
0.0
 40
0.0
 40
1.0
 40
1.0
 40
1.0
 40
2.0
 40
2.0
 40
2.0
 40
3.0
 40
3.0
 40
3.0
 40
4.0
 40
4.0
 40
4.0
 40
5.0
 40
5.0
 40
5.0
 40
6.0
 40
6.0
 40
6.0
 40
7.0
 40
7.0
 40
7.0
 40
8.0
 40
8.0
 40
8.0
 40
9.0
 40
9.0
 40
9.0
 40
9.0
 10
92.87495114865627
 20
-141.589290329186
 10
92.70200735529673
 20
-141.589290329186
 10
92.45602753764989
 20
-141.519699400384
 10
92.41813148731214
 20
-141.1875921956059
 10
92.41813148731214
 20
-141.1875921956059
 10
92.63172740739763
 20
-141.1875921956059
 10
92.63172740739763
 20
-141.1875921956059
 10
92.64275171295043
 20
-141.2468478379522
 10
92.67444659141472
 20
-141.3946424342694
 10
92.87701820594742
 20
-141.3946424342694
 10
93.1691623030966
 20
-141.3946424342694
 10
93.20705835343435
 20
-141.064946796331
 10
93.2201497162783
 20
-140.8596191054101
 10
93.1291991954677
 20
-140.9398898302164
 10
93.0616753239568
 20
-140.9970784152716
 10
92.87977428233562
 20
-140.9970784152716
 10
92.69994029800557
 20
-140.9970784152716
 10
92.39746091440064
 20
-140.8913139838744
 10
92.39746091440064
 20
-140.4851372261634
 10
92.39746091440064
 20
-140.1657768746808
 10
92.59589841435103
 20
-139.9456352731733
 10
92.91353621809107
 20
-139.9456352731733
 10
93.42754446449034
 20
-139.9456352731733
 10
93.4378797509461
 20
-140.49995113675
 10
93.4378797509461
 20
-140.7135470568355
 10
93.4378797509461
 20
-140.9440239447987
 10
93.41858721622869
 20
-141.589290329186
 10
92.87495114865627
 20
-141.589290329186
 97
        0
 97
        0
 92
        1
 93
        1
 72
     4
 94
        3
 73
     0
 74
     1
 95
       17
 96
       13
 40
0.0
 40
0.0
 40
0.0
 40
0.0
 40
1.0
 40
1.0
 40
1.0
 40
2.0
 40
2.0
 40
2.0
 40
3.0
 40
3.0
 40
3.0
 40
4.0
 40
4.0
 40
4.0
 40
4.0
 10
92.91560327538221
 20
-140.1382161107988
 10
92.79709199068962
 20
-140.1382161107988
 10
92.62139212094188
 20
-140.1954046958539
 10
92.62139212094188
 20
-140.4810031115811
 10
92.62139212094188
 20
-140.7073458849621
 10
92.76126299764302
 20
-140.802430520355
 10
92.89631074066482
 20
-140.802430520355
 10
93.15882701664086
 20
-140.802430520355
 10
93.1967230669786
 20
-140.5929687148518
 10
93.1967230669786
 20
-140.4765244874503
 10
93.1967230669786
 20
-140.3011691272511
 10
93.10163843158571
 20
-140.1382161107988
 10
92.91560327538221
 20
-140.1382161107988
 97
        0
 97
        0
 75
     2
 76
     1
 98
        0
  0
ENDBLK
  5
97
330
94
100
AcDbEntity
  8
0
100
AcDbBlockEnd
  0
BLOCK
  5
AB
330
A9
100
AcDbEntity
  8
0
100
AcDbBlockBegin
  2
block 6
 70
     0
 10
0.0
 20
0.0
 30
0.0
  3
block 6
  1

  0
SPLINE
  5
AD
330
A9
100
AcDbEntity
  8
_U+30EC_U+30A4_U+30E4_U+30FC 1
370
     0
100
AcDbSpline
210
0.0
220
0.0
230
1.0
 70
    11
 71
     3
 72
    26
 73
    22
 74
     0
 42
0.0000000001
 43
0.0000000001
 12
1.0
 22
0.0
 32
0.0
 13
1.0
 23
0.0
 33
0.0
 40
0.0
 40
0.0
 40
0.0
 40
0.0
 40
1.0
 40
1.0
 40
1.0
 40
2.0
 40
2.0
 40
2.0
 40
3.0
 40
3.0
 40
3.0
 40
4.0
 40
4.0
 40
4.0
 40
5.0
 40
5.0
 40
5.0
 40
6.0
 40
6.0
 40
6.0
 40
7.0
 40
7.0
 40
7.0
 40
7.0
 10
104.3140461978798
 20
-131.3869845591672
 30
0.0
 10
104.3140461978798
 20
-131.3869845591672
 30
0.0
 10
103.2098930948573
 20
-131.3869845591672
 30
0.0
 10
103.2098930948573
 20
-131.3869845591672
 30
0.0
 10
103.2098930948573
 20
-131.3869845591672
 30
0.0
 10
103.2098930948573
 20
-131.7170247066541
 30
0.0
 10
103.2098930948573
 20
-131.7170247066541
 30
0.0
 10
103.2098930948573
 20
-131.7170247066541
 30
0.0
 10
103.0617539889915
 20
-131.7170247066541
 30
0.0
 10
103.0617539889915
 20
-131.7170247066541
 30
0.0
 10
103.0469400784049
 20
-131.384917501876
 30
0.0
 10
102.8839870619526
 20
-131.3384087128251
 30
0.0
 10
102.7696098918423
 20
-131.308780891652
 30
0.0
 10
102.7696098918423
 20
-131.308780891652
 30
0.0
 10
102.7696098918423
 20
-131.1627088430774
 30
0.0
 10
102.7696098918423
 20
-131.1627088430774
 30
0.0
 10
102.7696098918423
 20
-131.1627088430774
 30
0.0
 10
104.3140461978798
 20
-131.1627088430774
 30
0.0
 10
104.3140461978798
 20
-131.1627088430774
 30
0.0
 10
104.3140461978798
 20
-131.1627088430774
 30
0.0
 10
104.3140461978798
 20
-131.3869845591672
 30
0.0
 10
104.3140461978798
 20
-131.3869845591672
 30
0.0
  0
HATCH
  5
AE
330
A9
100
AcDbEntity
  8
_U+30EC_U+30A4_U+30E4_U+30FC 1
 62
   179
420
  2234388
100
AcDbHatch
 10
0.0
 20
0.0
 30
0.0
210
0.0
220
0.0
230
1.0
  2
SOLID
 70
     1
 71
     0
 91
        1
 92
        1
 93
        1
 72
     4
 94
        3
 73
     0
 74
     1
 95
       26
 96
       22
 40
0.0
 40
0.0
 40
0.0
 40
0.0
 40
1.0
 40
1.0
 40
1.0
 40
2.0
 40
2.0
 40
2.0
 40
3.0
 40
3.0
 40
3.0
 40
4.0
 40
4.0
 40
4.0
 40
5.0
 40
5.0
 40
5.0
 40
6.0
 40
6.0
 40
6.0
 40
7.0
 40
7.0
 40
7.0
 40
7.0
 10
104.3140461978798
 20
-131.3869845591672
 10
104.3140461978798
 20
-131.3869845591672
 10
103.2098930948573
 20
-131.3869845591672
 10
103.2098930948573
 20
-131.3869845591672
 10
103.2098930948573
 20
-131.3869845591672
 10
103.2098930948573
 20
-131.7170247066541
 10
103.2098930948573
 20
-131.7170247066541
 10
103.2098930948573
 20
-131.7170247066541
 10
103.0617539889915
 20
-131.7170247066541
 10
103.0617539889915
 20
-131.7170247066541
 10
103.0469400784049
 20
-131.384917501876
 10
102.8839870619526
 20
-131.3384087128251
 10
102.7696098918423
 20
-131.308780891652
 10
102.7696098918423
 20
-131.308780891652
 10
102.7696098918423
 20
-131.1627088430774
 10
102.7696098918423
 20
-131.1627088430774
 10
102.7696098918423
 20
-131.1627088430774
 10
104.3140461978798
 20
-131.1627088430774
 10
104.3140461978798
 20
-131.1627088430774
 10
104.3140461978798
 20
-131.1627088430774
 10
104.3140461978798
 20
-131.3869845591672
 10
104.3140461978798
 20
-131.3869845591672
 97
        0
 97
        0
 75
     2
 76
     1
 98
        0
  0
SPLINE
  5
AF
330
A9
100
AcDbEntity
  8
_U+30EC_U+30A4_U+30E4_U+30FC 1
370
     0
100
AcDbSpline
210
0.0
220
0.0
230
1.0
 70
    11
 71
     3
 72
    62
 73
    58
 74
     0
 42
0.0000000001
 43
0.0000000001
 12
1.0
 22
0.0
 32
0.0
 13
1.0
 23
0.0
 33
0.0
 40
0.0
 40
0.0
 40
0.0
 40
0.0
 40
1.0
 40
1.0
 40
1.0
 40
2.0
 40
2.0
 40
2.0
 40
3.0
 40
3.0
 40
3.0
 40
4.0
 40
4.0
 40
4.0
 40
5.0
 40
5.0
 40
5.0
 40
6.0
 40
6.0
 40
6.0
 40
7.0
 40
7.0
 40
7.0
 40
8.0
 40
8.0
 40
8.0
 40
9.0
 40
9.0
 40
9.0
 40
10.0
 40
10.0
 40
10.0
 40
11.0
 40
11.0
 40
11.0
 40
12.0
 40
12.0
 40
12.0
 40
13.0
 40
13.0
 40
13.0
 40
14.0
 40
14.0
 40
14.0
 40
15.0
 40
15.0
 40
15.0
 40
16.0
 40
16.0
 40
16.0
 40
17.0
 40
17.0
 40
17.0
 40
18.0
 40
18.0
 40
18.0
 40
19.0
 40
19.0
 40
19.0
 40
19.0
 10
104.364689101513
 20
-130.1698323242284
 30
0.0
 10
104.364689101513
 20
-130.2652614691698
 30
0.0
 10
104.343674019053
 20
-130.4829915038376
 30
0.0
 10
104.1576388628495
 20
-130.6080484699522
 30
0.0
 10
104.0453287500303
 20
-130.682118022885
 30
0.0
 10
103.9461100000551
 20
-130.6862521374673
 30
0.0
 10
103.861360651118
 20
-130.6903862520496
 30
0.0
 10
103.861360651118
 20
-130.6903862520496
 30
0.0
 10
103.861360651118
 20
-130.4702446505422
 30
0.0
 10
103.861360651118
 20
-130.4702446505422
 30
0.0
 10
103.9354302040509
 20
-130.468177593251
 30
0.0
 10
104.1700412065964
 20
-130.4578423067953
 30
0.0
 10
104.1700412065964
 20
-130.1743109483592
 30
0.0
 10
104.1700412065964
 20
-130.0368516384978
 30
0.0
 10
104.1004502777943
 20
-129.8842339085012
 30
0.0
 10
103.8720404471223
 20
-129.8842339085012
 30
0.0
 10
103.7555962197208
 20
-129.8842339085012
 30
0.0
 10
103.7070203733788
 20
-129.9224744683874
 30
0.0
 10
103.6753254949145
 20
-129.9541693468517
 30
0.0
 10
103.6012559419816
 20
-130.0282388997846
 30
0.0
 10
103.5885090886862
 20
-130.1446831271861
 30
0.0
 10
103.5885090886862
 20
-130.1994601454015
 30
0.0
 10
103.5885090886862
 20
-130.2187526801189
 30
0.0
 10
103.5905761459774
 20
-130.2545816731655
 30
0.0
 10
103.5947102605597
 20
-130.2821424370475
 30
0.0
 10
103.5947102605597
 20
-130.2821424370475
 30
0.0
 10
103.400062365643
 20
-130.2821424370475
 30
0.0
 10
103.400062365643
 20
-130.2821424370475
 30
0.0
 10
103.406608047065
 20
-130.2439018771612
 30
0.0
 10
103.4086751043562
 20
-130.2018717122412
 30
0.0
 10
103.4086751043562
 20
-130.1953260308192
 30
0.0
 10
103.4086751043562
 20
-130.1298692165995
 30
0.0
 10
103.3873155123476
 20
-129.9310872071006
 30
0.0
 10
103.150637452511
 20
-129.9310872071006
 30
0.0
 10
102.9728705254721
 20
-129.9310872071006
 30
0.0
 10
102.9177489977081
 20
-130.0620008355401
 30
0.0
 10
102.9177489977081
 20
-130.1722438910681
 30
0.0
 10
102.9177489977081
 20
-130.4364827147867
 30
0.0
 10
103.150637452511
 20
-130.4450954534998
 30
0.0
 10
103.2222954386041
 20
-130.4492295680821
 30
0.0
 10
103.2222954386041
 20
-130.4492295680821
 30
0.0
 10
103.2222954386041
 20
-130.6524902017119
 30
0.0
 10
103.2222954386041
 20
-130.6524902017119
 30
0.0
 10
103.0975829820381
 20
-130.6438774629987
 30
0.0
 10
102.7210340455003
 20
-130.6163166991168
 30
0.0
 10
102.7210340455003
 20
-130.1594970377726
 30
0.0
 10
102.7210340455003
 20
-129.9352213216829
 30
0.0
 10
102.848158068906
 20
-129.6940646377154
 30
0.0
 10
103.144091771089
 20
-129.6940646377154
 30
0.0
 10
103.330471436841
 20
-129.6940646377154
 30
0.0
 10
103.4128092189385
 20
-129.7891492731083
 30
0.0
 10
103.4741319185759
 20
-129.888712532632
 30
0.0
 10
103.5016926824579
 20
-129.8273898329946
 30
0.0
 10
103.5819634072642
 20
-129.6454887913734
 30
0.0
 10
103.8592935938268
 20
-129.6454887913734
 30
0.0
 10
104.1976019704784
 20
-129.6454887913734
 30
0.0
 10
104.364689101513
 20
-129.8928466472143
 30
0.0
 10
104.364689101513
 20
-130.1698323242284
 30
0.0
  0
HATCH
  5
B0
330
A9
100
AcDbEntity
  8
_U+30EC_U+30A4_U+30E4_U+30FC 1
 62
   179
420
  2234388
100
AcDbHatch
 10
0.0
 20
0.0
 30
0.0
210
0.0
220
0.0
230
1.0
  2
SOLID
 70
     1
 71
     0
 91
        1
 92
        1
 93
        1
 72
     4
 94
        3
 73
     0
 74
     1
 95
       62
 96
       58
 40
0.0
 40
0.0
 40
0.0
 40
0.0
 40
1.0
 40
1.0
 40
1.0
 40
2.0
 40
2.0
 40
2.0
 40
3.0
 40
3.0
 40
3.0
 40
4.0
 40
4.0
 40
4.0
 40
5.0
 40
5.0
 40
5.0
 40
6.0
 40
6.0
 40
6.0
 40
7.0
 40
7.0
 40
7.0
 40
8.0
 40
8.0
 40
8.0
 40
9.0
 40
9.0
 40
9.0
 40
10.0
 40
10.0
 40
10.0
 40
11.0
 40
11.0
 40
11.0
 40
12.0
 40
12.0
 40
12.0
 40
13.0
 40
13.0
 40
13.0
 40
14.0
 40
14.0
 40
14.0
 40
15.0
 40
15.0
 40
15.0
 40
16.0
 40
16.0
 40
16.0
 40
17.0
 40
17.0
 40
17.0
 40
18.0
 40
18.0
 40
18.0
 40
19.0
 40
19.0
 40
19.0
 40
19.0
 10
104.364689101513
 20
-130.1698323242284
 10
104.364689101513
 20
-130.2652614691698
 10
104.343674019053
 20
-130.4829915038376
 10
104.1576388628495
 20
-130.6080484699522
 10
104.0453287500303
 20
-130.682118022885
 10
103.9461100000551
 20
-130.6862521374673
 10
103.861360651118
 20
-130.6903862520496
 10
103.861360651118
 20
-130.6903862520496
 10
103.861360651118
 20
-130.4702446505422
 10
103.861360651118
 20
-130.4702446505422
 10
103.9354302040509
 20
-130.468177593251
 10
104.1700412065964
 20
-130.4578423067953
 10
104.1700412065964
 20
-130.1743109483592
 10
104.1700412065964
 20
-130.0368516384978
 10
104.1004502777943
 20
-129.8842339085012
 10
103.8720404471223
 20
-129.8842339085012
 10
103.7555962197208
 20
-129.8842339085012
 10
103.7070203733788
 20
-129.9224744683874
 10
103.6753254949145
 20
-129.9541693468517
 10
103.6012559419816
 20
-130.0282388997846
 10
103.5885090886862
 20
-130.1446831271861
 10
103.5885090886862
 20
-130.1994601454015
 10
103.5885090886862
 20
-130.2187526801189
 10
103.5905761459774
 20
-130.2545816731655
 10
103.5947102605597
 20
-130.2821424370475
 10
103.5947102605597
 20
-130.2821424370475
 10
103.400062365643
 20
-130.2821424370475
 10
103.400062365643
 20
-130.2821424370475
 10
103.406608047065
 20
-130.2439018771612
 10
103.4086751043562
 20
-130.2018717122412
 10
103.4086751043562
 20
-130.1953260308192
 10
103.4086751043562
 20
-130.1298692165995
 10
103.3873155123476
 20
-129.9310872071006
 10
103.150637452511
 20
-129.9310872071006
 10
102.9728705254721
 20
-129.9310872071006
 10
102.9177489977081
 20
-130.0620008355401
 10
102.9177489977081
 20
-130.1722438910681
 10
102.9177489977081
 20
-130.4364827147867
 10
103.150637452511
 20
-130.4450954534998
 10
103.2222954386041
 20
-130.4492295680821
 10
103.2222954386041
 20
-130.4492295680821
 10
103.2222954386041
 20
-130.6524902017119
 10
103.2222954386041
 20
-130.6524902017119
 10
103.0975829820381
 20
-130.6438774629987
 10
102.7210340455003
 20
-130.6163166991168
 10
102.7210340455003
 20
-130.1594970377726
 10
102.7210340455003
 20
-129.9352213216829
 10
102.848158068906
 20
-129.6940646377154
 10
103.144091771089
 20
-129.6940646377154
 10
103.330471436841
 20
-129.6940646377154
 10
103.4128092189385
 20
-129.7891492731083
 10
103.4741319185759
 20
-129.888712532632
 10
103.5016926824579
 20
-129.8273898329946
 10
103.5819634072642
 20
-129.6454887913734
 10
103.8592935938268
 20
-129.6454887913734
 10
104.1976019704784
 20
-129.6454887913734
 10
104.364689101513
 20
-129.8928466472143
 10
104.364689101513
 20
-130.1698323242284
 97
        0
 97
        0
 75
     2
 76
     1
 98
        0
  0
ENDBLK
  5
AC
330
A9
100
AcDbEntity
  8
0
100
AcDbBlockEnd
  0
BLOCK
  5
BF
330
BD
100
AcDbEntity
  8
0
100
AcDbBlockBegin
  2
block 7
 70
     0
 10
0.0
 20
0.0
 30
0.0
  3
block 7
  1

  0
SPLINE
  5
C1
330
BD
100
AcDbEntity
  8
_U+30EC_U+30A4_U+30E4_U+30FC 1
370
     0
100
AcDbSpline
210
0.0
220
0.0
230
1.0
 70
    11
 71
     3
 72
    26
 73
    22
 74
     0
 42
0.0000000001
 43
0.0000000001
 12
1.0
 22
0.0
 32
0.0
 13
1.0
 23
0.0
 33
0.0
 40
0.0
 40
0.0
 40
0.0
 40
0.0
 40
1.0
 40
1.0
 40
1.0
 40
2.0
 40
2.0
 40
2.0
 40
3.0
 40
3.0
 40
3.0
 40
4.0
 40
4.0
 40
4.0
 40
5.0
 40
5.0
 40
5.0
 40
6.0
 40
6.0
 40
6.0
 40
7.0
 40
7.0
 40
7.0
 40
7.0
 10
78.31339380637651
 20
-129.220019498945
 30
0.0
 10
78.31339380637651
 20
-129.220019498945
 30
0.0
 10
77.20906844857969
 20
-129.220019498945
 30
0.0
 10
77.20906844857969
 20
-129.220019498945
 30
0.0
 10
77.20906844857969
 20
-129.220019498945
 30
0.0
 10
77.20906844857969
 20
-129.5500596464319
 30
0.0
 10
77.20906844857969
 20
-129.5500596464319
 30
0.0
 10
77.20906844857969
 20
-129.5500596464319
 30
0.0
 10
77.06092934271393
 20
-129.5500596464319
 30
0.0
 10
77.06092934271393
 20
-129.5500596464319
 30
0.0
 10
77.04628768690162
 20
-129.2179524416539
 30
0.0
 10
76.88333467044932
 20
-129.171443652603
 30
0.0
 10
76.76912975511328
 20
-129.1418158314298
 30
0.0
 10
76.76912975511328
 20
-129.1418158314298
 30
0.0
 10
76.76912975511328
 20
-128.9957437828552
 30
0.0
 10
76.76912975511328
 20
-128.9957437828552
 30
0.0
 10
76.76912975511328
 20
-128.9957437828552
 30
0.0
 10
78.31339380637651
 20
-128.9957437828552
 30
0.0
 10
78.31339380637651
 20
-128.9957437828552
 30
0.0
 10
78.31339380637651
 20
-128.9957437828552
 30
0.0
 10
78.31339380637651
 20
-129.220019498945
 30
0.0
 10
78.31339380637651
 20
-129.220019498945
 30
0.0
  0
HATCH
  5
C2
330
BD
100
AcDbEntity
  8
_U+30EC_U+30A4_U+30E4_U+30FC 1
 62
   179
420
  2234388
100
AcDbHatch
 10
0.0
 20
0.0
 30
0.0
210
0.0
220
0.0
230
1.0
  2
SOLID
 70
     1
 71
     0
 91
        1
 92
        1
 93
        1
 72
     4
 94
        3
 73
     0
 74
     1
 95
       26
 96
       22
 40
0.0
 40
0.0
 40
0.0
 40
0.0
 40
1.0
 40
1.0
 40
1.0
 40
2.0
 40
2.0
 40
2.0
 40
3.0
 40
3.0
 40
3.0
 40
4.0
 40
4.0
 40
4.0
 40
5.0
 40
5.0
 40
5.0
 40
6.0
 40
6.0
 40
6.0
 40
7.0
 40
7.0
 40
7.0
 40
7.0
 10
78.31339380637651
 20
-129.220019498945
 10
78.31339380637651
 20
-129.220019498945
 10
77.20906844857969
 20
-129.220019498945
 10
77.20906844857969
 20
-129.220019498945
 10
77.20906844857969
 20
-129.220019498945
 10
77.20906844857969
 20
-129.5500596464319
 10
77.20906844857969
 20
-129.5500596464319
 10
77.20906844857969
 20
-129.5500596464319
 10
77.06092934271393
 20
-129.5500596464319
 10
77.06092934271393
 20
-129.5500596464319
 10
77.04628768690162
 20
-129.2179524416539
 10
76.88333467044932
 20
-129.171443652603
 10
76.76912975511328
 20
-129.1418158314298
 10
76.76912975511328
 20
-129.1418158314298
 10
76.76912975511328
 20
-128.9957437828552
 10
76.76912975511328
 20
-128.9957437828552
 10
76.76912975511328
 20
-128.9957437828552
 10
78.31339380637651
 20
-128.9957437828552
 10
78.31339380637651
 20
-128.9957437828552
 10
78.31339380637651
 20
-128.9957437828552
 10
78.31339380637651
 20
-129.220019498945
 10
78.31339380637651
 20
-129.220019498945
 97
        0
 97
        0
 75
     2
 76
     1
 98
        0
  0
SPLINE
  5
C3
330
BD
100
AcDbEntity
  8
_U+30EC_U+30A4_U+30E4_U+30FC 1
370
     0
100
AcDbSpline
210
0.0
220
0.0
230
1.0
 70
    11
 71
     3
 72
    32
 73
    28
 74
     0
 42
0.0000000001
 43
0.0000000001
 12
1.0
 22
0.0
 32
0.0
 13
1.0
 23
0.0
 33
0.0
 40
0.0
 40
0.0
 40
0.0
 40
0.0
 40
1.0
 40
1.0
 40
1.0
 40
2.0
 40
2.0
 40
2.0
 40
3.0
 40
3.0
 40
3.0
 40
4.0
 40
4.0
 40
4.0
 40
5.0
 40
5.0
 40
5.0
 40
6.0
 40
6.0
 40
6.0
 40
7.0
 40
7.0
 40
7.0
 40
8.0
 40
8.0
 40
8.0
 40
9.0
 40
9.0
 40
9.0
 40
9.0
 10
78.36420896478396
 20
-128.0369737093102
 30
0.0
 10
78.36420896478396
 20
-128.2102620122183
 30
0.0
 10
78.29427352643339
 20
-128.4558973203166
 30
0.0
 10
77.96216632165529
 20
-128.4937933706543
 30
0.0
 10
77.96216632165529
 20
-128.4937933706543
 30
0.0
 10
77.96216632165529
 20
-128.2801974505688
 30
0.0
 10
77.96216632165529
 20
-128.2801974505688
 30
0.0
 10
78.02142196400159
 20
-128.2695176545646
 30
0.0
 10
78.16956106986734
 20
-128.2378227761003
 30
0.0
 10
78.16956106986734
 20
-128.0349066520191
 30
0.0
 10
78.16956106986734
 20
-127.7427625548699
 30
0.0
 10
77.8395209223804
 20
-127.7048665045321
 30
0.0
 10
77.63436548623378
 20
-127.6921196512367
 30
0.0
 10
77.7146362110401
 20
-127.7830701720473
 30
0.0
 10
77.77182479609525
 20
-127.8505940435582
 30
0.0
 10
77.77182479609525
 20
-128.0324950851794
 30
0.0
 10
77.77182479609525
 20
-128.2123290695094
 30
0.0
 10
77.66606036469807
 20
-128.5151529626629
 30
0.0
 10
77.25988360698712
 20
-128.5151529626629
 30
0.0
 10
76.94035100073019
 20
-128.5151529626629
 30
0.0
 10
76.720381653997
 20
-128.3160264436154
 30
0.0
 10
76.720381653997
 20
-127.9987331494239
 30
0.0
 10
76.720381653997
 20
-127.4847249030247
 30
0.0
 10
77.27469751757368
 20
-127.4740451070204
 30
0.0
 10
77.48829343765918
 20
-127.4740451070204
 30
0.0
 10
77.71894258039666
 20
-127.4740451070204
 30
0.0
 10
78.36420896478396
 20
-127.4933376417378
 30
0.0
 10
78.36420896478396
 20
-128.0369737093102
 30
0.0
  0
SPLINE
  5
C4
330
BD
100
AcDbEntity
  8
_U+30EC_U+30A4_U+30E4_U+30FC 1
370
     0
100
AcDbSpline
210
0.0
220
0.0
230
1.0
 70
    11
 71
     3
 72
    17
 73
    13
 74
     0
 42
0.0000000001
 43
0.0000000001
 12
1.0
 22
0.0
 32
0.0
 13
1.0
 23
0.0
 33
0.0
 40
0.0
 40
0.0
 40
0.0
 40
0.0
 40
1.0
 40
1.0
 40
1.0
 40
2.0
 40
2.0
 40
2.0
 40
3.0
 40
3.0
 40
3.0
 40
4.0
 40
4.0
 40
4.0
 40
4.0
 10
76.91296249162245
 20
-127.9966660921328
 30
0.0
 10
76.91296249162245
 20
-128.1151773768254
 30
0.0
 10
76.96997882190334
 20
-128.2908772465731
 30
0.0
 10
77.25557723763055
 20
-128.2908772465731
 30
0.0
 10
77.48192001101147
 20
-128.2908772465731
 30
0.0
 10
77.57717690117863
 20
-128.151006369872
 30
0.0
 10
77.57717690117863
 20
-128.0156141173017
 30
0.0
 10
77.57717690117863
 20
-127.7534423508741
 30
0.0
 10
77.36771509567544
 20
-127.7152017909879
 30
0.0
 10
77.25144312304825
 20
-127.7152017909879
 30
0.0
 10
77.07574325330052
 20
-127.7152017909879
 30
0.0
 10
76.91296249162245
 20
-127.8106309359293
 30
0.0
 10
76.91296249162245
 20
-127.9966660921328
 30
0.0
  0
HATCH
  5
C5
330
BD
100
AcDbEntity
  8
_U+30EC_U+30A4_U+30E4_U+30FC 1
 62
   179
420
  2234388
100
AcDbHatch
 10
0.0
 20
0.0
 30
0.0
210
0.0
220
0.0
230
1.0
  2
SOLID
 70
     1
 71
     0
 91
        2
 92
        1
 93
        1
 72
     4
 94
        3
 73
     0
 74
     1
 95
       32
 96
       28
 40
0.0
 40
0.0
 40
0.0
 40
0.0
 40
1.0
 40
1.0
 40
1.0
 40
2.0
 40
2.0
 40
2.0
 40
3.0
 40
3.0
 40
3.0
 40
4.0
 40
4.0
 40
4.0
 40
5.0
 40
5.0
 40
5.0
 40
6.0
 40
6.0
 40
6.0
 40
7.0
 40
7.0
 40
7.0
 40
8.0
 40
8.0
 40
8.0
 40
9.0
 40
9.0
 40
9.0
 40
9.0
 10
78.36420896478396
 20
-128.0369737093102
 10
78.36420896478396
 20
-128.2102620122183
 10
78.29427352643339
 20
-128.4558973203166
 10
77.96216632165529
 20
-128.4937933706543
 10
77.96216632165529
 20
-128.4937933706543
 10
77.96216632165529
 20
-128.2801974505688
 10
77.96216632165529
 20
-128.2801974505688
 10
78.02142196400159
 20
-128.2695176545646
 10
78.16956106986734
 20
-128.2378227761003
 10
78.16956106986734
 20
-128.0349066520191
 10
78.16956106986734
 20
-127.7427625548699
 10
77.8395209223804
 20
-127.7048665045321
 10
77.63436548623378
 20
-127.6921196512367
 10
77.7146362110401
 20
-127.7830701720473
 10
77.77182479609525
 20
-127.8505940435582
 10
77.77182479609525
 20
-128.0324950851794
 10
77.77182479609525
 20
-128.2123290695094
 10
77.66606036469807
 20
-128.5151529626629
 10
77.25988360698712
 20
-128.5151529626629
 10
76.94035100073019
 20
-128.5151529626629
 10
76.720381653997
 20
-128.3160264436154
 10
76.720381653997
 20
-127.9987331494239
 10
76.720381653997
 20
-127.4847249030247
 10
77.27469751757368
 20
-127.4740451070204
 10
77.48829343765918
 20
-127.4740451070204
 10
77.71894258039666
 20
-127.4740451070204
 10
78.36420896478396
 20
-127.4933376417378
 10
78.36420896478396
 20
-128.0369737093102
 97
        0
 97
        0
 92
        1
 93
        1
 72
     4
 94
        3
 73
     0
 74
     1
 95
       17
 96
       13
 40
0.0
 40
0.0
 40
0.0
 40
0.0
 40
1.0
 40
1.0
 40
1.0
 40
2.0
 40
2.0
 40
2.0
 40
3.0
 40
3.0
 40
3.0
 40
4.0
 40
4.0
 40
4.0
 40
4.0
 10
76.91296249162245
 20
-127.9966660921328
 10
76.91296249162245
 20
-128.1151773768254
 10
76.96997882190334
 20
-128.2908772465731
 10
77.25557723763055
 20
-128.2908772465731
 10
77.48192001101147
 20
-128.2908772465731
 10
77.57717690117863
 20
-128.151006369872
 10
77.57717690117863
 20
-128.0156141173017
 10
77.57717690117863
 20
-127.7534423508741
 10
77.36771509567544
 20
-127.7152017909879
 10
77.25144312304825
 20
-127.7152017909879
 10
77.07574325330052
 20
-127.7152017909879
 10
76.91296249162245
 20
-127.8106309359293
 10
76.91296249162245
 20
-127.9966660921328
 97
        0
 97
        0
 75
     2
 76
     1
 98
        0
  0
ENDBLK
  5
C0
330
BD
100
AcDbEntity
  8
0
100
AcDbBlockEnd
  0
ENDSEC
  0
SECTION
  2
ENTITIES
  0
SPLINE
  5
41
330
1F
100
AcDbEntity
  8
_U+30EC_U+30A4_U+30E4_U+30FC 1
 62
   253
420
 11711154
370
     9
100
AcDbSpline
210
0.0
220
0.0
230
1.0
 70
    11
 71
     3
 72
    74
 73
    70
 74
     0
 42
0.0000000001
 43
0.0000000001
 12
1.0
 22
0.0
 32
0.0
 13
1.0
 23
0.0
 33
0.0
 40
0.0
 40
0.0
 40
0.0
 40
0.0
 40
1.0
 40
1.0
 40
1.0
 40
2.0
 40
2.0
 40
2.0
 40
3.0
 40
3.0
 40
3.0
 40
4.0
 40
4.0
 40
4.0
 40
5.0
 40
5.0
 40
5.0
 40
6.0
 40
6.0
 40
6.0
 40
7.0
 40
7.0
 40
7.0
 40
8.0
 40
8.0
 40
8.0
 40
9.0
 40
9.0
 40
9.0
 40
10.0
 40
10.0
 40
10.0
 40
11.0
 40
11.0
 40
11.0
 40
12.0
 40
12.0
 40
12.0
 40
13.0
 40
13.0
 40
13.0
 40
14.0
 40
14.0
 40
14.0
 40
15.0
 40
15.0
 40
15.0
 40
16.0
 40
16.0
 40
16.0
 40
17.0
 40
17.0
 40
17.0
 40
18.0
 40
18.0
 40
18.0
 40
19.0
 40
19.0
 40
19.0
 40
20.0
 40
20.0
 40
20.0
 40
21.0
 40
21.0
 40
21.0
 40
22.0
 40
22.0
 40
22.0
 40
23.0
 40
23.0
 40
23.0
 40
23.0
 10
86.39594585141135
 20
-123.2031585803102
 30
0.0
 10
86.39594585141135
 20
-123.2031585803102
 30
0.0
 10
86.11344141417419
 20
-123.4860158024618
 30
0.0
 10
86.11344141417419
 20
-123.4860158024618
 30
0.0
 10
86.11344141417419
 20
-123.4860158024618
 30
0.0
 10
85.83023142139947
 20
-123.2031585803102
 30
0.0
 10
85.83023142139947
 20
-123.2031585803102
 30
0.0
 10
85.83023142139947
 20
-123.2031585803102
 30
0.0
 10
85.5477622619392
 20
-123.4860158024618
 30
0.0
 10
85.5477622619392
 20
-123.4860158024618
 30
0.0
 10
85.5477622619392
 20
-123.4860158024618
 30
0.0
 10
85.2645522691645
 20
-123.2031585803102
 30
0.0
 10
85.2645522691645
 20
-123.2031585803102
 30
0.0
 10
85.2645522691645
 20
-123.2031585803102
 30
0.0
 10
84.98204997875457
 20
-123.4860158024618
 30
0.0
 10
84.98204997875457
 20
-123.4860158024618
 30
0.0
 10
84.98204997875457
 20
-123.4860158024618
 30
0.0
 10
84.6988731169295
 20
-123.2031585803102
 30
0.0
 10
84.6988731169295
 20
-123.2031585803102
 30
0.0
 10
84.6988731169295
 20
-123.2031585803102
 30
0.0
 10
83.9099583123557
 20
-123.2031585803102
 30
0.0
 10
83.9099583123557
 20
-123.2031585803102
 30
0.0
 10
83.9099583123557
 20
-123.2031585803102
 30
0.0
 10
83.9099583123557
 20
-119.1348546924386
 30
0.0
 10
83.9099583123557
 20
-119.1348546924386
 30
0.0
 10
83.35803537335934
 20
-119.1348546924386
 30
0.0
 10
82.91018609038348
 20
-119.5827060812153
 30
0.0
 10
82.91018609038348
 20
-120.1349444144107
 30
0.0
 10
82.91018609038348
 20
-120.1349444144107
 30
0.0
 10
82.91018609038348
 20
-137.1344235768278
 30
0.0
 10
82.91018609038348
 20
-137.1344235768278
 30
0.0
 10
82.91018609038348
 20
-137.6870146878007
 30
0.0
 10
83.35803537335934
 20
-138.1349013543552
 30
0.0
 10
83.9099583123557
 20
-138.1349013543552
 30
0.0
 10
83.9099583123557
 20
-138.1349013543552
 30
0.0
 10
100.8655166414502
 20
-138.1349013543552
 30
0.0
 10
100.8655166414502
 20
-138.1349013543552
 30
0.0
 10
101.4181051903864
 20
-138.1349013543552
 30
0.0
 10
101.9100537889468
 20
-137.7552419100059
 30
0.0
 10
101.9100537889468
 20
-137.2026507990324
 30
0.0
 10
101.9100537889468
 20
-137.2026507990324
 30
0.0
 10
83.9099583123557
 20
-137.2026507990324
 30
0.0
 10
83.9099583123557
 20
-137.2026507990324
 30
0.0
 10
83.9099583123557
 20
-137.2026507990324
 30
0.0
 10
83.9099583123557
 20
-124.2029308022825
 30
0.0
 10
83.9099583123557
 20
-124.2029308022825
 30
0.0
 10
83.9099583123557
 20
-124.2029308022825
 30
0.0
 10
101.9100537889468
 20
-124.2029308022825
 30
0.0
 10
101.9100537889468
 20
-124.2029308022825
 30
0.0
 10
101.9100537889468
 20
-124.2029308022825
 30
0.0
 10
102.4295896090257
 20
-123.9032108023575
 30
0.0
 10
102.4295896090257
 20
-123.9032108023575
 30
0.0
 10
102.4295896090257
 20
-123.9032108023575
 30
0.0
 10
106.2102384014622
 20
-123.9032108023575
 30
0.0
 10
106.2102384014622
 20
-123.9032108023575
 30
0.0
 10
106.5967770027119
 20
-123.9032108023575
 30
0.0
 10
106.9102553280477
 20
-123.5896971913247
 30
0.0
 10
106.9102553280477
 20
-123.2031585803102
 30
0.0
 10
106.9102553280477
 20
-123.2031585803102
 30
0.0
 10
102.1904768373482
 20
-123.2031585803102
 30
0.0
 10
102.1904768373482
 20
-123.2031585803102
 30
0.0
 10
102.1904768373482
 20
-123.2031585803102
 30
0.0
 10
101.9079749745229
 20
-123.4860158024618
 30
0.0
 10
101.9079749745229
 20
-123.4860158024618
 30
0.0
 10
101.9079749745229
 20
-123.4860158024618
 30
0.0
 10
101.6247976851132
 20
-123.2031585803102
 30
0.0
 10
101.6247976851132
 20
-123.2031585803102
 30
0.0
 10
101.6247976851132
 20
-123.2031585803102
 30
0.0
 10
86.39594585141135
 20
-123.2031585803102
 30
0.0
 10
86.39594585141135
 20
-123.2031585803102
 30
0.0
  0
HATCH
  5
42
330
1F
100
AcDbEntity
  8
_U+30EC_U+30A4_U+30E4_U+30FC 1
 62
   253
420
 11711154
100
AcDbHatch
 10
0.0
 20
0.0
 30
0.0
210
0.0
220
0.0
230
1.0
  2
SOLID
 70
     1
 71
     0
 91
        1
 92
        1
 93
        1
 72
     4
 94
        3
 73
     0
 74
     1
 95
       74
 96
       70
 40
0.0
 40
0.0
 40
0.0
 40
0.0
 40
1.0
 40
1.0
 40
1.0
 40
2.0
 40
2.0
 40
2.0
 40
3.0
 40
3.0
 40
3.0
 40
4.0
 40
4.0
 40
4.0
 40
5.0
 40
5.0
 40
5.0
 40
6.0
 40
6.0
 40
6.0
 40
7.0
 40
7.0
 40
7.0
 40
8.0
 40
8.0
 40
8.0
 40
9.0
 40
9.0
 40
9.0
 40
10.0
 40
10.0
 40
10.0
 40
11.0
 40
11.0
 40
11.0
 40
12.0
 40
12.0
 40
12.0
 40
13.0
 40
13.0
 40
13.0
 40
14.0
 40
14.0
 40
14.0
 40
15.0
 40
15.0
 40
15.0
 40
16.0
 40
16.0
 40
16.0
 40
17.0
 40
17.0
 40
17.0
 40
18.0
 40
18.0
 40
18.0
 40
19.0
 40
19.0
 40
19.0
 40
20.0
 40
20.0
 40
20.0
 40
21.0
 40
21.0
 40
21.0
 40
22.0
 40
22.0
 40
22.0
 40
23.0
 40
23.0
 40
23.0
 40
23.0
 10
86.39594585141135
 20
-123.2031585803102
 10
86.39594585141135
 20
-123.2031585803102
 10
86.11344141417419
 20
-123.4860158024618
 10
86.11344141417419
 20
-123.4860158024618
 10
86.11344141417419
 20
-123.4860158024618
 10
85.83023142139947
 20
-123.2031585803102
 10
85.83023142139947
 20
-123.2031585803102
 10
85.83023142139947
 20
-123.2031585803102
 10
85.5477622619392
 20
-123.4860158024618
 10
85.5477622619392
 20
-123.4860158024618
 10
85.5477622619392
 20
-123.4860158024618
 10
85.2645522691645
 20
-123.2031585803102
 10
85.2645522691645
 20
-123.2031585803102
 10
85.2645522691645
 20
-123.2031585803102
 10
84.98204997875457
 20
-123.4860158024618
 10
84.98204997875457
 20
-123.4860158024618
 10
84.98204997875457
 20
-123.4860158024618
 10
84.6988731169295
 20
-123.2031585803102
 10
84.6988731169295
 20
-123.2031585803102
 10
84.6988731169295
 20
-123.2031585803102
 10
83.9099583123557
 20
-123.2031585803102
 10
83.9099583123557
 20
-123.2031585803102
 10
83.9099583123557
 20
-123.2031585803102
 10
83.9099583123557
 20
-119.1348546924386
 10
83.9099583123557
 20
-119.1348546924386
 10
83.35803537335934
 20
-119.1348546924386
 10
82.91018609038348
 20
-119.5827060812153
 10
82.91018609038348
 20
-120.1349444144107
 10
82.91018609038348
 20
-120.1349444144107
 10
82.91018609038348
 20
-137.1344235768278
 10
82.91018609038348
 20
-137.1344235768278
 10
82.91018609038348
 20
-137.6870146878007
 10
83.35803537335934
 20
-138.1349013543552
 10
83.9099583123557
 20
-138.1349013543552
 10
83.9099583123557
 20
-138.1349013543552
 10
100.8655166414502
 20
-138.1349013543552
 10
100.8655166414502
 20
-138.1349013543552
 10
101.4181051903864
 20
-138.1349013543552
 10
101.9100537889468
 20
-137.7552419100059
 10
101.9100537889468
 20
-137.2026507990324
 10
101.9100537889468
 20
-137.2026507990324
 10
83.9099583123557
 20
-137.2026507990324
 10
83.9099583123557
 20
-137.2026507990324
 10
83.9099583123557
 20
-137.2026507990324
 10
83.9099583123557
 20
-124.2029308022825
 10
83.9099583123557
 20
-124.2029308022825
 10
83.9099583123557
 20
-124.2029308022825
 10
101.9100537889468
 20
-124.2029308022825
 10
101.9100537889468
 20
-124.2029308022825
 10
101.9100537889468
 20
-124.2029308022825
 10
102.4295896090257
 20
-123.9032108023575
 10
102.4295896090257
 20
-123.9032108023575
 10
102.4295896090257
 20
-123.9032108023575
 10
106.2102384014622
 20
-123.9032108023575
 10
106.2102384014622
 20
-123.9032108023575
 10
106.5967770027119
 20
-123.9032108023575
 10
106.9102553280477
 20
-123.5896971913247
 10
106.9102553280477
 20
-123.2031585803102
 10
106.9102553280477
 20
-123.2031585803102
 10
102.1904768373482
 20
-123.2031585803102
 10
102.1904768373482
 20
-123.2031585803102
 10
102.1904768373482
 20
-123.2031585803102
 10
101.9079749745229
 20
-123.4860158024618
 10
101.9079749745229
 20
-123.4860158024618
 10
101.9079749745229
 20
-123.4860158024618
 10
101.6247976851132
 20
-123.2031585803102
 10
101.6247976851132
 20
-123.2031585803102
 10
101.6247976851132
 20
-123.2031585803102
 10
86.39594585141135
 20
-123.2031585803102
 10
86.39594585141135
 20
-123.2031585803102
 97
        0
 97
        0
 75
     2
 76
     1
 98
        0
  0
POLYLINE
  5
43
330
1F
100
AcDbEntity
  8
_U+30EC_U+30A4_U+30E4_U+30FC 1
 62
   179
420
  2234388
370
     9
100
AcDb2dPolyline
 66
     1
 10
0.0
 20
0.0
 30
0.0
  0
VERTEX
  5
44
330
43
100
AcDbEntity
  8
_U+30EC_U+30A4_U+30E4_U+30FC 1
 62
   179
420
  2234388
370
     9
100
AcDbVertex
100
AcDb2dVertex
 10
83.20302482175843
 20
-137.8420605210948
 30
0.0
  0
VERTEX
  5
45
330
43
100
AcDbEntity
  8
_U+30EC_U+30A4_U+30E4_U+30FC 1
 62
   179
420
  2234388
370
     9
100
AcDbVertex
100
AcDb2dVertex
 10
78.91042493127179
 20
-142.1346605200221
 30
0.0
  0
SEQEND
  5
46
330
43
100
AcDbEntity
  8
_U+30EC_U+30A4_U+30E4_U+30FC 1
 62
   179
420
  2234388
370
     9
  0
POLYLINE
  5
47
330
1F
100
AcDbEntity
  8
_U+30EC_U+30A4_U+30E4_U+30FC 1
 62
   179
420
  2234388
370
     9
100
AcDb2dPolyline
 66
     1
 10
0.0
 20
0.0
 30
0.0
  0
VERTEX
  5
48
330
47
100
AcDbEntity
  8
_U+30EC_U+30A4_U+30E4_U+30FC 1
 62
   179
420
  2234388
370
     9
100
AcDbVertex
100
AcDb2dVertex
 10
74.69776448319016
 20
-142.1346605200221
 30
0.0
  0
VERTEX
  5
49
330
47
100
AcDbEntity
  8
_U+30EC_U+30A4_U+30E4_U+30FC 1
 62
   179
420
  2234388
370
     9
100
AcDbVertex
100
AcDb2dVertex
 10
78.91042493127179
 20
-142.1346605200221
 30
0.0
  0
SEQEND
  5
4A
330
47
100
AcDbEntity
  8
_U+30EC_U+30A4_U+30E4_U+30FC 1
 62
   179
420
  2234388
370
     9
  0
POLYLINE
  5
4B
330
1F
100
AcDbEntity
  8
_U+30EC_U+30A4_U+30E4_U+30FC 1
 62
   179
420
  2234388
370
     9
100
AcDb2dPolyline
 66
     1
 10
0.0
 20
0.0
 30
0.0
  0
VERTEX
  5
4C
330
4B
100
AcDbEntity
  8
_U+30EC_U+30A4_U+30E4_U+30FC 1
 62
   179
420
  2234388
370
     9
100
AcDbVertex
100
AcDb2dVertex
 10
83.20302482175843
 20
-137.8420605210948
 30
0.0
  0
VERTEX
  5
4D
330
4B
100
AcDbEntity
  8
_U+30EC_U+30A4_U+30E4_U+30FC 1
 62
   179
420
  2234388
370
     9
100
AcDbVertex
100
AcDb2dVertex
 10
81.9042029104497
 20
-138.5917132986851
 30
0.0
  0
SEQEND
  5
4E
330
4B
100
AcDbEntity
  8
_U+30EC_U+30A4_U+30E4_U+30FC 1
 62
   179
420
  2234388
370
     9
  0
POLYLINE
  5
4F
330
1F
100
AcDbEntity
  8
_U+30EC_U+30A4_U+30E4_U+30FC 1
 62
   179
420
  2234388
370
     9
100
AcDb2dPolyline
 66
     1
 10
0.0
 20
0.0
 30
0.0
  0
VERTEX
  5
50
330
4F
100
AcDbEntity
  8
_U+30EC_U+30A4_U+30E4_U+30FC 1
 62
   179
420
  2234388
370
     9
100
AcDbVertex
100
AcDb2dVertex
 10
83.20302482175843
 20
-137.8420605210948
 30
0.0
  0
VERTEX
  5
51
330
4F
100
AcDbEntity
  8
_U+30EC_U+30A4_U+30E4_U+30FC 1
 62
   179
420
  2234388
370
     9
100
AcDbVertex
100
AcDb2dVertex
 10
82.4533720631059
 20
-139.1408471874373
 30
0.0
  0
SEQEND
  5
52
330
4F
100
AcDbEntity
  8
_U+30EC_U+30A4_U+30E4_U+30FC 1
 62
   179
420
  2234388
370
     9
  0
SPLINE
  5
53
330
1F
100
AcDbEntity
  8
_U+30EC_U+30A4_U+30E4_U+30FC 1
 62
   179
420
  2234388
370
     9
100
AcDbSpline
210
0.0
220
0.0
230
1.0
 70
    11
 71
     3
 72
    17
 73
    13
 74
     0
 42
0.0000000001
 43
0.0000000001
 12
1.0
 22
0.0
 32
0.0
 13
1.0
 23
0.0
 33
0.0
 40
0.0
 40
0.0
 40
0.0
 40
0.0
 40
1.0
 40
1.0
 40
1.0
 40
2.0
 40
2.0
 40
2.0
 40
3.0
 40
3.0
 40
3.0
 40
4.0
 40
4.0
 40
4.0
 40
4.0
 10
107.0101619921655
 20
-116.1351852487441
 30
0.0
 10
107.0101619921655
 20
-116.0800813598689
 30
0.0
 10
106.9653971954811
 20
-116.0352785821022
 30
0.0
 10
106.9102553280477
 20
-116.0352785821022
 30
0.0
 10
106.8551514405646
 20
-116.0352785821022
 30
0.0
 10
106.8103486639299
 20
-116.0800813598689
 30
0.0
 10
106.8103486639299
 20
-116.1351852487441
 30
0.0
 10
106.8103486639299
 20
-116.1903244153969
 30
0.0
 10
106.8551514405646
 20
-116.2351271931633
 30
0.0
 10
106.9102553280477
 20
-116.2351271931633
 30
0.0
 10
106.9653971954811
 20
-116.2351271931633
 30
0.0
 10
107.0101619921655
 20
-116.1903244153969
 30
0.0
 10
107.0101619921655
 20
-116.1351852487441
 30
0.0
  0
SPLINE
  5
54
330
1F
100
AcDbEntity
  8
_U+30EC_U+30A4_U+30E4_U+30FC 1
 62
   179
420
  2234388
370
     9
100
AcDbSpline
210
0.0
220
0.0
230
1.0
 70
    11
 71
     3
 72
    17
 73
    13
 74
     0
 42
0.0000000001
 43
0.0000000001
 12
1.0
 22
0.0
 32
0.0
 13
1.0
 23
0.0
 33
0.0
 40
0.0
 40
0.0
 40
0.0
 40
0.0
 40
1.0
 40
1.0
 40
1.0
 40
2.0
 40
2.0
 40
2.0
 40
3.0
 40
3.0
 40
3.0
 40
4.0
 40
4.0
 40
4.0
 40
4.0
 10
84.01021563449862
 20
-116.1351852487441
 30
0.0
 10
84.01021563449862
 20
-116.0800813598689
 30
0.0
 10
83.96541285786385
 20
-116.0352785821022
 30
0.0
 10
83.91031109013346
 20
-116.0352785821022
 30
0.0
 10
83.85516980512084
 20
-116.0352785821022
 30
0.0
 10
83.81040230626294
 20
-116.0800813598689
 30
0.0
 10
83.81040230626294
 20
-116.1351852487441
 30
0.0
 10
83.81040230626294
 20
-116.1903244153969
 30
0.0
 10
83.85516980512084
 20
-116.2351271931633
 30
0.0
 10
83.91031109013346
 20
-116.2351271931633
 30
0.0
 10
83.96541285786385
 20
-116.2351271931633
 30
0.0
 10
84.01021563449862
 20
-116.1903244153969
 30
0.0
 10
84.01021563449862
 20
-116.1351852487441
 30
0.0
  0
SPLINE
  5
55
330
1F
100
AcDbEntity
  8
_U+30EC_U+30A4_U+30E4_U+30FC 1
 62
   179
420
  2234388
370
     9
100
AcDbSpline
210
0.0
220
0.0
230
1.0
 70
    11
 71
     3
 72
    17
 73
    13
 74
     0
 42
0.0000000001
 43
0.0000000001
 12
1.0
 22
0.0
 32
0.0
 13
1.0
 23
0.0
 33
0.0
 40
0.0
 40
0.0
 40
0.0
 40
0.0
 40
1.0
 40
1.0
 40
1.0
 40
2.0
 40
2.0
 40
2.0
 40
3.0
 40
3.0
 40
3.0
 40
4.0
 40
4.0
 40
4.0
 40
4.0
 10
83.01009066001393
 20
-121.3848360807648
 30
0.0
 10
83.01009066001393
 20
-121.3297321918899
 30
0.0
 10
82.96528788337916
 20
-121.2849294141231
 30
0.0
 10
82.91018609038348
 20
-121.2849294141231
 30
0.0
 10
82.85504483063615
 20
-121.2849294141231
 30
0.0
 10
82.81027733177827
 20
-121.3297321918899
 30
0.0
 10
82.81027733177827
 20
-121.3848360807648
 30
0.0
 10
82.81027733177827
 20
-121.4399752474178
 30
0.0
 10
82.85504483063615
 20
-121.4847427474067
 30
0.0
 10
82.91018609038348
 20
-121.4847427474067
 30
0.0
 10
82.96528788337916
 20
-121.4847427474067
 30
0.0
 10
83.01009066001393
 20
-121.4399752474178
 30
0.0
 10
83.01009066001393
 20
-121.3848360807648
 30
0.0
  0
SPLINE
  5
56
330
1F
100
AcDbEntity
  8
_U+30EC_U+30A4_U+30E4_U+30FC 1
 62
   179
420
  2234388
370
     9
100
AcDbSpline
210
0.0
220
0.0
230
1.0
 70
    11
 71
     3
 72
    17
 73
    13
 74
     0
 42
0.0000000001
 43
0.0000000001
 12
1.0
 22
0.0
 32
0.0
 13
1.0
 23
0.0
 33
0.0
 40
0.0
 40
0.0
 40
0.0
 40
0.0
 40
1.0
 40
1.0
 40
1.0
 40
2.0
 40
2.0
 40
2.0
 40
3.0
 40
3.0
 40
3.0
 40
4.0
 40
4.0
 40
4.0
 40
4.0
 10
84.00986285672984
 20
-121.3848360807648
 30
0.0
 10
84.00986285672984
 20
-121.3297321918899
 30
0.0
 10
83.96506008009507
 20
-121.2849294141231
 30
0.0
 10
83.9099583123557
 20
-121.2849294141231
 30
0.0
 10
83.85481702735206
 20
-121.2849294141231
 30
0.0
 10
83.81004952849418
 20
-121.3297321918899
 30
0.0
 10
83.81004952849418
 20
-121.3848360807648
 30
0.0
 10
83.81004952849418
 20
-121.4399752474178
 30
0.0
 10
83.85481702735206
 20
-121.4847427474067
 30
0.0
 10
83.9099583123557
 20
-121.4847427474067
 30
0.0
 10
83.96506008009507
 20
-121.4847427474067
 30
0.0
 10
84.00986285672984
 20
-121.4399752474178
 30
0.0
 10
84.00986285672984
 20
-121.3848360807648
 30
0.0
  0
SPLINE
  5
57
330
1F
100
AcDbEntity
  8
_U+30EC_U+30A4_U+30E4_U+30FC 1
 62
   179
420
  2234388
370
     9
100
AcDbSpline
210
0.0
220
0.0
230
1.0
 70
    11
 71
     3
 72
    17
 73
    13
 74
     0
 42
0.0000000001
 43
0.0000000001
 12
1.0
 22
0.0
 32
0.0
 13
1.0
 23
0.0
 33
0.0
 40
0.0
 40
0.0
 40
0.0
 40
0.0
 40
1.0
 40
1.0
 40
1.0
 40
2.0
 40
2.0
 40
2.0
 40
3.0
 40
3.0
 40
3.0
 40
4.0
 40
4.0
 40
4.0
 40
4.0
 10
79.01033159538962
 20
-138.1349013543552
 30
0.0
 10
79.01033159538962
 20
-138.0790919099248
 30
0.0
 10
78.96556409653174
 20
-138.0342891321581
 30
0.0
 10
78.91042493127179
 20
-138.0342891321581
 30
0.0
 10
78.85461548825116
 20
-138.0342891321581
 30
0.0
 10
78.80981271161639
 20
-138.0790919099248
 30
0.0
 10
78.80981271161639
 20
-138.1349013543552
 30
0.0
 10
78.80981271161639
 20
-138.1900052432302
 30
0.0
 10
78.85461548825116
 20
-138.2348080209969
 30
0.0
 10
78.91042493127179
 20
-138.2348080209969
 30
0.0
 10
78.96556409653174
 20
-138.2348080209969
 30
0.0
 10
79.01033159538962
 20
-138.1900052432302
 30
0.0
 10
79.01033159538962
 20
-138.1349013543552
 30
0.0
  0
SPLINE
  5
58
330
1F
100
AcDbEntity
  8
_U+30EC_U+30A4_U+30E4_U+30FC 1
 62
   179
420
  2234388
370
     9
100
AcDbSpline
210
0.0
220
0.0
230
1.0
 70
    11
 71
     3
 72
    17
 73
    13
 74
     0
 42
0.0000000001
 43
0.0000000001
 12
1.0
 22
0.0
 32
0.0
 13
1.0
 23
0.0
 33
0.0
 40
0.0
 40
0.0
 40
0.0
 40
0.0
 40
1.0
 40
1.0
 40
1.0
 40
2.0
 40
2.0
 40
2.0
 40
3.0
 40
3.0
 40
3.0
 40
4.0
 40
4.0
 40
4.0
 40
4.0
 10
79.01033159538962
 20
-119.1348546924386
 30
0.0
 10
79.01033159538962
 20
-119.0797155257858
 30
0.0
 10
78.96556409653174
 20
-119.0349480257969
 30
0.0
 10
78.91042493127179
 20
-119.0349480257969
 30
0.0
 10
78.85461548825116
 20
-119.0349480257969
 30
0.0
 10
78.80981271161639
 20
-119.0797155257858
 30
0.0
 10
78.80981271161639
 20
-119.1348546924386
 30
0.0
 10
78.80981271161639
 20
-119.1903113590912
 30
0.0
 10
78.85461548825116
 20
-119.235114136858
 30
0.0
 10
78.91042493127179
 20
-119.235114136858
 30
0.0
 10
78.96556409653174
 20
-119.235114136858
 30
0.0
 10
79.01033159538962
 20
-119.1903113590912
 30
0.0
 10
79.01033159538962
 20
-119.1348546924386
 30
0.0
  0
SPLINE
  5
59
330
1F
100
AcDbEntity
  8
_U+30EC_U+30A4_U+30E4_U+30FC 1
 62
   179
420
  2234388
370
     9
100
AcDbSpline
210
0.0
220
0.0
230
1.0
 70
    11
 71
     3
 72
    17
 73
    13
 74
     0
 42
0.0000000001
 43
0.0000000001
 12
1.0
 22
0.0
 32
0.0
 13
1.0
 23
0.0
 33
0.0
 40
0.0
 40
0.0
 40
0.0
 40
0.0
 40
1.0
 40
1.0
 40
1.0
 40
2.0
 40
2.0
 40
2.0
 40
3.0
 40
3.0
 40
3.0
 40
4.0
 40
4.0
 40
4.0
 40
4.0
 10
102.0099604530647
 20
-142.1346605200221
 30
0.0
 10
102.0099604530647
 20
-142.079521353369
 30
0.0
 10
101.9651929542068
 20
-142.0347538533805
 30
0.0
 10
101.9100537889468
 20
-142.0347538533805
 30
0.0
 10
101.8549499014637
 20
-142.0347538533805
 30
0.0
 10
101.810147124829
 20
-142.079521353369
 30
0.0
 10
101.810147124829
 20
-142.1346605200221
 30
0.0
 10
101.810147124829
 20
-142.189764408897
 30
0.0
 10
101.8549499014637
 20
-142.2345671866638
 30
0.0
 10
101.9100537889468
 20
-142.2345671866638
 30
0.0
 10
101.9651929542068
 20
-142.2345671866638
 30
0.0
 10
102.0099604530647
 20
-142.189764408897
 30
0.0
 10
102.0099604530647
 20
-142.1346605200221
 30
0.0
  0
SPLINE
  5
5A
330
1F
100
AcDbEntity
  8
_U+30EC_U+30A4_U+30E4_U+30FC 1
 62
   179
420
  2234388
370
     9
100
AcDbSpline
210
0.0
220
0.0
230
1.0
 70
    11
 71
     3
 72
    17
 73
    13
 74
     0
 42
0.0000000001
 43
0.0000000001
 12
1.0
 22
0.0
 32
0.0
 13
1.0
 23
0.0
 33
0.0
 40
0.0
 40
0.0
 40
0.0
 40
0.0
 40
1.0
 40
1.0
 40
1.0
 40
2.0
 40
2.0
 40
2.0
 40
3.0
 40
3.0
 40
3.0
 40
4.0
 40
4.0
 40
4.0
 40
4.0
 10
83.01009066001393
 20
-142.1346605200221
 30
0.0
 10
83.01009066001393
 20
-142.079521353369
 30
0.0
 10
82.96528788337916
 20
-142.0347538533805
 30
0.0
 10
82.91018609038348
 20
-142.0347538533805
 30
0.0
 10
82.85504483063615
 20
-142.0347538533805
 30
0.0
 10
82.81027733177827
 20
-142.079521353369
 30
0.0
 10
82.81027733177827
 20
-142.1346605200221
 30
0.0
 10
82.81027733177827
 20
-142.189764408897
 30
0.0
 10
82.85504483063615
 20
-142.2345671866638
 30
0.0
 10
82.91018609038348
 20
-142.2345671866638
 30
0.0
 10
82.96528788337916
 20
-142.2345671866638
 30
0.0
 10
83.01009066001393
 20
-142.189764408897
 30
0.0
 10
83.01009066001393
 20
-142.1346605200221
 30
0.0
  0
SPLINE
  5
5B
330
1F
100
AcDbEntity
  8
_U+30EC_U+30A4_U+30E4_U+30FC 1
 62
   179
420
  2234388
370
     9
100
AcDbSpline
210
0.0
220
0.0
230
1.0
 70
    11
 71
     3
 72
    17
 73
    13
 74
     0
 42
0.0000000001
 43
0.0000000001
 12
1.0
 22
0.0
 32
0.0
 13
1.0
 23
0.0
 33
0.0
 40
0.0
 40
0.0
 40
0.0
 40
0.0
 40
1.0
 40
1.0
 40
1.0
 40
2.0
 40
2.0
 40
2.0
 40
3.0
 40
3.0
 40
3.0
 40
4.0
 40
4.0
 40
4.0
 40
4.0
 10
105.0106555293028
 20
-124.2029308022825
 30
0.0
 10
105.0106555293028
 20
-124.1477916356297
 30
0.0
 10
104.9658527515361
 20
-124.1030241356408
 30
0.0
 10
104.9107462123928
 20
-124.1030241356408
 30
0.0
 10
104.8556070471328
 20
-124.1030241356408
 30
0.0
 10
104.8108395482749
 20
-124.1477916356297
 30
0.0
 10
104.8108395482749
 20
-124.2029308022825
 30
0.0
 10
104.8108395482749
 20
-124.2587402467132
 30
0.0
 10
104.8556070471328
 20
-124.3035077467018
 30
0.0
 10
104.9107462123928
 20
-124.3035077467018
 30
0.0
 10
104.9658527515361
 20
-124.3035077467018
 30
0.0
 10
105.0106555293028
 20
-124.2587402467132
 30
0.0
 10
105.0106555293028
 20
-124.2029308022825
 30
0.0
  0
SPLINE
  5
5C
330
1F
100
AcDbEntity
  8
_U+30EC_U+30A4_U+30E4_U+30FC 1
 62
   179
420
  2234388
370
     9
100
AcDbSpline
210
0.0
220
0.0
230
1.0
 70
    11
 71
     3
 72
    17
 73
    13
 74
     0
 42
0.0000000001
 43
0.0000000001
 12
1.0
 22
0.0
 32
0.0
 13
1.0
 23
0.0
 33
0.0
 40
0.0
 40
0.0
 40
0.0
 40
0.0
 40
1.0
 40
1.0
 40
1.0
 40
2.0
 40
2.0
 40
2.0
 40
3.0
 40
3.0
 40
3.0
 40
4.0
 40
4.0
 40
4.0
 40
4.0
 10
105.0106555293028
 20
-137.2026507990324
 30
0.0
 10
105.0106555293028
 20
-137.1475116323799
 30
0.0
 10
104.9658527515361
 20
-137.1027441323907
 30
0.0
 10
104.9107462123928
 20
-137.1027441323907
 30
0.0
 10
104.8556070471328
 20
-137.1027441323907
 30
0.0
 10
104.8108395482749
 20
-137.1475116323799
 30
0.0
 10
104.8108395482749
 20
-137.2026507990324
 30
0.0
 10
104.8108395482749
 20
-137.2584602434635
 30
0.0
 10
104.8556070471328
 20
-137.3032630212296
 30
0.0
 10
104.9107462123928
 20
-137.3032630212296
 30
0.0
 10
104.9658527515361
 20
-137.3032630212296
 30
0.0
 10
105.0106555293028
 20
-137.2584602434635
 30
0.0
 10
105.0106555293028
 20
-137.2026507990324
 30
0.0
  0
INSERT
  5
5E
330
1F
100
AcDbEntity
  8
_U+30EC_U+30A4_U+30E4_U+30FC 1
100
AcDbBlockReference
  2
block 2
 10
0.0
 20
0.0
 30
0.0
  0
POLYLINE
  5
66
330
1F
100
AcDbEntity
  8
_U+30EC_U+30A4_U+30E4_U+30FC 1
 62
   179
420
  2234388
370
     9
100
AcDb2dPolyline
 66
     1
 10
0.0
 20
0.0
 30
0.0
  0
VERTEX
  5
67
330
66
100
AcDbEntity
  8
_U+30EC_U+30A4_U+30E4_U+30FC 1
 62
   179
420
  2234388
370
     9
100
AcDbVertex
100
AcDb2dVertex
 10
83.91031109013346
 20
-116.1351852487441
 30
0.0
  0
VERTEX
  5
68
330
66
100
AcDbEntity
  8
_U+30EC_U+30A4_U+30E4_U+30FC 1
 62
   179
420
  2234388
370
     9
100
AcDbVertex
100
AcDb2dVertex
 10
106.9102553280477
 20
-116.1351852487441
 30
0.0
  0
SEQEND
  5
69
330
66
100
AcDbEntity
  8
_U+30EC_U+30A4_U+30E4_U+30FC 1
 62
   179
420
  2234388
370
     9
  0
POLYLINE
  5
6A
330
1F
100
AcDbEntity
  8
_U+30EC_U+30A4_U+30E4_U+30FC 1
 62
   179
420
  2234388
370
     9
100
AcDb2dPolyline
 66
     1
 10
0.0
 20
0.0
 30
0.0
  0
VERTEX
  5
6B
330
6A
100
AcDbEntity
  8
_U+30EC_U+30A4_U+30E4_U+30FC 1
 62
   179
420
  2234388
370
     9
100
AcDbVertex
100
AcDb2dVertex
 10
83.91031109013346
 20
-118.5949988592401
 30
0.0
  0
VERTEX
  5
6C
330
6A
100
AcDbEntity
  8
_U+30EC_U+30A4_U+30E4_U+30FC 1
 62
   179
420
  2234388
370
     9
100
AcDbVertex
100
AcDb2dVertex
 10
83.91031109013346
 20
-115.1350955267717
 30
0.0
  0
SEQEND
  5
6D
330
6A
100
AcDbEntity
  8
_U+30EC_U+30A4_U+30E4_U+30FC 1
 62
   179
420
  2234388
370
     9
  0
POLYLINE
  5
6E
330
1F
100
AcDbEntity
  8
_U+30EC_U+30A4_U+30E4_U+30FC 1
 62
   179
420
  2234388
370
     9
100
AcDb2dPolyline
 66
     1
 10
0.0
 20
0.0
 30
0.0
  0
VERTEX
  5
6F
330
6E
100
AcDbEntity
  8
_U+30EC_U+30A4_U+30E4_U+30FC 1
 62
   179
420
  2234388
370
     9
100
AcDbVertex
100
AcDb2dVertex
 10
106.9102553280477
 20
-121.7031827473518
 30
0.0
  0
VERTEX
  5
70
330
6E
100
AcDbEntity
  8
_U+30EC_U+30A4_U+30E4_U+30FC 1
 62
   179
420
  2234388
370
     9
100
AcDbVertex
100
AcDb2dVertex
 10
106.9102553280477
 20
-115.1350955267717
 30
0.0
  0
SEQEND
  5
71
330
6E
100
AcDbEntity
  8
_U+30EC_U+30A4_U+30E4_U+30FC 1
 62
   179
420
  2234388
370
     9
  0
INSERT
  5
73
330
1F
100
AcDbEntity
  8
_U+30EC_U+30A4_U+30E4_U+30FC 1
100
AcDbBlockReference
  2
block 3
 10
0.0
 20
0.0
 30
0.0
  0
POLYLINE
  5
7A
330
1F
100
AcDbEntity
  8
_U+30EC_U+30A4_U+30E4_U+30FC 1
 62
   179
420
  2234388
370
     9
100
AcDb2dPolyline
 66
     1
 10
0.0
 20
0.0
 30
0.0
  0
VERTEX
  5
7B
330
7A
100
AcDbEntity
  8
_U+30EC_U+30A4_U+30E4_U+30FC 1
 62
   179
420
  2234388
370
     9
100
AcDbVertex
100
AcDb2dVertex
 10
83.9099583123557
 20
-121.3848360807648
 30
0.0
  0
VERTEX
  5
7C
330
7A
100
AcDbEntity
  8
_U+30EC_U+30A4_U+30E4_U+30FC 1
 62
   179
420
  2234388
370
     9
100
AcDbVertex
100
AcDb2dVertex
 10
87.68026859642332
 20
-121.3848360807648
 30
0.0
  0
SEQEND
  5
7D
330
7A
100
AcDbEntity
  8
_U+30EC_U+30A4_U+30E4_U+30FC 1
 62
   179
420
  2234388
370
     9
  0
POLYLINE
  5
7E
330
1F
100
AcDbEntity
  8
_U+30EC_U+30A4_U+30E4_U+30FC 1
 62
   179
420
  2234388
370
     9
100
AcDb2dPolyline
 66
     1
 10
0.0
 20
0.0
 30
0.0
  0
VERTEX
  5
7F
330
7E
100
AcDbEntity
  8
_U+30EC_U+30A4_U+30E4_U+30FC 1
 62
   179
420
  2234388
370
     9
100
AcDbVertex
100
AcDb2dVertex
 10
81.91041386841125
 20
-121.3848360807648
 30
0.0
  0
VERTEX
  5
80
330
7E
100
AcDbEntity
  8
_U+30EC_U+30A4_U+30E4_U+30FC 1
 62
   179
420
  2234388
370
     9
100
AcDbVertex
100
AcDb2dVertex
 10
83.9099583123557
 20
-121.3848360807648
 30
0.0
  0
SEQEND
  5
81
330
7E
100
AcDbEntity
  8
_U+30EC_U+30A4_U+30E4_U+30FC 1
 62
   179
420
  2234388
370
     9
  0
INSERT
  5
83
330
1F
100
AcDbEntity
  8
_U+30EC_U+30A4_U+30E4_U+30FC 1
100
AcDbBlockReference
  2
block 4
 10
0.0
 20
0.0
 30
0.0
  0
POLYLINE
  5
88
330
1F
100
AcDbEntity
  8
_U+30EC_U+30A4_U+30E4_U+30FC 1
 62
   179
420
  2234388
370
     9
100
AcDb2dPolyline
 66
     1
 10
0.0
 20
0.0
 30
0.0
  0
VERTEX
  5
89
330
88
100
AcDbEntity
  8
_U+30EC_U+30A4_U+30E4_U+30FC 1
 62
   179
420
  2234388
370
     9
100
AcDbVertex
100
AcDb2dVertex
 10
82.91018609038348
 20
-142.1346605200221
 30
0.0
  0
VERTEX
  5
8A
330
88
100
AcDbEntity
  8
_U+30EC_U+30A4_U+30E4_U+30FC 1
 62
   179
420
  2234388
370
     9
100
AcDbVertex
100
AcDb2dVertex
 10
101.9100537889468
 20
-142.1346605200221
 30
0.0
  0
SEQEND
  5
8B
330
88
100
AcDbEntity
  8
_U+30EC_U+30A4_U+30E4_U+30FC 1
 62
   179
420
  2234388
370
     9
  0
POLYLINE
  5
8C
330
1F
100
AcDbEntity
  8
_U+30EC_U+30A4_U+30E4_U+30FC 1
 62
   179
420
  2234388
370
     9
100
AcDb2dPolyline
 66
     1
 10
0.0
 20
0.0
 30
0.0
  0
VERTEX
  5
8D
330
8C
100
AcDbEntity
  8
_U+30EC_U+30A4_U+30E4_U+30FC 1
 62
   179
420
  2234388
370
     9
100
AcDbVertex
100
AcDb2dVertex
 10
82.91018609038348
 20
-139.6748469095259
 30
0.0
  0
VERTEX
  5
8E
330
8C
100
AcDbEntity
  8
_U+30EC_U+30A4_U+30E4_U+30FC 1
 62
   179
420
  2234388
370
     9
100
AcDbVertex
100
AcDb2dVertex
 10
82.91018609038348
 20
-143.135103019772
 30
0.0
  0
SEQEND
  5
8F
330
8C
100
AcDbEntity
  8
_U+30EC_U+30A4_U+30E4_U+30FC 1
 62
   179
420
  2234388
370
     9
  0
POLYLINE
  5
90
330
1F
100
AcDbEntity
  8
_U+30EC_U+30A4_U+30E4_U+30FC 1
 62
   179
420
  2234388
370
     9
100
AcDb2dPolyline
 66
     1
 10
0.0
 20
0.0
 30
0.0
  0
VERTEX
  5
91
330
90
100
AcDbEntity
  8
_U+30EC_U+30A4_U+30E4_U+30FC 1
 62
   179
420
  2234388
370
     9
100
AcDbVertex
100
AcDb2dVertex
 10
101.9100537889468
 20
-139.6748469095259
 30
0.0
  0
VERTEX
  5
92
330
90
100
AcDbEntity
  8
_U+30EC_U+30A4_U+30E4_U+30FC 1
 62
   179
420
  2234388
370
     9
100
AcDbVertex
100
AcDb2dVertex
 10
101.9100537889468
 20
-143.135103019772
 30
0.0
  0
SEQEND
  5
93
330
90
100
AcDbEntity
  8
_U+30EC_U+30A4_U+30E4_U+30FC 1
 62
   179
420
  2234388
370
     9
  0
INSERT
  5
95
330
1F
100
AcDbEntity
  8
_U+30EC_U+30A4_U+30E4_U+30FC 1
100
AcDbBlockReference
  2
block 5
 10
0.0
 20
0.0
 30
0.0
  0
POLYLINE
  5
9D
330
1F
100
AcDbEntity
  8
_U+30EC_U+30A4_U+30E4_U+30FC 1
 62
   179
420
  2234388
370
     9
100
AcDb2dPolyline
 66
     1
 10
0.0
 20
0.0
 30
0.0
  0
VERTEX
  5
9E
330
9D
100
AcDbEntity
  8
_U+30EC_U+30A4_U+30E4_U+30FC 1
 62
   179
420
  2234388
370
     9
100
AcDbVertex
100
AcDb2dVertex
 10
104.9107462123928
 20
-137.2026507990324
 30
0.0
  0
VERTEX
  5
9F
330
9D
100
AcDbEntity
  8
_U+30EC_U+30A4_U+30E4_U+30FC 1
 62
   179
420
  2234388
370
     9
100
AcDbVertex
100
AcDb2dVertex
 10
104.9107462123928
 20
-124.2029308022825
 30
0.0
  0
SEQEND
  5
A0
330
9D
100
AcDbEntity
  8
_U+30EC_U+30A4_U+30E4_U+30FC 1
 62
   179
420
  2234388
370
     9
  0
POLYLINE
  5
A1
330
1F
100
AcDbEntity
  8
_U+30EC_U+30A4_U+30E4_U+30FC 1
 62
   179
420
  2234388
370
     9
100
AcDb2dPolyline
 66
     1
 10
0.0
 20
0.0
 30
0.0
  0
VERTEX
  5
A2
330
A1
100
AcDbEntity
  8
_U+30EC_U+30A4_U+30E4_U+30FC 1
 62
   179
420
  2234388
370
     9
100
AcDbVertex
100
AcDb2dVertex
 10
103.4507048607526
 20
-137.2026507990324
 30
0.0
  0
VERTEX
  5
A3
330
A1
100
AcDbEntity
  8
_U+30EC_U+30A4_U+30E4_U+30FC 1
 62
   179
420
  2234388
370
     9
100
AcDbVertex
100
AcDb2dVertex
 10
105.9105184091087
 20
-137.2026507990324
 30
0.0
  0
SEQEND
  5
A4
330
A1
100
AcDbEntity
  8
_U+30EC_U+30A4_U+30E4_U+30FC 1
 62
   179
420
  2234388
370
     9
  0
POLYLINE
  5
A5
330
1F
100
AcDbEntity
  8
_U+30EC_U+30A4_U+30E4_U+30FC 1
 62
   179
420
  2234388
370
     9
100
AcDb2dPolyline
 66
     1
 10
0.0
 20
0.0
 30
0.0
  0
VERTEX
  5
A6
330
A5
100
AcDbEntity
  8
_U+30EC_U+30A4_U+30E4_U+30FC 1
 62
   179
420
  2234388
370
     9
100
AcDbVertex
100
AcDb2dVertex
 10
103.4507048607526
 20
-124.2029308022825
 30
0.0
  0
VERTEX
  5
A7
330
A5
100
AcDbEntity
  8
_U+30EC_U+30A4_U+30E4_U+30FC 1
 62
   179
420
  2234388
370
     9
100
AcDbVertex
100
AcDb2dVertex
 10
105.9105184091087
 20
-124.2029308022825
 30
0.0
  0
SEQEND
  5
A8
330
A5
100
AcDbEntity
  8
_U+30EC_U+30A4_U+30E4_U+30FC 1
 62
   179
420
  2234388
370
     9
  0
INSERT
  5
AA
330
1F
100
AcDbEntity
  8
_U+30EC_U+30A4_U+30E4_U+30FC 1
100
AcDbBlockReference
  2
block 6
 10
0.0
 20
0.0
 30
0.0
  0
POLYLINE
  5
B1
330
1F
100
AcDbEntity
  8
_U+30EC_U+30A4_U+30E4_U+30FC 1
 62
   179
420
  2234388
370
     9
100
AcDb2dPolyline
 66
     1
 10
0.0
 20
0.0
 30
0.0
  0
VERTEX
  5
B2
330
B1
100
AcDbEntity
  8
_U+30EC_U+30A4_U+30E4_U+30FC 1
 62
   179
420
  2234388
370
     9
100
AcDbVertex
100
AcDb2dVertex
 10
78.91042493127179
 20
-138.1349013543552
 30
0.0
  0
VERTEX
  5
B3
330
B1
100
AcDbEntity
  8
_U+30EC_U+30A4_U+30E4_U+30FC 1
 62
   179
420
  2234388
370
     9
100
AcDbVertex
100
AcDb2dVertex
 10
78.91042493127179
 20
-119.1348546924386
 30
0.0
  0
SEQEND
  5
B4
330
B1
100
AcDbEntity
  8
_U+30EC_U+30A4_U+30E4_U+30FC 1
 62
   179
420
  2234388
370
     9
  0
POLYLINE
  5
B5
330
1F
100
AcDbEntity
  8
_U+30EC_U+30A4_U+30E4_U+30FC 1
 62
   179
420
  2234388
370
     9
100
AcDb2dPolyline
 66
     1
 10
0.0
 20
0.0
 30
0.0
  0
VERTEX
  5
B6
330
B5
100
AcDbEntity
  8
_U+30EC_U+30A4_U+30E4_U+30FC 1
 62
   179
420
  2234388
370
     9
100
AcDbVertex
100
AcDb2dVertex
 10
81.37023847962783
 20
-138.1349013543552
 30
0.0
  0
VERTEX
  5
B7
330
B5
100
AcDbEntity
  8
_U+30EC_U+30A4_U+30E4_U+30FC 1
 62
   179
420
  2234388
370
     9
100
AcDbVertex
100
AcDb2dVertex
 10
77.9099824567952
 20
-138.1349013543552
 30
0.0
  0
SEQEND
  5
B8
330
B5
100
AcDbEntity
  8
_U+30EC_U+30A4_U+30E4_U+30FC 1
 62
   179
420
  2234388
370
     9
  0
POLYLINE
  5
B9
330
1F
100
AcDbEntity
  8
_U+30EC_U+30A4_U+30E4_U+30FC 1
 62
   179
420
  2234388
370
     9
100
AcDb2dPolyline
 66
     1
 10
0.0
 20
0.0
 30
0.0
  0
VERTEX
  5
BA
330
B9
100
AcDbEntity
  8
_U+30EC_U+30A4_U+30E4_U+30FC 1
 62
   179
420
  2234388
370
     9
100
AcDbVertex
100
AcDb2dVertex
 10
81.37023847962783
 20
-119.1348546924386
 30
0.0
  0
VERTEX
  5
BB
330
B9
100
AcDbEntity
  8
_U+30EC_U+30A4_U+30E4_U+30FC 1
 62
   179
420
  2234388
370
     9
100
AcDbVertex
100
AcDb2dVertex
 10
77.9099824567952
 20
-119.1348546924386
 30
0.0
  0
SEQEND
  5
BC
330
B9
100
AcDbEntity
  8
_U+30EC_U+30A4_U+30E4_U+30FC 1
 62
   179
420
  2234388
370
     9
  0
INSERT
  5
BE
330
1F
100
AcDbEntity
  8
_U+30EC_U+30A4_U+30E4_U+30FC 1
100
AcDbBlockReference
  2
block 7
 10
0.0
 20
0.0
 30
0.0
  0
SPLINE
  5
C6
330
1F
100
AcDbEntity
  8
_U+30EC_U+30A4_U+30E4_U+30FC 1
 62
   179
420
  2234388
370
    25
100
AcDbSpline
210
0.0
220
0.0
230
1.0
 70
    11
 71
     3
 72
    74
 73
    70
 74
     0
 42
0.0000000001
 43
0.0000000001
 12
1.0
 22
0.0
 32
0.0
 13
1.0
 23
0.0
 33
0.0
 40
0.0
 40
0.0
 40
0.0
 40
0.0
 40
1.0
 40
1.0
 40
1.0
 40
2.0
 40
2.0
 40
2.0
 40
3.0
 40
3.0
 40
3.0
 40
4.0
 40
4.0
 40
4.0
 40
5.0
 40
5.0
 40
5.0
 40
6.0
 40
6.0
 40
6.0
 40
7.0
 40
7.0
 40
7.0
 40
8.0
 40
8.0
 40
8.0
 40
9.0
 40
9.0
 40
9.0
 40
10.0
 40
10.0
 40
10.0
 40
11.0
 40
11.0
 40
11.0
 40
12.0
 40
12.0
 40
12.0
 40
13.0
 40
13.0
 40
13.0
 40
14.0
 40
14.0
 40
14.0
 40
15.0
 40
15.0
 40
15.0
 40
16.0
 40
16.0
 40
16.0
 40
17.0
 40
17.0
 40
17.0
 40
18.0
 40
18.0
 40
18.0
 40
19.0
 40
19.0
 40
19.0
 40
20.0
 40
20.0
 40
20.0
 40
21.0
 40
21.0
 40
21.0
 40
22.0
 40
22.0
 40
22.0
 40
23.0
 40
23.0
 40
23.0
 40
23.0
 10
101.6247976851132
 20
-123.2031585803102
 30
0.0
 10
101.6247976851132
 20
-123.2031585803102
 30
0.0
 10
86.39594585141135
 20
-123.2031585803102
 30
0.0
 10
86.39594585141135
 20
-123.2031585803102
 30
0.0
 10
86.39594585141135
 20
-123.2031585803102
 30
0.0
 10
86.11344141417419
 20
-123.4860158024618
 30
0.0
 10
86.11344141417419
 20
-123.4860158024618
 30
0.0
 10
86.11344141417419
 20
-123.4860158024618
 30
0.0
 10
85.83023142139947
 20
-123.2031585803102
 30
0.0
 10
85.83023142139947
 20
-123.2031585803102
 30
0.0
 10
85.83023142139947
 20
-123.2031585803102
 30
0.0
 10
85.5477622619392
 20
-123.4860158024618
 30
0.0
 10
85.5477622619392
 20
-123.4860158024618
 30
0.0
 10
85.5477622619392
 20
-123.4860158024618
 30
0.0
 10
85.2645522691645
 20
-123.2031585803102
 30
0.0
 10
85.2645522691645
 20
-123.2031585803102
 30
0.0
 10
85.2645522691645
 20
-123.2031585803102
 30
0.0
 10
84.98204997875457
 20
-123.4860158024618
 30
0.0
 10
84.98204997875457
 20
-123.4860158024618
 30
0.0
 10
84.98204997875457
 20
-123.4860158024618
 30
0.0
 10
84.6988731169295
 20
-123.2031585803102
 30
0.0
 10
84.6988731169295
 20
-123.2031585803102
 30
0.0
 10
84.6988731169295
 20
-123.2031585803102
 30
0.0
 10
83.9099583123557
 20
-123.2031585803102
 30
0.0
 10
83.9099583123557
 20
-123.2031585803102
 30
0.0
 10
83.9099583123557
 20
-123.2031585803102
 30
0.0
 10
83.9099583123557
 20
-119.1348546924386
 30
0.0
 10
83.9099583123557
 20
-119.1348546924386
 30
0.0
 10
83.35803537335934
 20
-119.1348546924386
 30
0.0
 10
82.91018609038348
 20
-119.5827060812153
 30
0.0
 10
82.91018609038348
 20
-120.1349444144107
 30
0.0
 10
82.91018609038348
 20
-120.1349444144107
 30
0.0
 10
82.91018609038348
 20
-137.1344235768278
 30
0.0
 10
82.91018609038348
 20
-137.1344235768278
 30
0.0
 10
82.91018609038348
 20
-137.6870146878007
 30
0.0
 10
83.35803537335934
 20
-138.1349013543552
 30
0.0
 10
83.9099583123557
 20
-138.1349013543552
 30
0.0
 10
83.9099583123557
 20
-138.1349013543552
 30
0.0
 10
100.8655166414502
 20
-138.1349013543552
 30
0.0
 10
100.8655166414502
 20
-138.1349013543552
 30
0.0
 10
101.4181051903864
 20
-138.1349013543552
 30
0.0
 10
101.9100537889468
 20
-137.7552419100059
 30
0.0
 10
101.9100537889468
 20
-137.2026507990324
 30
0.0
 10
101.9100537889468
 20
-137.2026507990324
 30
0.0
 10
83.9099583123557
 20
-137.2026507990324
 30
0.0
 10
83.9099583123557
 20
-137.2026507990324
 30
0.0
 10
83.9099583123557
 20
-137.2026507990324
 30
0.0
 10
83.9099583123557
 20
-124.2029308022825
 30
0.0
 10
83.9099583123557
 20
-124.2029308022825
 30
0.0
 10
83.9099583123557
 20
-124.2029308022825
 30
0.0
 10
101.9100537889468
 20
-124.2029308022825
 30
0.0
 10
101.9100537889468
 20
-124.2029308022825
 30
0.0
 10
101.9100537889468
 20
-124.2029308022825
 30
0.0
 10
102.4295896090257
 20
-123.9032108023575
 30
0.0
 10
102.4295896090257
 20
-123.9032108023575
 30
0.0
 10
102.4295896090257
 20
-123.9032108023575
 30
0.0
 10
106.2102384014622
 20
-123.9032108023575
 30
0.0
 10
106.2102384014622
 20
-123.9032108023575
 30
0.0
 10
106.5967770027119
 20
-123.9032108023575
 30
0.0
 10
106.9102553280477
 20
-123.5896971913247
 30
0.0
 10
106.9102553280477
 20
-123.2031585803102
 30
0.0
 10
106.9102553280477
 20
-123.2031585803102
 30
0.0
 10
102.1904768373482
 20
-123.2031585803102
 30
0.0
 10
102.1904768373482
 20
-123.2031585803102
 30
0.0
 10
102.1904768373482
 20
-123.2031585803102
 30
0.0
 10
101.9079749745229
 20
-123.4860158024618
 30
0.0
 10
101.9079749745229
 20
-123.4860158024618
 30
0.0
 10
101.9079749745229
 20
-123.4860158024618
 30
0.0
 10
101.6247976851132
 20
-123.2031585803102
 30
0.0
 10
101.6247976851132
 20
-123.2031585803102
 30
0.0
  0
ENDSEC
  0
SECTION
  2
OBJECTS
  0
DICTIONARY
  5
C
330
0
100
AcDbDictionary
281
     1
  3
ACAD_GROUP
350
D
  3
ACAD_LAYOUT
350
1A
  3
ACAD_MATERIAL
350
3B
  3
ACAD_MLEADERSTYLE
350
C8
  3
ACAD_MLINESTYLE
350
17
  3
ACAD_PLOTSETTINGS
350
19
  3
ACAD_PLOTSTYLENAME
350
E
  3
ACAD_TABLESTYLE
350
C7
  3
ACAD_VISUALSTYLE
350
2A
  0
SUN
  5
3F
330
29
100
AcDbSun
 90
        1
290
     0
 63
     7
421
 16777215
 40
1.0
291
     1
 91
  2455826
 92
 54000000
292
     0
 70
     2
 71
   256
280
     1
  0
DICTIONARY
  5
D
102
{ACAD_REACTORS
330
C
102
}
330
C
100
AcDbDictionary
281
     1
  0
DICTIONARY
  5
1A
102
{ACAD_REACTORS
330
C
102
}
330
C
100
AcDbDictionary
281
     1
  3
Layout1
350
1E
  3
Layout2
350
26
  3
Model
350
22
  0
DICTIONARY
  5
3B
102
{ACAD_REACTORS
330
C
102
}
330
C
100
AcDbDictionary
281
     1
  3
ByBlock
350
3D
  3
ByLayer
350
3C
  3
Global
350
3E
  0
DICTIONARY
  5
C8
102
{ACAD_REACTORS
330
C
102
}
330
C
100
AcDbDictionary
281
     1
  0
DICTIONARY
  5
17
102
{ACAD_REACTORS
330
C
102
}
330
C
100
AcDbDictionary
281
     1
  3
Standard
350
18
  0
DICTIONARY
  5
19
102
{ACAD_REACTORS
330
C
102
}
330
C
100
AcDbDictionary
281
     1
  0
ACDBDICTIONARYWDFLT
  5
E
102
{ACAD_REACTORS
330
C
102
}
330
C
100
AcDbDictionary
281
     1
  3
Normal
350
F
100
AcDbDictionaryWithDefault
340
F
  0
DICTIONARY
  5
C7
102
{ACAD_REACTORS
330
C
102
}
330
C
100
AcDbDictionary
281
     1
  0
DICTIONARY
  5
2A
102
{ACAD_REACTORS
330
C
102
}
330
C
100
AcDbDictionary
281
     1
  3
2dWireframe
350
2F
  3
3D Hidden
350
31
  3
3dWireframe
350
30
  3
Basic
350
32
  3
Brighten
350
36
  3
ColorChange
350
3A
  3
Conceptual
350
34
  3
Dim
350
35
  3
Facepattern
350
39
  3
Flat
350
2B
  3
FlatWithEdges
350
2C
  3
Gouraud
350
2D
  3
GouraudWithEdges
350
2E
  3
Linepattern
350
38
  3
Realistic
350
33
  3
Thicken
350
37
  0
LAYOUT
  5
1E
102
{ACAD_REACTORS
330
1A
102
}
330
1A
100
AcDbPlotSettings
  1

  2
none_device
  4

  6

 40
0.0
 41
0.0
 42
0.0
 43
0.0
 44
0.0
 45
0.0
 46
0.0
 47
0.0
 48
0.0
 49
0.0
140
0.0
141
0.0
142
1.0
143
1.0
 70
   688
 72
     0
 73
     0
 74
     5
  7

 75
    16
 76
     0
 77
     2
 78
   300
147
1.0
148
0.0
149
0.0
100
AcDbLayout
  1
Layout1
 70
     1
 71
     1
 10
0.0
 20
0.0
 11
12.0
 21
9.0
 12
0.0
 22
0.0
 32
0.0
 14
1.000000000000000E+20
 24
1.000000000000000E+20
 34
1.000000000000000E+20
 15
-1.000000000000000E+20
 25
-1.000000000000000E+20
 35
-1.000000000000000E+20
146
0.0
 13
0.0
 23
0.0
 33
0.0
 16
1.0
 26
0.0
 36
0.0
 17
0.0
 27
1.0
 37
0.0
 76
     0
330
1B
  0
LAYOUT
  5
26
102
{ACAD_REACTORS
330
1A
102
}
330
1A
100
AcDbPlotSettings
  1

  2
none_device
  4

  6

 40
0.0
 41
0.0
 42
0.0
 43
0.0
 44
0.0
 45
0.0
 46
0.0
 47
0.0
 48
0.0
 49
0.0
140
0.0
141
0.0
142
1.0
143
1.0
 70
   688
 72
     0
 73
     0
 74
     5
  7

 75
    16
 76
     0
 77
     2
 78
   300
147
1.0
148
0.0
149
0.0
100
AcDbLayout
  1
Layout2
 70
     1
 71
     2
 10
0.0
 20
0.0
 11
0.0
 21
0.0
 12
0.0
 22
0.0
 32
0.0
 14
0.0
 24
0.0
 34
0.0
 15
0.0
 25
0.0
 35
0.0
146
0.0
 13
0.0
 23
0.0
 33
0.0
 16
1.0
 26
0.0
 36
0.0
 17
0.0
 27
1.0
 37
0.0
 76
     0
330
23
  0
LAYOUT
  5
22
102
{ACAD_REACTORS
330
1A
102
}
330
1A
100
AcDbPlotSettings
  1

  2
none_device
  4

  6

 40
0.0
 41
0.0
 42
0.0
 43
0.0
 44
0.0
 45
0.0
 46
0.0
 47
0.0
 48
0.0
 49
0.0
140
0.0
141
0.0
142
1.0
143
1.0
 70
  1712
 72
     0
 73
     0
 74
     0
  7

 75
     0
 76
     0
 77
     2
 78
   300
147
1.0
148
0.0
149
0.0
100
AcDbLayout
  1
Model
 70
     1
 71
     0
 10
0.0
 20
0.0
 11
12.0
 21
9.0
 12
0.0
 22
0.0
 32
0.0
 14
1.000000000000000E+20
 24
1.000000000000000E+20
 34
1.000000000000000E+20
 15
-1.000000000000000E+20
 25
-1.000000000000000E+20
 35
-1.000000000000000E+20
146
0.0
 13
0.0
 23
0.0
 33
0.0
 16
1.0
 26
0.0
 36
0.0
 17
0.0
 27
1.0
 37
0.0
 76
     0
330
1F
331
29
  0
MATERIAL
  5
3D
102
{ACAD_REACTORS
330
3B
102
}
330
3B
100
AcDbMaterial
  1
ByBlock
 72
     1
 94
      127
  0
MATERIAL
  5
3C
102
{ACAD_REACTORS
330
3B
102
}
330
3B
100
AcDbMaterial
  1
ByLayer
 72
     1
 94
      127
  0
MATERIAL
  5
3E
102
{ACAD_REACTORS
330
3B
102
}
330
3B
100
AcDbMaterial
  1
Global
 72
     1
 94
      127
  0
MLINESTYLE
  5
18
102
{ACAD_REACTORS
330
17
102
}
330
17
100
AcDbMlineStyle
  2
Standard
 70
     0
  3

 62
   256
 51
90.0
 52
90.0
 71
     2
 49
0.5
 62
   256
  6
BYLAYER
 49
-0.5
 62
   256
  6
BYLAYER
  0
ACDBPLACEHOLDER
  5
F
102
{ACAD_REACTORS
330
E
102
}
330
E
  0
VISUALSTYLE
  5
2F
102
{ACAD_REACTORS
330
2A
102
}
330
2A
100
AcDbVisualStyle
  2
2dWireframe
 70
     4
177
     2
291
     0
 71
     0
176
     1
 72
     2
176
     1
 73
     0
176
     1
 90
        0
176
     1
 40
-0.6
176
     1
 41
-30.0
176
     1
 62
     5
 63
     7
421
 16777215
176
     1
 74
     1
176
     1
 91
        4
176
     1
 64
     7
176
     1
 65
   257
176
     1
 75
     1
176
     1
175
     1
176
     1
 42
1.0
176
     1
 92
        0
176
     1
 66
   257
176
     1
 43
1.0
176
     1
 76
     1
176
     1
 77
     6
176
     1
 78
     2
176
     1
 67
     7
176
     1
 79
     5
176
     1
170
     0
176
     1
171
     0
176
     1
290
     0
176
     1
 93
        1
176
     1
 44
0.0
176
     1
173
     0
176
     1
  0
VISUALSTYLE
  5
31
102
{ACAD_REACTORS
330
2A
102
}
330
2A
100
AcDbVisualStyle
  2
3D Hidden
 70
     6
177
     2
291
     0
 71
     1
176
     1
 72
     2
176
     1
 73
     2
176
     1
 90
        0
176
     1
 40
-0.6
176
     1
 41
-30.0
176
     1
 62
     5
 63
     7
421
 16777215
176
     1
 74
     2
176
     1
 91
        2
176
     1
 64
     7
176
     1
 65
   257
176
     1
 75
     2
176
     1
175
     1
176
     1
 42
40.0
176
     1
 92
        0
176
     1
 66
   257
176
     1
 43
1.0
176
     1
 76
     1
176
     1
 77
     6
176
     1
 78
     2
176
     1
 67
     7
176
     1
 79
     3
176
     1
170
     0
176
     1
171
     0
176
     1
290
     0
176
     1
 93
        1
176
     1
 44
0.0
176
     1
173
     0
176
     1
  0
VISUALSTYLE
  5
30
102
{ACAD_REACTORS
330
2A
102
}
330
2A
100
AcDbVisualStyle
  2
3dWireframe
 70
     5
177
     2
291
     0
 71
     0
176
     1
 72
     2
176
     1
 73
     0
176
     1
 90
        0
176
     1
 40
-0.6
176
     1
 41
-30.0
176
     1
 62
     5
 63
     7
421
 16777215
176
     1
 74
     1
176
     1
 91
        4
176
     1
 64
     7
176
     1
 65
   257
176
     1
 75
     1
176
     1
175
     1
176
     1
 42
1.0
176
     1
 92
        0
176
     1
 66
   257
176
     1
 43
1.0
176
     1
 76
     1
176
     1
 77
     6
176
     1
 78
     2
176
     1
 67
     7
176
     1
 79
     5
176
     1
170
     0
176
     1
171
     0
176
     1
290
     0
176
     1
 93
        1
176
     1
 44
0.0
176
     1
173
     0
176
     1
  0
VISUALSTYLE
  5
32
102
{ACAD_REACTORS
330
2A
102
}
330
2A
100
AcDbVisualStyle
  2
Basic
 70
     7
177
     2
291
     1
 71
     1
176
     1
 72
     0
176
     1
 73
     1
176
     1
 90
        0
176
     1
 40
-0.6
176
     1
 41
-30.0
176
     1
 62
     5
 63
     7
421
 16777215
176
     1
 74
     0
176
     1
 91
        4
176
     1
 64
     7
176
     1
 65
   257
176
     1
 75
     1
176
     1
175
     1
176
     1
 42
1.0
176
     1
 92
        8
176
     1
 66
     7
176
     1
 43
1.0
176
     1
 76
     1
176
     1
 77
     6
176
     1
 78
     2
176
     1
 67
     7
176
     1
 79
     5
176
     1
170
     0
176
     1
171
     0
176
     1
290
     0
176
     1
 93
        1
176
     1
 44
0.0
176
     1
173
     0
176
     1
  0
VISUALSTYLE
  5
36
102
{ACAD_REACTORS
330
2A
102
}
330
2A
100
AcDbVisualStyle
  2
Brighten
 70
    12
177
     2
291
     1
 71
     2
176
     1
 72
     2
176
     1
 73
     0
176
     1
 90
        0
176
     1
 40
-0.6
176
     1
 41
-30.0
176
     1
 62
     5
 63
     7
421
 16777215
176
     1
 74
     1
176
     1
 91
        4
176
     1
 64
     7
176
     1
 65
   257
176
     1
 75
     1
176
     1
175
     1
176
     1
 42
1.0
176
     1
 92
        8
176
     1
 66
     7
176
     1
 43
1.0
176
     1
 76
     1
176
     1
 77
     6
176
     1
 78
     2
176
     1
 67
     7
176
     1
 79
     5
176
     1
170
     0
176
     1
171
     0
176
     1
290
     0
176
     1
 93
        1
176
     1
 44
50.0
176
     1
173
     0
176
     1
  0
VISUALSTYLE
  5
3A
102
{ACAD_REACTORS
330
2A
102
}
330
2A
100
AcDbVisualStyle
  2
ColorChange
 70
    16
177
     2
291
     1
 71
     2
176
     1
 72
     2
176
     1
 73
     3
176
     1
 90
        0
176
     1
 40
-0.6
176
     1
 41
-30.0
176
     1
 62
     5
 63
     8
421
  8421504
176
     1
 74
     1
176
     1
 91
        4
176
     1
 64
     7
176
     1
 65
   257
176
     1
 75
     1
176
     1
175
     1
176
     1
 42
1.0
176
     1
 92
        8
176
     1
 66
     8
424
  8421504
176
     1
 43
1.0
176
     1
 76
     1
176
     1
 77
     6
176
     1
 78
     2
176
     1
 67
     7
176
     1
 79
     5
176
     1
170
     0
176
     1
171
     0
176
     1
290
     0
176
     1
 93
        1
176
     1
 44
0.0
176
     1
173
     0
176
     1
  0
VISUALSTYLE
  5
34
102
{ACAD_REACTORS
330
2A
102
}
330
2A
100
AcDbVisualStyle
  2
Conceptual
 70
     9
177
     2
291
     0
 71
     3
176
     1
 72
     2
176
     1
 73
     0
176
     1
 90
        0
176
     1
 40
-0.6
176
     1
 41
-30.0
176
     1
 62
     5
 63
     7
421
 16777215
176
     1
 74
     2
176
     1
 91
        2
176
     1
 64
     7
176
     1
 65
   257
176
     1
 75
     1
176
     1
175
     1
176
     1
 42
40.0
176
     1
 92
        8
176
     1
 66
     7
176
     1
 43
1.0
176
     1
 76
     1
176
     1
 77
     6
176
     1
 78
     2
176
     1
 67
     7
176
     1
 79
     3
176
     1
170
     0
176
     1
171
     0
176
     1
290
     0
176
     1
 93
        1
176
     1
 44
0.0
176
     1
173
     0
176
     1
  0
VISUALSTYLE
  5
35
102
{ACAD_REACTORS
330
2A
102
}
330
2A
100
AcDbVisualStyle
  2
Dim
 70
    11
177
     2
291
     1
 71
     2
176
     1
 72
     2
176
     1
 73
     0
176
     1
 90
        0
176
     1
 40
-0.6
176
     1
 41
-30.0
176
     1
 62
     5
 63
     7
421
 16777215
176
     1
 74
     1
176
     1
 91
        4
176
     1
 64
     7
176
     1
 65
   257
176
     1
 75
     1
176
     1
175
     1
176
     1
 42
1.0
176
     1
 92
        8
176
     1
 66
     7
176
     1
 43
1.0
176
     1
 76
     1
176
     1
 77
     6
176
     1
 78
     2
176
     1
 67
     7
176
     1
 79
     5
176
     1
170
     0
176
     1
171
     0
176
     1
290
     0
176
     1
 93
        1
176
     1
 44
-50.0
176
     1
173
     0
176
     1
  0
VISUALSTYLE
  5
39
102
{ACAD_REACTORS
330
2A
102
}
330
2A
100
AcDbVisualStyle
  2
Facepattern
 70
    15
177
     2
291
     1
 71
     2
176
     1
 72
     2
176
     1
 73
     0
176
     1
 90
        0
176
     1
 40
-0.6
176
     1
 41
-30.0
176
     1
 62
     5
 63
     7
421
 16777215
176
     1
 74
     1
176
     1
 91
        4
176
     1
 64
     7
176
     1
 65
   257
176
     1
 75
     1
176
     1
175
     1
176
     1
 42
1.0
176
     1
 92
        8
176
     1
 66
     7
176
     1
 43
1.0
176
     1
 76
     1
176
     1
 77
     6
176
     1
 78
     2
176
     1
 67
     7
176
     1
 79
     5
176
     1
170
     0
176
     1
171
     0
176
     1
290
     0
176
     1
 93
        1
176
     1
 44
0.0
176
     1
173
     0
176
     1
  0
VISUALSTYLE
  5
2B
102
{ACAD_REACTORS
330
2A
102
}
330
2A
100
AcDbVisualStyle
  2
Flat
 70
     0
177
     2
291
     1
 71
     2
176
     1
 72
     1
176
     1
 73
     1
176
     1
 90
        2
176
     1
 40
-0.6
176
     1
 41
30.0
176
     1
 62
     5
 63
     7
421
 16777215
176
     1
 74
     0
176
     1
 91
        4
176
     1
 64
     7
176
     1
 65
   257
176
     1
 75
     1
176
     1
175
     1
176
     1
 42
1.0
176
     1
 92
        8
176
     1
 66
     7
176
     1
 43
1.0
176
     1
 76
     1
176
     1
 77
     6
176
     1
 78
     2
176
     1
 67
     7
176
     1
 79
     5
176
     1
170
     0
176
     1
171
     0
176
     1
290
     0
176
     1
 93
       13
176
     1
 44
0.0
176
     1
173
     0
176
     1
  0
VISUALSTYLE
  5
2C
102
{ACAD_REACTORS
330
2A
102
}
330
2A
100
AcDbVisualStyle
  2
FlatWithEdges
 70
     1
177
     2
291
     1
 71
     2
176
     1
 72
     1
176
     1
 73
     1
176
     1
 90
        2
176
     1
 40
-0.6
176
     1
 41
30.0
176
     1
 62
     5
 63
     7
421
 16777215
176
     1
 74
     1
176
     1
 91
        4
176
     1
 64
     7
176
     1
 65
   257
176
     1
 75
     1
176
     1
175
     1
176
     1
 42
1.0
176
     1
 92
        0
176
     1
 66
   257
176
     1
 43
1.0
176
     1
 76
     1
176
     1
 77
     6
176
     1
 78
     2
176
     1
 67
     7
176
     1
 79
     5
176
     1
170
     0
176
     1
171
     0
176
     1
290
     0
176
     1
 93
       13
176
     1
 44
0.0
176
     1
173
     0
176
     1
  0
VISUALSTYLE
  5
2D
102
{ACAD_REACTORS
330
2A
102
}
330
2A
100
AcDbVisualStyle
  2
Gouraud
 70
     2
177
     2
291
     1
 71
     2
176
     1
 72
     2
176
     1
 73
     1
176
     1
 90
        2
176
     1
 40
-0.6
176
     1
 41
30.0
176
     1
 62
     5
 63
     7
421
 16777215
176
     1
 74
     0
176
     1
 91
        4
176
     1
 64
     7
176
     1
 65
   257
176
     1
 75
     1
176
     1
175
     1
176
     1
 42
1.0
176
     1
 92
        0
176
     1
 66
     7
176
     1
 43
1.0
176
     1
 76
     1
176
     1
 77
     6
176
     1
 78
     2
176
     1
 67
     7
176
     1
 79
     5
176
     1
170
     0
176
     1
171
     0
176
     1
290
     0
176
     1
 93
       13
176
     1
 44
0.0
176
     1
173
     0
176
     1
  0
VISUALSTYLE
  5
2E
102
{ACAD_REACTORS
330
2A
102
}
330
2A
100
AcDbVisualStyle
  2
GouraudWithEdges
 70
     3
177
     2
291
     1
 71
     2
176
     1
 72
     2
176
     1
 73
     1
176
     1
 90
        2
176
     1
 40
-0.6
176
     1
 41
30.0
176
     1
 62
     5
 63
     7
421
 16777215
176
     1
 74
     1
176
     1
 91
        4
176
     1
 64
     7
176
     1
 65
   257
176
     1
 75
     1
176
     1
175
     1
176
     1
 42
1.0
176
     1
 92
        0
176
     1
 66
   257
176
     1
 43
1.0
176
     1
 76
     1
176
     1
 77
     6
176
     1
 78
     2
176
     1
 67
     7
176
     1
 79
     5
176
     1
170
     0
176
     1
171
     0
176
     1
290
     0
176
     1
 93
       13
176
     1
 44
0.0
176
     1
173
     0
176
     1
  0
VISUALSTYLE
  5
38
102
{ACAD_REACTORS
330
2A
102
}
330
2A
100
AcDbVisualStyle
  2
Linepattern
 70
    14
177
     2
291
     1
 71
     2
176
     1
 72
     2
176
     1
 73
     0
176
     1
 90
        0
176
     1
 40
-0.6
176
     1
 41
-30.0
176
     1
 62
     5
 63
     7
421
 16777215
176
     1
 74
     1
176
     1
 91
        4
176
     1
 64
     7
176
     1
 65
   257
176
     1
 75
     7
176
     1
175
     7
176
     1
 42
1.0
176
     1
 92
        8
176
     1
 66
     7
176
     1
 43
1.0
176
     1
 76
     1
176
     1
 77
     6
176
     1
 78
     2
176
     1
 67
     7
176
     1
 79
     5
176
     1
170
     0
176
     1
171
     0
176
     1
290
     0
176
     1
 93
        1
176
     1
 44
0.0
176
     1
173
     0
176
     1
  0
VISUALSTYLE
  5
33
102
{ACAD_REACTORS
330
2A
102
}
330
2A
100
AcDbVisualStyle
  2
Realistic
 70
     8
177
     2
291
     0
 71
     2
176
     1
 72
     2
176
     1
 73
     0
176
     1
 90
        0
176
     1
 40
-0.6
176
     1
 41
-30.0
176
     1
 62
     5
 63
     7
421
 16777215
176
     1
 74
     1
176
     1
 91
        0
176
     1
 64
     7
176
     1
 65
   257
176
     1
 75
     1
176
     1
175
     1
176
     1
 42
1.0
176
     1
 92
        8
176
     1
 66
     8
424
  7895160
176
     1
 43
1.0
176
     1
 76
     1
176
     1
 77
     6
176
     1
 78
     2
176
     1
 67
     7
176
     1
 79
     5
176
     1
170
     0
176
     1
171
     0
176
     1
290
     0
176
     1
 93
       13
176
     1
 44
0.0
176
     1
173
     0
176
     1
  0
VISUALSTYLE
  5
37
102
{ACAD_REACTORS
330
2A
102
}
330
2A
100
AcDbVisualStyle
  2
Thicken
 70
    13
177
     2
291
     1
 71
     2
176
     1
 72
     2
176
     1
 73
     0
176
     1
 90
        0
176
     1
 40
-0.6
176
     1
 41
-30.0
176
     1
 62
     5
 63
     7
421
 16777215
176
     1
 74
     1
176
     1
 91
        4
176
     1
 64
     7
176
     1
 65
   257
176
     1
 75
     1
176
     1
175
     1
176
     1
 42
1.0
176
     1
 92
       12
176
     1
 66
     7
176
     1
 43
1.0
176
     1
 76
     1
176
     1
 77
     6
176
     1
 78
     2
176
     1
 67
     7
176
     1
 79
     5
176
     1
170
     0
176
     1
171
     0
176
     1
290
     0
176
     1
 93
        1
176
     1
 44
0.0
176
     1
173
     0
176
     1
  0
ENDSEC
  0
EOF
