  0
SECTION
  2
HEADER
  9
$ACADVER
  1
AC1024
  9
$ACADMAINTVER
 70
     6
  9
$DWGCODEPAGE
  3
UNDEFINED
  9
$INSBASE
 10
0.0
 20
0.0
 30
0.0
  9
$EXTMIN
 10
1.000000000000000E+20
 20
1.000000000000000E+20
 30
1.000000000000000E+20
  9
$EXTMAX
 10
-1.000000000000000E+20
 20
-1.000000000000000E+20
 30
-1.000000000000000E+20
  9
$LIMMIN
 10
0.0
 20
0.0
  9
$LIMMAX
 10
12.0
 20
9.0
  9
$ORTHOMODE
 70
     0
  9
$REGENMODE
 70
     1
  9
$FILLMODE
 70
     1
  9
$QTEXTMODE
 70
     0
  9
$MIRRTEXT
 70
     1
  9
$LTSCALE
 40
1.0
  9
$ATTMODE
 70
     1
  9
$TEXTSIZE
 40
0.2
  9
$TRACEWID
 40
0.05
  9
$TEXTSTYLE
  7
Standard
  9
$CLAYER
  8
0
  9
$CELTYPE
  6
ByLayer
  9
$CECOLOR
 62
   256
  9
$CELTSCALE
 40
1.0
  9
$DISPSILH
 70
     0
  9
$DIMSCALE
 40
1.0
  9
$DIMASZ
 40
0.18
  9
$DIMEXO
 40
0.0625
  9
$DIMDLI
 40
0.38
  9
$DIMRND
 40
0.0
  9
$DIMDLE
 40
0.0
  9
$DIMEXE
 40
0.18
  9
$DIMTP
 40
0.0
  9
$DIMTM
 40
0.0
  9
$DIMTXT
 40
0.18
  9
$DIMCEN
 40
0.09
  9
$DIMTSZ
 40
0.0
  9
$DIMTOL
 70
     0
  9
$DIMLIM
 70
     0
  9
$DIMTIH
 70
     1
  9
$DIMTOH
 70
     1
  9
$DIMSE1
 70
     0
  9
$DIMSE2
 70
     0
  9
$DIMTAD
 70
     0
  9
$DIMZIN
 70
     0
  9
$DIMBLK
  1

  9
$DIMASO
 70
     1
  9
$DIMSHO
 70
     1
  9
$DIMPOST
  1

  9
$DIMAPOST
  1

  9
$DIMALT
 70
     0
  9
$DIMALTD
 70
     2
  9
$DIMALTF
 40
25.4
  9
$DIMLFAC
 40
1.0
  9
$DIMTOFL
 70
     0
  9
$DIMTVP
 40
0.0
  9
$DIMTIX
 70
     0
  9
$DIMSOXD
 70
     0
  9
$DIMSAH
 70
     0
  9
$DIMBLK1
  1

  9
$DIMBLK2
  1

  9
$DIMSTYLE
  2
Standard
  9
$DIMCLRD
 70
     0
  9
$DIMCLRE
 70
     0
  9
$DIMCLRT
 70
     0
  9
$DIMTFAC
 40
1.0
  9
$DIMGAP
 40
0.09
  9
$DIMJUST
 70
     0
  9
$DIMSD1
 70
     0
  9
$DIMSD2
 70
     0
  9
$DIMTOLJ
 70
     1
  9
$DIMTZIN
 70
     0
  9
$DIMALTZ
 70
     0
  9
$DIMALTTZ
 70
     0
  9
$DIMUPT
 70
     0
  9
$DIMDEC
 70
     4
  9
$DIMTDEC
 70
     4
  9
$DIMALTU
 70
     2
  9
$DIMALTTD
 70
     2
  9
$DIMTXSTY
  7
Standard
  9
$DIMAUNIT
 70
     0
  9
$DIMADEC
 70
     0
  9
$DIMALTRND
 40
0.0
  9
$DIMAZIN
 70
     0
  9
$DIMDSEP
 70
    46
  9
$DIMATFIT
 70
     3
  9
$DIMFRAC
 70
     0
  9
$DIMLDRBLK
  1

  9
$DIMLUNIT
 70
     2
  9
$DIMLWD
 70
    -2
  9
$DIMLWE
 70
    -2
  9
$DIMTMOVE
 70
     0
  9
$DIMFXL
 40
1.0
  9
$DIMFXLON
 70
     0
  9
$DIMJOGANG
 40
0.7853981633974483
  9
$DIMTFILL
 70
     0
  9
$DIMTFILLCLR
 70
     0
  9
$DIMARCSYM
 70
     0
  9
$DIMLTYPE
  6

  9
$DIMLTEX1
  6

  9
$DIMLTEX2
  6

  9
$DIMTXTDIRECTION
 70
     0
  9
$LUNITS
 70
     2
  9
$LUPREC
 70
     4
  9
$SKETCHINC
 40
0.1
  9
$FILLETRAD
 40
0.5
  9
$AUNITS
 70
     0
  9
$AUPREC
 70
     0
  9
$MENU
  1
.
  9
$ELEVATION
 40
0.0
  9
$PELEVATION
 40
0.0
  9
$THICKNESS
 40
0.0
  9
$LIMCHECK
 70
     0
  9
$CHAMFERA
 40
0.5
  9
$CHAMFERB
 40
0.5
  9
$CHAMFERC
 40
1.0
  9
$CHAMFERD
 40
0.0
  9
$SKPOLY
 70
     0
  9
$TDCREATE
 40
2458263.583078704
  9
$TDUCREATE
 40
2458263.208078704
  9
$TDUPDATE
 40
2458263.583078704
  9
$TDUUPDATE
 40
2458263.208078704
  9
$TDINDWG
 40
0.0000000116
  9
$TDUSRTIMER
 40
0.0000000116
  9
$USRTIMER
 70
     1
  9
$ANGBASE
 50
0.0
  9
$ANGDIR
 70
     0
  9
$PDMODE
 70
     0
  9
$PDSIZE
 40
0.0
  9
$PLINEWID
 40
0.0
  9
$SPLFRAME
 70
     0
  9
$SPLINETYPE
 70
     6
  9
$SPLINESEGS
 70
     8
  9
$HANDSEED
  5
D3
  9
$SURFTAB1
 70
     6
  9
$SURFTAB2
 70
     6
  9
$SURFTYPE
 70
     6
  9
$SURFU
 70
     6
  9
$SURFV
 70
     6
  9
$UCSBASE
  2

  9
$UCSNAME
  2

  9
$UCSORG
 10
0.0
 20
0.0
 30
0.0
  9
$UCSXDIR
 10
1.0
 20
0.0
 30
0.0
  9
$UCSYDIR
 10
0.0
 20
1.0
 30
0.0
  9
$UCSORTHOREF
  2

  9
$UCSORTHOVIEW
 70
     0
  9
$UCSORGTOP
 10
0.0
 20
0.0
 30
0.0
  9
$UCSORGBOTTOM
 10
0.0
 20
0.0
 30
0.0
  9
$UCSORGLEFT
 10
0.0
 20
0.0
 30
0.0
  9
$UCSORGRIGHT
 10
0.0
 20
0.0
 30
0.0
  9
$UCSORGFRONT
 10
0.0
 20
0.0
 30
0.0
  9
$UCSORGBACK
 10
0.0
 20
0.0
 30
0.0
  9
$PUCSBASE
  2

  9
$PUCSNAME
  2

  9
$PUCSORG
 10
0.0
 20
0.0
 30
0.0
  9
$PUCSXDIR
 10
1.0
 20
0.0
 30
0.0
  9
$PUCSYDIR
 10
0.0
 20
1.0
 30
0.0
  9
$PUCSORTHOREF
  2

  9
$PUCSORTHOVIEW
 70
     0
  9
$PUCSORGTOP
 10
0.0
 20
0.0
 30
0.0
  9
$PUCSORGBOTTOM
 10
0.0
 20
0.0
 30
0.0
  9
$PUCSORGLEFT
 10
0.0
 20
0.0
 30
0.0
  9
$PUCSORGRIGHT
 10
0.0
 20
0.0
 30
0.0
  9
$PUCSORGFRONT
 10
0.0
 20
0.0
 30
0.0
  9
$PUCSORGBACK
 10
0.0
 20
0.0
 30
0.0
  9
$USERI1
 70
     0
  9
$USERI2
 70
     0
  9
$USERI3
 70
     0
  9
$USERI4
 70
     0
  9
$USERI5
 70
     0
  9
$USERR1
 40
0.0
  9
$USERR2
 40
0.0
  9
$USERR3
 40
0.0
  9
$USERR4
 40
0.0
  9
$USERR5
 40
0.0
  9
$WORLDVIEW
 70
     1
  9
$SHADEDGE
 70
     3
  9
$SHADEDIF
 70
    70
  9
$TILEMODE
 70
     1
  9
$MAXACTVP
 70
    64
  9
$PINSBASE
 10
0.0
 20
0.0
 30
0.0
  9
$PLIMCHECK
 70
     0
  9
$PEXTMIN
 10
1.000000000000000E+20
 20
1.000000000000000E+20
 30
1.000000000000000E+20
  9
$PEXTMAX
 10
-1.000000000000000E+20
 20
-1.000000000000000E+20
 30
-1.000000000000000E+20
  9
$PLIMMIN
 10
0.0
 20
0.0
  9
$PLIMMAX
 10
12.0
 20
9.0
  9
$UNITMODE
 70
     0
  9
$VISRETAIN
 70
     1
  9
$PLINEGEN
 70
     0
  9
$PSLTSCALE
 70
     1
  9
$TREEDEPTH
 70
  3020
  9
$CMLSTYLE
  2
Standard
  9
$CMLJUST
 70
     0
  9
$CMLSCALE
 40
1.0
  9
$PROXYGRAPHICS
 70
     1
  9
$MEASUREMENT
 70
     0
  9
$CELWEIGHT
370
    -1
  9
$ENDCAPS
280
     0
  9
$JOINSTYLE
280
     0
  9
$LWDISPLAY
290
     1
  9
$INSUNITS
 70
     1
  9
$HYPERLINKBASE
  1

  9
$STYLESHEET
  1

  9
$XEDIT
290
     1
  9
$CEPSNTYPE
380
     0
  9
$PSTYLEMODE
290
     1
  9
$FINGERPRINTGUID
  2
{0F4C8562-B6AA-D9F1-A86D-3278F6197727}
  9
$VERSIONGUID
  2
{FAEB1C32-E019-11D5-929B-00C0DF256EC4}
  9
$EXTNAMES
290
     1
  9
$PSVPSCALE
 40
0.0
  9
$OLESTARTUP
290
     0
  9
$SORTENTS
280
   127
  9
$INDEXCTL
280
     0
  9
$HIDETEXT
280
     1
  9
$XCLIPFRAME
280
     2
  9
$HALOGAP
280
     0
  9
$OBSCOLOR
 70
   257
  9
$OBSLTYPE
280
     0
  9
$INTERSECTIONDISPLAY
280
     0
  9
$INTERSECTIONCOLOR
 70
   257
  9
$DIMASSOC
280
     2
  9
$PROJECTNAME
  1

  9
$CAMERADISPLAY
290
     0
  9
$LENSLENGTH
 40
50.0
  9
$CAMERAHEIGHT
 40
0.0
  9
$STEPSPERSEC
 40
2.0
  9
$STEPSIZE
 40
6.0
  9
$3DDWFPREC
 40
2.0
  9
$PSOLWIDTH
 40
0.25
  9
$PSOLHEIGHT
 40
4.0
  9
$LOFTANG1
 40
1.570796326794897
  9
$LOFTANG2
 40
1.570796326794897
  9
$LOFTMAG1
 40
0.0
  9
$LOFTMAG2
 40
0.0
  9
$LOFTPARAM
 70
     7
  9
$LOFTNORMALS
280
     1
  9
$LATITUDE
 40
37.795
  9
$LONGITUDE
 40
-122.394
  9
$NORTHDIRECTION
 40
0.0
  9
$TIMEZONE
 70
 -8000
  9
$LIGHTGLYPHDISPLAY
280
     1
  9
$TILEMODELIGHTSYNCH
280
     1
  9
$CMATERIAL
347
3C
  9
$SOLIDHIST
280
     1
  9
$SHOWHIST
280
     1
  9
$DWFFRAME
280
     2
  9
$DGNFRAME
280
     2
  9
$REALWORLDSCALE
290
     1
  9
$INTERFERECOLOR
 62
   256
  9
$CSHADOW
280
     0
  9
$SHADOWPLANELOCATION
 40
0.0
  0
ENDSEC
  0
SECTION
  2
CLASSES
  0
CLASS
  1
ACDBDICTIONARYWDFLT
  2
AcDbDictionaryWithDefault
  3
ObjectDBX Classes
 90
        0
 91
        4
280
     0
281
     0
  0
CLASS
  1
VISUALSTYLE
  2
AcDbVisualStyle
  3
ObjectDBX Classes
 90
     4095
 91
        4
280
     0
281
     0
  0
CLASS
  1
MATERIAL
  2
AcDbMaterial
  3
ObjectDBX Classes
 90
     1153
 91
        4
280
     0
281
     0
  0
CLASS
  1
SUN
  2
AcDbSun
  3
SCENEOE
 90
     1024
 91
        4
280
     0
281
     0
  0
ENDSEC
  0
SECTION
  2
TABLES
  0
TABLE
  2
VPORT
  5
8
330
0
100
AcDbSymbolTable
 70
     1
  0
VPORT
  5
29
330
8
100
AcDbSymbolTableRecord
100
AcDbViewportTableRecord
  2
*Active
 70
     0
 10
0.0
 20
0.0
 11
1.0
 21
1.0
 12
0.0
 22
0.0
 13
0.0
 23
0.0
 14
0.5
 24
0.5
 15
0.5
 25
0.5
 16
0.0
 26
0.0
 36
1.0
 17
105.0007777515277
 27
-148.5000416295416
 37
0.0
 40
297.0000832590831
 41
0.7070757462376333
 42
50.0
 43
0.0
 44
0.0
 50
0.0
 51
0.0
 71
     0
 72
   100
 73
     1
 74
     3
 75
     0
 76
     0
 77
     0
 78
     0
281
     0
 65
     1
110
0.0
120
0.0
130
0.0
111
1.0
121
0.0
131
0.0
112
0.0
122
1.0
132
0.0
 79
     0
146
0.0
 60
     3
 61
     5
292
     1
282
     1
141
0.0
142
0.0
 63
   250
361
3F
  0
ENDTAB
  0
TABLE
  2
LTYPE
  5
5
330
0
100
AcDbSymbolTable
 70
     2
  0
LTYPE
  5
14
330
5
100
AcDbSymbolTableRecord
100
AcDbLinetypeTableRecord
  2
ByBlock
 70
     0
  3

 72
    65
 73
     0
 40
0.0
  0
LTYPE
  5
15
330
5
100
AcDbSymbolTableRecord
100
AcDbLinetypeTableRecord
  2
ByLayer
 70
     0
  3

 72
    65
 73
     0
 40
0.0
  0
LTYPE
  5
16
330
5
100
AcDbSymbolTableRecord
100
AcDbLinetypeTableRecord
  2
Continuous
 70
     0
  3
Solid line
 72
    65
 73
     0
 40
0.0
  0
LTYPE
  5
CF
330
5
100
AcDbSymbolTableRecord
100
AcDbLinetypeTableRecord
  2
AI-Linetype-1
 70
     0
  3
Adobe Illustrator Linetype No. 1
 72
    65
 73
     2
 40
1.411111110758333
 49
0.7055555553791667
 74
     0
 49
-0.7055555553791667
 74
     0
  0
ENDTAB
  0
TABLE
  2
LAYER
  5
2
330
0
100
AcDbSymbolTable
 70
     2
  0
LAYER
  5
10
330
2
100
AcDbSymbolTableRecord
100
AcDbLayerTableRecord
  2
0
 70
     0
 62
     7
  6
Continuous
370
    -3
390
F
347
3E
  0
LAYER
  5
40
330
2
100
AcDbSymbolTableRecord
100
AcDbLayerTableRecord
  2
_U+30EC_U+30A4_U+30E4_U+30FC 1
 70
     0
 62
     7
  6
Continuous
370
    -3
390
F
347
3E
  0
ENDTAB
  0
TABLE
  2
STYLE
  5
3
330
0
100
AcDbSymbolTable
 70
     1
  0
STYLE
  5
11
330
3
100
AcDbSymbolTableRecord
100
AcDbTextStyleTableRecord
  2
Standard
 70
     0
 40
0.0
 41
1.0
 50
0.0
 71
     0
 42
0.2
  3
txt
  4

  0
ENDTAB
  0
TABLE
  2
VIEW
  5
6
330
0
100
AcDbSymbolTable
 70
     0
  0
ENDTAB
  0
TABLE
  2
UCS
  5
7
330
0
100
AcDbSymbolTable
 70
     0
  0
ENDTAB
  0
TABLE
  2
APPID
  5
9
330
0
100
AcDbSymbolTable
 70
     1
  0
APPID
  5
12
330
9
100
AcDbSymbolTableRecord
100
AcDbRegAppTableRecord
  2
ACAD
 70
     0
  0
ENDTAB
  0
TABLE
  2
DIMSTYLE
  5
A
330
0
100
AcDbSymbolTable
 70
     1
100
AcDbDimStyleTable
  0
DIMSTYLE
105
27
330
A
100
AcDbSymbolTableRecord
100
AcDbDimStyleTableRecord
  2
Standard
 70
     0
178
     0
340
11
  0
ENDTAB
  0
TABLE
  2
BLOCK_RECORD
  5
1
330
0
100
AcDbSymbolTable
 70
     7
  0
BLOCK_RECORD
  5
1F
330
1
100
AcDbSymbolTableRecord
100
AcDbBlockTableRecord
  2
*Model_Space
340
22
 70
     0
280
     1
281
     0
  0
BLOCK_RECORD
  5
1B
330
1
100
AcDbSymbolTableRecord
100
AcDbBlockTableRecord
  2
*Paper_Space
340
1E
 70
     0
280
     1
281
     0
  0
BLOCK_RECORD
  5
23
330
1
100
AcDbSymbolTableRecord
100
AcDbBlockTableRecord
  2
*Paper_Space0
340
26
 70
     0
280
     1
281
     0
  0
BLOCK_RECORD
  5
5E
330
1
100
AcDbSymbolTableRecord
100
AcDbBlockTableRecord
  2
block 2
340
0
102
{BLKREFS
331
5F
102
}
 70
     0
280
     1
281
     0
  0
BLOCK_RECORD
  5
73
330
1
100
AcDbSymbolTableRecord
100
AcDbBlockTableRecord
  2
block 3
340
0
102
{BLKREFS
331
74
102
}
 70
     0
280
     1
281
     0
  0
BLOCK_RECORD
  5
83
330
1
100
AcDbSymbolTableRecord
100
AcDbBlockTableRecord
  2
block 4
340
0
102
{BLKREFS
331
84
102
}
 70
     0
280
     1
281
     0
  0
BLOCK_RECORD
  5
95
330
1
100
AcDbSymbolTableRecord
100
AcDbBlockTableRecord
  2
block 5
340
0
102
{BLKREFS
331
96
102
}
 70
     0
280
     1
281
     0
  0
BLOCK_RECORD
  5
AA
330
1
100
AcDbSymbolTableRecord
100
AcDbBlockTableRecord
  2
block 6
340
0
102
{BLKREFS
331
AB
102
}
 70
     0
280
     1
281
     0
  0
BLOCK_RECORD
  5
BF
330
1
100
AcDbSymbolTableRecord
100
AcDbBlockTableRecord
  2
block 7
340
0
102
{BLKREFS
331
C0
102
}
 70
     0
280
     1
281
     0
  0
ENDTAB
  0
ENDSEC
  0
SECTION
  2
BLOCKS
  0
BLOCK
  5
20
330
1F
100
AcDbEntity
  8
0
100
AcDbBlockBegin
  2
*Model_Space
 70
     0
 10
0.0
 20
0.0
 30
0.0
  3
*Model_Space
  1

  0
ENDBLK
  5
21
330
1F
100
AcDbEntity
  8
0
100
AcDbBlockEnd
  0
BLOCK
  5
1C
330
1B
100
AcDbEntity
 67
     1
  8
0
100
AcDbBlockBegin
  2
*Paper_Space
 70
     0
 10
0.0
 20
0.0
 30
0.0
  3
*Paper_Space
  1

  0
ENDBLK
  5
1D
330
1B
100
AcDbEntity
 67
     1
  8
0
100
AcDbBlockEnd
  0
BLOCK
  5
24
330
23
100
AcDbEntity
  8
0
100
AcDbBlockBegin
  2
*Paper_Space0
 70
     0
 10
0.0
 20
0.0
 30
0.0
  3
*Paper_Space0
  1

  0
ENDBLK
  5
25
330
23
100
AcDbEntity
  8
0
100
AcDbBlockEnd
  0
BLOCK
  5
60
330
5E
100
AcDbEntity
  8
0
100
AcDbBlockBegin
  2
block 2
 70
     0
 10
0.0
 20
0.0
 30
0.0
  3
block 2
  1

  0
SPLINE
  5
62
330
5E
100
AcDbEntity
  8
_U+30EC_U+30A4_U+30E4_U+30FC 1
370
     0
100
AcDbSpline
210
0.0
220
0.0
230
1.0
 70
    11
 71
     3
 72
    26
 73
    22
 74
     0
 42
0.0000000001
 43
0.0000000001
 12
1.0
 22
0.0
 32
0.0
 13
1.0
 23
0.0
 33
0.0
 40
0.0
 40
0.0
 40
0.0
 40
0.0
 40
1.0
 40
1.0
 40
1.0
 40
2.0
 40
2.0
 40
2.0
 40
3.0
 40
3.0
 40
3.0
 40
4.0
 40
4.0
 40
4.0
 40
5.0
 40
5.0
 40
5.0
 40
6.0
 40
6.0
 40
6.0
 40
7.0
 40
7.0
 40
7.0
 40
7.0
 10
90.7200439226325
 20
-160.01882862753
 30
0.0
 10
90.7200439226325
 20
-160.01882862753
 30
0.0
 10
90.7200439226325
 20
-158.9146755245075
 30
0.0
 10
90.7200439226325
 20
-158.9146755245075
 30
0.0
 10
90.7200439226325
 20
-158.9146755245075
 30
0.0
 10
90.39000377514556
 20
-158.9146755245075
 30
0.0
 10
90.39000377514556
 20
-158.9146755245075
 30
0.0
 10
90.39000377514556
 20
-158.9146755245075
 30
0.0
 10
90.39000377514556
 20
-158.7665364186417
 30
0.0
 10
90.39000377514556
 20
-158.7665364186417
 30
0.0
 10
90.72211097992364
 20
-158.7517225080551
 30
0.0
 10
90.76861976897452
 20
-158.5887694916028
 30
0.0
 10
90.79824759014767
 20
-158.4743923214925
 30
0.0
 10
90.79824759014767
 20
-158.4743923214925
 30
0.0
 10
90.94431963872226
 20
-158.4743923214925
 30
0.0
 10
90.94431963872226
 20
-158.4743923214925
 30
0.0
 10
90.94431963872226
 20
-158.4743923214925
 30
0.0
 10
90.94431963872226
 20
-160.01882862753
 30
0.0
 10
90.94431963872226
 20
-160.01882862753
 30
0.0
 10
90.94431963872226
 20
-160.01882862753
 30
0.0
 10
90.7200439226325
 20
-160.01882862753
 30
0.0
 10
90.7200439226325
 20
-160.01882862753
 30
0.0
  0
HATCH
  5
63
330
5E
100
AcDbEntity
  8
_U+30EC_U+30A4_U+30E4_U+30FC 1
 62
   179
420
  2234388
100
AcDbHatch
 10
0.0
 20
0.0
 30
0.0
210
0.0
220
0.0
230
1.0
  2
SOLID
 70
     1
 71
     0
 91
        1
 92
        1
 93
        1
 72
     4
 94
        3
 73
     0
 74
     1
 95
       26
 96
       22
 40
0.0
 40
0.0
 40
0.0
 40
0.0
 40
1.0
 40
1.0
 40
1.0
 40
2.0
 40
2.0
 40
2.0
 40
3.0
 40
3.0
 40
3.0
 40
4.0
 40
4.0
 40
4.0
 40
5.0
 40
5.0
 40
5.0
 40
6.0
 40
6.0
 40
6.0
 40
7.0
 40
7.0
 40
7.0
 40
7.0
 10
90.7200439226325
 20
-160.01882862753
 10
90.7200439226325
 20
-160.01882862753
 10
90.7200439226325
 20
-158.9146755245075
 10
90.7200439226325
 20
-158.9146755245075
 10
90.7200439226325
 20
-158.9146755245075
 10
90.39000377514556
 20
-158.9146755245075
 10
90.39000377514556
 20
-158.9146755245075
 10
90.39000377514556
 20
-158.9146755245075
 10
90.39000377514556
 20
-158.7665364186417
 10
90.39000377514556
 20
-158.7665364186417
 10
90.72211097992364
 20
-158.7517225080551
 10
90.76861976897452
 20
-158.5887694916028
 10
90.79824759014767
 20
-158.4743923214925
 10
90.79824759014767
 20
-158.4743923214925
 10
90.94431963872226
 20
-158.4743923214925
 10
90.94431963872226
 20
-158.4743923214925
 10
90.94431963872226
 20
-158.4743923214925
 10
90.94431963872226
 20
-160.01882862753
 10
90.94431963872226
 20
-160.01882862753
 10
90.94431963872226
 20
-160.01882862753
 10
90.7200439226325
 20
-160.01882862753
 10
90.7200439226325
 20
-160.01882862753
 97
        0
 97
        0
 75
     2
 76
     1
 98
        0
  0
SPLINE
  5
64
330
5E
100
AcDbEntity
  8
_U+30EC_U+30A4_U+30E4_U+30FC 1
370
     0
100
AcDbSpline
210
0.0
220
0.0
230
1.0
 70
    11
 71
     3
 72
    44
 73
    40
 74
     0
 42
0.0000000001
 43
0.0000000001
 12
1.0
 22
0.0
 32
0.0
 13
1.0
 23
0.0
 33
0.0
 40
0.0
 40
0.0
 40
0.0
 40
0.0
 40
1.0
 40
1.0
 40
1.0
 40
2.0
 40
2.0
 40
2.0
 40
3.0
 40
3.0
 40
3.0
 40
4.0
 40
4.0
 40
4.0
 40
5.0
 40
5.0
 40
5.0
 40
6.0
 40
6.0
 40
6.0
 40
7.0
 40
7.0
 40
7.0
 40
8.0
 40
8.0
 40
8.0
 40
9.0
 40
9.0
 40
9.0
 40
10.0
 40
10.0
 40
10.0
 40
11.0
 40
11.0
 40
11.0
 40
12.0
 40
12.0
 40
12.0
 40
13.0
 40
13.0
 40
13.0
 40
13.0
 10
92.45947263313514
 20
-160.01882862753
 30
0.0
 10
92.43639049338397
 20
-159.9743868957703
 30
0.0
 10
92.41503090137542
 20
-159.921676934846
 30
0.0
 10
92.41296384408426
 20
-159.6908555373342
 30
0.0
 10
92.40882972950196
 20
-159.4476317960756
 30
0.0
 10
92.34957408715566
 20
-159.377696357725
 30
0.0
 10
92.17180716011677
 20
-159.377696357725
 30
0.0
 10
92.17180716011677
 20
-159.377696357725
 30
0.0
 10
91.76356334511468
 20
-159.377696357725
 30
0.0
 10
91.76356334511468
 20
-159.377696357725
 30
0.0
 10
91.76356334511468
 20
-159.377696357725
 30
0.0
 10
91.76356334511468
 20
-160.01882862753
 30
0.0
 10
91.76356334511468
 20
-160.01882862753
 30
0.0
 10
91.76356334511468
 20
-160.01882862753
 30
0.0
 10
91.52860783302063
 20
-160.01882862753
 30
0.0
 10
91.52860783302063
 20
-160.01882862753
 30
0.0
 10
91.52860783302063
 20
-160.01882862753
 30
0.0
 10
91.52860783302063
 20
-158.4743923214925
 30
0.0
 10
91.52860783302063
 20
-158.4743923214925
 30
0.0
 10
91.52860783302063
 20
-158.4743923214925
 30
0.0
 10
92.20350203858108
 20
-158.4743923214925
 30
0.0
 10
92.20350203858108
 20
-158.4743923214925
 30
0.0
 10
92.51046004631684
 20
-158.4743923214925
 30
0.0
 10
92.67754717735146
 20
-158.645958076658
 30
0.0
 10
92.67754717735146
 20
-158.901928671212
 30
0.0
 10
92.67754717735146
 20
-158.9525715748452
 30
0.0
 10
92.66893443863833
 20
-159.0352538664912
 30
0.0
 10
92.6244927068786
 20
-159.1155245912975
 30
0.0
 10
92.56523706453231
 20
-159.2192219654035
 30
0.0
 10
92.49978025031255
 20
-159.2381699905724
 30
0.0
 10
92.43845755067511
 20
-159.2550509584501
 30
0.0
 10
92.57591686053658
 20
-159.2974256329187
 30
0.0
 10
92.64344073204748
 20
-159.3460014792607
 30
0.0
 10
92.6479193561783
 20
-159.6612277161611
 30
0.0
 10
92.6520534707606
 20
-159.9320122213017
 30
0.0
 10
92.6878824638072
 20
-159.963707099766
 30
0.0
 10
92.75575084486663
 20
-160.01882862753
 30
0.0
 10
92.75575084486663
 20
-160.01882862753
 30
0.0
 10
92.45947263313514
 20
-160.01882862753
 30
0.0
 10
92.45947263313514
 20
-160.01882862753
 30
0.0
  0
SPLINE
  5
65
330
5E
100
AcDbEntity
  8
_U+30EC_U+30A4_U+30E4_U+30FC 1
370
     0
100
AcDbSpline
210
0.0
220
0.0
230
1.0
 70
    11
 71
     3
 72
    20
 73
    16
 74
     0
 42
0.0000000001
 43
0.0000000001
 12
1.0
 22
0.0
 32
0.0
 13
1.0
 23
0.0
 33
0.0
 40
0.0
 40
0.0
 40
0.0
 40
0.0
 40
1.0
 40
1.0
 40
1.0
 40
2.0
 40
2.0
 40
2.0
 40
3.0
 40
3.0
 40
3.0
 40
4.0
 40
4.0
 40
4.0
 40
5.0
 40
5.0
 40
5.0
 40
5.0
 10
92.2079806627119
 20
-158.6859211842869
 30
0.0
 10
92.2079806627119
 20
-158.6859211842869
 30
0.0
 10
91.76356334511468
 20
-158.6859211842869
 30
0.0
 10
91.76356334511468
 20
-158.6859211842869
 30
0.0
 10
91.76356334511468
 20
-158.6859211842869
 30
0.0
 10
91.76356334511468
 20
-159.1661674949307
 30
0.0
 10
91.76356334511468
 20
-159.1661674949307
 30
0.0
 10
91.76356334511468
 20
-159.1661674949307
 30
0.0
 10
92.20556909587222
 20
-159.1661674949307
 30
0.0
 10
92.20556909587222
 20
-159.1661674949307
 30
0.0
 10
92.30513235539594
 20
-159.1661674949307
 30
0.0
 10
92.44052460796627
 20
-159.0900308847067
 30
0.0
 10
92.44052460796627
 20
-158.9188096390897
 30
0.0
 10
92.44052460796627
 20
-158.8406059715746
 30
0.0
 10
92.40676267221082
 20
-158.6859211842869
 30
0.0
 10
92.2079806627119
 20
-158.6859211842869
 30
0.0
  0
HATCH
  5
66
330
5E
100
AcDbEntity
  8
_U+30EC_U+30A4_U+30E4_U+30FC 1
 62
   179
420
  2234388
100
AcDbHatch
 10
0.0
 20
0.0
 30
0.0
210
0.0
220
0.0
230
1.0
  2
SOLID
 70
     1
 71
     0
 91
        2
 92
        1
 93
        1
 72
     4
 94
        3
 73
     0
 74
     1
 95
       44
 96
       40
 40
0.0
 40
0.0
 40
0.0
 40
0.0
 40
1.0
 40
1.0
 40
1.0
 40
2.0
 40
2.0
 40
2.0
 40
3.0
 40
3.0
 40
3.0
 40
4.0
 40
4.0
 40
4.0
 40
5.0
 40
5.0
 40
5.0
 40
6.0
 40
6.0
 40
6.0
 40
7.0
 40
7.0
 40
7.0
 40
8.0
 40
8.0
 40
8.0
 40
9.0
 40
9.0
 40
9.0
 40
10.0
 40
10.0
 40
10.0
 40
11.0
 40
11.0
 40
11.0
 40
12.0
 40
12.0
 40
12.0
 40
13.0
 40
13.0
 40
13.0
 40
13.0
 10
92.45947263313514
 20
-160.01882862753
 10
92.43639049338397
 20
-159.9743868957703
 10
92.41503090137542
 20
-159.921676934846
 10
92.41296384408426
 20
-159.6908555373342
 10
92.40882972950196
 20
-159.4476317960756
 10
92.34957408715566
 20
-159.377696357725
 10
92.17180716011677
 20
-159.377696357725
 10
92.17180716011677
 20
-159.377696357725
 10
91.76356334511468
 20
-159.377696357725
 10
91.76356334511468
 20
-159.377696357725
 10
91.76356334511468
 20
-159.377696357725
 10
91.76356334511468
 20
-160.01882862753
 10
91.76356334511468
 20
-160.01882862753
 10
91.76356334511468
 20
-160.01882862753
 10
91.52860783302063
 20
-160.01882862753
 10
91.52860783302063
 20
-160.01882862753
 10
91.52860783302063
 20
-160.01882862753
 10
91.52860783302063
 20
-158.4743923214925
 10
91.52860783302063
 20
-158.4743923214925
 10
91.52860783302063
 20
-158.4743923214925
 10
92.20350203858108
 20
-158.4743923214925
 10
92.20350203858108
 20
-158.4743923214925
 10
92.51046004631684
 20
-158.4743923214925
 10
92.67754717735146
 20
-158.645958076658
 10
92.67754717735146
 20
-158.901928671212
 10
92.67754717735146
 20
-158.9525715748452
 10
92.66893443863833
 20
-159.0352538664912
 10
92.6244927068786
 20
-159.1155245912975
 10
92.56523706453231
 20
-159.2192219654035
 10
92.49978025031255
 20
-159.2381699905724
 10
92.43845755067511
 20
-159.2550509584501
 10
92.57591686053658
 20
-159.2974256329187
 10
92.64344073204748
 20
-159.3460014792607
 10
92.6479193561783
 20
-159.6612277161611
 10
92.6520534707606
 20
-159.9320122213017
 10
92.6878824638072
 20
-159.963707099766
 10
92.75575084486663
 20
-160.01882862753
 10
92.75575084486663
 20
-160.01882862753
 10
92.45947263313514
 20
-160.01882862753
 10
92.45947263313514
 20
-160.01882862753
 97
        0
 97
        0
 92
        1
 93
        1
 72
     4
 94
        3
 73
     0
 74
     1
 95
       20
 96
       16
 40
0.0
 40
0.0
 40
0.0
 40
0.0
 40
1.0
 40
1.0
 40
1.0
 40
2.0
 40
2.0
 40
2.0
 40
3.0
 40
3.0
 40
3.0
 40
4.0
 40
4.0
 40
4.0
 40
5.0
 40
5.0
 40
5.0
 40
5.0
 10
92.2079806627119
 20
-158.6859211842869
 10
92.2079806627119
 20
-158.6859211842869
 10
91.76356334511468
 20
-158.6859211842869
 10
91.76356334511468
 20
-158.6859211842869
 10
91.76356334511468
 20
-158.6859211842869
 10
91.76356334511468
 20
-159.1661674949307
 10
91.76356334511468
 20
-159.1661674949307
 10
91.76356334511468
 20
-159.1661674949307
 10
92.20556909587222
 20
-159.1661674949307
 10
92.20556909587222
 20
-159.1661674949307
 10
92.30513235539594
 20
-159.1661674949307
 10
92.44052460796627
 20
-159.0900308847067
 10
92.44052460796627
 20
-158.9188096390897
 10
92.44052460796627
 20
-158.8406059715746
 10
92.40676267221082
 20
-158.6859211842869
 10
92.2079806627119
 20
-158.6859211842869
 97
        0
 97
        0
 75
     2
 76
     1
 98
        0
  0
ENDBLK
  5
61
330
5E
100
AcDbEntity
  8
0
100
AcDbBlockEnd
  0
BLOCK
  5
75
330
73
100
AcDbEntity
  8
0
100
AcDbBlockBegin
  2
block 3
 70
     0
 10
0.0
 20
0.0
 30
0.0
  3
block 3
  1

  0
SPLINE
  5
77
330
73
100
AcDbEntity
  8
_U+30EC_U+30A4_U+30E4_U+30FC 1
370
     0
100
AcDbSpline
210
0.0
220
0.0
230
1.0
 70
    11
 71
     3
 72
    44
 73
    40
 74
     0
 42
0.0000000001
 43
0.0000000001
 12
1.0
 22
0.0
 32
0.0
 13
1.0
 23
0.0
 33
0.0
 40
0.0
 40
0.0
 40
0.0
 40
0.0
 40
1.0
 40
1.0
 40
1.0
 40
2.0
 40
2.0
 40
2.0
 40
3.0
 40
3.0
 40
3.0
 40
4.0
 40
4.0
 40
4.0
 40
5.0
 40
5.0
 40
5.0
 40
6.0
 40
6.0
 40
6.0
 40
7.0
 40
7.0
 40
7.0
 40
8.0
 40
8.0
 40
8.0
 40
9.0
 40
9.0
 40
9.0
 40
10.0
 40
10.0
 40
10.0
 40
11.0
 40
11.0
 40
11.0
 40
12.0
 40
12.0
 40
12.0
 40
13.0
 40
13.0
 40
13.0
 40
13.0
 10
109.1740423989218
 20
-136.9878485443121
 30
0.0
 10
108.956312364254
 20
-137.1466674461821
 30
0.0
 10
108.8632947861522
 20
-137.220736999115
 30
0.0
 10
108.8143744302617
 20
-137.3643974808499
 30
0.0
 10
108.8143744302617
 20
-137.3643974808499
 30
0.0
 10
109.5929660099281
 20
-137.3643974808499
 30
0.0
 10
109.5929660099281
 20
-137.3643974808499
 30
0.0
 10
109.5929660099281
 20
-137.3643974808499
 30
0.0
 10
109.5929660099281
 20
-137.5697251717708
 30
0.0
 10
109.5929660099281
 20
-137.5697251717708
 30
0.0
 10
109.5929660099281
 20
-137.5697251717708
 30
0.0
 10
108.5649495171296
 20
-137.5697251717708
 30
0.0
 10
108.5649495171296
 20
-137.5697251717708
 30
0.0
 10
108.5966443955939
 20
-137.2121242604019
 30
0.0
 10
108.6621012098136
 20
-137.1339205928867
 30
0.0
 10
109.0472628850646
 20
-136.835575323864
 30
0.0
 10
109.3032334796186
 20
-136.6367933143651
 30
0.0
 10
109.3686902938384
 20
-136.5689249333057
 30
0.0
 10
109.3686902938384
 20
-136.4314656234442
 30
0.0
 10
109.3686902938384
 20
-136.3129543387516
 30
0.0
 10
109.2966877981967
 20
-136.1820407103121
 30
0.0
 10
109.0999728459889
 20
-136.1820407103121
 30
0.0
 10
108.8398681368525
 20
-136.1820407103121
 30
0.0
 10
108.8312553981394
 20
-136.4125175982753
 30
0.0
 10
108.8271212835571
 20
-136.5289618256768
 30
0.0
 10
108.8271212835571
 20
-136.5289618256768
 30
0.0
 10
108.6028455674674
 20
-136.5289618256768
 30
0.0
 10
108.6028455674674
 20
-136.5289618256768
 30
0.0
 10
108.6114583061805
 20
-136.4018378022711
 30
0.0
 10
108.6221381021847
 20
-136.2898721990005
 30
0.0
 10
108.7024088269911
 20
-136.1713609143079
 30
0.0
 10
108.8123073729705
 20
-136.0104749551467
 30
0.0
 10
108.9986870387226
 20
-135.9767130193912
 30
0.0
 10
109.1147867565755
 20
-135.9767130193912
 30
0.0
 10
109.3921169431381
 20
-135.9767130193912
 30
0.0
 10
109.5995116913501
 20
-136.1606811183036
 30
0.0
 10
109.5995116913501
 20
-136.4335326807354
 30
0.0
 10
109.5995116913501
 20
-136.662287020956
 30
0.0
 10
109.4830674639487
 20
-136.7615057709312
 30
0.0
 10
109.1740423989218
 20
-136.9878485443121
 30
0.0
  0
HATCH
  5
78
330
73
100
AcDbEntity
  8
_U+30EC_U+30A4_U+30E4_U+30FC 1
 62
   179
420
  2234388
100
AcDbHatch
 10
0.0
 20
0.0
 30
0.0
210
0.0
220
0.0
230
1.0
  2
SOLID
 70
     1
 71
     0
 91
        1
 92
        1
 93
        1
 72
     4
 94
        3
 73
     0
 74
     1
 95
       44
 96
       40
 40
0.0
 40
0.0
 40
0.0
 40
0.0
 40
1.0
 40
1.0
 40
1.0
 40
2.0
 40
2.0
 40
2.0
 40
3.0
 40
3.0
 40
3.0
 40
4.0
 40
4.0
 40
4.0
 40
5.0
 40
5.0
 40
5.0
 40
6.0
 40
6.0
 40
6.0
 40
7.0
 40
7.0
 40
7.0
 40
8.0
 40
8.0
 40
8.0
 40
9.0
 40
9.0
 40
9.0
 40
10.0
 40
10.0
 40
10.0
 40
11.0
 40
11.0
 40
11.0
 40
12.0
 40
12.0
 40
12.0
 40
13.0
 40
13.0
 40
13.0
 40
13.0
 10
109.1740423989218
 20
-136.9878485443121
 10
108.956312364254
 20
-137.1466674461821
 10
108.8632947861522
 20
-137.220736999115
 10
108.8143744302617
 20
-137.3643974808499
 10
108.8143744302617
 20
-137.3643974808499
 10
109.5929660099281
 20
-137.3643974808499
 10
109.5929660099281
 20
-137.3643974808499
 10
109.5929660099281
 20
-137.3643974808499
 10
109.5929660099281
 20
-137.5697251717708
 10
109.5929660099281
 20
-137.5697251717708
 10
109.5929660099281
 20
-137.5697251717708
 10
108.5649495171296
 20
-137.5697251717708
 10
108.5649495171296
 20
-137.5697251717708
 10
108.5966443955939
 20
-137.2121242604019
 10
108.6621012098136
 20
-137.1339205928867
 10
109.0472628850646
 20
-136.835575323864
 10
109.3032334796186
 20
-136.6367933143651
 10
109.3686902938384
 20
-136.5689249333057
 10
109.3686902938384
 20
-136.4314656234442
 10
109.3686902938384
 20
-136.3129543387516
 10
109.2966877981967
 20
-136.1820407103121
 10
109.0999728459889
 20
-136.1820407103121
 10
108.8398681368525
 20
-136.1820407103121
 10
108.8312553981394
 20
-136.4125175982753
 10
108.8271212835571
 20
-136.5289618256768
 10
108.8271212835571
 20
-136.5289618256768
 10
108.6028455674674
 20
-136.5289618256768
 10
108.6028455674674
 20
-136.5289618256768
 10
108.6114583061805
 20
-136.4018378022711
 10
108.6221381021847
 20
-136.2898721990005
 10
108.7024088269911
 20
-136.1713609143079
 10
108.8123073729705
 20
-136.0104749551467
 10
108.9986870387226
 20
-135.9767130193912
 10
109.1147867565755
 20
-135.9767130193912
 10
109.3921169431381
 20
-135.9767130193912
 10
109.5995116913501
 20
-136.1606811183036
 10
109.5995116913501
 20
-136.4335326807354
 10
109.5995116913501
 20
-136.662287020956
 10
109.4830674639487
 20
-136.7615057709312
 10
109.1740423989218
 20
-136.9878485443121
 97
        0
 97
        0
 75
     2
 76
     1
 98
        0
  0
SPLINE
  5
79
330
73
100
AcDbEntity
  8
_U+30EC_U+30A4_U+30E4_U+30FC 1
370
     0
100
AcDbSpline
210
0.0
220
0.0
230
1.0
 70
    11
 71
     3
 72
    26
 73
    22
 74
     0
 42
0.0000000001
 43
0.0000000001
 12
1.0
 22
0.0
 32
0.0
 13
1.0
 23
0.0
 33
0.0
 40
0.0
 40
0.0
 40
0.0
 40
0.0
 40
1.0
 40
1.0
 40
1.0
 40
2.0
 40
2.0
 40
2.0
 40
3.0
 40
3.0
 40
3.0
 40
4.0
 40
4.0
 40
4.0
 40
5.0
 40
5.0
 40
5.0
 40
6.0
 40
6.0
 40
6.0
 40
7.0
 40
7.0
 40
7.0
 40
7.0
 10
110.2092935922393
 20
-137.5697251717708
 30
0.0
 10
110.2092935922393
 20
-137.5697251717708
 30
0.0
 10
110.2092935922393
 20
-136.4655720687482
 30
0.0
 10
110.2092935922393
 20
-136.4655720687482
 30
0.0
 10
110.2092935922393
 20
-136.4655720687482
 30
0.0
 10
109.8792534447524
 20
-136.4655720687482
 30
0.0
 10
109.8792534447524
 20
-136.4655720687482
 30
0.0
 10
109.8792534447524
 20
-136.4655720687482
 30
0.0
 10
109.8792534447524
 20
-136.3174329628825
 30
0.0
 10
109.8792534447524
 20
-136.3174329628825
 30
0.0
 10
110.2113606495305
 20
-136.3026190522959
 30
0.0
 10
110.2578694385814
 20
-136.1396660358436
 30
0.0
 10
110.2874972597545
 20
-136.0252888657333
 30
0.0
 10
110.2874972597545
 20
-136.0252888657333
 30
0.0
 10
110.4335693083291
 20
-136.0252888657333
 30
0.0
 10
110.4335693083291
 20
-136.0252888657333
 30
0.0
 10
110.4335693083291
 20
-136.0252888657333
 30
0.0
 10
110.4335693083291
 20
-137.5697251717708
 30
0.0
 10
110.4335693083291
 20
-137.5697251717708
 30
0.0
 10
110.4335693083291
 20
-137.5697251717708
 30
0.0
 10
110.2092935922393
 20
-137.5697251717708
 30
0.0
 10
110.2092935922393
 20
-137.5697251717708
 30
0.0
  0
HATCH
  5
7A
330
73
100
AcDbEntity
  8
_U+30EC_U+30A4_U+30E4_U+30FC 1
 62
   179
420
  2234388
100
AcDbHatch
 10
0.0
 20
0.0
 30
0.0
210
0.0
220
0.0
230
1.0
  2
SOLID
 70
     1
 71
     0
 91
        1
 92
        1
 93
        1
 72
     4
 94
        3
 73
     0
 74
     1
 95
       26
 96
       22
 40
0.0
 40
0.0
 40
0.0
 40
0.0
 40
1.0
 40
1.0
 40
1.0
 40
2.0
 40
2.0
 40
2.0
 40
3.0
 40
3.0
 40
3.0
 40
4.0
 40
4.0
 40
4.0
 40
5.0
 40
5.0
 40
5.0
 40
6.0
 40
6.0
 40
6.0
 40
7.0
 40
7.0
 40
7.0
 40
7.0
 10
110.2092935922393
 20
-137.5697251717708
 10
110.2092935922393
 20
-137.5697251717708
 10
110.2092935922393
 20
-136.4655720687482
 10
110.2092935922393
 20
-136.4655720687482
 10
110.2092935922393
 20
-136.4655720687482
 10
109.8792534447524
 20
-136.4655720687482
 10
109.8792534447524
 20
-136.4655720687482
 10
109.8792534447524
 20
-136.4655720687482
 10
109.8792534447524
 20
-136.3174329628825
 10
109.8792534447524
 20
-136.3174329628825
 10
110.2113606495305
 20
-136.3026190522959
 10
110.2578694385814
 20
-136.1396660358436
 10
110.2874972597545
 20
-136.0252888657333
 10
110.2874972597545
 20
-136.0252888657333
 10
110.4335693083291
 20
-136.0252888657333
 10
110.4335693083291
 20
-136.0252888657333
 10
110.4335693083291
 20
-136.0252888657333
 10
110.4335693083291
 20
-137.5697251717708
 10
110.4335693083291
 20
-137.5697251717708
 10
110.4335693083291
 20
-137.5697251717708
 10
110.2092935922393
 20
-137.5697251717708
 10
110.2092935922393
 20
-137.5697251717708
 97
        0
 97
        0
 75
     2
 76
     1
 98
        0
  0
ENDBLK
  5
76
330
73
100
AcDbEntity
  8
0
100
AcDbBlockEnd
  0
BLOCK
  5
85
330
83
100
AcDbEntity
  8
0
100
AcDbBlockBegin
  2
block 4
 70
     0
 10
0.0
 20
0.0
 30
0.0
  3
block 4
  1

  0
SPLINE
  5
87
330
83
100
AcDbEntity
  8
_U+30EC_U+30A4_U+30E4_U+30FC 1
370
     0
100
AcDbSpline
210
0.0
220
0.0
230
1.0
 70
    11
 71
     3
 72
    26
 73
    22
 74
     0
 42
0.0000000001
 43
0.0000000001
 12
1.0
 22
0.0
 32
0.0
 13
1.0
 23
0.0
 33
0.0
 40
0.0
 40
0.0
 40
0.0
 40
0.0
 40
1.0
 40
1.0
 40
1.0
 40
2.0
 40
2.0
 40
2.0
 40
3.0
 40
3.0
 40
3.0
 40
4.0
 40
4.0
 40
4.0
 40
5.0
 40
5.0
 40
5.0
 40
6.0
 40
6.0
 40
6.0
 40
7.0
 40
7.0
 40
7.0
 40
7.0
 10
100.4403808342649
 20
-142.7539048579747
 30
0.0
 10
100.4403808342649
 20
-142.7539048579747
 30
0.0
 10
100.4403808342649
 20
-141.6497517549521
 30
0.0
 10
100.4403808342649
 20
-141.6497517549521
 30
0.0
 10
100.4403808342649
 20
-141.6497517549521
 30
0.0
 10
100.110340686778
 20
-141.6497517549521
 30
0.0
 10
100.110340686778
 20
-141.6497517549521
 30
0.0
 10
100.110340686778
 20
-141.6497517549521
 30
0.0
 10
100.110340686778
 20
-141.5016126490864
 30
0.0
 10
100.110340686778
 20
-141.5016126490864
 30
0.0
 10
100.4424478915561
 20
-141.4867987384998
 30
0.0
 10
100.4889566806069
 20
-141.3238457220475
 30
0.0
 10
100.5185845017801
 20
-141.2094685519372
 30
0.0
 10
100.5185845017801
 20
-141.2094685519372
 30
0.0
 10
100.6646565503547
 20
-141.2094685519372
 30
0.0
 10
100.6646565503547
 20
-141.2094685519372
 30
0.0
 10
100.6646565503547
 20
-141.2094685519372
 30
0.0
 10
100.6646565503547
 20
-142.7539048579747
 30
0.0
 10
100.6646565503547
 20
-142.7539048579747
 30
0.0
 10
100.6646565503547
 20
-142.7539048579747
 30
0.0
 10
100.4403808342649
 20
-142.7539048579747
 30
0.0
 10
100.4403808342649
 20
-142.7539048579747
 30
0.0
  0
HATCH
  5
88
330
83
100
AcDbEntity
  8
_U+30EC_U+30A4_U+30E4_U+30FC 1
 62
   179
420
  2234388
100
AcDbHatch
 10
0.0
 20
0.0
 30
0.0
210
0.0
220
0.0
230
1.0
  2
SOLID
 70
     1
 71
     0
 91
        1
 92
        1
 93
        1
 72
     4
 94
        3
 73
     0
 74
     1
 95
       26
 96
       22
 40
0.0
 40
0.0
 40
0.0
 40
0.0
 40
1.0
 40
1.0
 40
1.0
 40
2.0
 40
2.0
 40
2.0
 40
3.0
 40
3.0
 40
3.0
 40
4.0
 40
4.0
 40
4.0
 40
5.0
 40
5.0
 40
5.0
 40
6.0
 40
6.0
 40
6.0
 40
7.0
 40
7.0
 40
7.0
 40
7.0
 10
100.4403808342649
 20
-142.7539048579747
 10
100.4403808342649
 20
-142.7539048579747
 10
100.4403808342649
 20
-141.6497517549521
 10
100.4403808342649
 20
-141.6497517549521
 10
100.4403808342649
 20
-141.6497517549521
 10
100.110340686778
 20
-141.6497517549521
 10
100.110340686778
 20
-141.6497517549521
 10
100.110340686778
 20
-141.6497517549521
 10
100.110340686778
 20
-141.5016126490864
 10
100.110340686778
 20
-141.5016126490864
 10
100.4424478915561
 20
-141.4867987384998
 10
100.4889566806069
 20
-141.3238457220475
 10
100.5185845017801
 20
-141.2094685519372
 10
100.5185845017801
 20
-141.2094685519372
 10
100.6646565503547
 20
-141.2094685519372
 10
100.6646565503547
 20
-141.2094685519372
 10
100.6646565503547
 20
-141.2094685519372
 10
100.6646565503547
 20
-142.7539048579747
 10
100.6646565503547
 20
-142.7539048579747
 10
100.6646565503547
 20
-142.7539048579747
 10
100.4403808342649
 20
-142.7539048579747
 10
100.4403808342649
 20
-142.7539048579747
 97
        0
 97
        0
 75
     2
 76
     1
 98
        0
  0
ENDBLK
  5
86
330
83
100
AcDbEntity
  8
0
100
AcDbBlockEnd
  0
BLOCK
  5
97
330
95
100
AcDbEntity
  8
0
100
AcDbBlockBegin
  2
block 5
 70
     0
 10
0.0
 20
0.0
 30
0.0
  3
block 5
  1

  0
SPLINE
  5
99
330
95
100
AcDbEntity
  8
_U+30EC_U+30A4_U+30E4_U+30FC 1
370
     0
100
AcDbSpline
210
0.0
220
0.0
230
1.0
 70
    11
 71
     3
 72
    26
 73
    22
 74
     0
 42
0.0000000001
 43
0.0000000001
 12
1.0
 22
0.0
 32
0.0
 13
1.0
 23
0.0
 33
0.0
 40
0.0
 40
0.0
 40
0.0
 40
0.0
 40
1.0
 40
1.0
 40
1.0
 40
2.0
 40
2.0
 40
2.0
 40
3.0
 40
3.0
 40
3.0
 40
4.0
 40
4.0
 40
4.0
 40
5.0
 40
5.0
 40
5.0
 40
6.0
 40
6.0
 40
6.0
 40
7.0
 40
7.0
 40
7.0
 40
7.0
 10
105.5322319614642
 20
-160.5690103765244
 30
0.0
 10
105.5322319614642
 20
-160.5690103765244
 30
0.0
 10
105.5322319614642
 20
-159.4648572735018
 30
0.0
 10
105.5322319614642
 20
-159.4648572735018
 30
0.0
 10
105.5322319614642
 20
-159.4648572735018
 30
0.0
 10
105.2021918139772
 20
-159.4648572735018
 30
0.0
 10
105.2021918139772
 20
-159.4648572735018
 30
0.0
 10
105.2021918139772
 20
-159.4648572735018
 30
0.0
 10
105.2021918139772
 20
-159.3167181676361
 30
0.0
 10
105.2021918139772
 20
-159.3167181676361
 30
0.0
 10
105.5342990187553
 20
-159.3019042570495
 30
0.0
 10
105.5808078078062
 20
-159.1389512405972
 30
0.0
 10
105.6104356289793
 20
-159.0245740704869
 30
0.0
 10
105.6104356289793
 20
-159.0245740704869
 30
0.0
 10
105.7565076775539
 20
-159.0245740704869
 30
0.0
 10
105.7565076775539
 20
-159.0245740704869
 30
0.0
 10
105.7565076775539
 20
-159.0245740704869
 30
0.0
 10
105.7565076775539
 20
-160.5690103765244
 30
0.0
 10
105.7565076775539
 20
-160.5690103765244
 30
0.0
 10
105.7565076775539
 20
-160.5690103765244
 30
0.0
 10
105.5322319614642
 20
-160.5690103765244
 30
0.0
 10
105.5322319614642
 20
-160.5690103765244
 30
0.0
  0
HATCH
  5
9A
330
95
100
AcDbEntity
  8
_U+30EC_U+30A4_U+30E4_U+30FC 1
 62
   179
420
  2234388
100
AcDbHatch
 10
0.0
 20
0.0
 30
0.0
210
0.0
220
0.0
230
1.0
  2
SOLID
 70
     1
 71
     0
 91
        1
 92
        1
 93
        1
 72
     4
 94
        3
 73
     0
 74
     1
 95
       26
 96
       22
 40
0.0
 40
0.0
 40
0.0
 40
0.0
 40
1.0
 40
1.0
 40
1.0
 40
2.0
 40
2.0
 40
2.0
 40
3.0
 40
3.0
 40
3.0
 40
4.0
 40
4.0
 40
4.0
 40
5.0
 40
5.0
 40
5.0
 40
6.0
 40
6.0
 40
6.0
 40
7.0
 40
7.0
 40
7.0
 40
7.0
 10
105.5322319614642
 20
-160.5690103765244
 10
105.5322319614642
 20
-160.5690103765244
 10
105.5322319614642
 20
-159.4648572735018
 10
105.5322319614642
 20
-159.4648572735018
 10
105.5322319614642
 20
-159.4648572735018
 10
105.2021918139772
 20
-159.4648572735018
 10
105.2021918139772
 20
-159.4648572735018
 10
105.2021918139772
 20
-159.4648572735018
 10
105.2021918139772
 20
-159.3167181676361
 10
105.2021918139772
 20
-159.3167181676361
 10
105.5342990187553
 20
-159.3019042570495
 10
105.5808078078062
 20
-159.1389512405972
 10
105.6104356289793
 20
-159.0245740704869
 10
105.6104356289793
 20
-159.0245740704869
 10
105.7565076775539
 20
-159.0245740704869
 10
105.7565076775539
 20
-159.0245740704869
 10
105.7565076775539
 20
-159.0245740704869
 10
105.7565076775539
 20
-160.5690103765244
 10
105.7565076775539
 20
-160.5690103765244
 10
105.7565076775539
 20
-160.5690103765244
 10
105.5322319614642
 20
-160.5690103765244
 10
105.5322319614642
 20
-160.5690103765244
 97
        0
 97
        0
 75
     2
 76
     1
 98
        0
  0
SPLINE
  5
9B
330
95
100
AcDbEntity
  8
_U+30EC_U+30A4_U+30E4_U+30FC 1
370
     0
100
AcDbSpline
210
0.0
220
0.0
230
1.0
 70
    11
 71
     3
 72
    32
 73
    28
 74
     0
 42
0.0000000001
 43
0.0000000001
 12
1.0
 22
0.0
 32
0.0
 13
1.0
 23
0.0
 33
0.0
 40
0.0
 40
0.0
 40
0.0
 40
0.0
 40
1.0
 40
1.0
 40
1.0
 40
2.0
 40
2.0
 40
2.0
 40
3.0
 40
3.0
 40
3.0
 40
4.0
 40
4.0
 40
4.0
 40
5.0
 40
5.0
 40
5.0
 40
6.0
 40
6.0
 40
6.0
 40
7.0
 40
7.0
 40
7.0
 40
8.0
 40
8.0
 40
8.0
 40
9.0
 40
9.0
 40
9.0
 40
9.0
 10
106.7617865401498
 20
-160.6196532801576
 30
0.0
 10
106.2457112364594
 20
-160.6196532801576
 30
0.0
 10
106.2370984977463
 20
-160.0656819261294
 30
0.0
 10
106.2370984977463
 20
-159.8517414964954
 30
0.0
 10
106.2370984977463
 20
-159.6212646085322
 30
0.0
 10
106.2563910324637
 20
-158.9739311668538
 30
0.0
 10
106.8000271000361
 20
-158.9739311668538
 30
0.0
 10
106.9733154029442
 20
-158.9739311668538
 30
0.0
 10
107.2189507110425
 20
-159.0438666052043
 30
0.0
 10
107.2568467613802
 20
-159.3759738099824
 30
0.0
 10
107.2568467613802
 20
-159.3759738099824
 30
0.0
 10
107.0432508412947
 20
-159.3759738099824
 30
0.0
 10
107.0432508412947
 20
-159.3759738099824
 30
0.0
 10
107.0325710452905
 20
-159.3187852249273
 30
0.0
 10
107.0008761668262
 20
-159.1706461190615
 30
0.0
 10
106.797960042745
 20
-159.1706461190615
 30
0.0
 10
106.5058159455958
 20
-159.1706461190615
 30
0.0
 10
106.4658528379669
 20
-159.4986192092573
 30
0.0
 10
106.4531059846715
 20
-159.7036023906297
 30
0.0
 10
106.5461235627732
 20
-159.6253987231145
 30
0.0
 10
106.6139919438326
 20
-159.5661430807682
 30
0.0
 10
106.7958929854538
 20
-159.5661430807682
 30
0.0
 10
106.9757269697838
 20
-159.5661430807682
 30
0.0
 10
107.2782063533888
 20
-159.674319079005
 30
0.0
 10
107.2782063533888
 20
-160.080495836716
 30
0.0
 10
107.2782063533888
 20
-160.3998561881986
 30
0.0
 10
107.0790798343413
 20
-160.6196532801576
 30
0.0
 10
106.7617865401498
 20
-160.6196532801576
 30
0.0
  0
SPLINE
  5
9C
330
95
100
AcDbEntity
  8
_U+30EC_U+30A4_U+30E4_U+30FC 1
370
     0
100
AcDbSpline
210
0.0
220
0.0
230
1.0
 70
    11
 71
     3
 72
    17
 73
    13
 74
     0
 42
0.0000000001
 43
0.0000000001
 12
1.0
 22
0.0
 32
0.0
 13
1.0
 23
0.0
 33
0.0
 40
0.0
 40
0.0
 40
0.0
 40
0.0
 40
1.0
 40
1.0
 40
1.0
 40
2.0
 40
2.0
 40
2.0
 40
3.0
 40
3.0
 40
3.0
 40
4.0
 40
4.0
 40
4.0
 40
4.0
 10
106.7786675080276
 20
-159.7607909756848
 30
0.0
 10
106.5164957416001
 20
-159.7607909756848
 30
0.0
 10
106.4785996912623
 20
-159.9723198384791
 30
0.0
 10
106.4785996912623
 20
-160.0887640658806
 30
0.0
 10
106.4785996912623
 20
-160.2644639356283
 30
0.0
 10
106.5736843266552
 20
-160.4274169520806
 30
0.0
 10
106.7576524255675
 20
-160.4274169520806
 30
0.0
 10
106.8782307675513
 20
-160.4274169520806
 30
0.0
 10
107.053930637299
 20
-160.3681613097343
 30
0.0
 10
107.053930637299
 20
-160.0825628940071
 30
0.0
 10
107.053930637299
 20
-159.8582871779174
 30
0.0
 10
106.9144042701464
 20
-159.7607909756848
 30
0.0
 10
106.7786675080276
 20
-159.7607909756848
 30
0.0
  0
HATCH
  5
9D
330
95
100
AcDbEntity
  8
_U+30EC_U+30A4_U+30E4_U+30FC 1
 62
   179
420
  2234388
100
AcDbHatch
 10
0.0
 20
0.0
 30
0.0
210
0.0
220
0.0
230
1.0
  2
SOLID
 70
     1
 71
     0
 91
        2
 92
        1
 93
        1
 72
     4
 94
        3
 73
     0
 74
     1
 95
       32
 96
       28
 40
0.0
 40
0.0
 40
0.0
 40
0.0
 40
1.0
 40
1.0
 40
1.0
 40
2.0
 40
2.0
 40
2.0
 40
3.0
 40
3.0
 40
3.0
 40
4.0
 40
4.0
 40
4.0
 40
5.0
 40
5.0
 40
5.0
 40
6.0
 40
6.0
 40
6.0
 40
7.0
 40
7.0
 40
7.0
 40
8.0
 40
8.0
 40
8.0
 40
9.0
 40
9.0
 40
9.0
 40
9.0
 10
106.7617865401498
 20
-160.6196532801576
 10
106.2457112364594
 20
-160.6196532801576
 10
106.2370984977463
 20
-160.0656819261294
 10
106.2370984977463
 20
-159.8517414964954
 10
106.2370984977463
 20
-159.6212646085322
 10
106.2563910324637
 20
-158.9739311668538
 10
106.8000271000361
 20
-158.9739311668538
 10
106.9733154029442
 20
-158.9739311668538
 10
107.2189507110425
 20
-159.0438666052043
 10
107.2568467613802
 20
-159.3759738099824
 10
107.2568467613802
 20
-159.3759738099824
 10
107.0432508412947
 20
-159.3759738099824
 10
107.0432508412947
 20
-159.3759738099824
 10
107.0325710452905
 20
-159.3187852249273
 10
107.0008761668262
 20
-159.1706461190615
 10
106.797960042745
 20
-159.1706461190615
 10
106.5058159455958
 20
-159.1706461190615
 10
106.4658528379669
 20
-159.4986192092573
 10
106.4531059846715
 20
-159.7036023906297
 10
106.5461235627732
 20
-159.6253987231145
 10
106.6139919438326
 20
-159.5661430807682
 10
106.7958929854538
 20
-159.5661430807682
 10
106.9757269697838
 20
-159.5661430807682
 10
107.2782063533888
 20
-159.674319079005
 10
107.2782063533888
 20
-160.080495836716
 10
107.2782063533888
 20
-160.3998561881986
 10
107.0790798343413
 20
-160.6196532801576
 10
106.7617865401498
 20
-160.6196532801576
 97
        0
 97
        0
 92
        1
 93
        1
 72
     4
 94
        3
 73
     0
 74
     1
 95
       17
 96
       13
 40
0.0
 40
0.0
 40
0.0
 40
0.0
 40
1.0
 40
1.0
 40
1.0
 40
2.0
 40
2.0
 40
2.0
 40
3.0
 40
3.0
 40
3.0
 40
4.0
 40
4.0
 40
4.0
 40
4.0
 10
106.7786675080276
 20
-159.7607909756848
 10
106.5164957416001
 20
-159.7607909756848
 10
106.4785996912623
 20
-159.9723198384791
 10
106.4785996912623
 20
-160.0887640658806
 10
106.4785996912623
 20
-160.2644639356283
 10
106.5736843266552
 20
-160.4274169520806
 10
106.7576524255675
 20
-160.4274169520806
 10
106.8782307675513
 20
-160.4274169520806
 10
107.053930637299
 20
-160.3681613097343
 10
107.053930637299
 20
-160.0825628940071
 10
107.053930637299
 20
-159.8582871779174
 10
106.9144042701464
 20
-159.7607909756848
 10
106.7786675080276
 20
-159.7607909756848
 97
        0
 97
        0
 75
     2
 76
     1
 98
        0
  0
ENDBLK
  5
98
330
95
100
AcDbEntity
  8
0
100
AcDbBlockEnd
  0
BLOCK
  5
AC
330
AA
100
AcDbEntity
  8
0
100
AcDbBlockBegin
  2
block 6
 70
     0
 10
0.0
 20
0.0
 30
0.0
  3
block 6
  1

  0
SPLINE
  5
AE
330
AA
100
AcDbEntity
  8
_U+30EC_U+30A4_U+30E4_U+30FC 1
370
     0
100
AcDbSpline
210
0.0
220
0.0
230
1.0
 70
    11
 71
     3
 72
    26
 73
    22
 74
     0
 42
0.0000000001
 43
0.0000000001
 12
1.0
 22
0.0
 32
0.0
 13
1.0
 23
0.0
 33
0.0
 40
0.0
 40
0.0
 40
0.0
 40
0.0
 40
1.0
 40
1.0
 40
1.0
 40
2.0
 40
2.0
 40
2.0
 40
3.0
 40
3.0
 40
3.0
 40
4.0
 40
4.0
 40
4.0
 40
5.0
 40
5.0
 40
5.0
 40
6.0
 40
6.0
 40
6.0
 40
7.0
 40
7.0
 40
7.0
 40
7.0
 10
117.6541449358643
 20
-151.916997574868
 30
0.0
 10
117.6541449358643
 20
-151.916997574868
 30
0.0
 10
116.5499918328417
 20
-151.916997574868
 30
0.0
 10
116.5499918328417
 20
-151.916997574868
 30
0.0
 10
116.5499918328417
 20
-151.916997574868
 30
0.0
 10
116.5499918328417
 20
-152.2470377223549
 30
0.0
 10
116.5499918328417
 20
-152.2470377223549
 30
0.0
 10
116.5499918328417
 20
-152.2470377223549
 30
0.0
 10
116.4018527269759
 20
-152.2470377223549
 30
0.0
 10
116.4018527269759
 20
-152.2470377223549
 30
0.0
 10
116.3870388163894
 20
-151.9149305175768
 30
0.0
 10
116.224085799937
 20
-151.868421728526
 30
0.0
 10
116.1097086298267
 20
-151.8387939073528
 30
0.0
 10
116.1097086298267
 20
-151.8387939073528
 30
0.0
 10
116.1097086298267
 20
-151.6927218587782
 30
0.0
 10
116.1097086298267
 20
-151.6927218587782
 30
0.0
 10
116.1097086298267
 20
-151.6927218587782
 30
0.0
 10
117.6541449358643
 20
-151.6927218587782
 30
0.0
 10
117.6541449358643
 20
-151.6927218587782
 30
0.0
 10
117.6541449358643
 20
-151.6927218587782
 30
0.0
 10
117.6541449358643
 20
-151.916997574868
 30
0.0
 10
117.6541449358643
 20
-151.916997574868
 30
0.0
  0
HATCH
  5
AF
330
AA
100
AcDbEntity
  8
_U+30EC_U+30A4_U+30E4_U+30FC 1
 62
   179
420
  2234388
100
AcDbHatch
 10
0.0
 20
0.0
 30
0.0
210
0.0
220
0.0
230
1.0
  2
SOLID
 70
     1
 71
     0
 91
        1
 92
        1
 93
        1
 72
     4
 94
        3
 73
     0
 74
     1
 95
       26
 96
       22
 40
0.0
 40
0.0
 40
0.0
 40
0.0
 40
1.0
 40
1.0
 40
1.0
 40
2.0
 40
2.0
 40
2.0
 40
3.0
 40
3.0
 40
3.0
 40
4.0
 40
4.0
 40
4.0
 40
5.0
 40
5.0
 40
5.0
 40
6.0
 40
6.0
 40
6.0
 40
7.0
 40
7.0
 40
7.0
 40
7.0
 10
117.6541449358643
 20
-151.916997574868
 10
117.6541449358643
 20
-151.916997574868
 10
116.5499918328417
 20
-151.916997574868
 10
116.5499918328417
 20
-151.916997574868
 10
116.5499918328417
 20
-151.916997574868
 10
116.5499918328417
 20
-152.2470377223549
 10
116.5499918328417
 20
-152.2470377223549
 10
116.5499918328417
 20
-152.2470377223549
 10
116.4018527269759
 20
-152.2470377223549
 10
116.4018527269759
 20
-152.2470377223549
 10
116.3870388163894
 20
-151.9149305175768
 10
116.224085799937
 20
-151.868421728526
 10
116.1097086298267
 20
-151.8387939073528
 10
116.1097086298267
 20
-151.8387939073528
 10
116.1097086298267
 20
-151.6927218587782
 10
116.1097086298267
 20
-151.6927218587782
 10
116.1097086298267
 20
-151.6927218587782
 10
117.6541449358643
 20
-151.6927218587782
 10
117.6541449358643
 20
-151.6927218587782
 10
117.6541449358643
 20
-151.6927218587782
 10
117.6541449358643
 20
-151.916997574868
 10
117.6541449358643
 20
-151.916997574868
 97
        0
 97
        0
 75
     2
 76
     1
 98
        0
  0
SPLINE
  5
B0
330
AA
100
AcDbEntity
  8
_U+30EC_U+30A4_U+30E4_U+30FC 1
370
     0
100
AcDbSpline
210
0.0
220
0.0
230
1.0
 70
    11
 71
     3
 72
    29
 73
    25
 74
     0
 42
0.0000000001
 43
0.0000000001
 12
1.0
 22
0.0
 32
0.0
 13
1.0
 23
0.0
 33
0.0
 40
0.0
 40
0.0
 40
0.0
 40
0.0
 40
1.0
 40
1.0
 40
1.0
 40
2.0
 40
2.0
 40
2.0
 40
3.0
 40
3.0
 40
3.0
 40
4.0
 40
4.0
 40
4.0
 40
5.0
 40
5.0
 40
5.0
 40
6.0
 40
6.0
 40
6.0
 40
7.0
 40
7.0
 40
7.0
 40
8.0
 40
8.0
 40
8.0
 40
8.0
 10
117.4763780088253
 20
-150.2936685822183
 30
0.0
 10
117.6858398143285
 20
-150.4018445804551
 30
0.0
 10
117.7047878394974
 20
-150.5751328833632
 30
0.0
 10
117.7047878394974
 20
-150.6915771107646
 30
0.0
 10
117.7047878394974
 20
-150.8524630699258
 30
0.0
 10
117.6582790504466
 20
-150.9940564943695
 30
0.0
 10
117.4763780088253
 20
-151.0891411297625
 30
0.0
 10
117.2817301139087
 20
-151.1928385038685
 30
0.0
 10
117.0447075445235
 20
-151.2121310385859
 30
0.0
 10
116.8820990376198
 20
-151.2121310385859
 30
0.0
 10
116.7380940463363
 20
-151.2121310385859
 30
0.0
 10
116.4862575663646
 20
-151.1949055611596
 30
0.0
 10
116.2874755568656
 20
-151.0891411297625
 30
0.0
 10
116.0845594327844
 20
-150.9813096410741
 30
0.0
 10
116.0611327834847
 20
-150.820423681913
 30
0.0
 10
116.0611327834847
 20
-150.6915771107646
 30
0.0
 10
116.0611327834847
 20
-150.5327582088946
 30
0.0
 10
116.1055745152444
 20
-150.3890977271597
 30
0.0
 10
116.2874755568656
 20
-150.2936685822183
 30
0.0
 10
116.4800563944911
 20
-150.1944498322431
 30
0.0
 10
116.7084662251632
 20
-150.1710231829434
 30
0.0
 10
116.8820990376198
 20
-150.1710231829434
 30
0.0
 10
117.0533202832367
 20
-150.1710231829434
 30
0.0
 10
117.2837971711999
 20
-150.1923827749519
 30
0.0
 10
117.4763780088253
 20
-150.2936685822183
 30
0.0
  0
SPLINE
  5
B1
330
AA
100
AcDbEntity
  8
_U+30EC_U+30A4_U+30E4_U+30FC 1
370
     0
100
AcDbSpline
210
0.0
220
0.0
230
1.0
 70
    11
 71
     3
 72
    17
 73
    13
 74
     0
 42
0.0000000001
 43
0.0000000001
 12
1.0
 22
0.0
 32
0.0
 13
1.0
 23
0.0
 33
0.0
 40
0.0
 40
0.0
 40
0.0
 40
0.0
 40
1.0
 40
1.0
 40
1.0
 40
2.0
 40
2.0
 40
2.0
 40
3.0
 40
3.0
 40
3.0
 40
4.0
 40
4.0
 40
4.0
 40
4.0
 10
116.2537136211102
 20
-150.6915771107646
 30
0.0
 10
116.2537136211102
 20
-150.9413465334452
 30
0.0
 10
116.5372449795462
 20
-150.9878553224961
 30
0.0
 10
116.8820990376198
 20
-150.9878553224961
 30
0.0
 10
117.2014593891024
 20
-150.9878553224961
 30
0.0
 10
117.5101399445808
 20
-150.951681819901
 30
0.0
 10
117.5101399445808
 20
-150.6915771107646
 30
0.0
 10
117.5101399445808
 20
-150.4438747453752
 30
0.0
 10
117.2290201529844
 20
-150.3952988990331
 30
0.0
 10
116.8820990376198
 20
-150.3952988990331
 30
0.0
 10
116.5623941765886
 20
-150.3952988990331
 30
0.0
 10
116.2537136211102
 20
-150.4335394589194
 30
0.0
 10
116.2537136211102
 20
-150.6915771107646
 30
0.0
  0
HATCH
  5
B2
330
AA
100
AcDbEntity
  8
_U+30EC_U+30A4_U+30E4_U+30FC 1
 62
   179
420
  2234388
100
AcDbHatch
 10
0.0
 20
0.0
 30
0.0
210
0.0
220
0.0
230
1.0
  2
SOLID
 70
     1
 71
     0
 91
        2
 92
        1
 93
        1
 72
     4
 94
        3
 73
     0
 74
     1
 95
       29
 96
       25
 40
0.0
 40
0.0
 40
0.0
 40
0.0
 40
1.0
 40
1.0
 40
1.0
 40
2.0
 40
2.0
 40
2.0
 40
3.0
 40
3.0
 40
3.0
 40
4.0
 40
4.0
 40
4.0
 40
5.0
 40
5.0
 40
5.0
 40
6.0
 40
6.0
 40
6.0
 40
7.0
 40
7.0
 40
7.0
 40
8.0
 40
8.0
 40
8.0
 40
8.0
 10
117.4763780088253
 20
-150.2936685822183
 10
117.6858398143285
 20
-150.4018445804551
 10
117.7047878394974
 20
-150.5751328833632
 10
117.7047878394974
 20
-150.6915771107646
 10
117.7047878394974
 20
-150.8524630699258
 10
117.6582790504466
 20
-150.9940564943695
 10
117.4763780088253
 20
-151.0891411297625
 10
117.2817301139087
 20
-151.1928385038685
 10
117.0447075445235
 20
-151.2121310385859
 10
116.8820990376198
 20
-151.2121310385859
 10
116.7380940463363
 20
-151.2121310385859
 10
116.4862575663646
 20
-151.1949055611596
 10
116.2874755568656
 20
-151.0891411297625
 10
116.0845594327844
 20
-150.9813096410741
 10
116.0611327834847
 20
-150.820423681913
 10
116.0611327834847
 20
-150.6915771107646
 10
116.0611327834847
 20
-150.5327582088946
 10
116.1055745152444
 20
-150.3890977271597
 10
116.2874755568656
 20
-150.2936685822183
 10
116.4800563944911
 20
-150.1944498322431
 10
116.7084662251632
 20
-150.1710231829434
 10
116.8820990376198
 20
-150.1710231829434
 10
117.0533202832367
 20
-150.1710231829434
 10
117.2837971711999
 20
-150.1923827749519
 10
117.4763780088253
 20
-150.2936685822183
 97
        0
 97
        0
 92
        1
 93
        1
 72
     4
 94
        3
 73
     0
 74
     1
 95
       17
 96
       13
 40
0.0
 40
0.0
 40
0.0
 40
0.0
 40
1.0
 40
1.0
 40
1.0
 40
2.0
 40
2.0
 40
2.0
 40
3.0
 40
3.0
 40
3.0
 40
4.0
 40
4.0
 40
4.0
 40
4.0
 10
116.2537136211102
 20
-150.6915771107646
 10
116.2537136211102
 20
-150.9413465334452
 10
116.5372449795462
 20
-150.9878553224961
 10
116.8820990376198
 20
-150.9878553224961
 10
117.2014593891024
 20
-150.9878553224961
 10
117.5101399445808
 20
-150.951681819901
 10
117.5101399445808
 20
-150.6915771107646
 10
117.5101399445808
 20
-150.4438747453752
 10
117.2290201529844
 20
-150.3952988990331
 10
116.8820990376198
 20
-150.3952988990331
 10
116.5623941765886
 20
-150.3952988990331
 10
116.2537136211102
 20
-150.4335394589194
 10
116.2537136211102
 20
-150.6915771107646
 97
        0
 97
        0
 75
     2
 76
     1
 98
        0
  0
ENDBLK
  5
AD
330
AA
100
AcDbEntity
  8
0
100
AcDbBlockEnd
  0
BLOCK
  5
C1
330
BF
100
AcDbEntity
  8
0
100
AcDbBlockBegin
  2
block 7
 70
     0
 10
0.0
 20
0.0
 30
0.0
  3
block 7
  1

  0
SPLINE
  5
C3
330
BF
100
AcDbEntity
  8
_U+30EC_U+30A4_U+30E4_U+30FC 1
370
     0
100
AcDbSpline
210
0.0
220
0.0
230
1.0
 70
    11
 71
     3
 72
    26
 73
    22
 74
     0
 42
0.0000000001
 43
0.0000000001
 12
1.0
 22
0.0
 32
0.0
 13
1.0
 23
0.0
 33
0.0
 40
0.0
 40
0.0
 40
0.0
 40
0.0
 40
1.0
 40
1.0
 40
1.0
 40
2.0
 40
2.0
 40
2.0
 40
3.0
 40
3.0
 40
3.0
 40
4.0
 40
4.0
 40
4.0
 40
5.0
 40
5.0
 40
5.0
 40
6.0
 40
6.0
 40
6.0
 40
7.0
 40
7.0
 40
7.0
 40
7.0
 10
93.65371498309699
 20
-149.8396049972623
 30
0.0
 10
93.65371498309699
 20
-149.8396049972623
 30
0.0
 10
92.54956188007442
 20
-149.8396049972623
 30
0.0
 10
92.54956188007442
 20
-149.8396049972623
 30
0.0
 10
92.54956188007442
 20
-149.8396049972623
 30
0.0
 10
92.54956188007442
 20
-150.1696451447493
 30
0.0
 10
92.54956188007442
 20
-150.1696451447493
 30
0.0
 10
92.54956188007442
 20
-150.1696451447493
 30
0.0
 10
92.40142277420868
 20
-150.1696451447493
 30
0.0
 10
92.40142277420868
 20
-150.1696451447493
 30
0.0
 10
92.3866088636221
 20
-149.8375379399712
 30
0.0
 10
92.22365584716978
 20
-149.7910291509203
 30
0.0
 10
92.10927867705949
 20
-149.7614013297471
 30
0.0
 10
92.10927867705949
 20
-149.7614013297471
 30
0.0
 10
92.10927867705949
 20
-149.6153292811726
 30
0.0
 10
92.10927867705949
 20
-149.6153292811726
 30
0.0
 10
92.10927867705949
 20
-149.6153292811726
 30
0.0
 10
93.65371498309699
 20
-149.6153292811726
 30
0.0
 10
93.65371498309699
 20
-149.6153292811726
 30
0.0
 10
93.65371498309699
 20
-149.6153292811726
 30
0.0
 10
93.65371498309699
 20
-149.8396049972623
 30
0.0
 10
93.65371498309699
 20
-149.8396049972623
 30
0.0
  0
HATCH
  5
C4
330
BF
100
AcDbEntity
  8
_U+30EC_U+30A4_U+30E4_U+30FC 1
 62
   179
420
  2234388
100
AcDbHatch
 10
0.0
 20
0.0
 30
0.0
210
0.0
220
0.0
230
1.0
  2
SOLID
 70
     1
 71
     0
 91
        1
 92
        1
 93
        1
 72
     4
 94
        3
 73
     0
 74
     1
 95
       26
 96
       22
 40
0.0
 40
0.0
 40
0.0
 40
0.0
 40
1.0
 40
1.0
 40
1.0
 40
2.0
 40
2.0
 40
2.0
 40
3.0
 40
3.0
 40
3.0
 40
4.0
 40
4.0
 40
4.0
 40
5.0
 40
5.0
 40
5.0
 40
6.0
 40
6.0
 40
6.0
 40
7.0
 40
7.0
 40
7.0
 40
7.0
 10
93.65371498309699
 20
-149.8396049972623
 10
93.65371498309699
 20
-149.8396049972623
 10
92.54956188007442
 20
-149.8396049972623
 10
92.54956188007442
 20
-149.8396049972623
 10
92.54956188007442
 20
-149.8396049972623
 10
92.54956188007442
 20
-150.1696451447493
 10
92.54956188007442
 20
-150.1696451447493
 10
92.54956188007442
 20
-150.1696451447493
 10
92.40142277420868
 20
-150.1696451447493
 10
92.40142277420868
 20
-150.1696451447493
 10
92.3866088636221
 20
-149.8375379399712
 10
92.22365584716978
 20
-149.7910291509203
 10
92.10927867705949
 20
-149.7614013297471
 10
92.10927867705949
 20
-149.7614013297471
 10
92.10927867705949
 20
-149.6153292811726
 10
92.10927867705949
 20
-149.6153292811726
 10
92.10927867705949
 20
-149.6153292811726
 10
93.65371498309699
 20
-149.6153292811726
 10
93.65371498309699
 20
-149.6153292811726
 10
93.65371498309699
 20
-149.6153292811726
 10
93.65371498309699
 20
-149.8396049972623
 10
93.65371498309699
 20
-149.8396049972623
 97
        0
 97
        0
 75
     2
 76
     1
 98
        0
  0
SPLINE
  5
C5
330
BF
100
AcDbEntity
  8
_U+30EC_U+30A4_U+30E4_U+30FC 1
370
     0
100
AcDbSpline
210
0.0
220
0.0
230
1.0
 70
    11
 71
     3
 72
    32
 73
    28
 74
     0
 42
0.0000000001
 43
0.0000000001
 12
1.0
 22
0.0
 32
0.0
 13
1.0
 23
0.0
 33
0.0
 40
0.0
 40
0.0
 40
0.0
 40
0.0
 40
1.0
 40
1.0
 40
1.0
 40
2.0
 40
2.0
 40
2.0
 40
3.0
 40
3.0
 40
3.0
 40
4.0
 40
4.0
 40
4.0
 40
5.0
 40
5.0
 40
5.0
 40
6.0
 40
6.0
 40
6.0
 40
7.0
 40
7.0
 40
7.0
 40
8.0
 40
8.0
 40
8.0
 40
9.0
 40
9.0
 40
9.0
 40
9.0
 10
93.70435788673016
 20
-148.6100504185767
 30
0.0
 10
93.70435788673016
 20
-149.1261257222671
 30
0.0
 10
93.15038653270199
 20
-149.1347384609802
 30
0.0
 10
92.93644610306798
 20
-149.1347384609802
 30
0.0
 10
92.70596921510476
 20
-149.1347384609802
 30
0.0
 10
92.05863577342632
 20
-149.1154459262628
 30
0.0
 10
92.05863577342632
 20
-148.5718098586904
 30
0.0
 10
92.05863577342632
 20
-148.3985215557823
 30
0.0
 10
92.12857121177689
 20
-148.152886247684
 30
0.0
 10
92.46067841655497
 20
-148.1149901973463
 30
0.0
 10
92.46067841655497
 20
-148.1149901973463
 30
0.0
 10
92.46067841655497
 20
-148.3285861174317
 30
0.0
 10
92.46067841655497
 20
-148.3285861174317
 30
0.0
 10
92.40348983149983
 20
-148.339265913436
 30
0.0
 10
92.25535072563409
 20
-148.3709607919003
 30
0.0
 10
92.25535072563409
 20
-148.5738769159815
 30
0.0
 10
92.25535072563409
 20
-148.8660210131307
 30
0.0
 10
92.58332381582987
 20
-148.9059841207596
 30
0.0
 10
92.78830699720223
 20
-148.9187309740551
 30
0.0
 10
92.71010332968706
 20
-148.8257133959533
 30
0.0
 10
92.65084768734077
 20
-148.7578450148939
 30
0.0
 10
92.65084768734077
 20
-148.5759439732727
 30
0.0
 10
92.65084768734077
 20
-148.3961099889426
 30
0.0
 10
92.7590236855776
 20
-148.0936306053377
 30
0.0
 10
93.16520044328857
 20
-148.0936306053377
 30
0.0
 10
93.48456079477123
 20
-148.0936306053377
 30
0.0
 10
93.70435788673016
 20
-148.2927571243852
 30
0.0
 10
93.70435788673016
 20
-148.6100504185767
 30
0.0
  0
SPLINE
  5
C6
330
BF
100
AcDbEntity
  8
_U+30EC_U+30A4_U+30E4_U+30FC 1
370
     0
100
AcDbSpline
210
0.0
220
0.0
230
1.0
 70
    11
 71
     3
 72
    17
 73
    13
 74
     0
 42
0.0000000001
 43
0.0000000001
 12
1.0
 22
0.0
 32
0.0
 13
1.0
 23
0.0
 33
0.0
 40
0.0
 40
0.0
 40
0.0
 40
0.0
 40
1.0
 40
1.0
 40
1.0
 40
2.0
 40
2.0
 40
2.0
 40
3.0
 40
3.0
 40
3.0
 40
4.0
 40
4.0
 40
4.0
 40
4.0
 10
92.84549558225739
 20
-148.5931694506989
 30
0.0
 10
92.84549558225739
 20
-148.8553412171264
 30
0.0
 10
93.05702444505172
 20
-148.8932372674642
 30
0.0
 10
93.17346867245317
 20
-148.8932372674642
 30
0.0
 10
93.3491685422009
 20
-148.8932372674642
 30
0.0
 10
93.51212155865322
 20
-148.7981526320713
 30
0.0
 10
93.51212155865322
 20
-148.6141845331589
 30
0.0
 10
93.51212155865322
 20
-148.4936061911752
 30
0.0
 10
93.45286591630693
 20
-148.3179063214275
 30
0.0
 10
93.16726750057971
 20
-148.3179063214275
 30
0.0
 10
92.94299178448995
 20
-148.3179063214275
 30
0.0
 10
92.84549558225739
 20
-148.4574326885801
 30
0.0
 10
92.84549558225739
 20
-148.5931694506989
 30
0.0
  0
HATCH
  5
C7
330
BF
100
AcDbEntity
  8
_U+30EC_U+30A4_U+30E4_U+30FC 1
 62
   179
420
  2234388
100
AcDbHatch
 10
0.0
 20
0.0
 30
0.0
210
0.0
220
0.0
230
1.0
  2
SOLID
 70
     1
 71
     0
 91
        2
 92
        1
 93
        1
 72
     4
 94
        3
 73
     0
 74
     1
 95
       32
 96
       28
 40
0.0
 40
0.0
 40
0.0
 40
0.0
 40
1.0
 40
1.0
 40
1.0
 40
2.0
 40
2.0
 40
2.0
 40
3.0
 40
3.0
 40
3.0
 40
4.0
 40
4.0
 40
4.0
 40
5.0
 40
5.0
 40
5.0
 40
6.0
 40
6.0
 40
6.0
 40
7.0
 40
7.0
 40
7.0
 40
8.0
 40
8.0
 40
8.0
 40
9.0
 40
9.0
 40
9.0
 40
9.0
 10
93.70435788673016
 20
-148.6100504185767
 10
93.70435788673016
 20
-149.1261257222671
 10
93.15038653270199
 20
-149.1347384609802
 10
92.93644610306798
 20
-149.1347384609802
 10
92.70596921510476
 20
-149.1347384609802
 10
92.05863577342632
 20
-149.1154459262628
 10
92.05863577342632
 20
-148.5718098586904
 10
92.05863577342632
 20
-148.3985215557823
 10
92.12857121177689
 20
-148.152886247684
 10
92.46067841655497
 20
-148.1149901973463
 10
92.46067841655497
 20
-148.1149901973463
 10
92.46067841655497
 20
-148.3285861174317
 10
92.46067841655497
 20
-148.3285861174317
 10
92.40348983149983
 20
-148.339265913436
 10
92.25535072563409
 20
-148.3709607919003
 10
92.25535072563409
 20
-148.5738769159815
 10
92.25535072563409
 20
-148.8660210131307
 10
92.58332381582987
 20
-148.9059841207596
 10
92.78830699720223
 20
-148.9187309740551
 10
92.71010332968706
 20
-148.8257133959533
 10
92.65084768734077
 20
-148.7578450148939
 10
92.65084768734077
 20
-148.5759439732727
 10
92.65084768734077
 20
-148.3961099889426
 10
92.7590236855776
 20
-148.0936306053377
 10
93.16520044328857
 20
-148.0936306053377
 10
93.48456079477123
 20
-148.0936306053377
 10
93.70435788673016
 20
-148.2927571243852
 10
93.70435788673016
 20
-148.6100504185767
 97
        0
 97
        0
 92
        1
 93
        1
 72
     4
 94
        3
 73
     0
 74
     1
 95
       17
 96
       13
 40
0.0
 40
0.0
 40
0.0
 40
0.0
 40
1.0
 40
1.0
 40
1.0
 40
2.0
 40
2.0
 40
2.0
 40
3.0
 40
3.0
 40
3.0
 40
4.0
 40
4.0
 40
4.0
 40
4.0
 10
92.84549558225739
 20
-148.5931694506989
 10
92.84549558225739
 20
-148.8553412171264
 10
93.05702444505172
 20
-148.8932372674642
 10
93.17346867245317
 20
-148.8932372674642
 10
93.3491685422009
 20
-148.8932372674642
 10
93.51212155865322
 20
-148.7981526320713
 10
93.51212155865322
 20
-148.6141845331589
 10
93.51212155865322
 20
-148.4936061911752
 10
93.45286591630693
 20
-148.3179063214275
 10
93.16726750057971
 20
-148.3179063214275
 10
92.94299178448995
 20
-148.3179063214275
 10
92.84549558225739
 20
-148.4574326885801
 10
92.84549558225739
 20
-148.5931694506989
 97
        0
 97
        0
 75
     2
 76
     1
 98
        0
  0
ENDBLK
  5
C2
330
BF
100
AcDbEntity
  8
0
100
AcDbBlockEnd
  0
ENDSEC
  0
SECTION
  2
ENTITIES
  0
SPLINE
  5
41
330
1F
100
AcDbEntity
  8
_U+30EC_U+30A4_U+30E4_U+30FC 1
370
     0
100
AcDbSpline
210
0.0
220
0.0
230
1.0
 70
    11
 71
     3
 72
    74
 73
    70
 74
     0
 42
0.0000000001
 43
0.0000000001
 12
1.0
 22
0.0
 32
0.0
 13
1.0
 23
0.0
 33
0.0
 40
0.0
 40
0.0
 40
0.0
 40
0.0
 40
1.0
 40
1.0
 40
1.0
 40
2.0
 40
2.0
 40
2.0
 40
3.0
 40
3.0
 40
3.0
 40
4.0
 40
4.0
 40
4.0
 40
5.0
 40
5.0
 40
5.0
 40
6.0
 40
6.0
 40
6.0
 40
7.0
 40
7.0
 40
7.0
 40
8.0
 40
8.0
 40
8.0
 40
9.0
 40
9.0
 40
9.0
 40
10.0
 40
10.0
 40
10.0
 40
11.0
 40
11.0
 40
11.0
 40
12.0
 40
12.0
 40
12.0
 40
13.0
 40
13.0
 40
13.0
 40
14.0
 40
14.0
 40
14.0
 40
15.0
 40
15.0
 40
15.0
 40
16.0
 40
16.0
 40
16.0
 40
17.0
 40
17.0
 40
17.0
 40
18.0
 40
18.0
 40
18.0
 40
19.0
 40
19.0
 40
19.0
 40
20.0
 40
20.0
 40
20.0
 40
21.0
 40
21.0
 40
21.0
 40
22.0
 40
22.0
 40
22.0
 40
23.0
 40
23.0
 40
23.0
 40
23.0
 10
101.2466623688944
 20
-145.2336092267938
 30
0.0
 10
101.2466623688944
 20
-145.2336092267938
 30
0.0
 10
101.0395798324604
 20
-145.4339953588781
 30
0.0
 10
101.0395798324604
 20
-145.4339953588781
 30
0.0
 10
101.0395798324604
 20
-145.4339953588781
 30
0.0
 10
100.8395489758481
 20
-145.2343197777377
 30
0.0
 10
100.8395489758481
 20
-145.2343197777377
 30
0.0
 10
100.8395489758481
 20
-145.2343197777377
 30
0.0
 10
100.6395288851591
 20
-145.4339953588781
 30
0.0
 10
100.6395288851591
 20
-145.4339953588781
 30
0.0
 10
100.6395288851591
 20
-145.4339953588781
 30
0.0
 10
100.4394980285468
 20
-145.2343197777377
 30
0.0
 10
100.4394980285468
 20
-145.2343197777377
 30
0.0
 10
100.4394980285468
 20
-145.2343197777377
 30
0.0
 10
100.2398332133301
 20
-145.4339953588781
 30
0.0
 10
100.2398332133301
 20
-145.4339953588781
 30
0.0
 10
100.2398332133301
 20
-145.4339953588781
 30
0.0
 10
100.0394470812456
 20
-145.2336092267938
 30
0.0
 10
100.0394470812456
 20
-145.2336092267938
 30
0.0
 10
100.0394470812456
 20
-145.2336092267938
 30
0.0
 10
99.25063864028066
 20
-145.2336092267938
 30
0.0
 10
99.25063864028066
 20
-145.2336092267938
 30
0.0
 10
99.25063864028066
 20
-145.2336092267938
 30
0.0
 10
99.25063864028066
 20
-141.1657373711213
 30
0.0
 10
99.25063864028066
 20
-141.1657373711213
 30
0.0
 10
98.6985405569226
 20
-141.1657373711213
 30
0.0
 10
98.25087193046116
 20
-141.6134059975828
 30
0.0
 10
98.25087193046116
 20
-142.166214631885
 30
0.0
 10
98.25087193046116
 20
-142.166214631885
 30
0.0
 10
98.25087193046116
 20
-156.1654893272781
 30
0.0
 10
98.25087193046116
 20
-156.1654893272781
 30
0.0
 10
98.25087193046116
 20
-156.71829796158
 30
0.0
 10
98.6985405569226
 20
-157.1659665880414
 30
0.0
 10
99.25063864028066
 20
-157.1659665880414
 30
0.0
 10
99.25063864028066
 20
-157.1659665880414
 30
0.0
 10
113.2061821548582
 20
-157.1659665880414
 30
0.0
 10
113.2061821548582
 20
-157.1659665880414
 30
0.0
 10
113.7589800232367
 20
-157.1659665880414
 30
0.0
 10
114.2507566378327
 20
-156.7863816611072
 30
0.0
 10
114.2507566378327
 20
-156.2339283022772
 30
0.0
 10
114.2507566378327
 20
-156.2339283022772
 30
0.0
 10
99.25063864028066
 20
-156.2339283022772
 30
0.0
 10
99.25063864028066
 20
-156.2339283022772
 30
0.0
 10
99.25063864028066
 20
-156.2339283022772
 30
0.0
 10
99.25063864028066
 20
-146.2333867025367
 30
0.0
 10
99.25063864028066
 20
-146.2333867025367
 30
0.0
 10
99.25063864028066
 20
-146.2333867025367
 30
0.0
 10
114.2507566378327
 20
-146.2333867025367
 30
0.0
 10
114.2507566378327
 20
-146.2333867025367
 30
0.0
 10
114.2507566378327
 20
-146.2333867025367
 30
0.0
 10
114.7703954621657
 20
-145.9335234383159
 30
0.0
 10
114.7703954621657
 20
-145.9335234383159
 30
0.0
 10
114.7703954621657
 20
-145.9335234383159
 30
0.0
 10
119.551240594434
 20
-145.9335234383159
 30
0.0
 10
119.551240594434
 20
-145.9335234383159
 30
0.0
 10
119.9375326916411
 20
-145.9335234383159
 30
0.0
 10
120.2511440400327
 20
-145.6202565994728
 30
0.0
 10
120.2511440400327
 20
-145.2336092267938
 30
0.0
 10
120.2511440400327
 20
-145.2336092267938
 30
0.0
 10
114.4507767285216
 20
-145.2336092267938
 30
0.0
 10
114.4507767285216
 20
-145.2336092267938
 30
0.0
 10
114.4507767285216
 20
-145.2336092267938
 30
0.0
 10
114.2507566378327
 20
-145.4339953588781
 30
0.0
 10
114.2507566378327
 20
-145.4339953588781
 30
0.0
 10
114.2507566378327
 20
-145.4339953588781
 30
0.0
 10
114.0507257812204
 20
-145.2336092267938
 30
0.0
 10
114.0507257812204
 20
-145.2336092267938
 30
0.0
 10
114.0507257812204
 20
-145.2336092267938
 30
0.0
 10
101.2466623688944
 20
-145.2336092267938
 30
0.0
 10
101.2466623688944
 20
-145.2336092267938
 30
0.0
  0
HATCH
  5
42
330
1F
100
AcDbEntity
  8
_U+30EC_U+30A4_U+30E4_U+30FC 1
 62
     9
420
 13224394
100
AcDbHatch
 10
0.0
 20
0.0
 30
0.0
210
0.0
220
0.0
230
1.0
  2
SOLID
 70
     1
 71
     0
 91
        1
 92
        1
 93
        1
 72
     4
 94
        3
 73
     0
 74
     1
 95
       74
 96
       70
 40
0.0
 40
0.0
 40
0.0
 40
0.0
 40
1.0
 40
1.0
 40
1.0
 40
2.0
 40
2.0
 40
2.0
 40
3.0
 40
3.0
 40
3.0
 40
4.0
 40
4.0
 40
4.0
 40
5.0
 40
5.0
 40
5.0
 40
6.0
 40
6.0
 40
6.0
 40
7.0
 40
7.0
 40
7.0
 40
8.0
 40
8.0
 40
8.0
 40
9.0
 40
9.0
 40
9.0
 40
10.0
 40
10.0
 40
10.0
 40
11.0
 40
11.0
 40
11.0
 40
12.0
 40
12.0
 40
12.0
 40
13.0
 40
13.0
 40
13.0
 40
14.0
 40
14.0
 40
14.0
 40
15.0
 40
15.0
 40
15.0
 40
16.0
 40
16.0
 40
16.0
 40
17.0
 40
17.0
 40
17.0
 40
18.0
 40
18.0
 40
18.0
 40
19.0
 40
19.0
 40
19.0
 40
20.0
 40
20.0
 40
20.0
 40
21.0
 40
21.0
 40
21.0
 40
22.0
 40
22.0
 40
22.0
 40
23.0
 40
23.0
 40
23.0
 40
23.0
 10
101.2466623688944
 20
-145.2336092267938
 10
101.2466623688944
 20
-145.2336092267938
 10
101.0395798324604
 20
-145.4339953588781
 10
101.0395798324604
 20
-145.4339953588781
 10
101.0395798324604
 20
-145.4339953588781
 10
100.8395489758481
 20
-145.2343197777377
 10
100.8395489758481
 20
-145.2343197777377
 10
100.8395489758481
 20
-145.2343197777377
 10
100.6395288851591
 20
-145.4339953588781
 10
100.6395288851591
 20
-145.4339953588781
 10
100.6395288851591
 20
-145.4339953588781
 10
100.4394980285468
 20
-145.2343197777377
 10
100.4394980285468
 20
-145.2343197777377
 10
100.4394980285468
 20
-145.2343197777377
 10
100.2398332133301
 20
-145.4339953588781
 10
100.2398332133301
 20
-145.4339953588781
 10
100.2398332133301
 20
-145.4339953588781
 10
100.0394470812456
 20
-145.2336092267938
 10
100.0394470812456
 20
-145.2336092267938
 10
100.0394470812456
 20
-145.2336092267938
 10
99.25063864028066
 20
-145.2336092267938
 10
99.25063864028066
 20
-145.2336092267938
 10
99.25063864028066
 20
-145.2336092267938
 10
99.25063864028066
 20
-141.1657373711213
 10
99.25063864028066
 20
-141.1657373711213
 10
98.6985405569226
 20
-141.1657373711213
 10
98.25087193046116
 20
-141.6134059975828
 10
98.25087193046116
 20
-142.166214631885
 10
98.25087193046116
 20
-142.166214631885
 10
98.25087193046116
 20
-156.1654893272781
 10
98.25087193046116
 20
-156.1654893272781
 10
98.25087193046116
 20
-156.71829796158
 10
98.6985405569226
 20
-157.1659665880414
 10
99.25063864028066
 20
-157.1659665880414
 10
99.25063864028066
 20
-157.1659665880414
 10
113.2061821548582
 20
-157.1659665880414
 10
113.2061821548582
 20
-157.1659665880414
 10
113.7589800232367
 20
-157.1659665880414
 10
114.2507566378327
 20
-156.7863816611072
 10
114.2507566378327
 20
-156.2339283022772
 10
114.2507566378327
 20
-156.2339283022772
 10
99.25063864028066
 20
-156.2339283022772
 10
99.25063864028066
 20
-156.2339283022772
 10
99.25063864028066
 20
-156.2339283022772
 10
99.25063864028066
 20
-146.2333867025367
 10
99.25063864028066
 20
-146.2333867025367
 10
99.25063864028066
 20
-146.2333867025367
 10
114.2507566378327
 20
-146.2333867025367
 10
114.2507566378327
 20
-146.2333867025367
 10
114.2507566378327
 20
-146.2333867025367
 10
114.7703954621657
 20
-145.9335234383159
 10
114.7703954621657
 20
-145.9335234383159
 10
114.7703954621657
 20
-145.9335234383159
 10
119.551240594434
 20
-145.9335234383159
 10
119.551240594434
 20
-145.9335234383159
 10
119.9375326916411
 20
-145.9335234383159
 10
120.2511440400327
 20
-145.6202565994728
 10
120.2511440400327
 20
-145.2336092267938
 10
120.2511440400327
 20
-145.2336092267938
 10
114.4507767285216
 20
-145.2336092267938
 10
114.4507767285216
 20
-145.2336092267938
 10
114.4507767285216
 20
-145.2336092267938
 10
114.2507566378327
 20
-145.4339953588781
 10
114.2507566378327
 20
-145.4339953588781
 10
114.2507566378327
 20
-145.4339953588781
 10
114.0507257812204
 20
-145.2336092267938
 10
114.0507257812204
 20
-145.2336092267938
 10
114.0507257812204
 20
-145.2336092267938
 10
101.2466623688944
 20
-145.2336092267938
 10
101.2466623688944
 20
-145.2336092267938
 97
        0
 97
        0
 75
     2
 76
     1
 98
        0
  0
SPLINE
  5
43
330
1F
100
AcDbEntity
  8
_U+30EC_U+30A4_U+30E4_U+30FC 1
 62
     9
420
 13224394
370
     9
100
AcDbSpline
210
0.0
220
0.0
230
1.0
 70
    11
 71
     3
 72
    74
 73
    70
 74
     0
 42
0.0000000001
 43
0.0000000001
 12
1.0
 22
0.0
 32
0.0
 13
1.0
 23
0.0
 33
0.0
 40
0.0
 40
0.0
 40
0.0
 40
0.0
 40
1.0
 40
1.0
 40
1.0
 40
2.0
 40
2.0
 40
2.0
 40
3.0
 40
3.0
 40
3.0
 40
4.0
 40
4.0
 40
4.0
 40
5.0
 40
5.0
 40
5.0
 40
6.0
 40
6.0
 40
6.0
 40
7.0
 40
7.0
 40
7.0
 40
8.0
 40
8.0
 40
8.0
 40
9.0
 40
9.0
 40
9.0
 40
10.0
 40
10.0
 40
10.0
 40
11.0
 40
11.0
 40
11.0
 40
12.0
 40
12.0
 40
12.0
 40
13.0
 40
13.0
 40
13.0
 40
14.0
 40
14.0
 40
14.0
 40
15.0
 40
15.0
 40
15.0
 40
16.0
 40
16.0
 40
16.0
 40
17.0
 40
17.0
 40
17.0
 40
18.0
 40
18.0
 40
18.0
 40
19.0
 40
19.0
 40
19.0
 40
20.0
 40
20.0
 40
20.0
 40
21.0
 40
21.0
 40
21.0
 40
22.0
 40
22.0
 40
22.0
 40
23.0
 40
23.0
 40
23.0
 40
23.0
 10
101.2466623688944
 20
-145.2336092267938
 30
0.0
 10
101.2466623688944
 20
-145.2336092267938
 30
0.0
 10
101.0395798324604
 20
-145.4339953588781
 30
0.0
 10
101.0395798324604
 20
-145.4339953588781
 30
0.0
 10
101.0395798324604
 20
-145.4339953588781
 30
0.0
 10
100.8395489758481
 20
-145.2343197777377
 30
0.0
 10
100.8395489758481
 20
-145.2343197777377
 30
0.0
 10
100.8395489758481
 20
-145.2343197777377
 30
0.0
 10
100.6395288851591
 20
-145.4339953588781
 30
0.0
 10
100.6395288851591
 20
-145.4339953588781
 30
0.0
 10
100.6395288851591
 20
-145.4339953588781
 30
0.0
 10
100.4394980285468
 20
-145.2343197777377
 30
0.0
 10
100.4394980285468
 20
-145.2343197777377
 30
0.0
 10
100.4394980285468
 20
-145.2343197777377
 30
0.0
 10
100.2398332133301
 20
-145.4339953588781
 30
0.0
 10
100.2398332133301
 20
-145.4339953588781
 30
0.0
 10
100.2398332133301
 20
-145.4339953588781
 30
0.0
 10
100.0394470812456
 20
-145.2336092267938
 30
0.0
 10
100.0394470812456
 20
-145.2336092267938
 30
0.0
 10
100.0394470812456
 20
-145.2336092267938
 30
0.0
 10
99.25063864028066
 20
-145.2336092267938
 30
0.0
 10
99.25063864028066
 20
-145.2336092267938
 30
0.0
 10
99.25063864028066
 20
-145.2336092267938
 30
0.0
 10
99.25063864028066
 20
-141.1657373711213
 30
0.0
 10
99.25063864028066
 20
-141.1657373711213
 30
0.0
 10
98.6985405569226
 20
-141.1657373711213
 30
0.0
 10
98.25087193046116
 20
-141.6134059975828
 30
0.0
 10
98.25087193046116
 20
-142.166214631885
 30
0.0
 10
98.25087193046116
 20
-142.166214631885
 30
0.0
 10
98.25087193046116
 20
-156.1654893272781
 30
0.0
 10
98.25087193046116
 20
-156.1654893272781
 30
0.0
 10
98.25087193046116
 20
-156.71829796158
 30
0.0
 10
98.6985405569226
 20
-157.1659665880414
 30
0.0
 10
99.25063864028066
 20
-157.1659665880414
 30
0.0
 10
99.25063864028066
 20
-157.1659665880414
 30
0.0
 10
113.2061821548582
 20
-157.1659665880414
 30
0.0
 10
113.2061821548582
 20
-157.1659665880414
 30
0.0
 10
113.7589800232367
 20
-157.1659665880414
 30
0.0
 10
114.2507566378327
 20
-156.7863816611072
 30
0.0
 10
114.2507566378327
 20
-156.2339283022772
 30
0.0
 10
114.2507566378327
 20
-156.2339283022772
 30
0.0
 10
99.25063864028066
 20
-156.2339283022772
 30
0.0
 10
99.25063864028066
 20
-156.2339283022772
 30
0.0
 10
99.25063864028066
 20
-156.2339283022772
 30
0.0
 10
99.25063864028066
 20
-146.2333867025367
 30
0.0
 10
99.25063864028066
 20
-146.2333867025367
 30
0.0
 10
99.25063864028066
 20
-146.2333867025367
 30
0.0
 10
114.2507566378327
 20
-146.2333867025367
 30
0.0
 10
114.2507566378327
 20
-146.2333867025367
 30
0.0
 10
114.2507566378327
 20
-146.2333867025367
 30
0.0
 10
114.7703954621657
 20
-145.9335234383159
 30
0.0
 10
114.7703954621657
 20
-145.9335234383159
 30
0.0
 10
114.7703954621657
 20
-145.9335234383159
 30
0.0
 10
119.551240594434
 20
-145.9335234383159
 30
0.0
 10
119.551240594434
 20
-145.9335234383159
 30
0.0
 10
119.9375326916411
 20
-145.9335234383159
 30
0.0
 10
120.2511440400327
 20
-145.6202565994728
 30
0.0
 10
120.2511440400327
 20
-145.2336092267938
 30
0.0
 10
120.2511440400327
 20
-145.2336092267938
 30
0.0
 10
114.4507767285216
 20
-145.2336092267938
 30
0.0
 10
114.4507767285216
 20
-145.2336092267938
 30
0.0
 10
114.4507767285216
 20
-145.2336092267938
 30
0.0
 10
114.2507566378327
 20
-145.4339953588781
 30
0.0
 10
114.2507566378327
 20
-145.4339953588781
 30
0.0
 10
114.2507566378327
 20
-145.4339953588781
 30
0.0
 10
114.0507257812204
 20
-145.2336092267938
 30
0.0
 10
114.0507257812204
 20
-145.2336092267938
 30
0.0
 10
114.0507257812204
 20
-145.2336092267938
 30
0.0
 10
101.2466623688944
 20
-145.2336092267938
 30
0.0
 10
101.2466623688944
 20
-145.2336092267938
 30
0.0
  0
POLYLINE
  5
44
330
1F
100
AcDbEntity
  8
_U+30EC_U+30A4_U+30E4_U+30FC 1
 62
   179
420
  2234388
370
     9
100
AcDb2dPolyline
 66
     1
 10
0.0
 20
0.0
 30
0.0
  0
VERTEX
  5
45
330
44
100
AcDbEntity
  8
_U+30EC_U+30A4_U+30E4_U+30FC 1
 62
   179
420
  2234388
370
     9
100
AcDbVertex
100
AcDb2dVertex
 10
98.54360815339687
 20
-156.8725198141619
 30
0.0
  0
VERTEX
  5
46
330
44
100
AcDbEntity
  8
_U+30EC_U+30A4_U+30E4_U+30FC 1
 62
   179
420
  2234388
370
     9
100
AcDbVertex
100
AcDb2dVertex
 10
94.2509976469288
 20
-161.1658301056504
 30
0.0
  0
SEQEND
  5
47
330
44
100
AcDbEntity
  8
_U+30EC_U+30A4_U+30E4_U+30FC 1
 62
   179
420
  2234388
370
     9
  0
POLYLINE
  5
48
330
1F
100
AcDbEntity
  8
_U+30EC_U+30A4_U+30E4_U+30FC 1
 62
   179
420
  2234388
370
     9
100
AcDb2dPolyline
 66
     1
 10
0.0
 20
0.0
 30
0.0
  0
VERTEX
  5
49
330
48
100
AcDbEntity
  8
_U+30EC_U+30A4_U+30E4_U+30FC 1
 62
   179
420
  2234388
370
     9
100
AcDbVertex
100
AcDb2dVertex
 10
90.03834565348868
 20
-161.1657547441866
 30
0.0
  0
VERTEX
  5
4A
330
48
100
AcDbEntity
  8
_U+30EC_U+30A4_U+30E4_U+30FC 1
 62
   179
420
  2234388
370
     9
100
AcDbVertex
100
AcDb2dVertex
 10
94.2508576899247
 20
-161.1657547441866
 30
0.0
  0
SEQEND
  5
4B
330
48
100
AcDbEntity
  8
_U+30EC_U+30A4_U+30E4_U+30FC 1
 62
   179
420
  2234388
370
     9
  0
POLYLINE
  5
4C
330
1F
100
AcDbEntity
  8
_U+30EC_U+30A4_U+30E4_U+30FC 1
 62
   179
420
  2234388
370
     9
100
AcDb2dPolyline
 66
     1
 10
0.0
 20
0.0
 30
0.0
  0
VERTEX
  5
4D
330
4C
100
AcDbEntity
  8
_U+30EC_U+30A4_U+30E4_U+30FC 1
 62
   179
420
  2234388
370
     9
100
AcDbVertex
100
AcDb2dVertex
 10
98.54360815339687
 20
-156.8725198141619
 30
0.0
  0
VERTEX
  5
4E
330
4C
100
AcDbEntity
  8
_U+30EC_U+30A4_U+30E4_U+30FC 1
 62
   179
420
  2234388
370
     9
100
AcDbVertex
100
AcDb2dVertex
 10
97.24467796437699
 20
-157.6228831426961
 30
0.0
  0
SEQEND
  5
4F
330
4C
100
AcDbEntity
  8
_U+30EC_U+30A4_U+30E4_U+30FC 1
 62
   179
420
  2234388
370
     9
  0
POLYLINE
  5
50
330
1F
100
AcDbEntity
  8
_U+30EC_U+30A4_U+30E4_U+30FC 1
 62
   179
420
  2234388
370
     9
100
AcDb2dPolyline
 66
     1
 10
0.0
 20
0.0
 30
0.0
  0
VERTEX
  5
51
330
50
100
AcDbEntity
  8
_U+30EC_U+30A4_U+30E4_U+30FC 1
 62
   179
420
  2234388
370
     9
100
AcDbVertex
100
AcDb2dVertex
 10
98.54360815339687
 20
-156.8725198141619
 30
0.0
  0
VERTEX
  5
52
330
50
100
AcDbEntity
  8
_U+30EC_U+30A4_U+30E4_U+30FC 1
 62
   179
420
  2234388
370
     9
100
AcDbVertex
100
AcDb2dVertex
 10
97.7939553758065
 20
-158.1721605541256
 30
0.0
  0
SEQEND
  5
53
330
50
100
AcDbEntity
  8
_U+30EC_U+30A4_U+30E4_U+30FC 1
 62
   179
420
  2234388
370
     9
  0
SPLINE
  5
54
330
1F
100
AcDbEntity
  8
_U+30EC_U+30A4_U+30E4_U+30FC 1
 62
   179
420
  2234388
370
     9
100
AcDbSpline
210
0.0
220
0.0
230
1.0
 70
    11
 71
     3
 72
    17
 73
    13
 74
     0
 42
0.0000000001
 43
0.0000000001
 12
1.0
 22
0.0
 32
0.0
 13
1.0
 23
0.0
 33
0.0
 40
0.0
 40
0.0
 40
0.0
 40
0.0
 40
1.0
 40
1.0
 40
1.0
 40
2.0
 40
2.0
 40
2.0
 40
3.0
 40
3.0
 40
3.0
 40
4.0
 40
4.0
 40
4.0
 40
4.0
 10
120.3510518091049
 20
-138.1659850728804
 30
0.0
 10
120.3510518091049
 20
-138.1109604384269
 30
0.0
 10
120.3062440359499
 20
-138.0661526652719
 30
0.0
 10
120.2512086355731
 20
-138.0661526652719
 30
0.0
 10
120.1961732351962
 20
-138.0661526652719
 30
0.0
 10
120.1513762279645
 20
-138.1109604384269
 30
0.0
 10
120.1513762279645
 20
-138.1659850728804
 30
0.0
 10
120.1513762279645
 20
-138.2210204732573
 30
0.0
 10
120.1961732351962
 20
-138.2658282464123
 30
0.0
 10
120.2512086355731
 20
-138.2658282464123
 30
0.0
 10
120.3062440359499
 20
-138.2658282464123
 30
0.0
 10
120.3510518091049
 20
-138.2210204732573
 30
0.0
 10
120.3510518091049
 20
-138.1659850728804
 30
0.0
  0
SPLINE
  5
55
330
1F
100
AcDbEntity
  8
_U+30EC_U+30A4_U+30E4_U+30FC 1
 62
   179
420
  2234388
370
     9
100
AcDbSpline
210
0.0
220
0.0
230
1.0
 70
    11
 71
     3
 72
    17
 73
    13
 74
     0
 42
0.0000000001
 43
0.0000000001
 12
1.0
 22
0.0
 32
0.0
 13
1.0
 23
0.0
 33
0.0
 40
0.0
 40
0.0
 40
0.0
 40
0.0
 40
1.0
 40
1.0
 40
1.0
 40
2.0
 40
2.0
 40
2.0
 40
3.0
 40
3.0
 40
3.0
 40
4.0
 40
4.0
 40
4.0
 40
4.0
 10
99.35048181381288
 20
-138.1659850728804
 30
0.0
 10
99.35048181381288
 20
-138.1109604384269
 30
0.0
 10
99.30567404065752
 20
-138.0661526652719
 30
0.0
 10
99.25063864028066
 20
-138.0661526652719
 30
0.0
 10
99.19560323990379
 20
-138.0661526652719
 30
0.0
 10
99.15080623267215
 20
-138.1109604384269
 30
0.0
 10
99.15080623267215
 20
-138.1659850728804
 30
0.0
 10
99.15080623267215
 20
-138.2210204732573
 30
0.0
 10
99.19560323990379
 20
-138.2658282464123
 30
0.0
 10
99.25063864028066
 20
-138.2658282464123
 30
0.0
 10
99.30567404065752
 20
-138.2658282464123
 30
0.0
 10
99.35048181381288
 20
-138.2210204732573
 30
0.0
 10
99.35048181381288
 20
-138.1659850728804
 30
0.0
  0
SPLINE
  5
56
330
1F
100
AcDbEntity
  8
_U+30EC_U+30A4_U+30E4_U+30FC 1
 62
   179
420
  2234388
370
     9
100
AcDbSpline
210
0.0
220
0.0
230
1.0
 70
    11
 71
     3
 72
    17
 73
    13
 74
     0
 42
0.0000000001
 43
0.0000000001
 12
1.0
 22
0.0
 32
0.0
 13
1.0
 23
0.0
 33
0.0
 40
0.0
 40
0.0
 40
0.0
 40
0.0
 40
1.0
 40
1.0
 40
1.0
 40
2.0
 40
2.0
 40
2.0
 40
3.0
 40
3.0
 40
3.0
 40
4.0
 40
4.0
 40
4.0
 40
4.0
 10
98.35067204029949
 20
-143.3498417813826
 30
0.0
 10
98.35067204029949
 20
-143.2948171469291
 30
0.0
 10
98.30586426714446
 20
-143.2500093737741
 30
0.0
 10
98.25082886676759
 20
-143.2500093737741
 30
0.0
 10
98.19579346639073
 20
-143.2500093737741
 30
0.0
 10
98.15099645915909
 20
-143.2948171469291
 30
0.0
 10
98.15099645915909
 20
-143.3498417813826
 30
0.0
 10
98.15099645915909
 20
-143.4048771817595
 30
0.0
 10
98.19579346639073
 20
-143.4496849549148
 30
0.0
 10
98.25082886676759
 20
-143.4496849549148
 30
0.0
 10
98.30586426714446
 20
-143.4496849549148
 30
0.0
 10
98.35067204029949
 20
-143.4048771817595
 30
0.0
 10
98.35067204029949
 20
-143.3498417813826
 30
0.0
  0
SPLINE
  5
57
330
1F
100
AcDbEntity
  8
_U+30EC_U+30A4_U+30E4_U+30FC 1
 62
   179
420
  2234388
370
     9
100
AcDbSpline
210
0.0
220
0.0
230
1.0
 70
    11
 71
     3
 72
    17
 73
    13
 74
     0
 42
0.0000000001
 43
0.0000000001
 12
1.0
 22
0.0
 32
0.0
 13
1.0
 23
0.0
 33
0.0
 40
0.0
 40
0.0
 40
0.0
 40
0.0
 40
1.0
 40
1.0
 40
1.0
 40
2.0
 40
2.0
 40
2.0
 40
3.0
 40
3.0
 40
3.0
 40
4.0
 40
4.0
 40
4.0
 40
4.0
 10
99.35048181381288
 20
-143.3498417813826
 30
0.0
 10
99.35048181381288
 20
-143.2948171469291
 30
0.0
 10
99.30567404065752
 20
-143.2500093737741
 30
0.0
 10
99.25063864028066
 20
-143.2500093737741
 30
0.0
 10
99.19560323990379
 20
-143.2500093737741
 30
0.0
 10
99.15080623267215
 20
-143.2948171469291
 30
0.0
 10
99.15080623267215
 20
-143.3498417813826
 30
0.0
 10
99.15080623267215
 20
-143.4048771817595
 30
0.0
 10
99.19560323990379
 20
-143.4496849549148
 30
0.0
 10
99.25063864028066
 20
-143.4496849549148
 30
0.0
 10
99.30567404065752
 20
-143.4496849549148
 30
0.0
 10
99.35048181381288
 20
-143.4048771817595
 30
0.0
 10
99.35048181381288
 20
-143.3498417813826
 30
0.0
  0
SPLINE
  5
58
330
1F
100
AcDbEntity
  8
_U+30EC_U+30A4_U+30E4_U+30FC 1
 62
   179
420
  2234388
370
     9
100
AcDbSpline
210
0.0
220
0.0
230
1.0
 70
    11
 71
     3
 72
    17
 73
    13
 74
     0
 42
0.0000000001
 43
0.0000000001
 12
1.0
 22
0.0
 32
0.0
 13
1.0
 23
0.0
 33
0.0
 40
0.0
 40
0.0
 40
0.0
 40
0.0
 40
1.0
 40
1.0
 40
1.0
 40
2.0
 40
2.0
 40
2.0
 40
3.0
 40
3.0
 40
3.0
 40
4.0
 40
4.0
 40
4.0
 40
4.0
 10
94.35094847969461
 20
-157.1660311835818
 30
0.0
 10
94.35094847969461
 20
-157.1102959981845
 30
0.0
 10
94.30614070653957
 20
-157.0654989909528
 30
0.0
 10
94.2511053061627
 20
-157.0654989909528
 30
0.0
 10
94.1953701207654
 20
-157.0654989909528
 30
0.0
 10
94.15056234761036
 20
-157.1102959981845
 30
0.0
 10
94.15056234761036
 20
-157.1660311835818
 30
0.0
 10
94.15056234761036
 20
-157.2210665839586
 30
0.0
 10
94.1953701207654
 20
-157.2658743571137
 30
0.0
 10
94.2511053061627
 20
-157.2658743571137
 30
0.0
 10
94.30614070653957
 20
-157.2658743571137
 30
0.0
 10
94.35094847969461
 20
-157.2210665839586
 30
0.0
 10
94.35094847969461
 20
-157.1660311835818
 30
0.0
  0
SPLINE
  5
59
330
1F
100
AcDbEntity
  8
_U+30EC_U+30A4_U+30E4_U+30FC 1
 62
   179
420
  2234388
370
     9
100
AcDbSpline
210
0.0
220
0.0
230
1.0
 70
    11
 71
     3
 72
    17
 73
    13
 74
     0
 42
0.0000000001
 43
0.0000000001
 12
1.0
 22
0.0
 32
0.0
 13
1.0
 23
0.0
 33
0.0
 40
0.0
 40
0.0
 40
0.0
 40
0.0
 40
1.0
 40
1.0
 40
1.0
 40
2.0
 40
2.0
 40
2.0
 40
3.0
 40
3.0
 40
3.0
 40
4.0
 40
4.0
 40
4.0
 40
4.0
 10
94.35094847969461
 20
-141.165618945964
 30
0.0
 10
94.35094847969461
 20
-141.1105943115105
 30
0.0
 10
94.30614070653957
 20
-141.0657865383555
 30
0.0
 10
94.2511053061627
 20
-141.0657865383555
 30
0.0
 10
94.1953701207654
 20
-141.0657865383555
 30
0.0
 10
94.15056234761036
 20
-141.1105943115105
 30
0.0
 10
94.15056234761036
 20
-141.165618945964
 30
0.0
 10
94.15056234761036
 20
-141.2213648972847
 30
0.0
 10
94.1953701207654
 20
-141.2661619045164
 30
0.0
 10
94.2511053061627
 20
-141.2661619045164
 30
0.0
 10
94.30614070653957
 20
-141.2661619045164
 30
0.0
 10
94.35094847969461
 20
-141.2213648972847
 30
0.0
 10
94.35094847969461
 20
-141.165618945964
 30
0.0
  0
SPLINE
  5
5A
330
1F
100
AcDbEntity
  8
_U+30EC_U+30A4_U+30E4_U+30FC 1
 62
   179
420
  2234388
370
     9
100
AcDbSpline
210
0.0
220
0.0
230
1.0
 70
    11
 71
     3
 72
    17
 73
    13
 74
     0
 42
0.0000000001
 43
0.0000000001
 12
1.0
 22
0.0
 32
0.0
 13
1.0
 23
0.0
 33
0.0
 40
0.0
 40
0.0
 40
0.0
 40
0.0
 40
1.0
 40
1.0
 40
1.0
 40
2.0
 40
2.0
 40
2.0
 40
3.0
 40
3.0
 40
3.0
 40
4.0
 40
4.0
 40
4.0
 40
4.0
 10
114.3507613002155
 20
-161.1657547441866
 30
0.0
 10
114.3507613002155
 20
-161.1107301097332
 30
0.0
 10
114.3059535270605
 20
-161.0659223365782
 30
0.0
 10
114.2509181266836
 20
-161.0659223365782
 30
0.0
 10
114.1958827263067
 20
-161.0659223365782
 30
0.0
 10
114.1510857190751
 20
-161.1107301097332
 30
0.0
 10
114.1510857190751
 20
-161.1657547441866
 30
0.0
 10
114.1510857190751
 20
-161.2207901445635
 30
0.0
 10
114.1958827263067
 20
-161.2655979177185
 30
0.0
 10
114.2509181266836
 20
-161.2655979177185
 30
0.0
 10
114.3059535270605
 20
-161.2655979177185
 30
0.0
 10
114.3507613002155
 20
-161.2207901445635
 30
0.0
 10
114.3507613002155
 20
-161.1657547441866
 30
0.0
  0
SPLINE
  5
5B
330
1F
100
AcDbEntity
  8
_U+30EC_U+30A4_U+30E4_U+30FC 1
 62
   179
420
  2234388
370
     9
100
AcDbSpline
210
0.0
220
0.0
230
1.0
 70
    11
 71
     3
 72
    17
 73
    13
 74
     0
 42
0.0000000001
 43
0.0000000001
 12
1.0
 22
0.0
 32
0.0
 13
1.0
 23
0.0
 33
0.0
 40
0.0
 40
0.0
 40
0.0
 40
0.0
 40
1.0
 40
1.0
 40
1.0
 40
2.0
 40
2.0
 40
2.0
 40
3.0
 40
3.0
 40
3.0
 40
4.0
 40
4.0
 40
4.0
 40
4.0
 10
98.35067204029949
 20
-161.1657547441866
 30
0.0
 10
98.35067204029949
 20
-161.1107301097332
 30
0.0
 10
98.30586426714446
 20
-161.0659223365782
 30
0.0
 10
98.25082886676759
 20
-161.0659223365782
 30
0.0
 10
98.19579346639073
 20
-161.0659223365782
 30
0.0
 10
98.15099645915909
 20
-161.1107301097332
 30
0.0
 10
98.15099645915909
 20
-161.1657547441866
 30
0.0
 10
98.15099645915909
 20
-161.2207901445635
 30
0.0
 10
98.19579346639073
 20
-161.2655979177185
 30
0.0
 10
98.25082886676759
 20
-161.2655979177185
 30
0.0
 10
98.30586426714446
 20
-161.2655979177185
 30
0.0
 10
98.35067204029949
 20
-161.2207901445635
 30
0.0
 10
98.35067204029949
 20
-161.1657547441866
 30
0.0
  0
SPLINE
  5
5C
330
1F
100
AcDbEntity
  8
_U+30EC_U+30A4_U+30E4_U+30FC 1
 62
   179
420
  2234388
370
     9
100
AcDbSpline
210
0.0
220
0.0
230
1.0
 70
    11
 71
     3
 72
    17
 73
    13
 74
     0
 42
0.0000000001
 43
0.0000000001
 12
1.0
 22
0.0
 32
0.0
 13
1.0
 23
0.0
 33
0.0
 40
0.0
 40
0.0
 40
0.0
 40
0.0
 40
1.0
 40
1.0
 40
1.0
 40
2.0
 40
2.0
 40
2.0
 40
3.0
 40
3.0
 40
3.0
 40
4.0
 40
4.0
 40
4.0
 40
4.0
 10
118.3515506872361
 20
-146.2333867025367
 30
0.0
 10
118.3515506872361
 20
-146.1783620680832
 30
0.0
 10
118.3067429140811
 20
-146.1335542949282
 30
0.0
 10
118.2517075137042
 20
-146.1335542949282
 30
0.0
 10
118.1966721133274
 20
-146.1335542949282
 30
0.0
 10
118.1518751060957
 20
-146.1783620680832
 30
0.0
 10
118.1518751060957
 20
-146.2333867025367
 30
0.0
 10
118.1518751060957
 20
-146.2891326538577
 30
0.0
 10
118.1966721133274
 20
-146.3339296610891
 30
0.0
 10
118.2517075137042
 20
-146.3339296610891
 30
0.0
 10
118.3067429140811
 20
-146.3339296610891
 30
0.0
 10
118.3515506872361
 20
-146.2891326538577
 30
0.0
 10
118.3515506872361
 20
-146.2333867025367
 30
0.0
  0
SPLINE
  5
5D
330
1F
100
AcDbEntity
  8
_U+30EC_U+30A4_U+30E4_U+30FC 1
 62
   179
420
  2234388
370
     9
100
AcDbSpline
210
0.0
220
0.0
230
1.0
 70
    11
 71
     3
 72
    17
 73
    13
 74
     0
 42
0.0000000001
 43
0.0000000001
 12
1.0
 22
0.0
 32
0.0
 13
1.0
 23
0.0
 33
0.0
 40
0.0
 40
0.0
 40
0.0
 40
0.0
 40
1.0
 40
1.0
 40
1.0
 40
2.0
 40
2.0
 40
2.0
 40
3.0
 40
3.0
 40
3.0
 40
4.0
 40
4.0
 40
4.0
 40
4.0
 10
118.3515506872361
 20
-156.1655539228184
 30
0.0
 10
118.3515506872361
 20
-156.1105292883649
 30
0.0
 10
118.3067429140811
 20
-156.0657215152099
 30
0.0
 10
118.2517075137042
 20
-156.0657215152099
 30
0.0
 10
118.1966721133274
 20
-156.0657215152099
 30
0.0
 10
118.1518751060957
 20
-156.1105292883649
 30
0.0
 10
118.1518751060957
 20
-156.1655539228184
 30
0.0
 10
118.1518751060957
 20
-156.2212998741391
 30
0.0
 10
118.1966721133274
 20
-156.2660968813708
 30
0.0
 10
118.2517075137042
 20
-156.2660968813708
 30
0.0
 10
118.3067429140811
 20
-156.2660968813708
 30
0.0
 10
118.3515506872361
 20
-156.2212998741391
 30
0.0
 10
118.3515506872361
 20
-156.1655539228184
 30
0.0
  0
INSERT
  5
5F
330
1F
100
AcDbEntity
  8
_U+30EC_U+30A4_U+30E4_U+30FC 1
100
AcDbBlockReference
  2
block 2
 10
0.0
 20
0.0
 30
0.0
  0
POLYLINE
  5
67
330
1F
100
AcDbEntity
  8
_U+30EC_U+30A4_U+30E4_U+30FC 1
 62
   179
420
  2234388
370
     9
100
AcDb2dPolyline
 66
     1
 10
0.0
 20
0.0
 30
0.0
  0
VERTEX
  5
68
330
67
100
AcDbEntity
  8
_U+30EC_U+30A4_U+30E4_U+30FC 1
 62
   179
420
  2234388
370
     9
100
AcDbVertex
100
AcDb2dVertex
 10
99.25053098104675
 20
-138.1659850728804
 30
0.0
  0
VERTEX
  5
69
330
67
100
AcDbEntity
  8
_U+30EC_U+30A4_U+30E4_U+30FC 1
 62
   179
420
  2234388
370
     9
100
AcDbVertex
100
AcDb2dVertex
 10
120.2510363807988
 20
-138.1659850728804
 30
0.0
  0
SEQEND
  5
6A
330
67
100
AcDbEntity
  8
_U+30EC_U+30A4_U+30E4_U+30FC 1
 62
   179
420
  2234388
370
     9
  0
POLYLINE
  5
6B
330
1F
100
AcDbEntity
  8
_U+30EC_U+30A4_U+30E4_U+30FC 1
 62
   179
420
  2234388
370
     9
100
AcDb2dPolyline
 66
     1
 10
0.0
 20
0.0
 30
0.0
  0
VERTEX
  5
6C
330
6B
100
AcDbEntity
  8
_U+30EC_U+30A4_U+30E4_U+30FC 1
 62
   179
420
  2234388
370
     9
100
AcDbVertex
100
AcDb2dVertex
 10
99.25053098104675
 20
-140.6660908665262
 30
0.0
  0
VERTEX
  5
6D
330
6B
100
AcDbEntity
  8
_U+30EC_U+30A4_U+30E4_U+30FC 1
 62
   179
420
  2234388
370
     9
100
AcDbVertex
100
AcDb2dVertex
 10
99.25053098104675
 20
-137.1651310047984
 30
0.0
  0
SEQEND
  5
6E
330
6B
100
AcDbEntity
  8
_U+30EC_U+30A4_U+30E4_U+30FC 1
 62
   179
420
  2234388
370
     9
  0
POLYLINE
  5
6F
330
1F
100
AcDbEntity
  8
_U+30EC_U+30A4_U+30E4_U+30FC 1
 62
   179
420
  2234388
370
     9
100
AcDb2dPolyline
 66
     1
 10
0.0
 20
0.0
 30
0.0
  0
VERTEX
  5
70
330
6F
100
AcDbEntity
  8
_U+30EC_U+30A4_U+30E4_U+30FC 1
 62
   179
420
  2234388
370
     9
100
AcDbVertex
100
AcDb2dVertex
 10
120.2559779396354
 20
-143.7343036716131
 30
0.0
  0
VERTEX
  5
71
330
6F
100
AcDbEntity
  8
_U+30EC_U+30A4_U+30E4_U+30FC 1
 62
   179
420
  2234388
370
     9
100
AcDbVertex
100
AcDb2dVertex
 10
120.2559779396354
 20
-137.1652386640323
 30
0.0
  0
SEQEND
  5
72
330
6F
100
AcDbEntity
  8
_U+30EC_U+30A4_U+30E4_U+30FC 1
 62
   179
420
  2234388
370
     9
  0
INSERT
  5
74
330
1F
100
AcDbEntity
  8
_U+30EC_U+30A4_U+30E4_U+30FC 1
100
AcDbBlockReference
  2
block 3
 10
0.0
 20
0.0
 30
0.0
  0
POLYLINE
  5
7B
330
1F
100
AcDbEntity
  8
_U+30EC_U+30A4_U+30E4_U+30FC 1
 62
   179
420
  2234388
370
     9
100
AcDb2dPolyline
 66
     1
 10
0.0
 20
0.0
 30
0.0
  0
VERTEX
  5
7C
330
7B
100
AcDbEntity
  8
_U+30EC_U+30A4_U+30E4_U+30FC 1
 62
   179
420
  2234388
370
     9
100
AcDbVertex
100
AcDb2dVertex
 10
99.25053098104675
 20
-143.3498417813826
 30
0.0
  0
VERTEX
  5
7D
330
7B
100
AcDbEntity
  8
_U+30EC_U+30A4_U+30E4_U+30FC 1
 62
   179
420
  2234388
370
     9
100
AcDbVertex
100
AcDb2dVertex
 10
103.0210157348784
 20
-143.3498417813826
 30
0.0
  0
SEQEND
  5
7E
330
7B
100
AcDbEntity
  8
_U+30EC_U+30A4_U+30E4_U+30FC 1
 62
   179
420
  2234388
370
     9
  0
POLYLINE
  5
7F
330
1F
100
AcDbEntity
  8
_U+30EC_U+30A4_U+30E4_U+30FC 1
 62
   179
420
  2234388
370
     9
100
AcDb2dPolyline
 66
     1
 10
0.0
 20
0.0
 30
0.0
  0
VERTEX
  5
80
330
7F
100
AcDbEntity
  8
_U+30EC_U+30A4_U+30E4_U+30FC 1
 62
   179
420
  2234388
370
     9
100
AcDbVertex
100
AcDb2dVertex
 10
97.25102985917792
 20
-143.3498417813826
 30
0.0
  0
VERTEX
  5
81
330
7F
100
AcDbEntity
  8
_U+30EC_U+30A4_U+30E4_U+30FC 1
 62
   179
420
  2234388
370
     9
100
AcDbVertex
100
AcDb2dVertex
 10
99.25057404474063
 20
-143.3498417813826
 30
0.0
  0
SEQEND
  5
82
330
7F
100
AcDbEntity
  8
_U+30EC_U+30A4_U+30E4_U+30FC 1
 62
   179
420
  2234388
370
     9
  0
INSERT
  5
84
330
1F
100
AcDbEntity
  8
_U+30EC_U+30A4_U+30E4_U+30FC 1
100
AcDbBlockReference
  2
block 4
 10
0.0
 20
0.0
 30
0.0
  0
POLYLINE
  5
89
330
1F
100
AcDbEntity
  8
_U+30EC_U+30A4_U+30E4_U+30FC 1
 62
   179
420
  2234388
370
     9
100
AcDb2dPolyline
 66
     1
 10
0.0
 20
0.0
 30
0.0
  0
VERTEX
  5
8A
330
89
100
AcDbEntity
  8
_U+30EC_U+30A4_U+30E4_U+30FC 1
 62
   179
420
  2234388
370
     9
100
AcDbVertex
100
AcDb2dVertex
 10
98.25079656899742
 20
-161.1657547441866
 30
0.0
  0
VERTEX
  5
8B
330
89
100
AcDbEntity
  8
_U+30EC_U+30A4_U+30E4_U+30FC 1
 62
   179
420
  2234388
370
     9
100
AcDbVertex
100
AcDb2dVertex
 10
114.2506705104456
 20
-161.1657547441866
 30
0.0
  0
SEQEND
  5
8C
330
89
100
AcDbEntity
  8
_U+30EC_U+30A4_U+30E4_U+30FC 1
 62
   179
420
  2234388
370
     9
  0
POLYLINE
  5
8D
330
1F
100
AcDbEntity
  8
_U+30EC_U+30A4_U+30E4_U+30FC 1
 62
   179
420
  2234388
370
     9
100
AcDb2dPolyline
 66
     1
 10
0.0
 20
0.0
 30
0.0
  0
VERTEX
  5
8E
330
8D
100
AcDbEntity
  8
_U+30EC_U+30A4_U+30E4_U+30FC 1
 62
   179
420
  2234388
370
     9
100
AcDbVertex
100
AcDb2dVertex
 10
98.25079656899742
 20
-158.7060211632586
 30
0.0
  0
VERTEX
  5
8F
330
8D
100
AcDbEntity
  8
_U+30EC_U+30A4_U+30E4_U+30FC 1
 62
   179
420
  2234388
370
     9
100
AcDbVertex
100
AcDb2dVertex
 10
98.25079656899742
 20
-162.1657152406272
 30
0.0
  0
SEQEND
  5
90
330
8D
100
AcDbEntity
  8
_U+30EC_U+30A4_U+30E4_U+30FC 1
 62
   179
420
  2234388
370
     9
  0
POLYLINE
  5
91
330
1F
100
AcDbEntity
  8
_U+30EC_U+30A4_U+30E4_U+30FC 1
 62
   179
420
  2234388
370
     9
100
AcDb2dPolyline
 66
     1
 10
0.0
 20
0.0
 30
0.0
  0
VERTEX
  5
92
330
91
100
AcDbEntity
  8
_U+30EC_U+30A4_U+30E4_U+30FC 1
 62
   179
420
  2234388
370
     9
100
AcDbVertex
100
AcDb2dVertex
 10
114.2508535311432
 20
-158.7060211632586
 30
0.0
  0
VERTEX
  5
93
330
91
100
AcDbEntity
  8
_U+30EC_U+30A4_U+30E4_U+30FC 1
 62
   179
420
  2234388
370
     9
100
AcDbVertex
100
AcDb2dVertex
 10
114.2508535311432
 20
-162.1657152406272
 30
0.0
  0
SEQEND
  5
94
330
91
100
AcDbEntity
  8
_U+30EC_U+30A4_U+30E4_U+30FC 1
 62
   179
420
  2234388
370
     9
  0
INSERT
  5
96
330
1F
100
AcDbEntity
  8
_U+30EC_U+30A4_U+30E4_U+30FC 1
100
AcDbBlockReference
  2
block 5
 10
0.0
 20
0.0
 30
0.0
  0
POLYLINE
  5
9E
330
1F
100
AcDbEntity
  8
_U+30EC_U+30A4_U+30E4_U+30FC 1
 62
   179
420
  2234388
370
     9
100
AcDb2dPolyline
 66
     1
 10
0.0
 20
0.0
 30
0.0
  0
VERTEX
  5
9F
330
9E
100
AcDbEntity
  8
_U+30EC_U+30A4_U+30E4_U+30FC 1
 62
   179
420
  2234388
370
     9
100
AcDbVertex
100
AcDb2dVertex
 10
118.2516429181639
 20
-156.1655539228184
 30
0.0
  0
VERTEX
  5
A0
330
9E
100
AcDbEntity
  8
_U+30EC_U+30A4_U+30E4_U+30FC 1
 62
   179
420
  2234388
370
     9
100
AcDbVertex
100
AcDb2dVertex
 10
118.2516429181639
 20
-146.2334512980771
 30
0.0
  0
SEQEND
  5
A1
330
9E
100
AcDbEntity
  8
_U+30EC_U+30A4_U+30E4_U+30FC 1
 62
   179
420
  2234388
370
     9
  0
POLYLINE
  5
A2
330
1F
100
AcDbEntity
  8
_U+30EC_U+30A4_U+30E4_U+30FC 1
 62
   179
420
  2234388
370
     9
100
AcDb2dPolyline
 66
     1
 10
0.0
 20
0.0
 30
0.0
  0
VERTEX
  5
A3
330
A2
100
AcDbEntity
  8
_U+30EC_U+30A4_U+30E4_U+30FC 1
 62
   179
420
  2234388
370
     9
100
AcDbVertex
100
AcDb2dVertex
 10
116.7916329833618
 20
-156.1655539228184
 30
0.0
  0
VERTEX
  5
A4
330
A2
100
AcDbEntity
  8
_U+30EC_U+30A4_U+30E4_U+30FC 1
 62
   179
420
  2234388
370
     9
100
AcDbVertex
100
AcDb2dVertex
 10
119.2515495849875
 20
-156.1655539228184
 30
0.0
  0
SEQEND
  5
A5
330
A2
100
AcDbEntity
  8
_U+30EC_U+30A4_U+30E4_U+30FC 1
 62
   179
420
  2234388
370
     9
  0
POLYLINE
  5
A6
330
1F
100
AcDbEntity
  8
_U+30EC_U+30A4_U+30E4_U+30FC 1
 62
   179
420
  2234388
370
     9
100
AcDb2dPolyline
 66
     1
 10
0.0
 20
0.0
 30
0.0
  0
VERTEX
  5
A7
330
A6
100
AcDbEntity
  8
_U+30EC_U+30A4_U+30E4_U+30FC 1
 62
   179
420
  2234388
370
     9
100
AcDbVertex
100
AcDb2dVertex
 10
116.7916329833618
 20
-146.2333867025367
 30
0.0
  0
VERTEX
  5
A8
330
A6
100
AcDbEntity
  8
_U+30EC_U+30A4_U+30E4_U+30FC 1
 62
   179
420
  2234388
370
     9
100
AcDbVertex
100
AcDb2dVertex
 10
119.2515495849875
 20
-146.2333867025367
 30
0.0
  0
SEQEND
  5
A9
330
A6
100
AcDbEntity
  8
_U+30EC_U+30A4_U+30E4_U+30FC 1
 62
   179
420
  2234388
370
     9
  0
INSERT
  5
AB
330
1F
100
AcDbEntity
  8
_U+30EC_U+30A4_U+30E4_U+30FC 1
100
AcDbBlockReference
  2
block 6
 10
0.0
 20
0.0
 30
0.0
  0
POLYLINE
  5
B3
330
1F
100
AcDbEntity
  8
_U+30EC_U+30A4_U+30E4_U+30FC 1
 62
   179
420
  2234388
370
     9
100
AcDb2dPolyline
 66
     1
 10
0.0
 20
0.0
 30
0.0
  0
VERTEX
  5
B4
330
B3
100
AcDbEntity
  8
_U+30EC_U+30A4_U+30E4_U+30FC 1
 62
   179
420
  2234388
370
     9
100
AcDbVertex
100
AcDb2dVertex
 10
94.25107300839254
 20
-157.1653636963315
 30
0.0
  0
VERTEX
  5
B5
330
B3
100
AcDbEntity
  8
_U+30EC_U+30A4_U+30E4_U+30FC 1
 62
   179
420
  2234388
370
     9
100
AcDbVertex
100
AcDb2dVertex
 10
94.25107300839254
 20
-141.1654897548833
 30
0.0
  0
SEQEND
  5
B6
330
B3
100
AcDbEntity
  8
_U+30EC_U+30A4_U+30E4_U+30FC 1
 62
   179
420
  2234388
370
     9
  0
POLYLINE
  5
B7
330
1F
100
AcDbEntity
  8
_U+30EC_U+30A4_U+30E4_U+30FC 1
 62
   179
420
  2234388
370
     9
100
AcDb2dPolyline
 66
     1
 10
0.0
 20
0.0
 30
0.0
  0
VERTEX
  5
B8
330
B7
100
AcDbEntity
  8
_U+30EC_U+30A4_U+30E4_U+30FC 1
 62
   179
420
  2234388
370
     9
100
AcDbVertex
100
AcDb2dVertex
 10
96.71084965301445
 20
-157.1660311835818
 30
0.0
  0
VERTEX
  5
B9
330
B7
100
AcDbEntity
  8
_U+30EC_U+30A4_U+30E4_U+30FC 1
 62
   179
420
  2234388
370
     9
100
AcDbVertex
100
AcDb2dVertex
 10
93.25044502470172
 20
-157.1660311835818
 30
0.0
  0
SEQEND
  5
BA
330
B7
100
AcDbEntity
  8
_U+30EC_U+30A4_U+30E4_U+30FC 1
 62
   179
420
  2234388
370
     9
  0
POLYLINE
  5
BB
330
1F
100
AcDbEntity
  8
_U+30EC_U+30A4_U+30E4_U+30FC 1
 62
   179
420
  2234388
370
     9
100
AcDb2dPolyline
 66
     1
 10
0.0
 20
0.0
 30
0.0
  0
VERTEX
  5
BC
330
BB
100
AcDbEntity
  8
_U+30EC_U+30A4_U+30E4_U+30FC 1
 62
   179
420
  2234388
370
     9
100
AcDbVertex
100
AcDb2dVertex
 10
96.71084965301445
 20
-141.165618945964
 30
0.0
  0
VERTEX
  5
BD
330
BB
100
AcDbEntity
  8
_U+30EC_U+30A4_U+30E4_U+30FC 1
 62
   179
420
  2234388
370
     9
100
AcDbVertex
100
AcDb2dVertex
 10
93.25044502470172
 20
-141.165618945964
 30
0.0
  0
SEQEND
  5
BE
330
BB
100
AcDbEntity
  8
_U+30EC_U+30A4_U+30E4_U+30FC 1
 62
   179
420
  2234388
370
     9
  0
INSERT
  5
C0
330
1F
100
AcDbEntity
  8
_U+30EC_U+30A4_U+30E4_U+30FC 1
100
AcDbBlockReference
  2
block 7
 10
0.0
 20
0.0
 30
0.0
  0
SPLINE
  5
C8
330
1F
100
AcDbEntity
  8
_U+30EC_U+30A4_U+30E4_U+30FC 1
 62
   179
420
  2234388
370
    25
100
AcDbSpline
210
0.0
220
0.0
230
1.0
 70
    11
 71
     3
 72
    74
 73
    70
 74
     0
 42
0.0000000001
 43
0.0000000001
 12
1.0
 22
0.0
 32
0.0
 13
1.0
 23
0.0
 33
0.0
 40
0.0
 40
0.0
 40
0.0
 40
0.0
 40
1.0
 40
1.0
 40
1.0
 40
2.0
 40
2.0
 40
2.0
 40
3.0
 40
3.0
 40
3.0
 40
4.0
 40
4.0
 40
4.0
 40
5.0
 40
5.0
 40
5.0
 40
6.0
 40
6.0
 40
6.0
 40
7.0
 40
7.0
 40
7.0
 40
8.0
 40
8.0
 40
8.0
 40
9.0
 40
9.0
 40
9.0
 40
10.0
 40
10.0
 40
10.0
 40
11.0
 40
11.0
 40
11.0
 40
12.0
 40
12.0
 40
12.0
 40
13.0
 40
13.0
 40
13.0
 40
14.0
 40
14.0
 40
14.0
 40
15.0
 40
15.0
 40
15.0
 40
16.0
 40
16.0
 40
16.0
 40
17.0
 40
17.0
 40
17.0
 40
18.0
 40
18.0
 40
18.0
 40
19.0
 40
19.0
 40
19.0
 40
20.0
 40
20.0
 40
20.0
 40
21.0
 40
21.0
 40
21.0
 40
22.0
 40
22.0
 40
22.0
 40
23.0
 40
23.0
 40
23.0
 40
23.0
 10
101.2466623688944
 20
-145.2349872649879
 30
0.0
 10
101.2466623688944
 20
-145.2349872649879
 30
0.0
 10
101.0395798324604
 20
-145.4346628461286
 30
0.0
 10
101.0395798324604
 20
-145.4346628461286
 30
0.0
 10
101.0395798324604
 20
-145.4346628461286
 30
0.0
 10
100.8395489758481
 20
-145.2342874799675
 30
0.0
 10
100.8395489758481
 20
-145.2342874799675
 30
0.0
 10
100.8395489758481
 20
-145.2342874799675
 30
0.0
 10
100.6395288851591
 20
-145.4339630611079
 30
0.0
 10
100.6395288851591
 20
-145.4339630611079
 30
0.0
 10
100.6395288851591
 20
-145.4339630611079
 30
0.0
 10
100.4394980285468
 20
-145.2342874799675
 30
0.0
 10
100.4394980285468
 20
-145.2342874799675
 30
0.0
 10
100.4394980285468
 20
-145.2342874799675
 30
0.0
 10
100.2398332133301
 20
-145.4339630611079
 30
0.0
 10
100.2398332133301
 20
-145.4339630611079
 30
0.0
 10
100.2398332133301
 20
-145.4339630611079
 30
0.0
 10
100.0394470812456
 20
-145.2335769290237
 30
0.0
 10
100.0394470812456
 20
-145.2335769290237
 30
0.0
 10
100.0394470812456
 20
-145.2335769290237
 30
0.0
 10
99.25063864028066
 20
-145.2335769290237
 30
0.0
 10
99.25063864028066
 20
-145.2335769290237
 30
0.0
 10
99.25063864028066
 20
-145.2335769290237
 30
0.0
 10
99.25063864028066
 20
-141.1657050733511
 30
0.0
 10
99.25063864028066
 20
-141.1657050733511
 30
0.0
 10
98.6985405569226
 20
-141.1657050733511
 30
0.0
 10
98.25087193046116
 20
-141.6133736998126
 30
0.0
 10
98.25087193046116
 20
-142.1661823341145
 30
0.0
 10
98.25087193046116
 20
-142.1661823341145
 30
0.0
 10
98.25087193046116
 20
-156.1654570295079
 30
0.0
 10
98.25087193046116
 20
-156.1654570295079
 30
0.0
 10
98.25087193046116
 20
-156.7182656638098
 30
0.0
 10
98.6985405569226
 20
-157.1659342902713
 30
0.0
 10
99.25063864028066
 20
-157.1659342902713
 30
0.0
 10
99.25063864028066
 20
-157.1659342902713
 30
0.0
 10
113.2061821548582
 20
-157.1659342902713
 30
0.0
 10
113.2061821548582
 20
-157.1659342902713
 30
0.0
 10
113.7589800232367
 20
-157.1659342902713
 30
0.0
 10
114.2507566378327
 20
-156.7863493633371
 30
0.0
 10
114.2507566378327
 20
-156.2338960045071
 30
0.0
 10
114.2507566378327
 20
-156.2338960045071
 30
0.0
 10
99.25063864028066
 20
-156.2338960045071
 30
0.0
 10
99.25063864028066
 20
-156.2338960045071
 30
0.0
 10
99.25063864028066
 20
-156.2338960045071
 30
0.0
 10
99.25063864028066
 20
-146.2333544047665
 30
0.0
 10
99.25063864028066
 20
-146.2333544047665
 30
0.0
 10
99.25063864028066
 20
-146.2333544047665
 30
0.0
 10
114.2507566378327
 20
-146.2333544047665
 30
0.0
 10
114.2507566378327
 20
-146.2333544047665
 30
0.0
 10
114.2507566378327
 20
-146.2333544047665
 30
0.0
 10
114.7703954621657
 20
-145.9334911405457
 30
0.0
 10
114.7703954621657
 20
-145.9334911405457
 30
0.0
 10
114.7703954621657
 20
-145.9334911405457
 30
0.0
 10
119.551240594434
 20
-145.9334911405457
 30
0.0
 10
119.551240594434
 20
-145.9334911405457
 30
0.0
 10
119.9375326916411
 20
-145.9334911405457
 30
0.0
 10
120.2511440400327
 20
-145.6202243017026
 30
0.0
 10
120.2511440400327
 20
-145.2335769290237
 30
0.0
 10
120.2511440400327
 20
-145.2335769290237
 30
0.0
 10
114.4507767285216
 20
-145.2335769290237
 30
0.0
 10
114.4507767285216
 20
-145.2335769290237
 30
0.0
 10
114.4507767285216
 20
-145.2335769290237
 30
0.0
 10
114.2507566378327
 20
-145.433607785636
 30
0.0
 10
114.2507566378327
 20
-145.433607785636
 30
0.0
 10
114.2507566378327
 20
-145.433607785636
 30
0.0
 10
114.0507257812204
 20
-145.2335769290237
 30
0.0
 10
114.0507257812204
 20
-145.2335769290237
 30
0.0
 10
114.0507257812204
 20
-145.2335769290237
 30
0.0
 10
101.2466623688944
 20
-145.2349872649879
 30
0.0
 10
101.2466623688944
 20
-145.2349872649879
 30
0.0
  0
POLYLINE
  5
C9
330
1F
100
AcDbEntity
  8
_U+30EC_U+30A4_U+30E4_U+30FC 1
  6
AI-Linetype-1
 62
     8
420
  8223869
370
    25
100
AcDb2dPolyline
 66
     1
 10
0.0
 20
0.0
 30
0.0
  0
VERTEX
  5
CA
330
C9
100
AcDbEntity
  8
_U+30EC_U+30A4_U+30E4_U+30FC 1
  6
AI-Linetype-1
 62
     8
420
  8223869
370
    25
100
AcDbVertex
100
AcDb2dVertex
 10
99.38043261268744
 20
-140.3739144716068
 30
0.0
  0
VERTEX
  5
CB
330
C9
100
AcDbEntity
  8
_U+30EC_U+30A4_U+30E4_U+30FC 1
  6
AI-Linetype-1
 62
     8
420
  8223869
370
    25
100
AcDbVertex
100
AcDb2dVertex
 10
97.45919975387413
 20
-140.3739144716068
 30
0.0
  0
VERTEX
  5
CC
330
C9
100
AcDbEntity
  8
_U+30EC_U+30A4_U+30E4_U+30FC 1
  6
AI-Linetype-1
 62
     8
420
  8223869
370
    25
100
AcDbVertex
100
AcDb2dVertex
 10
97.45919975387413
 20
-157.9577787216325
 30
0.0
  0
VERTEX
  5
CD
330
C9
100
AcDbEntity
  8
_U+30EC_U+30A4_U+30E4_U+30FC 1
  6
AI-Linetype-1
 62
     8
420
  8223869
370
    25
100
AcDbVertex
100
AcDb2dVertex
 10
115.0426979625045
 20
-157.9577787216325
 30
0.0
  0
VERTEX
  5
CE
330
C9
100
AcDbEntity
  8
_U+30EC_U+30A4_U+30E4_U+30FC 1
  6
AI-Linetype-1
 62
     8
420
  8223869
370
    25
100
AcDbVertex
100
AcDb2dVertex
 10
115.0426979625045
 20
-156.0855846438671
 30
0.0
  0
SEQEND
  5
D0
330
C9
100
AcDbEntity
  8
_U+30EC_U+30A4_U+30E4_U+30FC 1
  6
AI-Linetype-1
 62
     8
420
  8223869
370
    25
  0
ENDSEC
  0
SECTION
  2
OBJECTS
  0
DICTIONARY
  5
C
330
0
100
AcDbDictionary
281
     1
  3
ACAD_GROUP
350
D
  3
ACAD_LAYOUT
350
1A
  3
ACAD_MATERIAL
350
3B
  3
ACAD_MLEADERSTYLE
350
D2
  3
ACAD_MLINESTYLE
350
17
  3
ACAD_PLOTSETTINGS
350
19
  3
ACAD_PLOTSTYLENAME
350
E
  3
ACAD_TABLESTYLE
350
D1
  3
ACAD_VISUALSTYLE
350
2A
  0
SUN
  5
3F
330
29
100
AcDbSun
 90
        1
290
     0
 63
     7
421
 16777215
 40
1.0
291
     1
 91
  2455826
 92
 54000000
292
     0
 70
     2
 71
   256
280
     1
  0
DICTIONARY
  5
D
102
{ACAD_REACTORS
330
C
102
}
330
C
100
AcDbDictionary
281
     1
  0
DICTIONARY
  5
1A
102
{ACAD_REACTORS
330
C
102
}
330
C
100
AcDbDictionary
281
     1
  3
Layout1
350
1E
  3
Layout2
350
26
  3
Model
350
22
  0
DICTIONARY
  5
3B
102
{ACAD_REACTORS
330
C
102
}
330
C
100
AcDbDictionary
281
     1
  3
ByBlock
350
3D
  3
ByLayer
350
3C
  3
Global
350
3E
  0
DICTIONARY
  5
D2
102
{ACAD_REACTORS
330
C
102
}
330
C
100
AcDbDictionary
281
     1
  0
DICTIONARY
  5
17
102
{ACAD_REACTORS
330
C
102
}
330
C
100
AcDbDictionary
281
     1
  3
Standard
350
18
  0
DICTIONARY
  5
19
102
{ACAD_REACTORS
330
C
102
}
330
C
100
AcDbDictionary
281
     1
  0
ACDBDICTIONARYWDFLT
  5
E
102
{ACAD_REACTORS
330
C
102
}
330
C
100
AcDbDictionary
281
     1
  3
Normal
350
F
100
AcDbDictionaryWithDefault
340
F
  0
DICTIONARY
  5
D1
102
{ACAD_REACTORS
330
C
102
}
330
C
100
AcDbDictionary
281
     1
  0
DICTIONARY
  5
2A
102
{ACAD_REACTORS
330
C
102
}
330
C
100
AcDbDictionary
281
     1
  3
2dWireframe
350
2F
  3
3D Hidden
350
31
  3
3dWireframe
350
30
  3
Basic
350
32
  3
Brighten
350
36
  3
ColorChange
350
3A
  3
Conceptual
350
34
  3
Dim
350
35
  3
Facepattern
350
39
  3
Flat
350
2B
  3
FlatWithEdges
350
2C
  3
Gouraud
350
2D
  3
GouraudWithEdges
350
2E
  3
Linepattern
350
38
  3
Realistic
350
33
  3
Thicken
350
37
  0
LAYOUT
  5
1E
102
{ACAD_REACTORS
330
1A
102
}
330
1A
100
AcDbPlotSettings
  1

  2
none_device
  4

  6

 40
0.0
 41
0.0
 42
0.0
 43
0.0
 44
0.0
 45
0.0
 46
0.0
 47
0.0
 48
0.0
 49
0.0
140
0.0
141
0.0
142
1.0
143
1.0
 70
   688
 72
     0
 73
     0
 74
     5
  7

 75
    16
 76
     0
 77
     2
 78
   300
147
1.0
148
0.0
149
0.0
100
AcDbLayout
  1
Layout1
 70
     1
 71
     1
 10
0.0
 20
0.0
 11
12.0
 21
9.0
 12
0.0
 22
0.0
 32
0.0
 14
1.000000000000000E+20
 24
1.000000000000000E+20
 34
1.000000000000000E+20
 15
-1.000000000000000E+20
 25
-1.000000000000000E+20
 35
-1.000000000000000E+20
146
0.0
 13
0.0
 23
0.0
 33
0.0
 16
1.0
 26
0.0
 36
0.0
 17
0.0
 27
1.0
 37
0.0
 76
     0
330
1B
  0
LAYOUT
  5
26
102
{ACAD_REACTORS
330
1A
102
}
330
1A
100
AcDbPlotSettings
  1

  2
none_device
  4

  6

 40
0.0
 41
0.0
 42
0.0
 43
0.0
 44
0.0
 45
0.0
 46
0.0
 47
0.0
 48
0.0
 49
0.0
140
0.0
141
0.0
142
1.0
143
1.0
 70
   688
 72
     0
 73
     0
 74
     5
  7

 75
    16
 76
     0
 77
     2
 78
   300
147
1.0
148
0.0
149
0.0
100
AcDbLayout
  1
Layout2
 70
     1
 71
     2
 10
0.0
 20
0.0
 11
0.0
 21
0.0
 12
0.0
 22
0.0
 32
0.0
 14
0.0
 24
0.0
 34
0.0
 15
0.0
 25
0.0
 35
0.0
146
0.0
 13
0.0
 23
0.0
 33
0.0
 16
1.0
 26
0.0
 36
0.0
 17
0.0
 27
1.0
 37
0.0
 76
     0
330
23
  0
LAYOUT
  5
22
102
{ACAD_REACTORS
330
1A
102
}
330
1A
100
AcDbPlotSettings
  1

  2
none_device
  4

  6

 40
0.0
 41
0.0
 42
0.0
 43
0.0
 44
0.0
 45
0.0
 46
0.0
 47
0.0
 48
0.0
 49
0.0
140
0.0
141
0.0
142
1.0
143
1.0
 70
  1712
 72
     0
 73
     0
 74
     0
  7

 75
     0
 76
     0
 77
     2
 78
   300
147
1.0
148
0.0
149
0.0
100
AcDbLayout
  1
Model
 70
     1
 71
     0
 10
0.0
 20
0.0
 11
12.0
 21
9.0
 12
0.0
 22
0.0
 32
0.0
 14
1.000000000000000E+20
 24
1.000000000000000E+20
 34
1.000000000000000E+20
 15
-1.000000000000000E+20
 25
-1.000000000000000E+20
 35
-1.000000000000000E+20
146
0.0
 13
0.0
 23
0.0
 33
0.0
 16
1.0
 26
0.0
 36
0.0
 17
0.0
 27
1.0
 37
0.0
 76
     0
330
1F
331
29
  0
MATERIAL
  5
3D
102
{ACAD_REACTORS
330
3B
102
}
330
3B
100
AcDbMaterial
  1
ByBlock
 72
     1
 94
      127
  0
MATERIAL
  5
3C
102
{ACAD_REACTORS
330
3B
102
}
330
3B
100
AcDbMaterial
  1
ByLayer
 72
     1
 94
      127
  0
MATERIAL
  5
3E
102
{ACAD_REACTORS
330
3B
102
}
330
3B
100
AcDbMaterial
  1
Global
 72
     1
 94
      127
  0
MLINESTYLE
  5
18
102
{ACAD_REACTORS
330
17
102
}
330
17
100
AcDbMlineStyle
  2
Standard
 70
     0
  3

 62
   256
 51
90.0
 52
90.0
 71
     2
 49
0.5
 62
   256
  6
BYLAYER
 49
-0.5
 62
   256
  6
BYLAYER
  0
ACDBPLACEHOLDER
  5
F
102
{ACAD_REACTORS
330
E
102
}
330
E
  0
VISUALSTYLE
  5
2F
102
{ACAD_REACTORS
330
2A
102
}
330
2A
100
AcDbVisualStyle
  2
2dWireframe
 70
     4
177
     2
291
     0
 71
     0
176
     1
 72
     2
176
     1
 73
     0
176
     1
 90
        0
176
     1
 40
-0.6
176
     1
 41
-30.0
176
     1
 62
     5
 63
     7
421
 16777215
176
     1
 74
     1
176
     1
 91
        4
176
     1
 64
     7
176
     1
 65
   257
176
     1
 75
     1
176
     1
175
     1
176
     1
 42
1.0
176
     1
 92
        0
176
     1
 66
   257
176
     1
 43
1.0
176
     1
 76
     1
176
     1
 77
     6
176
     1
 78
     2
176
     1
 67
     7
176
     1
 79
     5
176
     1
170
     0
176
     1
171
     0
176
     1
290
     0
176
     1
 93
        1
176
     1
 44
0.0
176
     1
173
     0
176
     1
  0
VISUALSTYLE
  5
31
102
{ACAD_REACTORS
330
2A
102
}
330
2A
100
AcDbVisualStyle
  2
3D Hidden
 70
     6
177
     2
291
     0
 71
     1
176
     1
 72
     2
176
     1
 73
     2
176
     1
 90
        0
176
     1
 40
-0.6
176
     1
 41
-30.0
176
     1
 62
     5
 63
     7
421
 16777215
176
     1
 74
     2
176
     1
 91
        2
176
     1
 64
     7
176
     1
 65
   257
176
     1
 75
     2
176
     1
175
     1
176
     1
 42
40.0
176
     1
 92
        0
176
     1
 66
   257
176
     1
 43
1.0
176
     1
 76
     1
176
     1
 77
     6
176
     1
 78
     2
176
     1
 67
     7
176
     1
 79
     3
176
     1
170
     0
176
     1
171
     0
176
     1
290
     0
176
     1
 93
        1
176
     1
 44
0.0
176
     1
173
     0
176
     1
  0
VISUALSTYLE
  5
30
102
{ACAD_REACTORS
330
2A
102
}
330
2A
100
AcDbVisualStyle
  2
3dWireframe
 70
     5
177
     2
291
     0
 71
     0
176
     1
 72
     2
176
     1
 73
     0
176
     1
 90
        0
176
     1
 40
-0.6
176
     1
 41
-30.0
176
     1
 62
     5
 63
     7
421
 16777215
176
     1
 74
     1
176
     1
 91
        4
176
     1
 64
     7
176
     1
 65
   257
176
     1
 75
     1
176
     1
175
     1
176
     1
 42
1.0
176
     1
 92
        0
176
     1
 66
   257
176
     1
 43
1.0
176
     1
 76
     1
176
     1
 77
     6
176
     1
 78
     2
176
     1
 67
     7
176
     1
 79
     5
176
     1
170
     0
176
     1
171
     0
176
     1
290
     0
176
     1
 93
        1
176
     1
 44
0.0
176
     1
173
     0
176
     1
  0
VISUALSTYLE
  5
32
102
{ACAD_REACTORS
330
2A
102
}
330
2A
100
AcDbVisualStyle
  2
Basic
 70
     7
177
     2
291
     1
 71
     1
176
     1
 72
     0
176
     1
 73
     1
176
     1
 90
        0
176
     1
 40
-0.6
176
     1
 41
-30.0
176
     1
 62
     5
 63
     7
421
 16777215
176
     1
 74
     0
176
     1
 91
        4
176
     1
 64
     7
176
     1
 65
   257
176
     1
 75
     1
176
     1
175
     1
176
     1
 42
1.0
176
     1
 92
        8
176
     1
 66
     7
176
     1
 43
1.0
176
     1
 76
     1
176
     1
 77
     6
176
     1
 78
     2
176
     1
 67
     7
176
     1
 79
     5
176
     1
170
     0
176
     1
171
     0
176
     1
290
     0
176
     1
 93
        1
176
     1
 44
0.0
176
     1
173
     0
176
     1
  0
VISUALSTYLE
  5
36
102
{ACAD_REACTORS
330
2A
102
}
330
2A
100
AcDbVisualStyle
  2
Brighten
 70
    12
177
     2
291
     1
 71
     2
176
     1
 72
     2
176
     1
 73
     0
176
     1
 90
        0
176
     1
 40
-0.6
176
     1
 41
-30.0
176
     1
 62
     5
 63
     7
421
 16777215
176
     1
 74
     1
176
     1
 91
        4
176
     1
 64
     7
176
     1
 65
   257
176
     1
 75
     1
176
     1
175
     1
176
     1
 42
1.0
176
     1
 92
        8
176
     1
 66
     7
176
     1
 43
1.0
176
     1
 76
     1
176
     1
 77
     6
176
     1
 78
     2
176
     1
 67
     7
176
     1
 79
     5
176
     1
170
     0
176
     1
171
     0
176
     1
290
     0
176
     1
 93
        1
176
     1
 44
50.0
176
     1
173
     0
176
     1
  0
VISUALSTYLE
  5
3A
102
{ACAD_REACTORS
330
2A
102
}
330
2A
100
AcDbVisualStyle
  2
ColorChange
 70
    16
177
     2
291
     1
 71
     2
176
     1
 72
     2
176
     1
 73
     3
176
     1
 90
        0
176
     1
 40
-0.6
176
     1
 41
-30.0
176
     1
 62
     5
 63
     8
421
  8421504
176
     1
 74
     1
176
     1
 91
        4
176
     1
 64
     7
176
     1
 65
   257
176
     1
 75
     1
176
     1
175
     1
176
     1
 42
1.0
176
     1
 92
        8
176
     1
 66
     8
424
  8421504
176
     1
 43
1.0
176
     1
 76
     1
176
     1
 77
     6
176
     1
 78
     2
176
     1
 67
     7
176
     1
 79
     5
176
     1
170
     0
176
     1
171
     0
176
     1
290
     0
176
     1
 93
        1
176
     1
 44
0.0
176
     1
173
     0
176
     1
  0
VISUALSTYLE
  5
34
102
{ACAD_REACTORS
330
2A
102
}
330
2A
100
AcDbVisualStyle
  2
Conceptual
 70
     9
177
     2
291
     0
 71
     3
176
     1
 72
     2
176
     1
 73
     0
176
     1
 90
        0
176
     1
 40
-0.6
176
     1
 41
-30.0
176
     1
 62
     5
 63
     7
421
 16777215
176
     1
 74
     2
176
     1
 91
        2
176
     1
 64
     7
176
     1
 65
   257
176
     1
 75
     1
176
     1
175
     1
176
     1
 42
40.0
176
     1
 92
        8
176
     1
 66
     7
176
     1
 43
1.0
176
     1
 76
     1
176
     1
 77
     6
176
     1
 78
     2
176
     1
 67
     7
176
     1
 79
     3
176
     1
170
     0
176
     1
171
     0
176
     1
290
     0
176
     1
 93
        1
176
     1
 44
0.0
176
     1
173
     0
176
     1
  0
VISUALSTYLE
  5
35
102
{ACAD_REACTORS
330
2A
102
}
330
2A
100
AcDbVisualStyle
  2
Dim
 70
    11
177
     2
291
     1
 71
     2
176
     1
 72
     2
176
     1
 73
     0
176
     1
 90
        0
176
     1
 40
-0.6
176
     1
 41
-30.0
176
     1
 62
     5
 63
     7
421
 16777215
176
     1
 74
     1
176
     1
 91
        4
176
     1
 64
     7
176
     1
 65
   257
176
     1
 75
     1
176
     1
175
     1
176
     1
 42
1.0
176
     1
 92
        8
176
     1
 66
     7
176
     1
 43
1.0
176
     1
 76
     1
176
     1
 77
     6
176
     1
 78
     2
176
     1
 67
     7
176
     1
 79
     5
176
     1
170
     0
176
     1
171
     0
176
     1
290
     0
176
     1
 93
        1
176
     1
 44
-50.0
176
     1
173
     0
176
     1
  0
VISUALSTYLE
  5
39
102
{ACAD_REACTORS
330
2A
102
}
330
2A
100
AcDbVisualStyle
  2
Facepattern
 70
    15
177
     2
291
     1
 71
     2
176
     1
 72
     2
176
     1
 73
     0
176
     1
 90
        0
176
     1
 40
-0.6
176
     1
 41
-30.0
176
     1
 62
     5
 63
     7
421
 16777215
176
     1
 74
     1
176
     1
 91
        4
176
     1
 64
     7
176
     1
 65
   257
176
     1
 75
     1
176
     1
175
     1
176
     1
 42
1.0
176
     1
 92
        8
176
     1
 66
     7
176
     1
 43
1.0
176
     1
 76
     1
176
     1
 77
     6
176
     1
 78
     2
176
     1
 67
     7
176
     1
 79
     5
176
     1
170
     0
176
     1
171
     0
176
     1
290
     0
176
     1
 93
        1
176
     1
 44
0.0
176
     1
173
     0
176
     1
  0
VISUALSTYLE
  5
2B
102
{ACAD_REACTORS
330
2A
102
}
330
2A
100
AcDbVisualStyle
  2
Flat
 70
     0
177
     2
291
     1
 71
     2
176
     1
 72
     1
176
     1
 73
     1
176
     1
 90
        2
176
     1
 40
-0.6
176
     1
 41
30.0
176
     1
 62
     5
 63
     7
421
 16777215
176
     1
 74
     0
176
     1
 91
        4
176
     1
 64
     7
176
     1
 65
   257
176
     1
 75
     1
176
     1
175
     1
176
     1
 42
1.0
176
     1
 92
        8
176
     1
 66
     7
176
     1
 43
1.0
176
     1
 76
     1
176
     1
 77
     6
176
     1
 78
     2
176
     1
 67
     7
176
     1
 79
     5
176
     1
170
     0
176
     1
171
     0
176
     1
290
     0
176
     1
 93
       13
176
     1
 44
0.0
176
     1
173
     0
176
     1
  0
VISUALSTYLE
  5
2C
102
{ACAD_REACTORS
330
2A
102
}
330
2A
100
AcDbVisualStyle
  2
FlatWithEdges
 70
     1
177
     2
291
     1
 71
     2
176
     1
 72
     1
176
     1
 73
     1
176
     1
 90
        2
176
     1
 40
-0.6
176
     1
 41
30.0
176
     1
 62
     5
 63
     7
421
 16777215
176
     1
 74
     1
176
     1
 91
        4
176
     1
 64
     7
176
     1
 65
   257
176
     1
 75
     1
176
     1
175
     1
176
     1
 42
1.0
176
     1
 92
        0
176
     1
 66
   257
176
     1
 43
1.0
176
     1
 76
     1
176
     1
 77
     6
176
     1
 78
     2
176
     1
 67
     7
176
     1
 79
     5
176
     1
170
     0
176
     1
171
     0
176
     1
290
     0
176
     1
 93
       13
176
     1
 44
0.0
176
     1
173
     0
176
     1
  0
VISUALSTYLE
  5
2D
102
{ACAD_REACTORS
330
2A
102
}
330
2A
100
AcDbVisualStyle
  2
Gouraud
 70
     2
177
     2
291
     1
 71
     2
176
     1
 72
     2
176
     1
 73
     1
176
     1
 90
        2
176
     1
 40
-0.6
176
     1
 41
30.0
176
     1
 62
     5
 63
     7
421
 16777215
176
     1
 74
     0
176
     1
 91
        4
176
     1
 64
     7
176
     1
 65
   257
176
     1
 75
     1
176
     1
175
     1
176
     1
 42
1.0
176
     1
 92
        0
176
     1
 66
     7
176
     1
 43
1.0
176
     1
 76
     1
176
     1
 77
     6
176
     1
 78
     2
176
     1
 67
     7
176
     1
 79
     5
176
     1
170
     0
176
     1
171
     0
176
     1
290
     0
176
     1
 93
       13
176
     1
 44
0.0
176
     1
173
     0
176
     1
  0
VISUALSTYLE
  5
2E
102
{ACAD_REACTORS
330
2A
102
}
330
2A
100
AcDbVisualStyle
  2
GouraudWithEdges
 70
     3
177
     2
291
     1
 71
     2
176
     1
 72
     2
176
     1
 73
     1
176
     1
 90
        2
176
     1
 40
-0.6
176
     1
 41
30.0
176
     1
 62
     5
 63
     7
421
 16777215
176
     1
 74
     1
176
     1
 91
        4
176
     1
 64
     7
176
     1
 65
   257
176
     1
 75
     1
176
     1
175
     1
176
     1
 42
1.0
176
     1
 92
        0
176
     1
 66
   257
176
     1
 43
1.0
176
     1
 76
     1
176
     1
 77
     6
176
     1
 78
     2
176
     1
 67
     7
176
     1
 79
     5
176
     1
170
     0
176
     1
171
     0
176
     1
290
     0
176
     1
 93
       13
176
     1
 44
0.0
176
     1
173
     0
176
     1
  0
VISUALSTYLE
  5
38
102
{ACAD_REACTORS
330
2A
102
}
330
2A
100
AcDbVisualStyle
  2
Linepattern
 70
    14
177
     2
291
     1
 71
     2
176
     1
 72
     2
176
     1
 73
     0
176
     1
 90
        0
176
     1
 40
-0.6
176
     1
 41
-30.0
176
     1
 62
     5
 63
     7
421
 16777215
176
     1
 74
     1
176
     1
 91
        4
176
     1
 64
     7
176
     1
 65
   257
176
     1
 75
     7
176
     1
175
     7
176
     1
 42
1.0
176
     1
 92
        8
176
     1
 66
     7
176
     1
 43
1.0
176
     1
 76
     1
176
     1
 77
     6
176
     1
 78
     2
176
     1
 67
     7
176
     1
 79
     5
176
     1
170
     0
176
     1
171
     0
176
     1
290
     0
176
     1
 93
        1
176
     1
 44
0.0
176
     1
173
     0
176
     1
  0
VISUALSTYLE
  5
33
102
{ACAD_REACTORS
330
2A
102
}
330
2A
100
AcDbVisualStyle
  2
Realistic
 70
     8
177
     2
291
     0
 71
     2
176
     1
 72
     2
176
     1
 73
     0
176
     1
 90
        0
176
     1
 40
-0.6
176
     1
 41
-30.0
176
     1
 62
     5
 63
     7
421
 16777215
176
     1
 74
     1
176
     1
 91
        0
176
     1
 64
     7
176
     1
 65
   257
176
     1
 75
     1
176
     1
175
     1
176
     1
 42
1.0
176
     1
 92
        8
176
     1
 66
     8
424
  7895160
176
     1
 43
1.0
176
     1
 76
     1
176
     1
 77
     6
176
     1
 78
     2
176
     1
 67
     7
176
     1
 79
     5
176
     1
170
     0
176
     1
171
     0
176
     1
290
     0
176
     1
 93
       13
176
     1
 44
0.0
176
     1
173
     0
176
     1
  0
VISUALSTYLE
  5
37
102
{ACAD_REACTORS
330
2A
102
}
330
2A
100
AcDbVisualStyle
  2
Thicken
 70
    13
177
     2
291
     1
 71
     2
176
     1
 72
     2
176
     1
 73
     0
176
     1
 90
        0
176
     1
 40
-0.6
176
     1
 41
-30.0
176
     1
 62
     5
 63
     7
421
 16777215
176
     1
 74
     1
176
     1
 91
        4
176
     1
 64
     7
176
     1
 65
   257
176
     1
 75
     1
176
     1
175
     1
176
     1
 42
1.0
176
     1
 92
       12
176
     1
 66
     7
176
     1
 43
1.0
176
     1
 76
     1
176
     1
 77
     6
176
     1
 78
     2
176
     1
 67
     7
176
     1
 79
     5
176
     1
170
     0
176
     1
171
     0
176
     1
290
     0
176
     1
 93
        1
176
     1
 44
0.0
176
     1
173
     0
176
     1
  0
ENDSEC
  0
EOF
