  0
SECTION
  2
HEADER
  9
$ACADVER
  1
AC1024
  9
$ACADMAINTVER
 70
     6
  9
$DWGCODEPAGE
  3
UNDEFINED
  9
$INSBASE
 10
0.0
 20
0.0
 30
0.0
  9
$EXTMIN
 10
1.000000000000000E+20
 20
1.000000000000000E+20
 30
1.000000000000000E+20
  9
$EXTMAX
 10
-1.000000000000000E+20
 20
-1.000000000000000E+20
 30
-1.000000000000000E+20
  9
$LIMMIN
 10
0.0
 20
0.0
  9
$LIMMAX
 10
12.0
 20
9.0
  9
$ORTHOMODE
 70
     0
  9
$REGENMODE
 70
     1
  9
$FILLMODE
 70
     1
  9
$QTEXTMODE
 70
     0
  9
$MIRRTEXT
 70
     1
  9
$LTSCALE
 40
1.0
  9
$ATTMODE
 70
     1
  9
$TEXTSIZE
 40
0.2
  9
$TRACEWID
 40
0.05
  9
$TEXTSTYLE
  7
Standard
  9
$CLAYER
  8
0
  9
$CELTYPE
  6
ByLayer
  9
$CECOLOR
 62
   256
  9
$CELTSCALE
 40
1.0
  9
$DISPSILH
 70
     0
  9
$DIMSCALE
 40
1.0
  9
$DIMASZ
 40
0.18
  9
$DIMEXO
 40
0.0625
  9
$DIMDLI
 40
0.38
  9
$DIMRND
 40
0.0
  9
$DIMDLE
 40
0.0
  9
$DIMEXE
 40
0.18
  9
$DIMTP
 40
0.0
  9
$DIMTM
 40
0.0
  9
$DIMTXT
 40
0.18
  9
$DIMCEN
 40
0.09
  9
$DIMTSZ
 40
0.0
  9
$DIMTOL
 70
     0
  9
$DIMLIM
 70
     0
  9
$DIMTIH
 70
     1
  9
$DIMTOH
 70
     1
  9
$DIMSE1
 70
     0
  9
$DIMSE2
 70
     0
  9
$DIMTAD
 70
     0
  9
$DIMZIN
 70
     0
  9
$DIMBLK
  1

  9
$DIMASO
 70
     1
  9
$DIMSHO
 70
     1
  9
$DIMPOST
  1

  9
$DIMAPOST
  1

  9
$DIMALT
 70
     0
  9
$DIMALTD
 70
     2
  9
$DIMALTF
 40
25.4
  9
$DIMLFAC
 40
1.0
  9
$DIMTOFL
 70
     0
  9
$DIMTVP
 40
0.0
  9
$DIMTIX
 70
     0
  9
$DIMSOXD
 70
     0
  9
$DIMSAH
 70
     0
  9
$DIMBLK1
  1

  9
$DIMBLK2
  1

  9
$DIMSTYLE
  2
Standard
  9
$DIMCLRD
 70
     0
  9
$DIMCLRE
 70
     0
  9
$DIMCLRT
 70
     0
  9
$DIMTFAC
 40
1.0
  9
$DIMGAP
 40
0.09
  9
$DIMJUST
 70
     0
  9
$DIMSD1
 70
     0
  9
$DIMSD2
 70
     0
  9
$DIMTOLJ
 70
     1
  9
$DIMTZIN
 70
     0
  9
$DIMALTZ
 70
     0
  9
$DIMALTTZ
 70
     0
  9
$DIMUPT
 70
     0
  9
$DIMDEC
 70
     4
  9
$DIMTDEC
 70
     4
  9
$DIMALTU
 70
     2
  9
$DIMALTTD
 70
     2
  9
$DIMTXSTY
  7
Standard
  9
$DIMAUNIT
 70
     0
  9
$DIMADEC
 70
     0
  9
$DIMALTRND
 40
0.0
  9
$DIMAZIN
 70
     0
  9
$DIMDSEP
 70
    46
  9
$DIMATFIT
 70
     3
  9
$DIMFRAC
 70
     0
  9
$DIMLDRBLK
  1

  9
$DIMLUNIT
 70
     2
  9
$DIMLWD
 70
    -2
  9
$DIMLWE
 70
    -2
  9
$DIMTMOVE
 70
     0
  9
$DIMFXL
 40
1.0
  9
$DIMFXLON
 70
     0
  9
$DIMJOGANG
 40
0.7853981633974483
  9
$DIMTFILL
 70
     0
  9
$DIMTFILLCLR
 70
     0
  9
$DIMARCSYM
 70
     0
  9
$DIMLTYPE
  6

  9
$DIMLTEX1
  6

  9
$DIMLTEX2
  6

  9
$DIMTXTDIRECTION
 70
     0
  9
$LUNITS
 70
     2
  9
$LUPREC
 70
     4
  9
$SKETCHINC
 40
0.1
  9
$FILLETRAD
 40
0.5
  9
$AUNITS
 70
     0
  9
$AUPREC
 70
     0
  9
$MENU
  1
.
  9
$ELEVATION
 40
0.0
  9
$PELEVATION
 40
0.0
  9
$THICKNESS
 40
0.0
  9
$LIMCHECK
 70
     0
  9
$CHAMFERA
 40
0.5
  9
$CHAMFERB
 40
0.5
  9
$CHAMFERC
 40
1.0
  9
$CHAMFERD
 40
0.0
  9
$SKPOLY
 70
     0
  9
$TDCREATE
 40
2457917.622233796
  9
$TDUCREATE
 40
2457917.247233796
  9
$TDUPDATE
 40
2457917.622233796
  9
$TDUUPDATE
 40
2457917.247233796
  9
$TDINDWG
 40
0.0000000116
  9
$TDUSRTIMER
 40
0.0000000116
  9
$USRTIMER
 70
     1
  9
$ANGBASE
 50
0.0
  9
$ANGDIR
 70
     0
  9
$PDMODE
 70
     0
  9
$PDSIZE
 40
0.0
  9
$PLINEWID
 40
0.0
  9
$SPLFRAME
 70
     0
  9
$SPLINETYPE
 70
     6
  9
$SPLINESEGS
 70
     8
  9
$HANDSEED
  5
CA
  9
$SURFTAB1
 70
     6
  9
$SURFTAB2
 70
     6
  9
$SURFTYPE
 70
     6
  9
$SURFU
 70
     6
  9
$SURFV
 70
     6
  9
$UCSBASE
  2

  9
$UCSNAME
  2

  9
$UCSORG
 10
0.0
 20
0.0
 30
0.0
  9
$UCSXDIR
 10
1.0
 20
0.0
 30
0.0
  9
$UCSYDIR
 10
0.0
 20
1.0
 30
0.0
  9
$UCSORTHOREF
  2

  9
$UCSORTHOVIEW
 70
     0
  9
$UCSORGTOP
 10
0.0
 20
0.0
 30
0.0
  9
$UCSORGBOTTOM
 10
0.0
 20
0.0
 30
0.0
  9
$UCSORGLEFT
 10
0.0
 20
0.0
 30
0.0
  9
$UCSORGRIGHT
 10
0.0
 20
0.0
 30
0.0
  9
$UCSORGFRONT
 10
0.0
 20
0.0
 30
0.0
  9
$UCSORGBACK
 10
0.0
 20
0.0
 30
0.0
  9
$PUCSBASE
  2

  9
$PUCSNAME
  2

  9
$PUCSORG
 10
0.0
 20
0.0
 30
0.0
  9
$PUCSXDIR
 10
1.0
 20
0.0
 30
0.0
  9
$PUCSYDIR
 10
0.0
 20
1.0
 30
0.0
  9
$PUCSORTHOREF
  2

  9
$PUCSORTHOVIEW
 70
     0
  9
$PUCSORGTOP
 10
0.0
 20
0.0
 30
0.0
  9
$PUCSORGBOTTOM
 10
0.0
 20
0.0
 30
0.0
  9
$PUCSORGLEFT
 10
0.0
 20
0.0
 30
0.0
  9
$PUCSORGRIGHT
 10
0.0
 20
0.0
 30
0.0
  9
$PUCSORGFRONT
 10
0.0
 20
0.0
 30
0.0
  9
$PUCSORGBACK
 10
0.0
 20
0.0
 30
0.0
  9
$USERI1
 70
     0
  9
$USERI2
 70
     0
  9
$USERI3
 70
     0
  9
$USERI4
 70
     0
  9
$USERI5
 70
     0
  9
$USERR1
 40
0.0
  9
$USERR2
 40
0.0
  9
$USERR3
 40
0.0
  9
$USERR4
 40
0.0
  9
$USERR5
 40
0.0
  9
$WORLDVIEW
 70
     1
  9
$SHADEDGE
 70
     3
  9
$SHADEDIF
 70
    70
  9
$TILEMODE
 70
     1
  9
$MAXACTVP
 70
    64
  9
$PINSBASE
 10
0.0
 20
0.0
 30
0.0
  9
$PLIMCHECK
 70
     0
  9
$PEXTMIN
 10
1.000000000000000E+20
 20
1.000000000000000E+20
 30
1.000000000000000E+20
  9
$PEXTMAX
 10
-1.000000000000000E+20
 20
-1.000000000000000E+20
 30
-1.000000000000000E+20
  9
$PLIMMIN
 10
0.0
 20
0.0
  9
$PLIMMAX
 10
12.0
 20
9.0
  9
$UNITMODE
 70
     0
  9
$VISRETAIN
 70
     1
  9
$PLINEGEN
 70
     0
  9
$PSLTSCALE
 70
     1
  9
$TREEDEPTH
 70
  3020
  9
$CMLSTYLE
  2
Standard
  9
$CMLJUST
 70
     0
  9
$CMLSCALE
 40
1.0
  9
$PROXYGRAPHICS
 70
     1
  9
$MEASUREMENT
 70
     0
  9
$CELWEIGHT
370
    -1
  9
$ENDCAPS
280
     0
  9
$JOINSTYLE
280
     0
  9
$LWDISPLAY
290
     1
  9
$INSUNITS
 70
     1
  9
$HYPERLINKBASE
  1

  9
$STYLESHEET
  1

  9
$XEDIT
290
     1
  9
$CEPSNTYPE
380
     0
  9
$PSTYLEMODE
290
     1
  9
$FINGERPRINTGUID
  2
{2A3C2699-4E4A-4801-D94C-AA497C2D45FF}
  9
$VERSIONGUID
  2
{FAEB1C32-E019-11D5-929B-00C0DF256EC4}
  9
$EXTNAMES
290
     1
  9
$PSVPSCALE
 40
0.0
  9
$OLESTARTUP
290
     0
  9
$SORTENTS
280
   127
  9
$INDEXCTL
280
     0
  9
$HIDETEXT
280
     1
  9
$XCLIPFRAME
280
     2
  9
$HALOGAP
280
     0
  9
$OBSCOLOR
 70
   257
  9
$OBSLTYPE
280
     0
  9
$INTERSECTIONDISPLAY
280
     0
  9
$INTERSECTIONCOLOR
 70
   257
  9
$DIMASSOC
280
     2
  9
$PROJECTNAME
  1

  9
$CAMERADISPLAY
290
     0
  9
$LENSLENGTH
 40
50.0
  9
$CAMERAHEIGHT
 40
0.0
  9
$STEPSPERSEC
 40
2.0
  9
$STEPSIZE
 40
6.0
  9
$3DDWFPREC
 40
2.0
  9
$PSOLWIDTH
 40
0.25
  9
$PSOLHEIGHT
 40
4.0
  9
$LOFTANG1
 40
1.570796326794897
  9
$LOFTANG2
 40
1.570796326794897
  9
$LOFTMAG1
 40
0.0
  9
$LOFTMAG2
 40
0.0
  9
$LOFTPARAM
 70
     7
  9
$LOFTNORMALS
280
     1
  9
$LATITUDE
 40
37.795
  9
$LONGITUDE
 40
-122.394
  9
$NORTHDIRECTION
 40
0.0
  9
$TIMEZONE
 70
 -8000
  9
$LIGHTGLYPHDISPLAY
280
     1
  9
$TILEMODELIGHTSYNCH
280
     1
  9
$CMATERIAL
347
3C
  9
$SOLIDHIST
280
     1
  9
$SHOWHIST
280
     1
  9
$DWFFRAME
280
     2
  9
$DGNFRAME
280
     2
  9
$REALWORLDSCALE
290
     1
  9
$INTERFERECOLOR
 62
   256
  9
$CSHADOW
280
     0
  9
$SHADOWPLANELOCATION
 40
0.0
  0
ENDSEC
  0
SECTION
  2
CLASSES
  0
CLASS
  1
ACDBDICTIONARYWDFLT
  2
AcDbDictionaryWithDefault
  3
ObjectDBX Classes
 90
        0
 91
        4
280
     0
281
     0
  0
CLASS
  1
VISUALSTYLE
  2
AcDbVisualStyle
  3
ObjectDBX Classes
 90
     4095
 91
        4
280
     0
281
     0
  0
CLASS
  1
MATERIAL
  2
AcDbMaterial
  3
ObjectDBX Classes
 90
     1153
 91
        4
280
     0
281
     0
  0
CLASS
  1
SUN
  2
AcDbSun
  3
SCENEOE
 90
     1024
 91
        4
280
     0
281
     0
  0
ENDSEC
  0
SECTION
  2
TABLES
  0
TABLE
  2
VPORT
  5
8
330
0
100
AcDbSymbolTable
 70
     1
  0
VPORT
  5
29
330
8
100
AcDbSymbolTableRecord
100
AcDbViewportTableRecord
  2
*Active
 70
     0
 10
0.0
 20
0.0
 11
1.0
 21
1.0
 12
0.0
 22
0.0
 13
0.0
 23
0.0
 14
0.5
 24
0.5
 15
0.5
 25
0.5
 16
0.0
 26
0.0
 36
1.0
 17
91.00082462281999
 27
-128.4993055234307
 37
0.0
 40
256.9986110468615
 41
0.7081814508812795
 42
50.0
 43
0.0
 44
0.0
 50
0.0
 51
0.0
 71
     0
 72
   100
 73
     1
 74
     3
 75
     0
 76
     0
 77
     0
 78
     0
281
     0
 65
     1
110
0.0
120
0.0
130
0.0
111
1.0
121
0.0
131
0.0
112
0.0
122
1.0
132
0.0
 79
     0
146
0.0
 60
     3
 61
     5
292
     1
282
     1
141
0.0
142
0.0
 63
   250
361
3F
  0
ENDTAB
  0
TABLE
  2
LTYPE
  5
5
330
0
100
AcDbSymbolTable
 70
     1
  0
LTYPE
  5
14
330
5
100
AcDbSymbolTableRecord
100
AcDbLinetypeTableRecord
  2
ByBlock
 70
     0
  3

 72
    65
 73
     0
 40
0.0
  0
LTYPE
  5
15
330
5
100
AcDbSymbolTableRecord
100
AcDbLinetypeTableRecord
  2
ByLayer
 70
     0
  3

 72
    65
 73
     0
 40
0.0
  0
LTYPE
  5
16
330
5
100
AcDbSymbolTableRecord
100
AcDbLinetypeTableRecord
  2
Continuous
 70
     0
  3
Solid line
 72
    65
 73
     0
 40
0.0
  0
ENDTAB
  0
TABLE
  2
LAYER
  5
2
330
0
100
AcDbSymbolTable
 70
     2
  0
LAYER
  5
10
330
2
100
AcDbSymbolTableRecord
100
AcDbLayerTableRecord
  2
0
 70
     0
 62
     7
  6
Continuous
370
    -3
390
F
347
3E
  0
LAYER
  5
40
330
2
100
AcDbSymbolTableRecord
100
AcDbLayerTableRecord
  2
_U+30EC_U+30A4_U+30E4_U+30FC 1
 70
     0
 62
     7
  6
Continuous
370
    -3
390
F
347
3E
  0
ENDTAB
  0
TABLE
  2
STYLE
  5
3
330
0
100
AcDbSymbolTable
 70
     1
  0
STYLE
  5
11
330
3
100
AcDbSymbolTableRecord
100
AcDbTextStyleTableRecord
  2
Standard
 70
     0
 40
0.0
 41
1.0
 50
0.0
 71
     0
 42
0.2
  3
txt
  4

  0
ENDTAB
  0
TABLE
  2
VIEW
  5
6
330
0
100
AcDbSymbolTable
 70
     0
  0
ENDTAB
  0
TABLE
  2
UCS
  5
7
330
0
100
AcDbSymbolTable
 70
     0
  0
ENDTAB
  0
TABLE
  2
APPID
  5
9
330
0
100
AcDbSymbolTable
 70
     1
  0
APPID
  5
12
330
9
100
AcDbSymbolTableRecord
100
AcDbRegAppTableRecord
  2
ACAD
 70
     0
  0
ENDTAB
  0
TABLE
  2
DIMSTYLE
  5
A
330
0
100
AcDbSymbolTable
 70
     1
100
AcDbDimStyleTable
  0
DIMSTYLE
105
27
330
A
100
AcDbSymbolTableRecord
100
AcDbDimStyleTableRecord
  2
Standard
 70
     0
178
     0
340
11
  0
ENDTAB
  0
TABLE
  2
BLOCK_RECORD
  5
1
330
0
100
AcDbSymbolTable
 70
     7
  0
BLOCK_RECORD
  5
1F
330
1
100
AcDbSymbolTableRecord
100
AcDbBlockTableRecord
  2
*Model_Space
340
22
 70
     0
280
     1
281
     0
  0
BLOCK_RECORD
  5
1B
330
1
100
AcDbSymbolTableRecord
100
AcDbBlockTableRecord
  2
*Paper_Space
340
1E
 70
     0
280
     1
281
     0
  0
BLOCK_RECORD
  5
23
330
1
100
AcDbSymbolTableRecord
100
AcDbBlockTableRecord
  2
*Paper_Space0
340
26
 70
     0
280
     1
281
     0
  0
BLOCK_RECORD
  5
5D
330
1
100
AcDbSymbolTableRecord
100
AcDbBlockTableRecord
  2
block 2
340
0
102
{BLKREFS
331
5E
102
}
 70
     0
280
     1
281
     0
  0
BLOCK_RECORD
  5
72
330
1
100
AcDbSymbolTableRecord
100
AcDbBlockTableRecord
  2
block 3
340
0
102
{BLKREFS
331
73
102
}
 70
     0
280
     1
281
     0
  0
BLOCK_RECORD
  5
82
330
1
100
AcDbSymbolTableRecord
100
AcDbBlockTableRecord
  2
block 4
340
0
102
{BLKREFS
331
83
102
}
 70
     0
280
     1
281
     0
  0
BLOCK_RECORD
  5
94
330
1
100
AcDbSymbolTableRecord
100
AcDbBlockTableRecord
  2
block 5
340
0
102
{BLKREFS
331
95
102
}
 70
     0
280
     1
281
     0
  0
BLOCK_RECORD
  5
A9
330
1
100
AcDbSymbolTableRecord
100
AcDbBlockTableRecord
  2
block 6
340
0
102
{BLKREFS
331
AA
102
}
 70
     0
280
     1
281
     0
  0
BLOCK_RECORD
  5
BE
330
1
100
AcDbSymbolTableRecord
100
AcDbBlockTableRecord
  2
block 7
340
0
102
{BLKREFS
331
BF
102
}
 70
     0
280
     1
281
     0
  0
ENDTAB
  0
ENDSEC
  0
SECTION
  2
BLOCKS
  0
BLOCK
  5
20
330
1F
100
AcDbEntity
  8
0
100
AcDbBlockBegin
  2
*Model_Space
 70
     0
 10
0.0
 20
0.0
 30
0.0
  3
*Model_Space
  1

  0
ENDBLK
  5
21
330
1F
100
AcDbEntity
  8
0
100
AcDbBlockEnd
  0
BLOCK
  5
1C
330
1B
100
AcDbEntity
 67
     1
  8
0
100
AcDbBlockBegin
  2
*Paper_Space
 70
     0
 10
0.0
 20
0.0
 30
0.0
  3
*Paper_Space
  1

  0
ENDBLK
  5
1D
330
1B
100
AcDbEntity
 67
     1
  8
0
100
AcDbBlockEnd
  0
BLOCK
  5
24
330
23
100
AcDbEntity
  8
0
100
AcDbBlockBegin
  2
*Paper_Space0
 70
     0
 10
0.0
 20
0.0
 30
0.0
  3
*Paper_Space0
  1

  0
ENDBLK
  5
25
330
23
100
AcDbEntity
  8
0
100
AcDbBlockEnd
  0
BLOCK
  5
5F
330
5D
100
AcDbEntity
  8
0
100
AcDbBlockBegin
  2
block 2
 70
     0
 10
0.0
 20
0.0
 30
0.0
  3
block 2
  1

  0
SPLINE
  5
61
330
5D
100
AcDbEntity
  8
_U+30EC_U+30A4_U+30E4_U+30FC 1
370
     0
100
AcDbSpline
210
0.0
220
0.0
230
1.0
 70
    11
 71
     3
 72
    26
 73
    22
 74
     0
 42
0.0000000001
 43
0.0000000001
 12
1.0
 22
0.0
 32
0.0
 13
1.0
 23
0.0
 33
0.0
 40
0.0
 40
0.0
 40
0.0
 40
0.0
 40
1.0
 40
1.0
 40
1.0
 40
2.0
 40
2.0
 40
2.0
 40
3.0
 40
3.0
 40
3.0
 40
4.0
 40
4.0
 40
4.0
 40
5.0
 40
5.0
 40
5.0
 40
6.0
 40
6.0
 40
6.0
 40
7.0
 40
7.0
 40
7.0
 40
7.0
 10
76.56828068832321
 20
-139.5728759416693
 30
0.0
 10
76.56828068832321
 20
-139.5728759416693
 30
0.0
 10
76.56828068832321
 20
-138.4687228386467
 30
0.0
 10
76.56828068832321
 20
-138.4687228386467
 30
0.0
 10
76.56828068832321
 20
-138.4687228386467
 30
0.0
 10
76.23824054083627
 20
-138.4687228386467
 30
0.0
 10
76.23824054083627
 20
-138.4687228386467
 30
0.0
 10
76.23824054083627
 20
-138.4687228386467
 30
0.0
 10
76.23824054083627
 20
-138.320583732781
 30
0.0
 10
76.23824054083627
 20
-138.320583732781
 30
0.0
 10
76.57034774561436
 20
-138.3057698221944
 30
0.0
 10
76.61685653466523
 20
-138.1428168057421
 30
0.0
 10
76.64648435583838
 20
-138.0284396356318
 30
0.0
 10
76.64648435583838
 20
-138.0284396356318
 30
0.0
 10
76.79255640441298
 20
-138.0284396356318
 30
0.0
 10
76.79255640441298
 20
-138.0284396356318
 30
0.0
 10
76.79255640441298
 20
-138.0284396356318
 30
0.0
 10
76.79255640441298
 20
-139.5728759416693
 30
0.0
 10
76.79255640441298
 20
-139.5728759416693
 30
0.0
 10
76.79255640441298
 20
-139.5728759416693
 30
0.0
 10
76.56828068832321
 20
-139.5728759416693
 30
0.0
 10
76.56828068832321
 20
-139.5728759416693
 30
0.0
  0
HATCH
  5
62
330
5D
100
AcDbEntity
  8
_U+30EC_U+30A4_U+30E4_U+30FC 1
 62
   179
420
  2234388
100
AcDbHatch
 10
0.0
 20
0.0
 30
0.0
210
0.0
220
0.0
230
1.0
  2
SOLID
 70
     1
 71
     0
 91
        1
 92
        1
 93
        1
 72
     4
 94
        3
 73
     0
 74
     1
 95
       26
 96
       22
 40
0.0
 40
0.0
 40
0.0
 40
0.0
 40
1.0
 40
1.0
 40
1.0
 40
2.0
 40
2.0
 40
2.0
 40
3.0
 40
3.0
 40
3.0
 40
4.0
 40
4.0
 40
4.0
 40
5.0
 40
5.0
 40
5.0
 40
6.0
 40
6.0
 40
6.0
 40
7.0
 40
7.0
 40
7.0
 40
7.0
 10
76.56828068832321
 20
-139.5728759416693
 10
76.56828068832321
 20
-139.5728759416693
 10
76.56828068832321
 20
-138.4687228386467
 10
76.56828068832321
 20
-138.4687228386467
 10
76.56828068832321
 20
-138.4687228386467
 10
76.23824054083627
 20
-138.4687228386467
 10
76.23824054083627
 20
-138.4687228386467
 10
76.23824054083627
 20
-138.4687228386467
 10
76.23824054083627
 20
-138.320583732781
 10
76.23824054083627
 20
-138.320583732781
 10
76.57034774561436
 20
-138.3057698221944
 10
76.61685653466523
 20
-138.1428168057421
 10
76.64648435583838
 20
-138.0284396356318
 10
76.64648435583838
 20
-138.0284396356318
 10
76.79255640441298
 20
-138.0284396356318
 10
76.79255640441298
 20
-138.0284396356318
 10
76.79255640441298
 20
-138.0284396356318
 10
76.79255640441298
 20
-139.5728759416693
 10
76.79255640441298
 20
-139.5728759416693
 10
76.79255640441298
 20
-139.5728759416693
 10
76.56828068832321
 20
-139.5728759416693
 10
76.56828068832321
 20
-139.5728759416693
 97
        0
 97
        0
 75
     2
 76
     1
 98
        0
  0
SPLINE
  5
63
330
5D
100
AcDbEntity
  8
_U+30EC_U+30A4_U+30E4_U+30FC 1
370
     0
100
AcDbSpline
210
0.0
220
0.0
230
1.0
 70
    11
 71
     3
 72
    44
 73
    40
 74
     0
 42
0.0000000001
 43
0.0000000001
 12
1.0
 22
0.0
 32
0.0
 13
1.0
 23
0.0
 33
0.0
 40
0.0
 40
0.0
 40
0.0
 40
0.0
 40
1.0
 40
1.0
 40
1.0
 40
2.0
 40
2.0
 40
2.0
 40
3.0
 40
3.0
 40
3.0
 40
4.0
 40
4.0
 40
4.0
 40
5.0
 40
5.0
 40
5.0
 40
6.0
 40
6.0
 40
6.0
 40
7.0
 40
7.0
 40
7.0
 40
8.0
 40
8.0
 40
8.0
 40
9.0
 40
9.0
 40
9.0
 40
10.0
 40
10.0
 40
10.0
 40
11.0
 40
11.0
 40
11.0
 40
12.0
 40
12.0
 40
12.0
 40
13.0
 40
13.0
 40
13.0
 40
13.0
 10
78.30788165360012
 20
-139.5728759416693
 30
0.0
 10
78.28445500430041
 20
-139.5284342099096
 30
0.0
 10
78.26343992184039
 20
-139.4757242489852
 30
0.0
 10
78.26120060977497
 20
-139.2449028514735
 30
0.0
 10
78.25706649519267
 20
-139.0016791102149
 30
0.0
 10
78.19781085284639
 20
-138.9317436718643
 30
0.0
 10
78.0200439258075
 20
-138.9317436718643
 30
0.0
 10
78.0200439258075
 20
-138.9317436718643
 30
0.0
 10
77.61180011080539
 20
-138.9317436718643
 30
0.0
 10
77.61180011080539
 20
-138.9317436718643
 30
0.0
 10
77.61180011080539
 20
-138.9317436718643
 30
0.0
 10
77.61180011080539
 20
-139.5728759416693
 30
0.0
 10
77.61180011080539
 20
-139.5728759416693
 30
0.0
 10
77.61180011080539
 20
-139.5728759416693
 30
0.0
 10
77.37701685348561
 20
-139.5728759416693
 30
0.0
 10
77.37701685348561
 20
-139.5728759416693
 30
0.0
 10
77.37701685348561
 20
-139.5728759416693
 30
0.0
 10
77.37701685348561
 20
-138.0284396356318
 30
0.0
 10
77.37701685348561
 20
-138.0284396356318
 30
0.0
 10
77.37701685348561
 20
-138.0284396356318
 30
0.0
 10
78.05173880427179
 20
-138.0284396356318
 30
0.0
 10
78.05173880427179
 20
-138.0284396356318
 30
0.0
 10
78.3585245572333
 20
-138.0284396356318
 30
0.0
 10
78.52578394304217
 20
-138.2000053907972
 30
0.0
 10
78.52578394304217
 20
-138.4559759853513
 30
0.0
 10
78.52578394304217
 20
-138.5066188889845
 30
0.0
 10
78.51717120432905
 20
-138.5893011806305
 30
0.0
 10
78.47272947256933
 20
-138.6695719054368
 30
0.0
 10
78.41364608499728
 20
-138.7732692795428
 30
0.0
 10
78.34801701600328
 20
-138.7922173047117
 30
0.0
 10
78.28669431636582
 20
-138.8090982725894
 30
0.0
 10
78.4241536262273
 20
-138.851472947058
 30
0.0
 10
78.49184975251245
 20
-138.9000487934
 30
0.0
 10
78.49615612186902
 20
-139.2152750303003
 30
0.0
 10
78.50029023645132
 20
-139.486059535441
 30
0.0
 10
78.53629148427218
 20
-139.5177544139053
 30
0.0
 10
78.60398761055734
 20
-139.5728759416693
 30
0.0
 10
78.60398761055734
 20
-139.5728759416693
 30
0.0
 10
78.30788165360012
 20
-139.5728759416693
 30
0.0
 10
78.30788165360012
 20
-139.5728759416693
 30
0.0
  0
SPLINE
  5
64
330
5D
100
AcDbEntity
  8
_U+30EC_U+30A4_U+30E4_U+30FC 1
370
     0
100
AcDbSpline
210
0.0
220
0.0
230
1.0
 70
    11
 71
     3
 72
    20
 73
    16
 74
     0
 42
0.0000000001
 43
0.0000000001
 12
1.0
 22
0.0
 32
0.0
 13
1.0
 23
0.0
 33
0.0
 40
0.0
 40
0.0
 40
0.0
 40
0.0
 40
1.0
 40
1.0
 40
1.0
 40
2.0
 40
2.0
 40
2.0
 40
3.0
 40
3.0
 40
3.0
 40
4.0
 40
4.0
 40
4.0
 40
5.0
 40
5.0
 40
5.0
 40
5.0
 10
78.05604517362835
 20
-138.2399684984261
 30
0.0
 10
78.05604517362835
 20
-138.2399684984261
 30
0.0
 10
77.61180011080539
 20
-138.2399684984261
 30
0.0
 10
77.61180011080539
 20
-138.2399684984261
 30
0.0
 10
77.61180011080539
 20
-138.2399684984261
 30
0.0
 10
77.61180011080539
 20
-138.7202148090699
 30
0.0
 10
77.61180011080539
 20
-138.7202148090699
 30
0.0
 10
77.61180011080539
 20
-138.7202148090699
 30
0.0
 10
78.0539781163372
 20
-138.7202148090699
 30
0.0
 10
78.0539781163372
 20
-138.7202148090699
 30
0.0
 10
78.15336912108666
 20
-138.7202148090699
 30
0.0
 10
78.28876137365698
 20
-138.6440781988459
 30
0.0
 10
78.28876137365698
 20
-138.472856953229
 30
0.0
 10
78.28876137365698
 20
-138.3946532857138
 30
0.0
 10
78.25499943790153
 20
-138.2399684984261
 30
0.0
 10
78.05604517362835
 20
-138.2399684984261
 30
0.0
  0
HATCH
  5
65
330
5D
100
AcDbEntity
  8
_U+30EC_U+30A4_U+30E4_U+30FC 1
 62
   179
420
  2234388
100
AcDbHatch
 10
0.0
 20
0.0
 30
0.0
210
0.0
220
0.0
230
1.0
  2
SOLID
 70
     1
 71
     0
 91
        2
 92
        1
 93
        1
 72
     4
 94
        3
 73
     0
 74
     1
 95
       44
 96
       40
 40
0.0
 40
0.0
 40
0.0
 40
0.0
 40
1.0
 40
1.0
 40
1.0
 40
2.0
 40
2.0
 40
2.0
 40
3.0
 40
3.0
 40
3.0
 40
4.0
 40
4.0
 40
4.0
 40
5.0
 40
5.0
 40
5.0
 40
6.0
 40
6.0
 40
6.0
 40
7.0
 40
7.0
 40
7.0
 40
8.0
 40
8.0
 40
8.0
 40
9.0
 40
9.0
 40
9.0
 40
10.0
 40
10.0
 40
10.0
 40
11.0
 40
11.0
 40
11.0
 40
12.0
 40
12.0
 40
12.0
 40
13.0
 40
13.0
 40
13.0
 40
13.0
 10
78.30788165360012
 20
-139.5728759416693
 10
78.28445500430041
 20
-139.5284342099096
 10
78.26343992184039
 20
-139.4757242489852
 10
78.26120060977497
 20
-139.2449028514735
 10
78.25706649519267
 20
-139.0016791102149
 10
78.19781085284639
 20
-138.9317436718643
 10
78.0200439258075
 20
-138.9317436718643
 10
78.0200439258075
 20
-138.9317436718643
 10
77.61180011080539
 20
-138.9317436718643
 10
77.61180011080539
 20
-138.9317436718643
 10
77.61180011080539
 20
-138.9317436718643
 10
77.61180011080539
 20
-139.5728759416693
 10
77.61180011080539
 20
-139.5728759416693
 10
77.61180011080539
 20
-139.5728759416693
 10
77.37701685348561
 20
-139.5728759416693
 10
77.37701685348561
 20
-139.5728759416693
 10
77.37701685348561
 20
-139.5728759416693
 10
77.37701685348561
 20
-138.0284396356318
 10
77.37701685348561
 20
-138.0284396356318
 10
77.37701685348561
 20
-138.0284396356318
 10
78.05173880427179
 20
-138.0284396356318
 10
78.05173880427179
 20
-138.0284396356318
 10
78.3585245572333
 20
-138.0284396356318
 10
78.52578394304217
 20
-138.2000053907972
 10
78.52578394304217
 20
-138.4559759853513
 10
78.52578394304217
 20
-138.5066188889845
 10
78.51717120432905
 20
-138.5893011806305
 10
78.47272947256933
 20
-138.6695719054368
 10
78.41364608499728
 20
-138.7732692795428
 10
78.34801701600328
 20
-138.7922173047117
 10
78.28669431636582
 20
-138.8090982725894
 10
78.4241536262273
 20
-138.851472947058
 10
78.49184975251245
 20
-138.9000487934
 10
78.49615612186902
 20
-139.2152750303003
 10
78.50029023645132
 20
-139.486059535441
 10
78.53629148427218
 20
-139.5177544139053
 10
78.60398761055734
 20
-139.5728759416693
 10
78.60398761055734
 20
-139.5728759416693
 10
78.30788165360012
 20
-139.5728759416693
 10
78.30788165360012
 20
-139.5728759416693
 97
        0
 97
        0
 92
        1
 93
        1
 72
     4
 94
        3
 73
     0
 74
     1
 95
       20
 96
       16
 40
0.0
 40
0.0
 40
0.0
 40
0.0
 40
1.0
 40
1.0
 40
1.0
 40
2.0
 40
2.0
 40
2.0
 40
3.0
 40
3.0
 40
3.0
 40
4.0
 40
4.0
 40
4.0
 40
5.0
 40
5.0
 40
5.0
 40
5.0
 10
78.05604517362835
 20
-138.2399684984261
 10
78.05604517362835
 20
-138.2399684984261
 10
77.61180011080539
 20
-138.2399684984261
 10
77.61180011080539
 20
-138.2399684984261
 10
77.61180011080539
 20
-138.2399684984261
 10
77.61180011080539
 20
-138.7202148090699
 10
77.61180011080539
 20
-138.7202148090699
 10
77.61180011080539
 20
-138.7202148090699
 10
78.0539781163372
 20
-138.7202148090699
 10
78.0539781163372
 20
-138.7202148090699
 10
78.15336912108666
 20
-138.7202148090699
 10
78.28876137365698
 20
-138.6440781988459
 10
78.28876137365698
 20
-138.472856953229
 10
78.28876137365698
 20
-138.3946532857138
 10
78.25499943790153
 20
-138.2399684984261
 10
78.05604517362835
 20
-138.2399684984261
 97
        0
 97
        0
 75
     2
 76
     1
 98
        0
  0
ENDBLK
  5
60
330
5D
100
AcDbEntity
  8
0
100
AcDbBlockEnd
  0
BLOCK
  5
74
330
72
100
AcDbEntity
  8
0
100
AcDbBlockBegin
  2
block 3
 70
     0
 10
0.0
 20
0.0
 30
0.0
  3
block 3
  1

  0
SPLINE
  5
76
330
72
100
AcDbEntity
  8
_U+30EC_U+30A4_U+30E4_U+30FC 1
370
     0
100
AcDbSpline
210
0.0
220
0.0
230
1.0
 70
    11
 71
     3
 72
    44
 73
    40
 74
     0
 42
0.0000000001
 43
0.0000000001
 12
1.0
 22
0.0
 32
0.0
 13
1.0
 23
0.0
 33
0.0
 40
0.0
 40
0.0
 40
0.0
 40
0.0
 40
1.0
 40
1.0
 40
1.0
 40
2.0
 40
2.0
 40
2.0
 40
3.0
 40
3.0
 40
3.0
 40
4.0
 40
4.0
 40
4.0
 40
5.0
 40
5.0
 40
5.0
 40
6.0
 40
6.0
 40
6.0
 40
7.0
 40
7.0
 40
7.0
 40
8.0
 40
8.0
 40
8.0
 40
9.0
 40
9.0
 40
9.0
 40
10.0
 40
10.0
 40
10.0
 40
11.0
 40
11.0
 40
11.0
 40
12.0
 40
12.0
 40
12.0
 40
13.0
 40
13.0
 40
13.0
 40
13.0
 10
95.02193465506396
 20
-116.5418958584513
 30
0.0
 10
94.80420462039618
 20
-116.7005425055471
 30
0.0
 10
94.71118704229443
 20
-116.77461205848
 30
0.0
 10
94.66226668640388
 20
-116.9182725402149
 30
0.0
 10
94.66226668640388
 20
-116.9182725402149
 30
0.0
 10
95.44085826607035
 20
-116.9182725402149
 30
0.0
 10
95.44085826607035
 20
-116.9182725402149
 30
0.0
 10
95.44085826607035
 20
-116.9182725402149
 30
0.0
 10
95.44085826607035
 20
-117.1236002311358
 30
0.0
 10
95.44085826607035
 20
-117.1236002311358
 30
0.0
 10
95.44085826607035
 20
-117.1236002311358
 30
0.0
 10
94.4128417732718
 20
-117.1236002311358
 30
0.0
 10
94.4128417732718
 20
-117.1236002311358
 30
0.0
 10
94.44453665173609
 20
-116.7659993197668
 30
0.0
 10
94.50999346595584
 20
-116.6877956522517
 30
0.0
 10
94.89515514120677
 20
-116.389450383229
 30
0.0
 10
95.15112573576083
 20
-116.1906683737301
 30
0.0
 10
95.21658254998059
 20
-116.122972247445
 30
0.0
 10
95.21658254998059
 20
-115.9855129375835
 30
0.0
 10
95.21658254998059
 20
-115.8670016528909
 30
0.0
 10
95.14458005433886
 20
-115.7359157696771
 30
0.0
 10
94.94786510213109
 20
-115.7359157696771
 30
0.0
 10
94.68776039299473
 20
-115.7359157696771
 30
0.0
 10
94.6791476542816
 20
-115.9663926576404
 30
0.0
 10
94.67501353969931
 20
-116.0828368850418
 30
0.0
 10
94.67501353969931
 20
-116.0828368850418
 30
0.0
 10
94.45073782360954
 20
-116.0828368850418
 30
0.0
 10
94.45073782360954
 20
-116.0828368850418
 30
0.0
 10
94.45935056232267
 20
-115.9558851164103
 30
0.0
 10
94.47003035832694
 20
-115.8437472583655
 30
0.0
 10
94.55030108313326
 20
-115.7252359736729
 30
0.0
 10
94.66019962911274
 20
-115.564522269286
 30
0.0
 10
94.84657929486475
 20
-115.5305880787563
 30
0.0
 10
94.96267901271767
 20
-115.5305880787563
 30
0.0
 10
95.24000919928028
 20
-115.5305880787563
 30
0.0
 10
95.44740394749232
 20
-115.7147284324429
 30
0.0
 10
95.44740394749232
 20
-115.9875799948746
 30
0.0
 10
95.44740394749232
 20
-116.2159898255467
 30
0.0
 10
95.33095972009087
 20
-116.3155530850704
 30
0.0
 10
95.02193465506396
 20
-116.5418958584513
 30
0.0
  0
HATCH
  5
77
330
72
100
AcDbEntity
  8
_U+30EC_U+30A4_U+30E4_U+30FC 1
 62
   179
420
  2234388
100
AcDbHatch
 10
0.0
 20
0.0
 30
0.0
210
0.0
220
0.0
230
1.0
  2
SOLID
 70
     1
 71
     0
 91
        1
 92
        1
 93
        1
 72
     4
 94
        3
 73
     0
 74
     1
 95
       44
 96
       40
 40
0.0
 40
0.0
 40
0.0
 40
0.0
 40
1.0
 40
1.0
 40
1.0
 40
2.0
 40
2.0
 40
2.0
 40
3.0
 40
3.0
 40
3.0
 40
4.0
 40
4.0
 40
4.0
 40
5.0
 40
5.0
 40
5.0
 40
6.0
 40
6.0
 40
6.0
 40
7.0
 40
7.0
 40
7.0
 40
8.0
 40
8.0
 40
8.0
 40
9.0
 40
9.0
 40
9.0
 40
10.0
 40
10.0
 40
10.0
 40
11.0
 40
11.0
 40
11.0
 40
12.0
 40
12.0
 40
12.0
 40
13.0
 40
13.0
 40
13.0
 40
13.0
 10
95.02193465506396
 20
-116.5418958584513
 10
94.80420462039618
 20
-116.7005425055471
 10
94.71118704229443
 20
-116.77461205848
 10
94.66226668640388
 20
-116.9182725402149
 10
94.66226668640388
 20
-116.9182725402149
 10
95.44085826607035
 20
-116.9182725402149
 10
95.44085826607035
 20
-116.9182725402149
 10
95.44085826607035
 20
-116.9182725402149
 10
95.44085826607035
 20
-117.1236002311358
 10
95.44085826607035
 20
-117.1236002311358
 10
95.44085826607035
 20
-117.1236002311358
 10
94.4128417732718
 20
-117.1236002311358
 10
94.4128417732718
 20
-117.1236002311358
 10
94.44453665173609
 20
-116.7659993197668
 10
94.50999346595584
 20
-116.6877956522517
 10
94.89515514120677
 20
-116.389450383229
 10
95.15112573576083
 20
-116.1906683737301
 10
95.21658254998059
 20
-116.122972247445
 10
95.21658254998059
 20
-115.9855129375835
 10
95.21658254998059
 20
-115.8670016528909
 10
95.14458005433886
 20
-115.7359157696771
 10
94.94786510213109
 20
-115.7359157696771
 10
94.68776039299473
 20
-115.7359157696771
 10
94.6791476542816
 20
-115.9663926576404
 10
94.67501353969931
 20
-116.0828368850418
 10
94.67501353969931
 20
-116.0828368850418
 10
94.45073782360954
 20
-116.0828368850418
 10
94.45073782360954
 20
-116.0828368850418
 10
94.45935056232267
 20
-115.9558851164103
 10
94.47003035832694
 20
-115.8437472583655
 10
94.55030108313326
 20
-115.7252359736729
 10
94.66019962911274
 20
-115.564522269286
 10
94.84657929486475
 20
-115.5305880787563
 10
94.96267901271767
 20
-115.5305880787563
 10
95.24000919928028
 20
-115.5305880787563
 10
95.44740394749232
 20
-115.7147284324429
 10
95.44740394749232
 20
-115.9875799948746
 10
95.44740394749232
 20
-116.2159898255467
 10
95.33095972009087
 20
-116.3155530850704
 10
95.02193465506396
 20
-116.5418958584513
 97
        0
 97
        0
 75
     2
 76
     1
 98
        0
  0
SPLINE
  5
78
330
72
100
AcDbEntity
  8
_U+30EC_U+30A4_U+30E4_U+30FC 1
370
     0
100
AcDbSpline
210
0.0
220
0.0
230
1.0
 70
    11
 71
     3
 72
    26
 73
    22
 74
     0
 42
0.0000000001
 43
0.0000000001
 12
1.0
 22
0.0
 32
0.0
 13
1.0
 23
0.0
 33
0.0
 40
0.0
 40
0.0
 40
0.0
 40
0.0
 40
1.0
 40
1.0
 40
1.0
 40
2.0
 40
2.0
 40
2.0
 40
3.0
 40
3.0
 40
3.0
 40
4.0
 40
4.0
 40
4.0
 40
5.0
 40
5.0
 40
5.0
 40
6.0
 40
6.0
 40
6.0
 40
7.0
 40
7.0
 40
7.0
 40
7.0
 10
96.05718584838154
 20
-117.1236002311358
 30
0.0
 10
96.05718584838154
 20
-117.1236002311358
 30
0.0
 10
96.05718584838154
 20
-116.0192748733389
 30
0.0
 10
96.05718584838154
 20
-116.0192748733389
 30
0.0
 10
96.05718584838154
 20
-116.0192748733389
 30
0.0
 10
95.72714570089461
 20
-116.0192748733389
 30
0.0
 10
95.72714570089461
 20
-116.0192748733389
 30
0.0
 10
95.72714570089461
 20
-116.0192748733389
 30
0.0
 10
95.72714570089461
 20
-115.8713080222475
 30
0.0
 10
95.72714570089461
 20
-115.8713080222475
 30
0.0
 10
96.0592529056727
 20
-115.8564941116609
 30
0.0
 10
96.10576169472357
 20
-115.6935410952086
 30
0.0
 10
96.13538951589672
 20
-115.5793361798725
 30
0.0
 10
96.13538951589672
 20
-115.5793361798725
 30
0.0
 10
96.2814615644713
 20
-115.5793361798725
 30
0.0
 10
96.2814615644713
 20
-115.5793361798725
 30
0.0
 10
96.2814615644713
 20
-115.5793361798725
 30
0.0
 10
96.2814615644713
 20
-117.1236002311358
 30
0.0
 10
96.2814615644713
 20
-117.1236002311358
 30
0.0
 10
96.2814615644713
 20
-117.1236002311358
 30
0.0
 10
96.05718584838154
 20
-117.1236002311358
 30
0.0
 10
96.05718584838154
 20
-117.1236002311358
 30
0.0
  0
HATCH
  5
79
330
72
100
AcDbEntity
  8
_U+30EC_U+30A4_U+30E4_U+30FC 1
 62
   179
420
  2234388
100
AcDbHatch
 10
0.0
 20
0.0
 30
0.0
210
0.0
220
0.0
230
1.0
  2
SOLID
 70
     1
 71
     0
 91
        1
 92
        1
 93
        1
 72
     4
 94
        3
 73
     0
 74
     1
 95
       26
 96
       22
 40
0.0
 40
0.0
 40
0.0
 40
0.0
 40
1.0
 40
1.0
 40
1.0
 40
2.0
 40
2.0
 40
2.0
 40
3.0
 40
3.0
 40
3.0
 40
4.0
 40
4.0
 40
4.0
 40
5.0
 40
5.0
 40
5.0
 40
6.0
 40
6.0
 40
6.0
 40
7.0
 40
7.0
 40
7.0
 40
7.0
 10
96.05718584838154
 20
-117.1236002311358
 10
96.05718584838154
 20
-117.1236002311358
 10
96.05718584838154
 20
-116.0192748733389
 10
96.05718584838154
 20
-116.0192748733389
 10
96.05718584838154
 20
-116.0192748733389
 10
95.72714570089461
 20
-116.0192748733389
 10
95.72714570089461
 20
-116.0192748733389
 10
95.72714570089461
 20
-116.0192748733389
 10
95.72714570089461
 20
-115.8713080222475
 10
95.72714570089461
 20
-115.8713080222475
 10
96.0592529056727
 20
-115.8564941116609
 10
96.10576169472357
 20
-115.6935410952086
 10
96.13538951589672
 20
-115.5793361798725
 10
96.13538951589672
 20
-115.5793361798725
 10
96.2814615644713
 20
-115.5793361798725
 10
96.2814615644713
 20
-115.5793361798725
 10
96.2814615644713
 20
-115.5793361798725
 10
96.2814615644713
 20
-117.1236002311358
 10
96.2814615644713
 20
-117.1236002311358
 10
96.2814615644713
 20
-117.1236002311358
 10
96.05718584838154
 20
-117.1236002311358
 10
96.05718584838154
 20
-117.1236002311358
 97
        0
 97
        0
 75
     2
 76
     1
 98
        0
  0
ENDBLK
  5
75
330
72
100
AcDbEntity
  8
0
100
AcDbBlockEnd
  0
BLOCK
  5
84
330
82
100
AcDbEntity
  8
0
100
AcDbBlockBegin
  2
block 4
 70
     0
 10
0.0
 20
0.0
 30
0.0
  3
block 4
  1

  0
SPLINE
  5
86
330
82
100
AcDbEntity
  8
_U+30EC_U+30A4_U+30E4_U+30FC 1
370
     0
100
AcDbSpline
210
0.0
220
0.0
230
1.0
 70
    11
 71
     3
 72
    26
 73
    22
 74
     0
 42
0.0000000001
 43
0.0000000001
 12
1.0
 22
0.0
 32
0.0
 13
1.0
 23
0.0
 33
0.0
 40
0.0
 40
0.0
 40
0.0
 40
0.0
 40
1.0
 40
1.0
 40
1.0
 40
2.0
 40
2.0
 40
2.0
 40
3.0
 40
3.0
 40
3.0
 40
4.0
 40
4.0
 40
4.0
 40
5.0
 40
5.0
 40
5.0
 40
6.0
 40
6.0
 40
6.0
 40
7.0
 40
7.0
 40
7.0
 40
7.0
 10
86.2882730904071
 20
-122.3074354077912
 30
0.0
 10
86.2882730904071
 20
-122.3074354077912
 30
0.0
 10
86.2882730904071
 20
-121.2031100499944
 30
0.0
 10
86.2882730904071
 20
-121.2031100499944
 30
0.0
 10
86.2882730904071
 20
-121.2031100499944
 30
0.0
 10
85.95823294292016
 20
-121.2031100499944
 30
0.0
 10
85.95823294292016
 20
-121.2031100499944
 30
0.0
 10
85.95823294292016
 20
-121.2031100499944
 30
0.0
 10
85.95823294292016
 20
-121.0551431989029
 30
0.0
 10
85.95823294292016
 20
-121.0551431989029
 30
0.0
 10
86.29034014769825
 20
-121.0403292883163
 30
0.0
 10
86.33684893674912
 20
-120.877376271864
 30
0.0
 10
86.36647675792227
 20
-120.763171356528
 30
0.0
 10
86.36647675792227
 20
-120.763171356528
 30
0.0
 10
86.51254880649687
 20
-120.763171356528
 30
0.0
 10
86.51254880649687
 20
-120.763171356528
 30
0.0
 10
86.51254880649687
 20
-120.763171356528
 30
0.0
 10
86.51254880649687
 20
-122.3074354077912
 30
0.0
 10
86.51254880649687
 20
-122.3074354077912
 30
0.0
 10
86.51254880649687
 20
-122.3074354077912
 30
0.0
 10
86.2882730904071
 20
-122.3074354077912
 30
0.0
 10
86.2882730904071
 20
-122.3074354077912
 30
0.0
  0
HATCH
  5
87
330
82
100
AcDbEntity
  8
_U+30EC_U+30A4_U+30E4_U+30FC 1
 62
   179
420
  2234388
100
AcDbHatch
 10
0.0
 20
0.0
 30
0.0
210
0.0
220
0.0
230
1.0
  2
SOLID
 70
     1
 71
     0
 91
        1
 92
        1
 93
        1
 72
     4
 94
        3
 73
     0
 74
     1
 95
       26
 96
       22
 40
0.0
 40
0.0
 40
0.0
 40
0.0
 40
1.0
 40
1.0
 40
1.0
 40
2.0
 40
2.0
 40
2.0
 40
3.0
 40
3.0
 40
3.0
 40
4.0
 40
4.0
 40
4.0
 40
5.0
 40
5.0
 40
5.0
 40
6.0
 40
6.0
 40
6.0
 40
7.0
 40
7.0
 40
7.0
 40
7.0
 10
86.2882730904071
 20
-122.3074354077912
 10
86.2882730904071
 20
-122.3074354077912
 10
86.2882730904071
 20
-121.2031100499944
 10
86.2882730904071
 20
-121.2031100499944
 10
86.2882730904071
 20
-121.2031100499944
 10
85.95823294292016
 20
-121.2031100499944
 10
85.95823294292016
 20
-121.2031100499944
 10
85.95823294292016
 20
-121.2031100499944
 10
85.95823294292016
 20
-121.0551431989029
 10
85.95823294292016
 20
-121.0551431989029
 10
86.29034014769825
 20
-121.0403292883163
 10
86.33684893674912
 20
-120.877376271864
 10
86.36647675792227
 20
-120.763171356528
 10
86.36647675792227
 20
-120.763171356528
 10
86.51254880649687
 20
-120.763171356528
 10
86.51254880649687
 20
-120.763171356528
 10
86.51254880649687
 20
-120.763171356528
 10
86.51254880649687
 20
-122.3074354077912
 10
86.51254880649687
 20
-122.3074354077912
 10
86.51254880649687
 20
-122.3074354077912
 10
86.2882730904071
 20
-122.3074354077912
 10
86.2882730904071
 20
-122.3074354077912
 97
        0
 97
        0
 75
     2
 76
     1
 98
        0
  0
ENDBLK
  5
85
330
82
100
AcDbEntity
  8
0
100
AcDbBlockEnd
  0
BLOCK
  5
96
330
94
100
AcDbEntity
  8
0
100
AcDbBlockBegin
  2
block 5
 70
     0
 10
0.0
 20
0.0
 30
0.0
  3
block 5
  1

  0
SPLINE
  5
98
330
94
100
AcDbEntity
  8
_U+30EC_U+30A4_U+30E4_U+30FC 1
370
     0
100
AcDbSpline
210
0.0
220
0.0
230
1.0
 70
    11
 71
     3
 72
    26
 73
    22
 74
     0
 42
0.0000000001
 43
0.0000000001
 12
1.0
 22
0.0
 32
0.0
 13
1.0
 23
0.0
 33
0.0
 40
0.0
 40
0.0
 40
0.0
 40
0.0
 40
1.0
 40
1.0
 40
1.0
 40
2.0
 40
2.0
 40
2.0
 40
3.0
 40
3.0
 40
3.0
 40
4.0
 40
4.0
 40
4.0
 40
5.0
 40
5.0
 40
5.0
 40
6.0
 40
6.0
 40
6.0
 40
7.0
 40
7.0
 40
7.0
 40
7.0
 10
91.38012421760637
 20
-140.1230576906637
 30
0.0
 10
91.38012421760637
 20
-140.1230576906637
 30
0.0
 10
91.38012421760637
 20
-139.0189045876411
 30
0.0
 10
91.38012421760637
 20
-139.0189045876411
 30
0.0
 10
91.38012421760637
 20
-139.0189045876411
 30
0.0
 10
91.0502563248937
 20
-139.0189045876411
 30
0.0
 10
91.0502563248937
 20
-139.0189045876411
 30
0.0
 10
91.0502563248937
 20
-139.0189045876411
 30
0.0
 10
91.0502563248937
 20
-138.8707654817754
 30
0.0
 10
91.0502563248937
 20
-138.8707654817754
 30
0.0
 10
91.38219127489751
 20
-138.8559515711888
 30
0.0
 10
91.42870006394838
 20
-138.6929985547365
 30
0.0
 10
91.45832788512153
 20
-138.5786213846262
 30
0.0
 10
91.45832788512153
 20
-138.5786213846262
 30
0.0
 10
91.60439993369613
 20
-138.5786213846262
 30
0.0
 10
91.60439993369613
 20
-138.5786213846262
 30
0.0
 10
91.60439993369613
 20
-138.5786213846262
 30
0.0
 10
91.60439993369613
 20
-140.1230576906637
 30
0.0
 10
91.60439993369613
 20
-140.1230576906637
 30
0.0
 10
91.60439993369613
 20
-140.1230576906637
 30
0.0
 10
91.38012421760637
 20
-140.1230576906637
 30
0.0
 10
91.38012421760637
 20
-140.1230576906637
 30
0.0
  0
HATCH
  5
99
330
94
100
AcDbEntity
  8
_U+30EC_U+30A4_U+30E4_U+30FC 1
 62
   179
420
  2234388
100
AcDbHatch
 10
0.0
 20
0.0
 30
0.0
210
0.0
220
0.0
230
1.0
  2
SOLID
 70
     1
 71
     0
 91
        1
 92
        1
 93
        1
 72
     4
 94
        3
 73
     0
 74
     1
 95
       26
 96
       22
 40
0.0
 40
0.0
 40
0.0
 40
0.0
 40
1.0
 40
1.0
 40
1.0
 40
2.0
 40
2.0
 40
2.0
 40
3.0
 40
3.0
 40
3.0
 40
4.0
 40
4.0
 40
4.0
 40
5.0
 40
5.0
 40
5.0
 40
6.0
 40
6.0
 40
6.0
 40
7.0
 40
7.0
 40
7.0
 40
7.0
 10
91.38012421760637
 20
-140.1230576906637
 10
91.38012421760637
 20
-140.1230576906637
 10
91.38012421760637
 20
-139.0189045876411
 10
91.38012421760637
 20
-139.0189045876411
 10
91.38012421760637
 20
-139.0189045876411
 10
91.0502563248937
 20
-139.0189045876411
 10
91.0502563248937
 20
-139.0189045876411
 10
91.0502563248937
 20
-139.0189045876411
 10
91.0502563248937
 20
-138.8707654817754
 10
91.0502563248937
 20
-138.8707654817754
 10
91.38219127489751
 20
-138.8559515711888
 10
91.42870006394838
 20
-138.6929985547365
 10
91.45832788512153
 20
-138.5786213846262
 10
91.45832788512153
 20
-138.5786213846262
 10
91.60439993369613
 20
-138.5786213846262
 10
91.60439993369613
 20
-138.5786213846262
 10
91.60439993369613
 20
-138.5786213846262
 10
91.60439993369613
 20
-140.1230576906637
 10
91.60439993369613
 20
-140.1230576906637
 10
91.60439993369613
 20
-140.1230576906637
 10
91.38012421760637
 20
-140.1230576906637
 10
91.38012421760637
 20
-140.1230576906637
 97
        0
 97
        0
 75
     2
 76
     1
 98
        0
  0
SPLINE
  5
9A
330
94
100
AcDbEntity
  8
_U+30EC_U+30A4_U+30E4_U+30FC 1
370
     0
100
AcDbSpline
210
0.0
220
0.0
230
1.0
 70
    11
 71
     3
 72
    32
 73
    28
 74
     0
 42
0.0000000001
 43
0.0000000001
 12
1.0
 22
0.0
 32
0.0
 13
1.0
 23
0.0
 33
0.0
 40
0.0
 40
0.0
 40
0.0
 40
0.0
 40
1.0
 40
1.0
 40
1.0
 40
2.0
 40
2.0
 40
2.0
 40
3.0
 40
3.0
 40
3.0
 40
4.0
 40
4.0
 40
4.0
 40
5.0
 40
5.0
 40
5.0
 40
6.0
 40
6.0
 40
6.0
 40
7.0
 40
7.0
 40
7.0
 40
8.0
 40
8.0
 40
8.0
 40
9.0
 40
9.0
 40
9.0
 40
9.0
 10
92.60967879629203
 20
-140.1737005942969
 30
0.0
 10
92.0936034926016
 20
-140.1737005942969
 30
0.0
 10
92.085335263437
 20
-139.6197292402687
 30
0.0
 10
92.085335263437
 20
-139.4057888106347
 30
0.0
 10
92.085335263437
 20
-139.1753119226715
 30
0.0
 10
92.10428328860588
 20
-138.527978480993
 30
0.0
 10
92.6479193561783
 20
-138.527978480993
 30
0.0
 10
92.82120765908637
 20
-138.527978480993
 30
0.0
 10
93.06684296718468
 20
-138.5979139193436
 30
0.0
 10
93.10473901752243
 20
-138.9300211241217
 30
0.0
 10
93.10473901752243
 20
-138.9300211241217
 30
0.0
 10
92.89114309743694
 20
-138.9300211241217
 30
0.0
 10
92.89114309743694
 20
-138.9300211241217
 30
0.0
 10
92.88046330143267
 20
-138.8728325390665
 30
0.0
 10
92.84876842296836
 20
-138.7246934332008
 30
0.0
 10
92.64585229888715
 20
-138.7246934332008
 30
0.0
 10
92.35370820173797
 20
-138.7246934332008
 30
0.0
 10
92.31374509410907
 20
-139.0526665233966
 30
0.0
 10
92.30099824081364
 20
-139.2576497047689
 30
0.0
 10
92.39401581891539
 20
-139.1794460372538
 30
0.0
 10
92.4618841999748
 20
-139.1201903949075
 30
0.0
 10
92.643785241596
 20
-139.1201903949075
 30
0.0
 10
92.82361922592604
 20
-139.1201903949075
 30
0.0
 10
93.12609860953098
 20
-139.2283663931443
 30
0.0
 10
93.12609860953098
 20
-139.6345431508553
 30
0.0
 10
93.12609860953098
 20
-139.9539035023379
 30
0.0
 10
92.92697209048355
 20
-140.1737005942969
 30
0.0
 10
92.60967879629203
 20
-140.1737005942969
 30
0.0
  0
SPLINE
  5
9B
330
94
100
AcDbEntity
  8
_U+30EC_U+30A4_U+30E4_U+30FC 1
370
     0
100
AcDbSpline
210
0.0
220
0.0
230
1.0
 70
    11
 71
     3
 72
    17
 73
    13
 74
     0
 42
0.0000000001
 43
0.0000000001
 12
1.0
 22
0.0
 32
0.0
 13
1.0
 23
0.0
 33
0.0
 40
0.0
 40
0.0
 40
0.0
 40
0.0
 40
1.0
 40
1.0
 40
1.0
 40
2.0
 40
2.0
 40
2.0
 40
3.0
 40
3.0
 40
3.0
 40
4.0
 40
4.0
 40
4.0
 40
4.0
 10
92.62690427371828
 20
-139.3148382898241
 30
0.0
 10
92.36438799774224
 20
-139.3148382898241
 30
0.0
 10
92.32649194740449
 20
-139.5263671526184
 30
0.0
 10
92.32649194740449
 20
-139.6428113800199
 30
0.0
 10
92.32649194740449
 20
-139.8185112497676
 30
0.0
 10
92.42157658279739
 20
-139.9814642662199
 30
0.0
 10
92.60554468170973
 20
-139.9814642662199
 30
0.0
 10
92.72612302369348
 20
-139.9814642662199
 30
0.0
 10
92.90182289344122
 20
-139.9222086238736
 30
0.0
 10
92.90182289344122
 20
-139.6366102081464
 30
0.0
 10
92.90182289344122
 20
-139.4123344920567
 30
0.0
 10
92.76195201674007
 20
-139.3148382898241
 30
0.0
 10
92.62690427371828
 20
-139.3148382898241
 30
0.0
  0
HATCH
  5
9C
330
94
100
AcDbEntity
  8
_U+30EC_U+30A4_U+30E4_U+30FC 1
 62
   179
420
  2234388
100
AcDbHatch
 10
0.0
 20
0.0
 30
0.0
210
0.0
220
0.0
230
1.0
  2
SOLID
 70
     1
 71
     0
 91
        2
 92
        1
 93
        1
 72
     4
 94
        3
 73
     0
 74
     1
 95
       32
 96
       28
 40
0.0
 40
0.0
 40
0.0
 40
0.0
 40
1.0
 40
1.0
 40
1.0
 40
2.0
 40
2.0
 40
2.0
 40
3.0
 40
3.0
 40
3.0
 40
4.0
 40
4.0
 40
4.0
 40
5.0
 40
5.0
 40
5.0
 40
6.0
 40
6.0
 40
6.0
 40
7.0
 40
7.0
 40
7.0
 40
8.0
 40
8.0
 40
8.0
 40
9.0
 40
9.0
 40
9.0
 40
9.0
 10
92.60967879629203
 20
-140.1737005942969
 10
92.0936034926016
 20
-140.1737005942969
 10
92.085335263437
 20
-139.6197292402687
 10
92.085335263437
 20
-139.4057888106347
 10
92.085335263437
 20
-139.1753119226715
 10
92.10428328860588
 20
-138.527978480993
 10
92.6479193561783
 20
-138.527978480993
 10
92.82120765908637
 20
-138.527978480993
 10
93.06684296718468
 20
-138.5979139193436
 10
93.10473901752243
 20
-138.9300211241217
 10
93.10473901752243
 20
-138.9300211241217
 10
92.89114309743694
 20
-138.9300211241217
 10
92.89114309743694
 20
-138.9300211241217
 10
92.88046330143267
 20
-138.8728325390665
 10
92.84876842296836
 20
-138.7246934332008
 10
92.64585229888715
 20
-138.7246934332008
 10
92.35370820173797
 20
-138.7246934332008
 10
92.31374509410907
 20
-139.0526665233966
 10
92.30099824081364
 20
-139.2576497047689
 10
92.39401581891539
 20
-139.1794460372538
 10
92.4618841999748
 20
-139.1201903949075
 10
92.643785241596
 20
-139.1201903949075
 10
92.82361922592604
 20
-139.1201903949075
 10
93.12609860953098
 20
-139.2283663931443
 10
93.12609860953098
 20
-139.6345431508553
 10
93.12609860953098
 20
-139.9539035023379
 10
92.92697209048355
 20
-140.1737005942969
 10
92.60967879629203
 20
-140.1737005942969
 97
        0
 97
        0
 92
        1
 93
        1
 72
     4
 94
        3
 73
     0
 74
     1
 95
       17
 96
       13
 40
0.0
 40
0.0
 40
0.0
 40
0.0
 40
1.0
 40
1.0
 40
1.0
 40
2.0
 40
2.0
 40
2.0
 40
3.0
 40
3.0
 40
3.0
 40
4.0
 40
4.0
 40
4.0
 40
4.0
 10
92.62690427371828
 20
-139.3148382898241
 10
92.36438799774224
 20
-139.3148382898241
 10
92.32649194740449
 20
-139.5263671526184
 10
92.32649194740449
 20
-139.6428113800199
 10
92.32649194740449
 20
-139.8185112497676
 10
92.42157658279739
 20
-139.9814642662199
 10
92.60554468170973
 20
-139.9814642662199
 10
92.72612302369348
 20
-139.9814642662199
 10
92.90182289344122
 20
-139.9222086238736
 10
92.90182289344122
 20
-139.6366102081464
 10
92.90182289344122
 20
-139.4123344920567
 10
92.76195201674007
 20
-139.3148382898241
 10
92.62690427371828
 20
-139.3148382898241
 97
        0
 97
        0
 75
     2
 76
     1
 98
        0
  0
ENDBLK
  5
97
330
94
100
AcDbEntity
  8
0
100
AcDbBlockEnd
  0
BLOCK
  5
AB
330
A9
100
AcDbEntity
  8
0
100
AcDbBlockBegin
  2
block 6
 70
     0
 10
0.0
 20
0.0
 30
0.0
  3
block 6
  1

  0
SPLINE
  5
AD
330
A9
100
AcDbEntity
  8
_U+30EC_U+30A4_U+30E4_U+30FC 1
370
     0
100
AcDbSpline
210
0.0
220
0.0
230
1.0
 70
    11
 71
     3
 72
    26
 73
    22
 74
     0
 42
0.0000000001
 43
0.0000000001
 12
1.0
 22
0.0
 32
0.0
 13
1.0
 23
0.0
 33
0.0
 40
0.0
 40
0.0
 40
0.0
 40
0.0
 40
1.0
 40
1.0
 40
1.0
 40
2.0
 40
2.0
 40
2.0
 40
3.0
 40
3.0
 40
3.0
 40
4.0
 40
4.0
 40
4.0
 40
5.0
 40
5.0
 40
5.0
 40
6.0
 40
6.0
 40
6.0
 40
7.0
 40
7.0
 40
7.0
 40
7.0
 10
103.502381701555
 20
-131.4713893985558
 30
0.0
 10
103.502381701555
 20
-131.4713893985558
 30
0.0
 10
102.3982285985324
 20
-131.4713893985558
 30
0.0
 10
102.3982285985324
 20
-131.4713893985558
 30
0.0
 10
102.3982285985324
 20
-131.4713893985558
 30
0.0
 10
102.3982285985324
 20
-131.8014295460427
 30
0.0
 10
102.3982285985324
 20
-131.8014295460427
 30
0.0
 10
102.3982285985324
 20
-131.8014295460427
 30
0.0
 10
102.2500894926666
 20
-131.8014295460427
 30
0.0
 10
102.2500894926666
 20
-131.8014295460427
 30
0.0
 10
102.2352755820801
 20
-131.4693223412646
 30
0.0
 10
102.0723225656278
 20
-131.4228135522137
 30
0.0
 10
101.9579453955175
 20
-131.3931857310406
 30
0.0
 10
101.9579453955175
 20
-131.3931857310406
 30
0.0
 10
101.9579453955175
 20
-131.247113682466
 30
0.0
 10
101.9579453955175
 20
-131.247113682466
 30
0.0
 10
101.9579453955175
 20
-131.247113682466
 30
0.0
 10
103.502381701555
 20
-131.247113682466
 30
0.0
 10
103.502381701555
 20
-131.247113682466
 30
0.0
 10
103.502381701555
 20
-131.247113682466
 30
0.0
 10
103.502381701555
 20
-131.4713893985558
 30
0.0
 10
103.502381701555
 20
-131.4713893985558
 30
0.0
  0
HATCH
  5
AE
330
A9
100
AcDbEntity
  8
_U+30EC_U+30A4_U+30E4_U+30FC 1
 62
   179
420
  2234388
100
AcDbHatch
 10
0.0
 20
0.0
 30
0.0
210
0.0
220
0.0
230
1.0
  2
SOLID
 70
     1
 71
     0
 91
        1
 92
        1
 93
        1
 72
     4
 94
        3
 73
     0
 74
     1
 95
       26
 96
       22
 40
0.0
 40
0.0
 40
0.0
 40
0.0
 40
1.0
 40
1.0
 40
1.0
 40
2.0
 40
2.0
 40
2.0
 40
3.0
 40
3.0
 40
3.0
 40
4.0
 40
4.0
 40
4.0
 40
5.0
 40
5.0
 40
5.0
 40
6.0
 40
6.0
 40
6.0
 40
7.0
 40
7.0
 40
7.0
 40
7.0
 10
103.502381701555
 20
-131.4713893985558
 10
103.502381701555
 20
-131.4713893985558
 10
102.3982285985324
 20
-131.4713893985558
 10
102.3982285985324
 20
-131.4713893985558
 10
102.3982285985324
 20
-131.4713893985558
 10
102.3982285985324
 20
-131.8014295460427
 10
102.3982285985324
 20
-131.8014295460427
 10
102.3982285985324
 20
-131.8014295460427
 10
102.2500894926666
 20
-131.8014295460427
 10
102.2500894926666
 20
-131.8014295460427
 10
102.2352755820801
 20
-131.4693223412646
 10
102.0723225656278
 20
-131.4228135522137
 10
101.9579453955175
 20
-131.3931857310406
 10
101.9579453955175
 20
-131.3931857310406
 10
101.9579453955175
 20
-131.247113682466
 10
101.9579453955175
 20
-131.247113682466
 10
101.9579453955175
 20
-131.247113682466
 10
103.502381701555
 20
-131.247113682466
 10
103.502381701555
 20
-131.247113682466
 10
103.502381701555
 20
-131.247113682466
 10
103.502381701555
 20
-131.4713893985558
 10
103.502381701555
 20
-131.4713893985558
 97
        0
 97
        0
 75
     2
 76
     1
 98
        0
  0
SPLINE
  5
AF
330
A9
100
AcDbEntity
  8
_U+30EC_U+30A4_U+30E4_U+30FC 1
370
     0
100
AcDbSpline
210
0.0
220
0.0
230
1.0
 70
    11
 71
     3
 72
    29
 73
    25
 74
     0
 42
0.0000000001
 43
0.0000000001
 12
1.0
 22
0.0
 32
0.0
 13
1.0
 23
0.0
 33
0.0
 40
0.0
 40
0.0
 40
0.0
 40
0.0
 40
1.0
 40
1.0
 40
1.0
 40
2.0
 40
2.0
 40
2.0
 40
3.0
 40
3.0
 40
3.0
 40
4.0
 40
4.0
 40
4.0
 40
5.0
 40
5.0
 40
5.0
 40
6.0
 40
6.0
 40
6.0
 40
7.0
 40
7.0
 40
7.0
 40
8.0
 40
8.0
 40
8.0
 40
8.0
 10
103.3246147745161
 20
-129.848060405906
 30
0.0
 10
103.5340765800193
 20
-129.9562364041429
 30
0.0
 10
103.5530246051881
 20
-130.129524707051
 30
0.0
 10
103.5530246051881
 20
-130.2459689344524
 30
0.0
 10
103.5530246051881
 20
-130.4068548936136
 30
0.0
 10
103.5065158161373
 20
-130.5484483180573
 30
0.0
 10
103.3246147745161
 20
-130.6435329534502
 30
0.0
 10
103.1299668795995
 20
-130.7472303275563
 30
0.0
 10
102.8929443102143
 20
-130.7665228622737
 30
0.0
 10
102.7303358033105
 20
-130.7665228622737
 30
0.0
 10
102.586330812027
 20
-130.7665228622737
 30
0.0
 10
102.3344943320553
 20
-130.7492973848474
 30
0.0
 10
102.1357123225564
 20
-130.6435329534502
 30
0.0
 10
101.9327961984751
 20
-130.5357014647619
 30
0.0
 10
101.9093695491754
 20
-130.3748155056007
 30
0.0
 10
101.9093695491754
 20
-130.2459689344524
 30
0.0
 10
101.9093695491754
 20
-130.0871500325824
 30
0.0
 10
101.9538112809352
 20
-129.9434895508475
 30
0.0
 10
102.1357123225564
 20
-129.848060405906
 30
0.0
 10
102.3282931601818
 20
-129.7488416559308
 30
0.0
 10
102.5567029908539
 20
-129.7254150066312
 30
0.0
 10
102.7303358033105
 20
-129.7254150066312
 30
0.0
 10
102.9015570489274
 20
-129.7254150066312
 30
0.0
 10
103.1320339368906
 20
-129.7467745986397
 30
0.0
 10
103.3246147745161
 20
-129.848060405906
 30
0.0
  0
SPLINE
  5
B0
330
A9
100
AcDbEntity
  8
_U+30EC_U+30A4_U+30E4_U+30FC 1
370
     0
100
AcDbSpline
210
0.0
220
0.0
230
1.0
 70
    11
 71
     3
 72
    17
 73
    13
 74
     0
 42
0.0000000001
 43
0.0000000001
 12
1.0
 22
0.0
 32
0.0
 13
1.0
 23
0.0
 33
0.0
 40
0.0
 40
0.0
 40
0.0
 40
0.0
 40
1.0
 40
1.0
 40
1.0
 40
2.0
 40
2.0
 40
2.0
 40
3.0
 40
3.0
 40
3.0
 40
4.0
 40
4.0
 40
4.0
 40
4.0
 10
102.1019503868009
 20
-130.2459689344524
 30
0.0
 10
102.1019503868009
 20
-130.495738357133
 30
0.0
 10
102.385481745237
 20
-130.5422471461839
 30
0.0
 10
102.7303358033105
 20
-130.5422471461839
 30
0.0
 10
103.0496961547931
 20
-130.5422471461839
 30
0.0
 10
103.3583767102715
 20
-130.5060736435888
 30
0.0
 10
103.3583767102715
 20
-130.2459689344524
 30
0.0
 10
103.3583767102715
 20
-129.9982665690629
 30
0.0
 10
103.0772569186751
 20
-129.9496907227209
 30
0.0
 10
102.7303358033105
 20
-129.9496907227209
 30
0.0
 10
102.4106309422793
 20
-129.9496907227209
 30
0.0
 10
102.1019503868009
 20
-129.9879312826072
 30
0.0
 10
102.1019503868009
 20
-130.2459689344524
 30
0.0
  0
HATCH
  5
B1
330
A9
100
AcDbEntity
  8
_U+30EC_U+30A4_U+30E4_U+30FC 1
 62
   179
420
  2234388
100
AcDbHatch
 10
0.0
 20
0.0
 30
0.0
210
0.0
220
0.0
230
1.0
  2
SOLID
 70
     1
 71
     0
 91
        2
 92
        1
 93
        1
 72
     4
 94
        3
 73
     0
 74
     1
 95
       29
 96
       25
 40
0.0
 40
0.0
 40
0.0
 40
0.0
 40
1.0
 40
1.0
 40
1.0
 40
2.0
 40
2.0
 40
2.0
 40
3.0
 40
3.0
 40
3.0
 40
4.0
 40
4.0
 40
4.0
 40
5.0
 40
5.0
 40
5.0
 40
6.0
 40
6.0
 40
6.0
 40
7.0
 40
7.0
 40
7.0
 40
8.0
 40
8.0
 40
8.0
 40
8.0
 10
103.3246147745161
 20
-129.848060405906
 10
103.5340765800193
 20
-129.9562364041429
 10
103.5530246051881
 20
-130.129524707051
 10
103.5530246051881
 20
-130.2459689344524
 10
103.5530246051881
 20
-130.4068548936136
 10
103.5065158161373
 20
-130.5484483180573
 10
103.3246147745161
 20
-130.6435329534502
 10
103.1299668795995
 20
-130.7472303275563
 10
102.8929443102143
 20
-130.7665228622737
 10
102.7303358033105
 20
-130.7665228622737
 10
102.586330812027
 20
-130.7665228622737
 10
102.3344943320553
 20
-130.7492973848474
 10
102.1357123225564
 20
-130.6435329534502
 10
101.9327961984751
 20
-130.5357014647619
 10
101.9093695491754
 20
-130.3748155056007
 10
101.9093695491754
 20
-130.2459689344524
 10
101.9093695491754
 20
-130.0871500325824
 10
101.9538112809352
 20
-129.9434895508475
 10
102.1357123225564
 20
-129.848060405906
 10
102.3282931601818
 20
-129.7488416559308
 10
102.5567029908539
 20
-129.7254150066312
 10
102.7303358033105
 20
-129.7254150066312
 10
102.9015570489274
 20
-129.7254150066312
 10
103.1320339368906
 20
-129.7467745986397
 10
103.3246147745161
 20
-129.848060405906
 97
        0
 97
        0
 92
        1
 93
        1
 72
     4
 94
        3
 73
     0
 74
     1
 95
       17
 96
       13
 40
0.0
 40
0.0
 40
0.0
 40
0.0
 40
1.0
 40
1.0
 40
1.0
 40
2.0
 40
2.0
 40
2.0
 40
3.0
 40
3.0
 40
3.0
 40
4.0
 40
4.0
 40
4.0
 40
4.0
 10
102.1019503868009
 20
-130.2459689344524
 10
102.1019503868009
 20
-130.495738357133
 10
102.385481745237
 20
-130.5422471461839
 10
102.7303358033105
 20
-130.5422471461839
 10
103.0496961547931
 20
-130.5422471461839
 10
103.3583767102715
 20
-130.5060736435888
 10
103.3583767102715
 20
-130.2459689344524
 10
103.3583767102715
 20
-129.9982665690629
 10
103.0772569186751
 20
-129.9496907227209
 10
102.7303358033105
 20
-129.9496907227209
 10
102.4106309422793
 20
-129.9496907227209
 10
102.1019503868009
 20
-129.9879312826072
 10
102.1019503868009
 20
-130.2459689344524
 97
        0
 97
        0
 75
     2
 76
     1
 98
        0
  0
ENDBLK
  5
AC
330
A9
100
AcDbEntity
  8
0
100
AcDbBlockEnd
  0
BLOCK
  5
C0
330
BE
100
AcDbEntity
  8
0
100
AcDbBlockBegin
  2
block 7
 70
     0
 10
0.0
 20
0.0
 30
0.0
  3
block 7
  1

  0
SPLINE
  5
C2
330
BE
100
AcDbEntity
  8
_U+30EC_U+30A4_U+30E4_U+30FC 1
370
     0
100
AcDbSpline
210
0.0
220
0.0
230
1.0
 70
    11
 71
     3
 72
    26
 73
    22
 74
     0
 42
0.0000000001
 43
0.0000000001
 12
1.0
 22
0.0
 32
0.0
 13
1.0
 23
0.0
 33
0.0
 40
0.0
 40
0.0
 40
0.0
 40
0.0
 40
1.0
 40
1.0
 40
1.0
 40
2.0
 40
2.0
 40
2.0
 40
3.0
 40
3.0
 40
3.0
 40
4.0
 40
4.0
 40
4.0
 40
5.0
 40
5.0
 40
5.0
 40
6.0
 40
6.0
 40
6.0
 40
7.0
 40
7.0
 40
7.0
 40
7.0
 10
79.50177949401345
 20
-129.3933078018531
 30
0.0
 10
79.50177949401345
 20
-129.3933078018531
 30
0.0
 10
78.39745413621661
 20
-129.3933078018531
 30
0.0
 10
78.39745413621661
 20
-129.3933078018531
 30
0.0
 10
78.39745413621661
 20
-129.3933078018531
 30
0.0
 10
78.39745413621661
 20
-129.72334794934
 30
0.0
 10
78.39745413621661
 20
-129.72334794934
 30
0.0
 10
78.39745413621661
 20
-129.72334794934
 30
0.0
 10
78.24931503035087
 20
-129.72334794934
 30
0.0
 10
78.24931503035087
 20
-129.72334794934
 30
0.0
 10
78.23467337453856
 20
-129.3912407445619
 30
0.0
 10
78.07172035808624
 20
-129.344731955511
 30
0.0
 10
77.9575154427502
 20
-129.3151041343379
 30
0.0
 10
77.9575154427502
 20
-129.3151041343379
 30
0.0
 10
77.9575154427502
 20
-129.1690320857633
 30
0.0
 10
77.9575154427502
 20
-129.1690320857633
 30
0.0
 10
77.9575154427502
 20
-129.1690320857633
 30
0.0
 10
79.50177949401345
 20
-129.1690320857633
 30
0.0
 10
79.50177949401345
 20
-129.1690320857633
 30
0.0
 10
79.50177949401345
 20
-129.1690320857633
 30
0.0
 10
79.50177949401345
 20
-129.3933078018531
 30
0.0
 10
79.50177949401345
 20
-129.3933078018531
 30
0.0
  0
HATCH
  5
C3
330
BE
100
AcDbEntity
  8
_U+30EC_U+30A4_U+30E4_U+30FC 1
 62
   179
420
  2234388
100
AcDbHatch
 10
0.0
 20
0.0
 30
0.0
210
0.0
220
0.0
230
1.0
  2
SOLID
 70
     1
 71
     0
 91
        1
 92
        1
 93
        1
 72
     4
 94
        3
 73
     0
 74
     1
 95
       26
 96
       22
 40
0.0
 40
0.0
 40
0.0
 40
0.0
 40
1.0
 40
1.0
 40
1.0
 40
2.0
 40
2.0
 40
2.0
 40
3.0
 40
3.0
 40
3.0
 40
4.0
 40
4.0
 40
4.0
 40
5.0
 40
5.0
 40
5.0
 40
6.0
 40
6.0
 40
6.0
 40
7.0
 40
7.0
 40
7.0
 40
7.0
 10
79.50177949401345
 20
-129.3933078018531
 10
79.50177949401345
 20
-129.3933078018531
 10
78.39745413621661
 20
-129.3933078018531
 10
78.39745413621661
 20
-129.3933078018531
 10
78.39745413621661
 20
-129.3933078018531
 10
78.39745413621661
 20
-129.72334794934
 10
78.39745413621661
 20
-129.72334794934
 10
78.39745413621661
 20
-129.72334794934
 10
78.24931503035087
 20
-129.72334794934
 10
78.24931503035087
 20
-129.72334794934
 10
78.23467337453856
 20
-129.3912407445619
 10
78.07172035808624
 20
-129.344731955511
 10
77.9575154427502
 20
-129.3151041343379
 10
77.9575154427502
 20
-129.3151041343379
 10
77.9575154427502
 20
-129.1690320857633
 10
77.9575154427502
 20
-129.1690320857633
 10
77.9575154427502
 20
-129.1690320857633
 10
79.50177949401345
 20
-129.1690320857633
 10
79.50177949401345
 20
-129.1690320857633
 10
79.50177949401345
 20
-129.1690320857633
 10
79.50177949401345
 20
-129.3933078018531
 10
79.50177949401345
 20
-129.3933078018531
 97
        0
 97
        0
 75
     2
 76
     1
 98
        0
  0
SPLINE
  5
C4
330
BE
100
AcDbEntity
  8
_U+30EC_U+30A4_U+30E4_U+30FC 1
370
     0
100
AcDbSpline
210
0.0
220
0.0
230
1.0
 70
    11
 71
     3
 72
    32
 73
    28
 74
     0
 42
0.0000000001
 43
0.0000000001
 12
1.0
 22
0.0
 32
0.0
 13
1.0
 23
0.0
 33
0.0
 40
0.0
 40
0.0
 40
0.0
 40
0.0
 40
1.0
 40
1.0
 40
1.0
 40
2.0
 40
2.0
 40
2.0
 40
3.0
 40
3.0
 40
3.0
 40
4.0
 40
4.0
 40
4.0
 40
5.0
 40
5.0
 40
5.0
 40
6.0
 40
6.0
 40
6.0
 40
7.0
 40
7.0
 40
7.0
 40
8.0
 40
8.0
 40
8.0
 40
9.0
 40
9.0
 40
9.0
 40
9.0
 10
79.55259465242088
 20
-128.1637532231674
 30
0.0
 10
79.55259465242088
 20
-128.6798285268578
 30
0.0
 10
78.99827878884419
 20
-128.688441265571
 30
0.0
 10
78.7846828687587
 20
-128.688441265571
 30
0.0
 10
78.55403372602122
 20
-128.688441265571
 30
0.0
 10
77.90670028434278
 20
-128.6691487308535
 30
0.0
 10
77.90670028434278
 20
-128.1255126632811
 30
0.0
 10
77.90670028434278
 20
-127.9522243603731
 30
0.0
 10
77.97646346791909
 20
-127.7065890522748
 30
0.0
 10
78.30857067269717
 20
-127.668693001937
 30
0.0
 10
78.30857067269717
 20
-127.668693001937
 30
0.0
 10
78.30857067269717
 20
-127.8822889220225
 30
0.0
 10
78.30857067269717
 20
-127.8822889220225
 30
0.0
 10
78.25155434241628
 20
-127.8929687180268
 30
0.0
 10
78.10341523655053
 20
-127.9246635964911
 30
0.0
 10
78.10341523655053
 20
-128.1275797205723
 30
0.0
 10
78.10341523655053
 20
-128.4197238177215
 30
0.0
 10
78.43138832674633
 20
-128.4596869253504
 30
0.0
 10
78.63654376289296
 20
-128.4724337786458
 30
0.0
 10
78.55834009537777
 20
-128.379416200544
 30
0.0
 10
78.49908445303149
 20
-128.3115478194846
 30
0.0
 10
78.49908445303149
 20
-128.1296467778634
 30
0.0
 10
78.49908445303149
 20
-127.9498127935334
 30
0.0
 10
78.6069159417198
 20
-127.6473334099285
 30
0.0
 10
79.01309269943076
 20
-127.6473334099285
 30
0.0
 10
79.33245305091341
 20
-127.6473334099285
 30
0.0
 10
79.55259465242088
 20
-127.8464599289759
 30
0.0
 10
79.55259465242088
 20
-128.1637532231674
 30
0.0
  0
SPLINE
  5
C5
330
BE
100
AcDbEntity
  8
_U+30EC_U+30A4_U+30E4_U+30FC 1
370
     0
100
AcDbSpline
210
0.0
220
0.0
230
1.0
 70
    11
 71
     3
 72
    17
 73
    13
 74
     0
 42
0.0000000001
 43
0.0000000001
 12
1.0
 22
0.0
 32
0.0
 13
1.0
 23
0.0
 33
0.0
 40
0.0
 40
0.0
 40
0.0
 40
0.0
 40
1.0
 40
1.0
 40
1.0
 40
2.0
 40
2.0
 40
2.0
 40
3.0
 40
3.0
 40
3.0
 40
4.0
 40
4.0
 40
4.0
 40
4.0
 10
78.6937323479481
 20
-128.1468722552897
 30
0.0
 10
78.6937323479481
 20
-128.4090440217172
 30
0.0
 10
78.90526121074244
 20
-128.4469400720549
 30
0.0
 10
79.02153318336963
 20
-128.4469400720549
 30
0.0
 10
79.1970607983431
 20
-128.4469400720549
 30
0.0
 10
79.36001381479542
 20
-128.351855436662
 30
0.0
 10
79.36001381479542
 20
-128.1678873377497
 30
0.0
 10
79.36001381479542
 20
-128.0473089957659
 30
0.0
 10
79.30075817244912
 20
-127.8716091260182
 30
0.0
 10
79.01515975672191
 20
-127.8716091260182
 30
0.0
 10
78.79088404063215
 20
-127.8716091260182
 30
0.0
 10
78.6937323479481
 20
-128.0111354931708
 30
0.0
 10
78.6937323479481
 20
-128.1468722552897
 30
0.0
  0
HATCH
  5
C6
330
BE
100
AcDbEntity
  8
_U+30EC_U+30A4_U+30E4_U+30FC 1
 62
   179
420
  2234388
100
AcDbHatch
 10
0.0
 20
0.0
 30
0.0
210
0.0
220
0.0
230
1.0
  2
SOLID
 70
     1
 71
     0
 91
        2
 92
        1
 93
        1
 72
     4
 94
        3
 73
     0
 74
     1
 95
       32
 96
       28
 40
0.0
 40
0.0
 40
0.0
 40
0.0
 40
1.0
 40
1.0
 40
1.0
 40
2.0
 40
2.0
 40
2.0
 40
3.0
 40
3.0
 40
3.0
 40
4.0
 40
4.0
 40
4.0
 40
5.0
 40
5.0
 40
5.0
 40
6.0
 40
6.0
 40
6.0
 40
7.0
 40
7.0
 40
7.0
 40
8.0
 40
8.0
 40
8.0
 40
9.0
 40
9.0
 40
9.0
 40
9.0
 10
79.55259465242088
 20
-128.1637532231674
 10
79.55259465242088
 20
-128.6798285268578
 10
78.99827878884419
 20
-128.688441265571
 10
78.7846828687587
 20
-128.688441265571
 10
78.55403372602122
 20
-128.688441265571
 10
77.90670028434278
 20
-128.6691487308535
 10
77.90670028434278
 20
-128.1255126632811
 10
77.90670028434278
 20
-127.9522243603731
 10
77.97646346791909
 20
-127.7065890522748
 10
78.30857067269717
 20
-127.668693001937
 10
78.30857067269717
 20
-127.668693001937
 10
78.30857067269717
 20
-127.8822889220225
 10
78.30857067269717
 20
-127.8822889220225
 10
78.25155434241628
 20
-127.8929687180268
 10
78.10341523655053
 20
-127.9246635964911
 10
78.10341523655053
 20
-128.1275797205723
 10
78.10341523655053
 20
-128.4197238177215
 10
78.43138832674633
 20
-128.4596869253504
 10
78.63654376289296
 20
-128.4724337786458
 10
78.55834009537777
 20
-128.379416200544
 10
78.49908445303149
 20
-128.3115478194846
 10
78.49908445303149
 20
-128.1296467778634
 10
78.49908445303149
 20
-127.9498127935334
 10
78.6069159417198
 20
-127.6473334099285
 10
79.01309269943076
 20
-127.6473334099285
 10
79.33245305091341
 20
-127.6473334099285
 10
79.55259465242088
 20
-127.8464599289759
 10
79.55259465242088
 20
-128.1637532231674
 97
        0
 97
        0
 92
        1
 93
        1
 72
     4
 94
        3
 73
     0
 74
     1
 95
       17
 96
       13
 40
0.0
 40
0.0
 40
0.0
 40
0.0
 40
1.0
 40
1.0
 40
1.0
 40
2.0
 40
2.0
 40
2.0
 40
3.0
 40
3.0
 40
3.0
 40
4.0
 40
4.0
 40
4.0
 40
4.0
 10
78.6937323479481
 20
-128.1468722552897
 10
78.6937323479481
 20
-128.4090440217172
 10
78.90526121074244
 20
-128.4469400720549
 10
79.02153318336963
 20
-128.4469400720549
 10
79.1970607983431
 20
-128.4469400720549
 10
79.36001381479542
 20
-128.351855436662
 10
79.36001381479542
 20
-128.1678873377497
 10
79.36001381479542
 20
-128.0473089957659
 10
79.30075817244912
 20
-127.8716091260182
 10
79.01515975672191
 20
-127.8716091260182
 10
78.79088404063215
 20
-127.8716091260182
 10
78.6937323479481
 20
-128.0111354931708
 10
78.6937323479481
 20
-128.1468722552897
 97
        0
 97
        0
 75
     2
 76
     1
 98
        0
  0
ENDBLK
  5
C1
330
BE
100
AcDbEntity
  8
0
100
AcDbBlockEnd
  0
ENDSEC
  0
SECTION
  2
ENTITIES
  0
SPLINE
  5
41
330
1F
100
AcDbEntity
  8
_U+30EC_U+30A4_U+30E4_U+30FC 1
 62
   253
420
 11711154
370
     9
100
AcDbSpline
210
0.0
220
0.0
230
1.0
 70
    11
 71
     3
 72
    74
 73
    70
 74
     0
 42
0.0000000001
 43
0.0000000001
 12
1.0
 22
0.0
 32
0.0
 13
1.0
 23
0.0
 33
0.0
 40
0.0
 40
0.0
 40
0.0
 40
0.0
 40
1.0
 40
1.0
 40
1.0
 40
2.0
 40
2.0
 40
2.0
 40
3.0
 40
3.0
 40
3.0
 40
4.0
 40
4.0
 40
4.0
 40
5.0
 40
5.0
 40
5.0
 40
6.0
 40
6.0
 40
6.0
 40
7.0
 40
7.0
 40
7.0
 40
8.0
 40
8.0
 40
8.0
 40
9.0
 40
9.0
 40
9.0
 40
10.0
 40
10.0
 40
10.0
 40
11.0
 40
11.0
 40
11.0
 40
12.0
 40
12.0
 40
12.0
 40
13.0
 40
13.0
 40
13.0
 40
14.0
 40
14.0
 40
14.0
 40
15.0
 40
15.0
 40
15.0
 40
16.0
 40
16.0
 40
16.0
 40
17.0
 40
17.0
 40
17.0
 40
18.0
 40
18.0
 40
18.0
 40
19.0
 40
19.0
 40
19.0
 40
20.0
 40
20.0
 40
20.0
 40
21.0
 40
21.0
 40
21.0
 40
22.0
 40
22.0
 40
22.0
 40
23.0
 40
23.0
 40
23.0
 40
23.0
 10
87.09441055581425
 20
-124.7875541354698
 30
0.0
 10
87.09441055581425
 20
-124.7875541354698
 30
0.0
 10
86.88736528331864
 20
-124.9877202465309
 30
0.0
 10
86.88736528331864
 20
-124.9877202465309
 30
0.0
 10
86.88736528331864
 20
-124.9877202465309
 30
0.0
 10
86.68719917731418
 20
-124.788259691025
 30
0.0
 10
86.68719917731418
 20
-124.788259691025
 30
0.0
 10
86.68719917731418
 20
-124.788259691025
 30
0.0
 10
86.48738584907852
 20
-124.9880730243086
 30
0.0
 10
86.48738584907852
 20
-124.9880730243086
 30
0.0
 10
86.48738584907852
 20
-124.9880730243086
 30
0.0
 10
86.28725502085095
 20
-124.7879069132476
 30
0.0
 10
86.28725502085095
 20
-124.7879069132476
 30
0.0
 10
86.28725502085095
 20
-124.7879069132476
 30
0.0
 10
86.0874064148384
 20
-124.9877202465309
 30
0.0
 10
86.0874064148384
 20
-124.9877202465309
 30
0.0
 10
86.0874064148384
 20
-124.9877202465309
 30
0.0
 10
85.88727775630598
 20
-124.7875541354698
 30
0.0
 10
85.88727775630598
 20
-124.7875541354698
 30
0.0
 10
85.88727775630598
 20
-124.7875541354698
 30
0.0
 10
85.09832338451646
 20
-124.7875541354698
 30
0.0
 10
85.09832338451646
 20
-124.7875541354698
 30
0.0
 10
85.09832338451646
 20
-124.7875541354698
 30
0.0
 10
85.09832338451646
 20
-120.7192502475978
 30
0.0
 10
85.09832338451646
 20
-120.7192502475978
 30
0.0
 10
84.54643784304068
 20
-120.7192502475978
 30
0.0
 10
84.09855118780055
 20
-121.1671016363749
 30
0.0
 10
84.09855118780055
 20
-121.7193752473478
 30
0.0
 10
84.09855118780055
 20
-121.7193752473478
 30
0.0
 10
84.09855118780055
 20
-135.7188321882924
 30
0.0
 10
84.09855118780055
 20
-135.7188321882924
 30
0.0
 10
84.09855118780055
 20
-136.2714585770435
 30
0.0
 10
84.54643784304068
 20
-136.7193099658205
 30
0.0
 10
85.09832338451646
 20
-136.7193099658205
 30
0.0
 10
85.09832338451646
 20
-136.7193099658205
 30
0.0
 10
99.05407080625345
 20
-136.7193099658205
 30
0.0
 10
99.05407080625345
 20
-136.7193099658205
 30
0.0
 10
99.6066619032668
 20
-136.7193099658205
 30
0.0
 10
100.0986105018273
 20
-136.3396505214705
 30
0.0
 10
100.0986105018273
 20
-135.7870594104976
 30
0.0
 10
100.0986105018273
 20
-135.7870594104976
 30
0.0
 10
85.09832338451646
 20
-135.7870594104976
 30
0.0
 10
85.09832338451646
 20
-135.7870594104976
 30
0.0
 10
85.09832338451646
 20
-135.7870594104976
 30
0.0
 10
85.09832338451646
 20
-125.7873263574421
 30
0.0
 10
85.09832338451646
 20
-125.7873263574421
 30
0.0
 10
85.09832338451646
 20
-125.7873263574421
 30
0.0
 10
100.0986105018273
 20
-125.7873263574421
 30
0.0
 10
100.0986105018273
 20
-125.7873263574421
 30
0.0
 10
100.0986105018273
 20
-125.7873263574421
 30
0.0
 10
100.6181463219061
 20
-125.4876063575172
 30
0.0
 10
100.6181463219061
 20
-125.4876063575172
 30
0.0
 10
100.6181463219061
 20
-125.4876063575172
 30
0.0
 10
105.3989200888273
 20
-125.4876063575172
 30
0.0
 10
105.3989200888273
 20
-125.4876063575172
 30
0.0
 10
105.785458690077
 20
-125.4876063575172
 30
0.0
 10
106.0989370154128
 20
-125.1740927464843
 30
0.0
 10
106.0989370154128
 20
-124.7875541354698
 30
0.0
 10
106.0989370154128
 20
-124.7875541354698
 30
0.0
 10
100.2984238300629
 20
-124.7875541354698
 30
0.0
 10
100.2984238300629
 20
-124.7875541354698
 30
0.0
 10
100.2984238300629
 20
-124.7875541354698
 30
0.0
 10
100.0986105018273
 20
-124.9877202465309
 30
0.0
 10
100.0986105018273
 20
-124.9877202465309
 30
0.0
 10
100.0986105018273
 20
-124.9877202465309
 30
0.0
 10
99.89847967359968
 20
-124.7875541354698
 30
0.0
 10
99.89847967359968
 20
-124.7875541354698
 30
0.0
 10
99.89847967359968
 20
-124.7875541354698
 30
0.0
 10
87.09441055581425
 20
-124.7875541354698
 30
0.0
 10
87.09441055581425
 20
-124.7875541354698
 30
0.0
  0
HATCH
  5
42
330
1F
100
AcDbEntity
  8
_U+30EC_U+30A4_U+30E4_U+30FC 1
 62
   253
420
 11711154
100
AcDbHatch
 10
0.0
 20
0.0
 30
0.0
210
0.0
220
0.0
230
1.0
  2
SOLID
 70
     1
 71
     0
 91
        1
 92
        1
 93
        1
 72
     4
 94
        3
 73
     0
 74
     1
 95
       74
 96
       70
 40
0.0
 40
0.0
 40
0.0
 40
0.0
 40
1.0
 40
1.0
 40
1.0
 40
2.0
 40
2.0
 40
2.0
 40
3.0
 40
3.0
 40
3.0
 40
4.0
 40
4.0
 40
4.0
 40
5.0
 40
5.0
 40
5.0
 40
6.0
 40
6.0
 40
6.0
 40
7.0
 40
7.0
 40
7.0
 40
8.0
 40
8.0
 40
8.0
 40
9.0
 40
9.0
 40
9.0
 40
10.0
 40
10.0
 40
10.0
 40
11.0
 40
11.0
 40
11.0
 40
12.0
 40
12.0
 40
12.0
 40
13.0
 40
13.0
 40
13.0
 40
14.0
 40
14.0
 40
14.0
 40
15.0
 40
15.0
 40
15.0
 40
16.0
 40
16.0
 40
16.0
 40
17.0
 40
17.0
 40
17.0
 40
18.0
 40
18.0
 40
18.0
 40
19.0
 40
19.0
 40
19.0
 40
20.0
 40
20.0
 40
20.0
 40
21.0
 40
21.0
 40
21.0
 40
22.0
 40
22.0
 40
22.0
 40
23.0
 40
23.0
 40
23.0
 40
23.0
 10
87.09441055581425
 20
-124.7875541354698
 10
87.09441055581425
 20
-124.7875541354698
 10
86.88736528331864
 20
-124.9877202465309
 10
86.88736528331864
 20
-124.9877202465309
 10
86.88736528331864
 20
-124.9877202465309
 10
86.68719917731418
 20
-124.788259691025
 10
86.68719917731418
 20
-124.788259691025
 10
86.68719917731418
 20
-124.788259691025
 10
86.48738584907852
 20
-124.9880730243086
 10
86.48738584907852
 20
-124.9880730243086
 10
86.48738584907852
 20
-124.9880730243086
 10
86.28725502085095
 20
-124.7879069132476
 10
86.28725502085095
 20
-124.7879069132476
 10
86.28725502085095
 20
-124.7879069132476
 10
86.0874064148384
 20
-124.9877202465309
 10
86.0874064148384
 20
-124.9877202465309
 10
86.0874064148384
 20
-124.9877202465309
 10
85.88727775630598
 20
-124.7875541354698
 10
85.88727775630598
 20
-124.7875541354698
 10
85.88727775630598
 20
-124.7875541354698
 10
85.09832338451646
 20
-124.7875541354698
 10
85.09832338451646
 20
-124.7875541354698
 10
85.09832338451646
 20
-124.7875541354698
 10
85.09832338451646
 20
-120.7192502475978
 10
85.09832338451646
 20
-120.7192502475978
 10
84.54643784304068
 20
-120.7192502475978
 10
84.09855118780055
 20
-121.1671016363749
 10
84.09855118780055
 20
-121.7193752473478
 10
84.09855118780055
 20
-121.7193752473478
 10
84.09855118780055
 20
-135.7188321882924
 10
84.09855118780055
 20
-135.7188321882924
 10
84.09855118780055
 20
-136.2714585770435
 10
84.54643784304068
 20
-136.7193099658205
 10
85.09832338451646
 20
-136.7193099658205
 10
85.09832338451646
 20
-136.7193099658205
 10
99.05407080625345
 20
-136.7193099658205
 10
99.05407080625345
 20
-136.7193099658205
 10
99.6066619032668
 20
-136.7193099658205
 10
100.0986105018273
 20
-136.3396505214705
 10
100.0986105018273
 20
-135.7870594104976
 10
100.0986105018273
 20
-135.7870594104976
 10
85.09832338451646
 20
-135.7870594104976
 10
85.09832338451646
 20
-135.7870594104976
 10
85.09832338451646
 20
-135.7870594104976
 10
85.09832338451646
 20
-125.7873263574421
 10
85.09832338451646
 20
-125.7873263574421
 10
85.09832338451646
 20
-125.7873263574421
 10
100.0986105018273
 20
-125.7873263574421
 10
100.0986105018273
 20
-125.7873263574421
 10
100.0986105018273
 20
-125.7873263574421
 10
100.6181463219061
 20
-125.4876063575172
 10
100.6181463219061
 20
-125.4876063575172
 10
100.6181463219061
 20
-125.4876063575172
 10
105.3989200888273
 20
-125.4876063575172
 10
105.3989200888273
 20
-125.4876063575172
 10
105.785458690077
 20
-125.4876063575172
 10
106.0989370154128
 20
-125.1740927464843
 10
106.0989370154128
 20
-124.7875541354698
 10
106.0989370154128
 20
-124.7875541354698
 10
100.2984238300629
 20
-124.7875541354698
 10
100.2984238300629
 20
-124.7875541354698
 10
100.2984238300629
 20
-124.7875541354698
 10
100.0986105018273
 20
-124.9877202465309
 10
100.0986105018273
 20
-124.9877202465309
 10
100.0986105018273
 20
-124.9877202465309
 10
99.89847967359968
 20
-124.7875541354698
 10
99.89847967359968
 20
-124.7875541354698
 10
99.89847967359968
 20
-124.7875541354698
 10
87.09441055581425
 20
-124.7875541354698
 10
87.09441055581425
 20
-124.7875541354698
 97
        0
 97
        0
 75
     2
 76
     1
 98
        0
  0
POLYLINE
  5
43
330
1F
100
AcDbEntity
  8
_U+30EC_U+30A4_U+30E4_U+30FC 1
 62
   179
420
  2234388
370
     9
100
AcDb2dPolyline
 66
     1
 10
0.0
 20
0.0
 30
0.0
  0
VERTEX
  5
44
330
43
100
AcDbEntity
  8
_U+30EC_U+30A4_U+30E4_U+30FC 1
 62
   179
420
  2234388
370
     9
100
AcDbVertex
100
AcDb2dVertex
 10
84.3913920136629
 20
-136.42646913256
 30
0.0
  0
VERTEX
  5
45
330
43
100
AcDbEntity
  8
_U+30EC_U+30A4_U+30E4_U+30FC 1
 62
   179
420
  2234388
370
     9
100
AcDbVertex
100
AcDb2dVertex
 10
80.09882740095311
 20
-140.7190691314867
 30
0.0
  0
SEQEND
  5
46
330
43
100
AcDbEntity
  8
_U+30EC_U+30A4_U+30E4_U+30FC 1
 62
   179
420
  2234388
370
     9
  0
POLYLINE
  5
47
330
1F
100
AcDbEntity
  8
_U+30EC_U+30A4_U+30E4_U+30FC 1
 62
   179
420
  2234388
370
     9
100
AcDb2dPolyline
 66
     1
 10
0.0
 20
0.0
 30
0.0
  0
VERTEX
  5
48
330
47
100
AcDbEntity
  8
_U+30EC_U+30A4_U+30E4_U+30FC 1
 62
   179
420
  2234388
370
     9
100
AcDbVertex
100
AcDb2dVertex
 10
75.88616695287148
 20
-140.7190691314867
 30
0.0
  0
VERTEX
  5
49
330
47
100
AcDbEntity
  8
_U+30EC_U+30A4_U+30E4_U+30FC 1
 62
   179
420
  2234388
370
     9
100
AcDbVertex
100
AcDb2dVertex
 10
80.09882740095311
 20
-140.7190691314867
 30
0.0
  0
SEQEND
  5
4A
330
47
100
AcDbEntity
  8
_U+30EC_U+30A4_U+30E4_U+30FC 1
 62
   179
420
  2234388
370
     9
  0
POLYLINE
  5
4B
330
1F
100
AcDbEntity
  8
_U+30EC_U+30A4_U+30E4_U+30FC 1
 62
   179
420
  2234388
370
     9
100
AcDb2dPolyline
 66
     1
 10
0.0
 20
0.0
 30
0.0
  0
VERTEX
  5
4C
330
4B
100
AcDbEntity
  8
_U+30EC_U+30A4_U+30E4_U+30FC 1
 62
   179
420
  2234388
370
     9
100
AcDbVertex
100
AcDb2dVertex
 10
84.3913920136629
 20
-136.42646913256
 30
0.0
  0
VERTEX
  5
4D
330
4B
100
AcDbEntity
  8
_U+30EC_U+30A4_U+30E4_U+30FC 1
 62
   179
420
  2234388
370
     9
100
AcDbVertex
100
AcDb2dVertex
 10
83.09260538013103
 20
-137.1761219101504
 30
0.0
  0
SEQEND
  5
4E
330
4B
100
AcDbEntity
  8
_U+30EC_U+30A4_U+30E4_U+30FC 1
 62
   179
420
  2234388
370
     9
  0
POLYLINE
  5
4F
330
1F
100
AcDbEntity
  8
_U+30EC_U+30A4_U+30E4_U+30FC 1
 62
   179
420
  2234388
370
     9
100
AcDb2dPolyline
 66
     1
 10
0.0
 20
0.0
 30
0.0
  0
VERTEX
  5
50
330
4F
100
AcDbEntity
  8
_U+30EC_U+30A4_U+30E4_U+30FC 1
 62
   179
420
  2234388
370
     9
100
AcDbVertex
100
AcDb2dVertex
 10
84.3913920136629
 20
-136.42646913256
 30
0.0
  0
VERTEX
  5
51
330
4F
100
AcDbEntity
  8
_U+30EC_U+30A4_U+30E4_U+30FC 1
 62
   179
420
  2234388
370
     9
100
AcDbVertex
100
AcDb2dVertex
 10
83.64173925501035
 20
-137.7252557989019
 30
0.0
  0
SEQEND
  5
52
330
4F
100
AcDbEntity
  8
_U+30EC_U+30A4_U+30E4_U+30FC 1
 62
   179
420
  2234388
370
     9
  0
SPLINE
  5
53
330
1F
100
AcDbEntity
  8
_U+30EC_U+30A4_U+30E4_U+30FC 1
 62
   179
420
  2234388
370
     9
100
AcDbSpline
210
0.0
220
0.0
230
1.0
 70
    11
 71
     3
 72
    17
 73
    13
 74
     0
 42
0.0000000001
 43
0.0000000001
 12
1.0
 22
0.0
 32
0.0
 13
1.0
 23
0.0
 33
0.0
 40
0.0
 40
0.0
 40
0.0
 40
0.0
 40
1.0
 40
1.0
 40
1.0
 40
2.0
 40
2.0
 40
2.0
 40
3.0
 40
3.0
 40
3.0
 40
4.0
 40
4.0
 40
4.0
 40
4.0
 10
106.1988436795307
 20
-117.7196160816813
 30
0.0
 10
106.1988436795307
 20
-117.6644769150282
 30
0.0
 10
106.1540761806728
 20
-117.6197094150396
 30
0.0
 10
106.0989370154128
 20
-117.6197094150396
 30
0.0
 10
106.0438331279298
 20
-117.6197094150396
 30
0.0
 10
105.999030351295
 20
-117.6644769150282
 30
0.0
 10
105.999030351295
 20
-117.7196160816813
 30
0.0
 10
105.999030351295
 20
-117.7747199705562
 30
0.0
 10
106.0438331279298
 20
-117.8195227483229
 30
0.0
 10
106.0989370154128
 20
-117.8195227483229
 30
0.0
 10
106.1540761806728
 20
-117.8195227483229
 30
0.0
 10
106.1988436795307
 20
-117.7747199705562
 30
0.0
 10
106.1988436795307
 20
-117.7196160816813
 30
0.0
  0
SPLINE
  5
54
330
1F
100
AcDbEntity
  8
_U+30EC_U+30A4_U+30E4_U+30FC 1
 62
   179
420
  2234388
370
     9
100
AcDbSpline
210
0.0
220
0.0
230
1.0
 70
    11
 71
     3
 72
    17
 73
    13
 74
     0
 42
0.0000000001
 43
0.0000000001
 12
1.0
 22
0.0
 32
0.0
 13
1.0
 23
0.0
 33
0.0
 40
0.0
 40
0.0
 40
0.0
 40
0.0
 40
1.0
 40
1.0
 40
1.0
 40
2.0
 40
2.0
 40
2.0
 40
3.0
 40
3.0
 40
3.0
 40
4.0
 40
4.0
 40
4.0
 40
4.0
 10
85.19823004863429
 20
-117.7196160816813
 30
0.0
 10
85.19823004863429
 20
-117.6644769150282
 30
0.0
 10
85.1534625497764
 20
-117.6197094150396
 30
0.0
 10
85.09832338451646
 20
-117.6197094150396
 30
0.0
 10
85.04321949703338
 20
-117.6197094150396
 30
0.0
 10
84.99841672039862
 20
-117.6644769150282
 30
0.0
 10
84.99841672039862
 20
-117.7196160816813
 30
0.0
 10
84.99841672039862
 20
-117.7747199705562
 30
0.0
 10
85.04321949703338
 20
-117.8195227483229
 30
0.0
 10
85.09832338451646
 20
-117.8195227483229
 30
0.0
 10
85.1534625497764
 20
-117.8195227483229
 30
0.0
 10
85.19823004863429
 20
-117.7747199705562
 30
0.0
 10
85.19823004863429
 20
-117.7196160816813
 30
0.0
  0
SPLINE
  5
55
330
1F
100
AcDbEntity
  8
_U+30EC_U+30A4_U+30E4_U+30FC 1
 62
   179
420
  2234388
370
     9
100
AcDbSpline
210
0.0
220
0.0
230
1.0
 70
    11
 71
     3
 72
    17
 73
    13
 74
     0
 42
0.0000000001
 43
0.0000000001
 12
1.0
 22
0.0
 32
0.0
 13
1.0
 23
0.0
 33
0.0
 40
0.0
 40
0.0
 40
0.0
 40
0.0
 40
1.0
 40
1.0
 40
1.0
 40
2.0
 40
2.0
 40
2.0
 40
3.0
 40
3.0
 40
3.0
 40
4.0
 40
4.0
 40
4.0
 40
4.0
 10
84.19849312969527
 20
-122.9036149692742
 30
0.0
 10
84.19849312969527
 20
-122.8484758026211
 30
0.0
 10
84.1536903530605
 20
-122.8037083026323
 30
0.0
 10
84.09855118780055
 20
-122.8037083026323
 30
0.0
 10
84.04344730031748
 20
-122.8037083026323
 30
0.0
 10
83.99864452368271
 20
-122.8484758026211
 30
0.0
 10
83.99864452368271
 20
-122.9036149692742
 30
0.0
 10
83.99864452368271
 20
-122.9587188581491
 30
0.0
 10
84.04344730031748
 20
-123.0035216359159
 30
0.0
 10
84.09855118780055
 20
-123.0035216359159
 30
0.0
 10
84.1536903530605
 20
-123.0035216359159
 30
0.0
 10
84.19849312969527
 20
-122.9587188581491
 30
0.0
 10
84.19849312969527
 20
-122.9036149692742
 30
0.0
  0
SPLINE
  5
56
330
1F
100
AcDbEntity
  8
_U+30EC_U+30A4_U+30E4_U+30FC 1
 62
   179
420
  2234388
370
     9
100
AcDbSpline
210
0.0
220
0.0
230
1.0
 70
    11
 71
     3
 72
    17
 73
    13
 74
     0
 42
0.0000000001
 43
0.0000000001
 12
1.0
 22
0.0
 32
0.0
 13
1.0
 23
0.0
 33
0.0
 40
0.0
 40
0.0
 40
0.0
 40
0.0
 40
1.0
 40
1.0
 40
1.0
 40
2.0
 40
2.0
 40
2.0
 40
3.0
 40
3.0
 40
3.0
 40
4.0
 40
4.0
 40
4.0
 40
4.0
 10
85.19823004863429
 20
-122.9036149692742
 30
0.0
 10
85.19823004863429
 20
-122.8484758026211
 30
0.0
 10
85.1534625497764
 20
-122.8037083026323
 30
0.0
 10
85.09832338451646
 20
-122.8037083026323
 30
0.0
 10
85.04321949703338
 20
-122.8037083026323
 30
0.0
 10
84.99841672039862
 20
-122.8484758026211
 30
0.0
 10
84.99841672039862
 20
-122.9036149692742
 30
0.0
 10
84.99841672039862
 20
-122.9587188581491
 30
0.0
 10
85.04321949703338
 20
-123.0035216359159
 30
0.0
 10
85.09832338451646
 20
-123.0035216359159
 30
0.0
 10
85.1534625497764
 20
-123.0035216359159
 30
0.0
 10
85.19823004863429
 20
-122.9587188581491
 30
0.0
 10
85.19823004863429
 20
-122.9036149692742
 30
0.0
  0
SPLINE
  5
57
330
1F
100
AcDbEntity
  8
_U+30EC_U+30A4_U+30E4_U+30FC 1
 62
   179
420
  2234388
370
     9
100
AcDbSpline
210
0.0
220
0.0
230
1.0
 70
    11
 71
     3
 72
    17
 73
    13
 74
     0
 42
0.0000000001
 43
0.0000000001
 12
1.0
 22
0.0
 32
0.0
 13
1.0
 23
0.0
 33
0.0
 40
0.0
 40
0.0
 40
0.0
 40
0.0
 40
1.0
 40
1.0
 40
1.0
 40
2.0
 40
2.0
 40
2.0
 40
3.0
 40
3.0
 40
3.0
 40
4.0
 40
4.0
 40
4.0
 40
4.0
 10
80.19873609106145
 20
-136.7193099658205
 30
0.0
 10
80.19873609106145
 20
-136.6635005213894
 30
0.0
 10
80.15393331329473
 20
-136.6186977436233
 30
0.0
 10
80.09882740095311
 20
-136.6186977436233
 30
0.0
 10
80.04301795793249
 20
-136.6186977436233
 30
0.0
 10
79.99821518129772
 20
-136.6635005213894
 30
0.0
 10
79.99821518129772
 20
-136.7193099658205
 30
0.0
 10
79.99821518129772
 20
-136.7744138546954
 30
0.0
 10
80.04301795793249
 20
-136.8192166324621
 30
0.0
 10
80.09882740095311
 20
-136.8192166324621
 30
0.0
 10
80.15393331329473
 20
-136.8192166324621
 30
0.0
 10
80.19873609106145
 20
-136.7744138546954
 30
0.0
 10
80.19873609106145
 20
-136.7193099658205
 30
0.0
  0
SPLINE
  5
58
330
1F
100
AcDbEntity
  8
_U+30EC_U+30A4_U+30E4_U+30FC 1
 62
   179
420
  2234388
370
     9
100
AcDbSpline
210
0.0
220
0.0
230
1.0
 70
    11
 71
     3
 72
    17
 73
    13
 74
     0
 42
0.0000000001
 43
0.0000000001
 12
1.0
 22
0.0
 32
0.0
 13
1.0
 23
0.0
 33
0.0
 40
0.0
 40
0.0
 40
0.0
 40
0.0
 40
1.0
 40
1.0
 40
1.0
 40
2.0
 40
2.0
 40
2.0
 40
3.0
 40
3.0
 40
3.0
 40
4.0
 40
4.0
 40
4.0
 40
4.0
 10
80.19873609106145
 20
-120.7192502475978
 30
0.0
 10
80.19873609106145
 20
-120.6641110809451
 30
0.0
 10
80.15393331329473
 20
-120.6193435809562
 30
0.0
 10
80.09882740095311
 20
-120.6193435809562
 30
0.0
 10
80.04301795793249
 20
-120.6193435809562
 30
0.0
 10
79.99821518129772
 20
-120.6641110809451
 30
0.0
 10
79.99821518129772
 20
-120.7192502475978
 30
0.0
 10
79.99821518129772
 20
-120.7747069142508
 30
0.0
 10
80.04301795793249
 20
-120.8195096920172
 30
0.0
 10
80.09882740095311
 20
-120.8195096920172
 30
0.0
 10
80.15393331329473
 20
-120.8195096920172
 30
0.0
 10
80.19873609106145
 20
-120.7747069142508
 30
0.0
 10
80.19873609106145
 20
-120.7192502475978
 30
0.0
  0
SPLINE
  5
59
330
1F
100
AcDbEntity
  8
_U+30EC_U+30A4_U+30E4_U+30FC 1
 62
   179
420
  2234388
370
     9
100
AcDbSpline
210
0.0
220
0.0
230
1.0
 70
    11
 71
     3
 72
    17
 73
    13
 74
     0
 42
0.0000000001
 43
0.0000000001
 12
1.0
 22
0.0
 32
0.0
 13
1.0
 23
0.0
 33
0.0
 40
0.0
 40
0.0
 40
0.0
 40
0.0
 40
1.0
 40
1.0
 40
1.0
 40
2.0
 40
2.0
 40
2.0
 40
3.0
 40
3.0
 40
3.0
 40
4.0
 40
4.0
 40
4.0
 40
4.0
 10
100.1985171659451
 20
-140.7190691314867
 30
0.0
 10
100.1985171659451
 20
-140.6639299648343
 30
0.0
 10
100.1537496670872
 20
-140.6191624648451
 30
0.0
 10
100.0986105018273
 20
-140.6191624648451
 30
0.0
 10
100.0435066143442
 20
-140.6191624648451
 30
0.0
 10
99.99870383770941
 20
-140.6639299648343
 30
0.0
 10
99.99870383770941
 20
-140.7190691314867
 30
0.0
 10
99.99870383770941
 20
-140.7741730203623
 30
0.0
 10
100.0435066143442
 20
-140.8189757981284
 30
0.0
 10
100.0986105018273
 20
-140.8189757981284
 30
0.0
 10
100.1537496670872
 20
-140.8189757981284
 30
0.0
 10
100.1985171659451
 20
-140.7741730203623
 30
0.0
 10
100.1985171659451
 20
-140.7190691314867
 30
0.0
  0
SPLINE
  5
5A
330
1F
100
AcDbEntity
  8
_U+30EC_U+30A4_U+30E4_U+30FC 1
 62
   179
420
  2234388
370
     9
100
AcDbSpline
210
0.0
220
0.0
230
1.0
 70
    11
 71
     3
 72
    17
 73
    13
 74
     0
 42
0.0000000001
 43
0.0000000001
 12
1.0
 22
0.0
 32
0.0
 13
1.0
 23
0.0
 33
0.0
 40
0.0
 40
0.0
 40
0.0
 40
0.0
 40
1.0
 40
1.0
 40
1.0
 40
2.0
 40
2.0
 40
2.0
 40
3.0
 40
3.0
 40
3.0
 40
4.0
 40
4.0
 40
4.0
 40
4.0
 10
84.19849312969527
 20
-140.7190691314867
 30
0.0
 10
84.19849312969527
 20
-140.6639299648343
 30
0.0
 10
84.1536903530605
 20
-140.6191624648451
 30
0.0
 10
84.09855118780055
 20
-140.6191624648451
 30
0.0
 10
84.04344730031748
 20
-140.6191624648451
 30
0.0
 10
83.99864452368271
 20
-140.6639299648343
 30
0.0
 10
83.99864452368271
 20
-140.7190691314867
 30
0.0
 10
83.99864452368271
 20
-140.7741730203623
 30
0.0
 10
84.04344730031748
 20
-140.8189757981284
 30
0.0
 10
84.09855118780055
 20
-140.8189757981284
 30
0.0
 10
84.1536903530605
 20
-140.8189757981284
 30
0.0
 10
84.19849312969527
 20
-140.7741730203623
 30
0.0
 10
84.19849312969527
 20
-140.7190691314867
 30
0.0
  0
SPLINE
  5
5B
330
1F
100
AcDbEntity
  8
_U+30EC_U+30A4_U+30E4_U+30FC 1
 62
   179
420
  2234388
370
     9
100
AcDbSpline
210
0.0
220
0.0
230
1.0
 70
    11
 71
     3
 72
    17
 73
    13
 74
     0
 42
0.0000000001
 43
0.0000000001
 12
1.0
 22
0.0
 32
0.0
 13
1.0
 23
0.0
 33
0.0
 40
0.0
 40
0.0
 40
0.0
 40
0.0
 40
1.0
 40
1.0
 40
1.0
 40
2.0
 40
2.0
 40
2.0
 40
3.0
 40
3.0
 40
3.0
 40
4.0
 40
4.0
 40
4.0
 40
4.0
 10
104.1993345638757
 20
-125.7873263574421
 30
0.0
 10
104.1993345638757
 20
-125.7322224685668
 30
0.0
 10
104.154531787241
 20
-125.6874196908004
 30
0.0
 10
104.0994305295304
 20
-125.6874196908004
 30
0.0
 10
104.0442887344979
 20
-125.6874196908004
 30
0.0
 10
103.9995212356401
 20
-125.7322224685668
 30
0.0
 10
103.9995212356401
 20
-125.7873263574421
 30
0.0
 10
103.9995212356401
 20
-125.8431358018725
 30
0.0
 10
104.0442887344979
 20
-125.8879385796392
 30
0.0
 10
104.0994305295304
 20
-125.8879385796392
 30
0.0
 10
104.154531787241
 20
-125.8879385796392
 30
0.0
 10
104.1993345638757
 20
-125.8431358018725
 30
0.0
 10
104.1993345638757
 20
-125.7873263574421
 30
0.0
  0
SPLINE
  5
5C
330
1F
100
AcDbEntity
  8
_U+30EC_U+30A4_U+30E4_U+30FC 1
 62
   179
420
  2234388
370
     9
100
AcDbSpline
210
0.0
220
0.0
230
1.0
 70
    11
 71
     3
 72
    17
 73
    13
 74
     0
 42
0.0000000001
 43
0.0000000001
 12
1.0
 22
0.0
 32
0.0
 13
1.0
 23
0.0
 33
0.0
 40
0.0
 40
0.0
 40
0.0
 40
0.0
 40
1.0
 40
1.0
 40
1.0
 40
2.0
 40
2.0
 40
2.0
 40
3.0
 40
3.0
 40
3.0
 40
4.0
 40
4.0
 40
4.0
 40
4.0
 10
104.1993345638757
 20
-135.7188321882924
 30
0.0
 10
104.1993345638757
 20
-135.6637282994175
 30
0.0
 10
104.154531787241
 20
-135.6189255216508
 30
0.0
 10
104.0994305295304
 20
-135.6189255216508
 30
0.0
 10
104.0442887344979
 20
-135.6189255216508
 30
0.0
 10
103.9995212356401
 20
-135.6637282994175
 30
0.0
 10
103.9995212356401
 20
-135.7188321882924
 30
0.0
 10
103.9995212356401
 20
-135.7746416327229
 30
0.0
 10
104.0442887344979
 20
-135.8194444104896
 30
0.0
 10
104.0994305295304
 20
-135.8194444104896
 30
0.0
 10
104.154531787241
 20
-135.8194444104896
 30
0.0
 10
104.1993345638757
 20
-135.7746416327229
 30
0.0
 10
104.1993345638757
 20
-135.7188321882924
 30
0.0
  0
INSERT
  5
5E
330
1F
100
AcDbEntity
  8
_U+30EC_U+30A4_U+30E4_U+30FC 1
100
AcDbBlockReference
  2
block 2
 10
0.0
 20
0.0
 30
0.0
  0
POLYLINE
  5
66
330
1F
100
AcDbEntity
  8
_U+30EC_U+30A4_U+30E4_U+30FC 1
 62
   179
420
  2234388
370
     9
100
AcDb2dPolyline
 66
     1
 10
0.0
 20
0.0
 30
0.0
  0
VERTEX
  5
67
330
66
100
AcDbEntity
  8
_U+30EC_U+30A4_U+30E4_U+30FC 1
 62
   179
420
  2234388
370
     9
100
AcDbVertex
100
AcDb2dVertex
 10
85.09832338451646
 20
-117.7196160816813
 30
0.0
  0
VERTEX
  5
68
330
66
100
AcDbEntity
  8
_U+30EC_U+30A4_U+30E4_U+30FC 1
 62
   179
420
  2234388
370
     9
100
AcDbVertex
100
AcDb2dVertex
 10
106.0989370154128
 20
-117.7196160816813
 30
0.0
  0
SEQEND
  5
69
330
66
100
AcDbEntity
  8
_U+30EC_U+30A4_U+30E4_U+30FC 1
 62
   179
420
  2234388
370
     9
  0
POLYLINE
  5
6A
330
1F
100
AcDbEntity
  8
_U+30EC_U+30A4_U+30E4_U+30FC 1
 62
   179
420
  2234388
370
     9
100
AcDb2dPolyline
 66
     1
 10
0.0
 20
0.0
 30
0.0
  0
VERTEX
  5
6B
330
6A
100
AcDbEntity
  8
_U+30EC_U+30A4_U+30E4_U+30FC 1
 62
   179
420
  2234388
370
     9
100
AcDbVertex
100
AcDb2dVertex
 10
85.09832338451646
 20
-120.2193641366119
 30
0.0
  0
VERTEX
  5
6C
330
6A
100
AcDbEntity
  8
_U+30EC_U+30A4_U+30E4_U+30FC 1
 62
   179
420
  2234388
370
     9
100
AcDbVertex
100
AcDb2dVertex
 10
85.09832338451646
 20
-116.7194910819313
 30
0.0
  0
SEQEND
  5
6D
330
6A
100
AcDbEntity
  8
_U+30EC_U+30A4_U+30E4_U+30FC 1
 62
   179
420
  2234388
370
     9
  0
POLYLINE
  5
6E
330
1F
100
AcDbEntity
  8
_U+30EC_U+30A4_U+30E4_U+30FC 1
 62
   179
420
  2234388
370
     9
100
AcDb2dPolyline
 66
     1
 10
0.0
 20
0.0
 30
0.0
  0
VERTEX
  5
6F
330
6E
100
AcDbEntity
  8
_U+30EC_U+30A4_U+30E4_U+30FC 1
 62
   179
420
  2234388
370
     9
100
AcDbVertex
100
AcDb2dVertex
 10
106.0989370154128
 20
-123.2875783025114
 30
0.0
  0
VERTEX
  5
70
330
6E
100
AcDbEntity
  8
_U+30EC_U+30A4_U+30E4_U+30FC 1
 62
   179
420
  2234388
370
     9
100
AcDbVertex
100
AcDb2dVertex
 10
106.0989370154128
 20
-116.7194910819313
 30
0.0
  0
SEQEND
  5
71
330
6E
100
AcDbEntity
  8
_U+30EC_U+30A4_U+30E4_U+30FC 1
 62
   179
420
  2234388
370
     9
  0
INSERT
  5
73
330
1F
100
AcDbEntity
  8
_U+30EC_U+30A4_U+30E4_U+30FC 1
100
AcDbBlockReference
  2
block 3
 10
0.0
 20
0.0
 30
0.0
  0
POLYLINE
  5
7A
330
1F
100
AcDbEntity
  8
_U+30EC_U+30A4_U+30E4_U+30FC 1
 62
   179
420
  2234388
370
     9
100
AcDb2dPolyline
 66
     1
 10
0.0
 20
0.0
 30
0.0
  0
VERTEX
  5
7B
330
7A
100
AcDbEntity
  8
_U+30EC_U+30A4_U+30E4_U+30FC 1
 62
   179
420
  2234388
370
     9
100
AcDbVertex
100
AcDb2dVertex
 10
85.09832338451646
 20
-122.9036149692742
 30
0.0
  0
VERTEX
  5
7C
330
7A
100
AcDbEntity
  8
_U+30EC_U+30A4_U+30E4_U+30FC 1
 62
   179
420
  2234388
370
     9
100
AcDbVertex
100
AcDb2dVertex
 10
88.86863578832777
 20
-122.9036149692742
 30
0.0
  0
SEQEND
  5
7D
330
7A
100
AcDbEntity
  8
_U+30EC_U+30A4_U+30E4_U+30FC 1
 62
   179
420
  2234388
370
     9
  0
POLYLINE
  5
7E
330
1F
100
AcDbEntity
  8
_U+30EC_U+30A4_U+30E4_U+30FC 1
 62
   179
420
  2234388
370
     9
100
AcDb2dPolyline
 66
     1
 10
0.0
 20
0.0
 30
0.0
  0
VERTEX
  5
7F
330
7E
100
AcDbEntity
  8
_U+30EC_U+30A4_U+30E4_U+30FC 1
 62
   179
420
  2234388
370
     9
100
AcDbVertex
100
AcDb2dVertex
 10
83.09881426886152
 20
-122.9036149692742
 30
0.0
  0
VERTEX
  5
80
330
7E
100
AcDbEntity
  8
_U+30EC_U+30A4_U+30E4_U+30FC 1
 62
   179
420
  2234388
370
     9
100
AcDbVertex
100
AcDb2dVertex
 10
85.09832338451646
 20
-122.9036149692742
 30
0.0
  0
SEQEND
  5
81
330
7E
100
AcDbEntity
  8
_U+30EC_U+30A4_U+30E4_U+30FC 1
 62
   179
420
  2234388
370
     9
  0
INSERT
  5
83
330
1F
100
AcDbEntity
  8
_U+30EC_U+30A4_U+30E4_U+30FC 1
100
AcDbBlockReference
  2
block 4
 10
0.0
 20
0.0
 30
0.0
  0
POLYLINE
  5
88
330
1F
100
AcDbEntity
  8
_U+30EC_U+30A4_U+30E4_U+30FC 1
 62
   179
420
  2234388
370
     9
100
AcDb2dPolyline
 66
     1
 10
0.0
 20
0.0
 30
0.0
  0
VERTEX
  5
89
330
88
100
AcDbEntity
  8
_U+30EC_U+30A4_U+30E4_U+30FC 1
 62
   179
420
  2234388
370
     9
100
AcDbVertex
100
AcDb2dVertex
 10
84.09855118780055
 20
-140.7190691314867
 30
0.0
  0
VERTEX
  5
8A
330
88
100
AcDbEntity
  8
_U+30EC_U+30A4_U+30E4_U+30FC 1
 62
   179
420
  2234388
370
     9
100
AcDbVertex
100
AcDb2dVertex
 10
100.0986105018273
 20
-140.7190691314867
 30
0.0
  0
SEQEND
  5
8B
330
88
100
AcDbEntity
  8
_U+30EC_U+30A4_U+30E4_U+30FC 1
 62
   179
420
  2234388
370
     9
  0
POLYLINE
  5
8C
330
1F
100
AcDbEntity
  8
_U+30EC_U+30A4_U+30E4_U+30FC 1
 62
   179
420
  2234388
370
     9
100
AcDb2dPolyline
 66
     1
 10
0.0
 20
0.0
 30
0.0
  0
VERTEX
  5
8D
330
8C
100
AcDbEntity
  8
_U+30EC_U+30A4_U+30E4_U+30FC 1
 62
   179
420
  2234388
370
     9
100
AcDbVertex
100
AcDb2dVertex
 10
84.09855118780055
 20
-138.2592555209905
 30
0.0
  0
VERTEX
  5
8E
330
8C
100
AcDbEntity
  8
_U+30EC_U+30A4_U+30E4_U+30FC 1
 62
   179
420
  2234388
370
     9
100
AcDbVertex
100
AcDb2dVertex
 10
84.09855118780055
 20
-141.7195116312366
 30
0.0
  0
SEQEND
  5
8F
330
8C
100
AcDbEntity
  8
_U+30EC_U+30A4_U+30E4_U+30FC 1
 62
   179
420
  2234388
370
     9
  0
POLYLINE
  5
90
330
1F
100
AcDbEntity
  8
_U+30EC_U+30A4_U+30E4_U+30FC 1
 62
   179
420
  2234388
370
     9
100
AcDb2dPolyline
 66
     1
 10
0.0
 20
0.0
 30
0.0
  0
VERTEX
  5
91
330
90
100
AcDbEntity
  8
_U+30EC_U+30A4_U+30E4_U+30FC 1
 62
   179
420
  2234388
370
     9
100
AcDbVertex
100
AcDb2dVertex
 10
100.0986105018273
 20
-138.2592555209905
 30
0.0
  0
VERTEX
  5
92
330
90
100
AcDbEntity
  8
_U+30EC_U+30A4_U+30E4_U+30FC 1
 62
   179
420
  2234388
370
     9
100
AcDbVertex
100
AcDb2dVertex
 10
100.0986105018273
 20
-141.7195116312366
 30
0.0
  0
SEQEND
  5
93
330
90
100
AcDbEntity
  8
_U+30EC_U+30A4_U+30E4_U+30FC 1
 62
   179
420
  2234388
370
     9
  0
INSERT
  5
95
330
1F
100
AcDbEntity
  8
_U+30EC_U+30A4_U+30E4_U+30FC 1
100
AcDbBlockReference
  2
block 5
 10
0.0
 20
0.0
 30
0.0
  0
POLYLINE
  5
9D
330
1F
100
AcDbEntity
  8
_U+30EC_U+30A4_U+30E4_U+30FC 1
 62
   179
420
  2234388
370
     9
100
AcDb2dPolyline
 66
     1
 10
0.0
 20
0.0
 30
0.0
  0
VERTEX
  5
9E
330
9D
100
AcDbEntity
  8
_U+30EC_U+30A4_U+30E4_U+30FC 1
 62
   179
420
  2234388
370
     9
100
AcDbVertex
100
AcDb2dVertex
 10
104.0994305295304
 20
-135.7188321882924
 30
0.0
  0
VERTEX
  5
9F
330
9D
100
AcDbEntity
  8
_U+30EC_U+30A4_U+30E4_U+30FC 1
 62
   179
420
  2234388
370
     9
100
AcDbVertex
100
AcDb2dVertex
 10
104.0994305295304
 20
-125.7873263574421
 30
0.0
  0
SEQEND
  5
A0
330
9D
100
AcDbEntity
  8
_U+30EC_U+30A4_U+30E4_U+30FC 1
 62
   179
420
  2234388
370
     9
  0
POLYLINE
  5
A1
330
1F
100
AcDbEntity
  8
_U+30EC_U+30A4_U+30E4_U+30FC 1
 62
   179
420
  2234388
370
     9
100
AcDb2dPolyline
 66
     1
 10
0.0
 20
0.0
 30
0.0
  0
VERTEX
  5
A2
330
A1
100
AcDbEntity
  8
_U+30EC_U+30A4_U+30E4_U+30FC 1
 62
   179
420
  2234388
370
     9
100
AcDbVertex
100
AcDb2dVertex
 10
102.6393865481178
 20
-135.7188321882924
 30
0.0
  0
VERTEX
  5
A3
330
A1
100
AcDbEntity
  8
_U+30EC_U+30A4_U+30E4_U+30FC 1
 62
   179
420
  2234388
370
     9
100
AcDbVertex
100
AcDb2dVertex
 10
105.0991648186969
 20
-135.7188321882924
 30
0.0
  0
SEQEND
  5
A4
330
A1
100
AcDbEntity
  8
_U+30EC_U+30A4_U+30E4_U+30FC 1
 62
   179
420
  2234388
370
     9
  0
POLYLINE
  5
A5
330
1F
100
AcDbEntity
  8
_U+30EC_U+30A4_U+30E4_U+30FC 1
 62
   179
420
  2234388
370
     9
100
AcDb2dPolyline
 66
     1
 10
0.0
 20
0.0
 30
0.0
  0
VERTEX
  5
A6
330
A5
100
AcDbEntity
  8
_U+30EC_U+30A4_U+30E4_U+30FC 1
 62
   179
420
  2234388
370
     9
100
AcDbVertex
100
AcDb2dVertex
 10
102.6393865481178
 20
-125.7873263574421
 30
0.0
  0
VERTEX
  5
A7
330
A5
100
AcDbEntity
  8
_U+30EC_U+30A4_U+30E4_U+30FC 1
 62
   179
420
  2234388
370
     9
100
AcDbVertex
100
AcDb2dVertex
 10
105.0991648186969
 20
-125.7873263574421
 30
0.0
  0
SEQEND
  5
A8
330
A5
100
AcDbEntity
  8
_U+30EC_U+30A4_U+30E4_U+30FC 1
 62
   179
420
  2234388
370
     9
  0
INSERT
  5
AA
330
1F
100
AcDbEntity
  8
_U+30EC_U+30A4_U+30E4_U+30FC 1
100
AcDbBlockReference
  2
block 6
 10
0.0
 20
0.0
 30
0.0
  0
POLYLINE
  5
B2
330
1F
100
AcDbEntity
  8
_U+30EC_U+30A4_U+30E4_U+30FC 1
 62
   179
420
  2234388
370
     9
100
AcDb2dPolyline
 66
     1
 10
0.0
 20
0.0
 30
0.0
  0
VERTEX
  5
B3
330
B2
100
AcDbEntity
  8
_U+30EC_U+30A4_U+30E4_U+30FC 1
 62
   179
420
  2234388
370
     9
100
AcDbVertex
100
AcDb2dVertex
 10
80.09882740095311
 20
-136.7193099658205
 30
0.0
  0
VERTEX
  5
B4
330
B2
100
AcDbEntity
  8
_U+30EC_U+30A4_U+30E4_U+30FC 1
 62
   179
420
  2234388
370
     9
100
AcDbVertex
100
AcDb2dVertex
 10
80.09882740095311
 20
-120.7192502475978
 30
0.0
  0
SEQEND
  5
B5
330
B2
100
AcDbEntity
  8
_U+30EC_U+30A4_U+30E4_U+30FC 1
 62
   179
420
  2234388
370
     9
  0
POLYLINE
  5
B6
330
1F
100
AcDbEntity
  8
_U+30EC_U+30A4_U+30E4_U+30FC 1
 62
   179
420
  2234388
370
     9
100
AcDb2dPolyline
 66
     1
 10
0.0
 20
0.0
 30
0.0
  0
VERTEX
  5
B7
330
B6
100
AcDbEntity
  8
_U+30EC_U+30A4_U+30E4_U+30FC 1
 62
   179
420
  2234388
370
     9
100
AcDbVertex
100
AcDb2dVertex
 10
82.55860567153228
 20
-136.7193099658205
 30
0.0
  0
VERTEX
  5
B8
330
B6
100
AcDbEntity
  8
_U+30EC_U+30A4_U+30E4_U+30FC 1
 62
   179
420
  2234388
370
     9
100
AcDbVertex
100
AcDb2dVertex
 10
79.09834964869965
 20
-136.7193099658205
 30
0.0
  0
SEQEND
  5
B9
330
B6
100
AcDbEntity
  8
_U+30EC_U+30A4_U+30E4_U+30FC 1
 62
   179
420
  2234388
370
     9
  0
POLYLINE
  5
BA
330
1F
100
AcDbEntity
  8
_U+30EC_U+30A4_U+30E4_U+30FC 1
 62
   179
420
  2234388
370
     9
100
AcDb2dPolyline
 66
     1
 10
0.0
 20
0.0
 30
0.0
  0
VERTEX
  5
BB
330
BA
100
AcDbEntity
  8
_U+30EC_U+30A4_U+30E4_U+30FC 1
 62
   179
420
  2234388
370
     9
100
AcDbVertex
100
AcDb2dVertex
 10
82.55860567153228
 20
-120.7192502475978
 30
0.0
  0
VERTEX
  5
BC
330
BA
100
AcDbEntity
  8
_U+30EC_U+30A4_U+30E4_U+30FC 1
 62
   179
420
  2234388
370
     9
100
AcDbVertex
100
AcDb2dVertex
 10
79.09834964869965
 20
-120.7192502475978
 30
0.0
  0
SEQEND
  5
BD
330
BA
100
AcDbEntity
  8
_U+30EC_U+30A4_U+30E4_U+30FC 1
 62
   179
420
  2234388
370
     9
  0
INSERT
  5
BF
330
1F
100
AcDbEntity
  8
_U+30EC_U+30A4_U+30E4_U+30FC 1
100
AcDbBlockReference
  2
block 7
 10
0.0
 20
0.0
 30
0.0
  0
SPLINE
  5
C7
330
1F
100
AcDbEntity
  8
_U+30EC_U+30A4_U+30E4_U+30FC 1
 62
   179
420
  2234388
370
    25
100
AcDbSpline
210
0.0
220
0.0
230
1.0
 70
    11
 71
     3
 72
    74
 73
    70
 74
     0
 42
0.0000000001
 43
0.0000000001
 12
1.0
 22
0.0
 32
0.0
 13
1.0
 23
0.0
 33
0.0
 40
0.0
 40
0.0
 40
0.0
 40
0.0
 40
1.0
 40
1.0
 40
1.0
 40
2.0
 40
2.0
 40
2.0
 40
3.0
 40
3.0
 40
3.0
 40
4.0
 40
4.0
 40
4.0
 40
5.0
 40
5.0
 40
5.0
 40
6.0
 40
6.0
 40
6.0
 40
7.0
 40
7.0
 40
7.0
 40
8.0
 40
8.0
 40
8.0
 40
9.0
 40
9.0
 40
9.0
 40
10.0
 40
10.0
 40
10.0
 40
11.0
 40
11.0
 40
11.0
 40
12.0
 40
12.0
 40
12.0
 40
13.0
 40
13.0
 40
13.0
 40
14.0
 40
14.0
 40
14.0
 40
15.0
 40
15.0
 40
15.0
 40
16.0
 40
16.0
 40
16.0
 40
17.0
 40
17.0
 40
17.0
 40
18.0
 40
18.0
 40
18.0
 40
19.0
 40
19.0
 40
19.0
 40
20.0
 40
20.0
 40
20.0
 40
21.0
 40
21.0
 40
21.0
 40
22.0
 40
22.0
 40
22.0
 40
23.0
 40
23.0
 40
23.0
 40
23.0
 10
87.09441055581425
 20
-124.788577191025
 30
0.0
 10
87.09441055581425
 20
-124.788577191025
 30
0.0
 10
86.88736528331864
 20
-124.9884258020861
 30
0.0
 10
86.88736528331864
 20
-124.9884258020861
 30
0.0
 10
86.88736528331864
 20
-124.9884258020861
 30
0.0
 10
86.68719917731418
 20
-124.788259691025
 30
0.0
 10
86.68719917731418
 20
-124.788259691025
 30
0.0
 10
86.68719917731418
 20
-124.788259691025
 30
0.0
 10
86.48738584907852
 20
-124.9880730243086
 30
0.0
 10
86.48738584907852
 20
-124.9880730243086
 30
0.0
 10
86.48738584907852
 20
-124.9880730243086
 30
0.0
 10
86.28725502085095
 20
-124.7879069132476
 30
0.0
 10
86.28725502085095
 20
-124.7879069132476
 30
0.0
 10
86.28725502085095
 20
-124.7879069132476
 30
0.0
 10
86.0874064148384
 20
-124.9877202465309
 30
0.0
 10
86.0874064148384
 20
-124.9877202465309
 30
0.0
 10
86.0874064148384
 20
-124.9877202465309
 30
0.0
 10
85.88727775630598
 20
-124.7875541354698
 30
0.0
 10
85.88727775630598
 20
-124.7875541354698
 30
0.0
 10
85.88727775630598
 20
-124.7875541354698
 30
0.0
 10
85.09832338451646
 20
-124.7875541354698
 30
0.0
 10
85.09832338451646
 20
-124.7875541354698
 30
0.0
 10
85.09832338451646
 20
-124.7875541354698
 30
0.0
 10
85.09832338451646
 20
-120.7192502475978
 30
0.0
 10
85.09832338451646
 20
-120.7192502475978
 30
0.0
 10
84.54643784304068
 20
-120.7192502475978
 30
0.0
 10
84.09855118780055
 20
-121.1671016363749
 30
0.0
 10
84.09855118780055
 20
-121.7193752473478
 30
0.0
 10
84.09855118780055
 20
-121.7193752473478
 30
0.0
 10
84.09855118780055
 20
-135.7188321882924
 30
0.0
 10
84.09855118780055
 20
-135.7188321882924
 30
0.0
 10
84.09855118780055
 20
-136.2714585770435
 30
0.0
 10
84.54643784304068
 20
-136.7193099658205
 30
0.0
 10
85.09832338451646
 20
-136.7193099658205
 30
0.0
 10
85.09832338451646
 20
-136.7193099658205
 30
0.0
 10
99.05407080625345
 20
-136.7193099658205
 30
0.0
 10
99.05407080625345
 20
-136.7193099658205
 30
0.0
 10
99.6066619032668
 20
-136.7193099658205
 30
0.0
 10
100.0986105018273
 20
-136.3396505214705
 30
0.0
 10
100.0986105018273
 20
-135.7870594104976
 30
0.0
 10
100.0986105018273
 20
-135.7870594104976
 30
0.0
 10
85.09832338451646
 20
-135.7870594104976
 30
0.0
 10
85.09832338451646
 20
-135.7870594104976
 30
0.0
 10
85.09832338451646
 20
-135.7870594104976
 30
0.0
 10
85.09832338451646
 20
-125.7873263574421
 30
0.0
 10
85.09832338451646
 20
-125.7873263574421
 30
0.0
 10
85.09832338451646
 20
-125.7873263574421
 30
0.0
 10
100.0986105018273
 20
-125.7873263574421
 30
0.0
 10
100.0986105018273
 20
-125.7873263574421
 30
0.0
 10
100.0986105018273
 20
-125.7873263574421
 30
0.0
 10
100.6181463219061
 20
-125.4876063575172
 30
0.0
 10
100.6181463219061
 20
-125.4876063575172
 30
0.0
 10
100.6181463219061
 20
-125.4876063575172
 30
0.0
 10
105.3989200888273
 20
-125.4876063575172
 30
0.0
 10
105.3989200888273
 20
-125.4876063575172
 30
0.0
 10
105.785458690077
 20
-125.4876063575172
 30
0.0
 10
106.0989370154128
 20
-125.1740927464843
 30
0.0
 10
106.0989370154128
 20
-124.7875541354698
 30
0.0
 10
106.0989370154128
 20
-124.7875541354698
 30
0.0
 10
100.2984238300629
 20
-124.7875541354698
 30
0.0
 10
100.2984238300629
 20
-124.7875541354698
 30
0.0
 10
100.2984238300629
 20
-124.7875541354698
 30
0.0
 10
100.0986105018273
 20
-124.9873674687531
 30
0.0
 10
100.0986105018273
 20
-124.9873674687531
 30
0.0
 10
100.0986105018273
 20
-124.9873674687531
 30
0.0
 10
99.89847967359968
 20
-124.7872013576921
 30
0.0
 10
99.89847967359968
 20
-124.7872013576921
 30
0.0
 10
99.89847967359968
 20
-124.7872013576921
 30
0.0
 10
87.09441055581425
 20
-124.788577191025
 30
0.0
 10
87.09441055581425
 20
-124.788577191025
 30
0.0
  0
ENDSEC
  0
SECTION
  2
OBJECTS
  0
DICTIONARY
  5
C
330
0
100
AcDbDictionary
281
     1
  3
ACAD_GROUP
350
D
  3
ACAD_LAYOUT
350
1A
  3
ACAD_MATERIAL
350
3B
  3
ACAD_MLEADERSTYLE
350
C9
  3
ACAD_MLINESTYLE
350
17
  3
ACAD_PLOTSETTINGS
350
19
  3
ACAD_PLOTSTYLENAME
350
E
  3
ACAD_TABLESTYLE
350
C8
  3
ACAD_VISUALSTYLE
350
2A
  0
SUN
  5
3F
330
29
100
AcDbSun
 90
        1
290
     0
 63
     7
421
 16777215
 40
1.0
291
     1
 91
  2455826
 92
 54000000
292
     0
 70
     2
 71
   256
280
     1
  0
DICTIONARY
  5
D
102
{ACAD_REACTORS
330
C
102
}
330
C
100
AcDbDictionary
281
     1
  0
DICTIONARY
  5
1A
102
{ACAD_REACTORS
330
C
102
}
330
C
100
AcDbDictionary
281
     1
  3
Layout1
350
1E
  3
Layout2
350
26
  3
Model
350
22
  0
DICTIONARY
  5
3B
102
{ACAD_REACTORS
330
C
102
}
330
C
100
AcDbDictionary
281
     1
  3
ByBlock
350
3D
  3
ByLayer
350
3C
  3
Global
350
3E
  0
DICTIONARY
  5
C9
102
{ACAD_REACTORS
330
C
102
}
330
C
100
AcDbDictionary
281
     1
  0
DICTIONARY
  5
17
102
{ACAD_REACTORS
330
C
102
}
330
C
100
AcDbDictionary
281
     1
  3
Standard
350
18
  0
DICTIONARY
  5
19
102
{ACAD_REACTORS
330
C
102
}
330
C
100
AcDbDictionary
281
     1
  0
ACDBDICTIONARYWDFLT
  5
E
102
{ACAD_REACTORS
330
C
102
}
330
C
100
AcDbDictionary
281
     1
  3
Normal
350
F
100
AcDbDictionaryWithDefault
340
F
  0
DICTIONARY
  5
C8
102
{ACAD_REACTORS
330
C
102
}
330
C
100
AcDbDictionary
281
     1
  0
DICTIONARY
  5
2A
102
{ACAD_REACTORS
330
C
102
}
330
C
100
AcDbDictionary
281
     1
  3
2dWireframe
350
2F
  3
3D Hidden
350
31
  3
3dWireframe
350
30
  3
Basic
350
32
  3
Brighten
350
36
  3
ColorChange
350
3A
  3
Conceptual
350
34
  3
Dim
350
35
  3
Facepattern
350
39
  3
Flat
350
2B
  3
FlatWithEdges
350
2C
  3
Gouraud
350
2D
  3
GouraudWithEdges
350
2E
  3
Linepattern
350
38
  3
Realistic
350
33
  3
Thicken
350
37
  0
LAYOUT
  5
1E
102
{ACAD_REACTORS
330
1A
102
}
330
1A
100
AcDbPlotSettings
  1

  2
none_device
  4

  6

 40
0.0
 41
0.0
 42
0.0
 43
0.0
 44
0.0
 45
0.0
 46
0.0
 47
0.0
 48
0.0
 49
0.0
140
0.0
141
0.0
142
1.0
143
1.0
 70
   688
 72
     0
 73
     0
 74
     5
  7

 75
    16
 76
     0
 77
     2
 78
   300
147
1.0
148
0.0
149
0.0
100
AcDbLayout
  1
Layout1
 70
     1
 71
     1
 10
0.0
 20
0.0
 11
12.0
 21
9.0
 12
0.0
 22
0.0
 32
0.0
 14
1.000000000000000E+20
 24
1.000000000000000E+20
 34
1.000000000000000E+20
 15
-1.000000000000000E+20
 25
-1.000000000000000E+20
 35
-1.000000000000000E+20
146
0.0
 13
0.0
 23
0.0
 33
0.0
 16
1.0
 26
0.0
 36
0.0
 17
0.0
 27
1.0
 37
0.0
 76
     0
330
1B
  0
LAYOUT
  5
26
102
{ACAD_REACTORS
330
1A
102
}
330
1A
100
AcDbPlotSettings
  1

  2
none_device
  4

  6

 40
0.0
 41
0.0
 42
0.0
 43
0.0
 44
0.0
 45
0.0
 46
0.0
 47
0.0
 48
0.0
 49
0.0
140
0.0
141
0.0
142
1.0
143
1.0
 70
   688
 72
     0
 73
     0
 74
     5
  7

 75
    16
 76
     0
 77
     2
 78
   300
147
1.0
148
0.0
149
0.0
100
AcDbLayout
  1
Layout2
 70
     1
 71
     2
 10
0.0
 20
0.0
 11
0.0
 21
0.0
 12
0.0
 22
0.0
 32
0.0
 14
0.0
 24
0.0
 34
0.0
 15
0.0
 25
0.0
 35
0.0
146
0.0
 13
0.0
 23
0.0
 33
0.0
 16
1.0
 26
0.0
 36
0.0
 17
0.0
 27
1.0
 37
0.0
 76
     0
330
23
  0
LAYOUT
  5
22
102
{ACAD_REACTORS
330
1A
102
}
330
1A
100
AcDbPlotSettings
  1

  2
none_device
  4

  6

 40
0.0
 41
0.0
 42
0.0
 43
0.0
 44
0.0
 45
0.0
 46
0.0
 47
0.0
 48
0.0
 49
0.0
140
0.0
141
0.0
142
1.0
143
1.0
 70
  1712
 72
     0
 73
     0
 74
     0
  7

 75
     0
 76
     0
 77
     2
 78
   300
147
1.0
148
0.0
149
0.0
100
AcDbLayout
  1
Model
 70
     1
 71
     0
 10
0.0
 20
0.0
 11
12.0
 21
9.0
 12
0.0
 22
0.0
 32
0.0
 14
1.000000000000000E+20
 24
1.000000000000000E+20
 34
1.000000000000000E+20
 15
-1.000000000000000E+20
 25
-1.000000000000000E+20
 35
-1.000000000000000E+20
146
0.0
 13
0.0
 23
0.0
 33
0.0
 16
1.0
 26
0.0
 36
0.0
 17
0.0
 27
1.0
 37
0.0
 76
     0
330
1F
331
29
  0
MATERIAL
  5
3D
102
{ACAD_REACTORS
330
3B
102
}
330
3B
100
AcDbMaterial
  1
ByBlock
 72
     1
 94
      127
  0
MATERIAL
  5
3C
102
{ACAD_REACTORS
330
3B
102
}
330
3B
100
AcDbMaterial
  1
ByLayer
 72
     1
 94
      127
  0
MATERIAL
  5
3E
102
{ACAD_REACTORS
330
3B
102
}
330
3B
100
AcDbMaterial
  1
Global
 72
     1
 94
      127
  0
MLINESTYLE
  5
18
102
{ACAD_REACTORS
330
17
102
}
330
17
100
AcDbMlineStyle
  2
Standard
 70
     0
  3

 62
   256
 51
90.0
 52
90.0
 71
     2
 49
0.5
 62
   256
  6
BYLAYER
 49
-0.5
 62
   256
  6
BYLAYER
  0
ACDBPLACEHOLDER
  5
F
102
{ACAD_REACTORS
330
E
102
}
330
E
  0
VISUALSTYLE
  5
2F
102
{ACAD_REACTORS
330
2A
102
}
330
2A
100
AcDbVisualStyle
  2
2dWireframe
 70
     4
177
     2
291
     0
 71
     0
176
     1
 72
     2
176
     1
 73
     0
176
     1
 90
        0
176
     1
 40
-0.6
176
     1
 41
-30.0
176
     1
 62
     5
 63
     7
421
 16777215
176
     1
 74
     1
176
     1
 91
        4
176
     1
 64
     7
176
     1
 65
   257
176
     1
 75
     1
176
     1
175
     1
176
     1
 42
1.0
176
     1
 92
        0
176
     1
 66
   257
176
     1
 43
1.0
176
     1
 76
     1
176
     1
 77
     6
176
     1
 78
     2
176
     1
 67
     7
176
     1
 79
     5
176
     1
170
     0
176
     1
171
     0
176
     1
290
     0
176
     1
 93
        1
176
     1
 44
0.0
176
     1
173
     0
176
     1
  0
VISUALSTYLE
  5
31
102
{ACAD_REACTORS
330
2A
102
}
330
2A
100
AcDbVisualStyle
  2
3D Hidden
 70
     6
177
     2
291
     0
 71
     1
176
     1
 72
     2
176
     1
 73
     2
176
     1
 90
        0
176
     1
 40
-0.6
176
     1
 41
-30.0
176
     1
 62
     5
 63
     7
421
 16777215
176
     1
 74
     2
176
     1
 91
        2
176
     1
 64
     7
176
     1
 65
   257
176
     1
 75
     2
176
     1
175
     1
176
     1
 42
40.0
176
     1
 92
        0
176
     1
 66
   257
176
     1
 43
1.0
176
     1
 76
     1
176
     1
 77
     6
176
     1
 78
     2
176
     1
 67
     7
176
     1
 79
     3
176
     1
170
     0
176
     1
171
     0
176
     1
290
     0
176
     1
 93
        1
176
     1
 44
0.0
176
     1
173
     0
176
     1
  0
VISUALSTYLE
  5
30
102
{ACAD_REACTORS
330
2A
102
}
330
2A
100
AcDbVisualStyle
  2
3dWireframe
 70
     5
177
     2
291
     0
 71
     0
176
     1
 72
     2
176
     1
 73
     0
176
     1
 90
        0
176
     1
 40
-0.6
176
     1
 41
-30.0
176
     1
 62
     5
 63
     7
421
 16777215
176
     1
 74
     1
176
     1
 91
        4
176
     1
 64
     7
176
     1
 65
   257
176
     1
 75
     1
176
     1
175
     1
176
     1
 42
1.0
176
     1
 92
        0
176
     1
 66
   257
176
     1
 43
1.0
176
     1
 76
     1
176
     1
 77
     6
176
     1
 78
     2
176
     1
 67
     7
176
     1
 79
     5
176
     1
170
     0
176
     1
171
     0
176
     1
290
     0
176
     1
 93
        1
176
     1
 44
0.0
176
     1
173
     0
176
     1
  0
VISUALSTYLE
  5
32
102
{ACAD_REACTORS
330
2A
102
}
330
2A
100
AcDbVisualStyle
  2
Basic
 70
     7
177
     2
291
     1
 71
     1
176
     1
 72
     0
176
     1
 73
     1
176
     1
 90
        0
176
     1
 40
-0.6
176
     1
 41
-30.0
176
     1
 62
     5
 63
     7
421
 16777215
176
     1
 74
     0
176
     1
 91
        4
176
     1
 64
     7
176
     1
 65
   257
176
     1
 75
     1
176
     1
175
     1
176
     1
 42
1.0
176
     1
 92
        8
176
     1
 66
     7
176
     1
 43
1.0
176
     1
 76
     1
176
     1
 77
     6
176
     1
 78
     2
176
     1
 67
     7
176
     1
 79
     5
176
     1
170
     0
176
     1
171
     0
176
     1
290
     0
176
     1
 93
        1
176
     1
 44
0.0
176
     1
173
     0
176
     1
  0
VISUALSTYLE
  5
36
102
{ACAD_REACTORS
330
2A
102
}
330
2A
100
AcDbVisualStyle
  2
Brighten
 70
    12
177
     2
291
     1
 71
     2
176
     1
 72
     2
176
     1
 73
     0
176
     1
 90
        0
176
     1
 40
-0.6
176
     1
 41
-30.0
176
     1
 62
     5
 63
     7
421
 16777215
176
     1
 74
     1
176
     1
 91
        4
176
     1
 64
     7
176
     1
 65
   257
176
     1
 75
     1
176
     1
175
     1
176
     1
 42
1.0
176
     1
 92
        8
176
     1
 66
     7
176
     1
 43
1.0
176
     1
 76
     1
176
     1
 77
     6
176
     1
 78
     2
176
     1
 67
     7
176
     1
 79
     5
176
     1
170
     0
176
     1
171
     0
176
     1
290
     0
176
     1
 93
        1
176
     1
 44
50.0
176
     1
173
     0
176
     1
  0
VISUALSTYLE
  5
3A
102
{ACAD_REACTORS
330
2A
102
}
330
2A
100
AcDbVisualStyle
  2
ColorChange
 70
    16
177
     2
291
     1
 71
     2
176
     1
 72
     2
176
     1
 73
     3
176
     1
 90
        0
176
     1
 40
-0.6
176
     1
 41
-30.0
176
     1
 62
     5
 63
     8
421
  8421504
176
     1
 74
     1
176
     1
 91
        4
176
     1
 64
     7
176
     1
 65
   257
176
     1
 75
     1
176
     1
175
     1
176
     1
 42
1.0
176
     1
 92
        8
176
     1
 66
     8
424
  8421504
176
     1
 43
1.0
176
     1
 76
     1
176
     1
 77
     6
176
     1
 78
     2
176
     1
 67
     7
176
     1
 79
     5
176
     1
170
     0
176
     1
171
     0
176
     1
290
     0
176
     1
 93
        1
176
     1
 44
0.0
176
     1
173
     0
176
     1
  0
VISUALSTYLE
  5
34
102
{ACAD_REACTORS
330
2A
102
}
330
2A
100
AcDbVisualStyle
  2
Conceptual
 70
     9
177
     2
291
     0
 71
     3
176
     1
 72
     2
176
     1
 73
     0
176
     1
 90
        0
176
     1
 40
-0.6
176
     1
 41
-30.0
176
     1
 62
     5
 63
     7
421
 16777215
176
     1
 74
     2
176
     1
 91
        2
176
     1
 64
     7
176
     1
 65
   257
176
     1
 75
     1
176
     1
175
     1
176
     1
 42
40.0
176
     1
 92
        8
176
     1
 66
     7
176
     1
 43
1.0
176
     1
 76
     1
176
     1
 77
     6
176
     1
 78
     2
176
     1
 67
     7
176
     1
 79
     3
176
     1
170
     0
176
     1
171
     0
176
     1
290
     0
176
     1
 93
        1
176
     1
 44
0.0
176
     1
173
     0
176
     1
  0
VISUALSTYLE
  5
35
102
{ACAD_REACTORS
330
2A
102
}
330
2A
100
AcDbVisualStyle
  2
Dim
 70
    11
177
     2
291
     1
 71
     2
176
     1
 72
     2
176
     1
 73
     0
176
     1
 90
        0
176
     1
 40
-0.6
176
     1
 41
-30.0
176
     1
 62
     5
 63
     7
421
 16777215
176
     1
 74
     1
176
     1
 91
        4
176
     1
 64
     7
176
     1
 65
   257
176
     1
 75
     1
176
     1
175
     1
176
     1
 42
1.0
176
     1
 92
        8
176
     1
 66
     7
176
     1
 43
1.0
176
     1
 76
     1
176
     1
 77
     6
176
     1
 78
     2
176
     1
 67
     7
176
     1
 79
     5
176
     1
170
     0
176
     1
171
     0
176
     1
290
     0
176
     1
 93
        1
176
     1
 44
-50.0
176
     1
173
     0
176
     1
  0
VISUALSTYLE
  5
39
102
{ACAD_REACTORS
330
2A
102
}
330
2A
100
AcDbVisualStyle
  2
Facepattern
 70
    15
177
     2
291
     1
 71
     2
176
     1
 72
     2
176
     1
 73
     0
176
     1
 90
        0
176
     1
 40
-0.6
176
     1
 41
-30.0
176
     1
 62
     5
 63
     7
421
 16777215
176
     1
 74
     1
176
     1
 91
        4
176
     1
 64
     7
176
     1
 65
   257
176
     1
 75
     1
176
     1
175
     1
176
     1
 42
1.0
176
     1
 92
        8
176
     1
 66
     7
176
     1
 43
1.0
176
     1
 76
     1
176
     1
 77
     6
176
     1
 78
     2
176
     1
 67
     7
176
     1
 79
     5
176
     1
170
     0
176
     1
171
     0
176
     1
290
     0
176
     1
 93
        1
176
     1
 44
0.0
176
     1
173
     0
176
     1
  0
VISUALSTYLE
  5
2B
102
{ACAD_REACTORS
330
2A
102
}
330
2A
100
AcDbVisualStyle
  2
Flat
 70
     0
177
     2
291
     1
 71
     2
176
     1
 72
     1
176
     1
 73
     1
176
     1
 90
        2
176
     1
 40
-0.6
176
     1
 41
30.0
176
     1
 62
     5
 63
     7
421
 16777215
176
     1
 74
     0
176
     1
 91
        4
176
     1
 64
     7
176
     1
 65
   257
176
     1
 75
     1
176
     1
175
     1
176
     1
 42
1.0
176
     1
 92
        8
176
     1
 66
     7
176
     1
 43
1.0
176
     1
 76
     1
176
     1
 77
     6
176
     1
 78
     2
176
     1
 67
     7
176
     1
 79
     5
176
     1
170
     0
176
     1
171
     0
176
     1
290
     0
176
     1
 93
       13
176
     1
 44
0.0
176
     1
173
     0
176
     1
  0
VISUALSTYLE
  5
2C
102
{ACAD_REACTORS
330
2A
102
}
330
2A
100
AcDbVisualStyle
  2
FlatWithEdges
 70
     1
177
     2
291
     1
 71
     2
176
     1
 72
     1
176
     1
 73
     1
176
     1
 90
        2
176
     1
 40
-0.6
176
     1
 41
30.0
176
     1
 62
     5
 63
     7
421
 16777215
176
     1
 74
     1
176
     1
 91
        4
176
     1
 64
     7
176
     1
 65
   257
176
     1
 75
     1
176
     1
175
     1
176
     1
 42
1.0
176
     1
 92
        0
176
     1
 66
   257
176
     1
 43
1.0
176
     1
 76
     1
176
     1
 77
     6
176
     1
 78
     2
176
     1
 67
     7
176
     1
 79
     5
176
     1
170
     0
176
     1
171
     0
176
     1
290
     0
176
     1
 93
       13
176
     1
 44
0.0
176
     1
173
     0
176
     1
  0
VISUALSTYLE
  5
2D
102
{ACAD_REACTORS
330
2A
102
}
330
2A
100
AcDbVisualStyle
  2
Gouraud
 70
     2
177
     2
291
     1
 71
     2
176
     1
 72
     2
176
     1
 73
     1
176
     1
 90
        2
176
     1
 40
-0.6
176
     1
 41
30.0
176
     1
 62
     5
 63
     7
421
 16777215
176
     1
 74
     0
176
     1
 91
        4
176
     1
 64
     7
176
     1
 65
   257
176
     1
 75
     1
176
     1
175
     1
176
     1
 42
1.0
176
     1
 92
        0
176
     1
 66
     7
176
     1
 43
1.0
176
     1
 76
     1
176
     1
 77
     6
176
     1
 78
     2
176
     1
 67
     7
176
     1
 79
     5
176
     1
170
     0
176
     1
171
     0
176
     1
290
     0
176
     1
 93
       13
176
     1
 44
0.0
176
     1
173
     0
176
     1
  0
VISUALSTYLE
  5
2E
102
{ACAD_REACTORS
330
2A
102
}
330
2A
100
AcDbVisualStyle
  2
GouraudWithEdges
 70
     3
177
     2
291
     1
 71
     2
176
     1
 72
     2
176
     1
 73
     1
176
     1
 90
        2
176
     1
 40
-0.6
176
     1
 41
30.0
176
     1
 62
     5
 63
     7
421
 16777215
176
     1
 74
     1
176
     1
 91
        4
176
     1
 64
     7
176
     1
 65
   257
176
     1
 75
     1
176
     1
175
     1
176
     1
 42
1.0
176
     1
 92
        0
176
     1
 66
   257
176
     1
 43
1.0
176
     1
 76
     1
176
     1
 77
     6
176
     1
 78
     2
176
     1
 67
     7
176
     1
 79
     5
176
     1
170
     0
176
     1
171
     0
176
     1
290
     0
176
     1
 93
       13
176
     1
 44
0.0
176
     1
173
     0
176
     1
  0
VISUALSTYLE
  5
38
102
{ACAD_REACTORS
330
2A
102
}
330
2A
100
AcDbVisualStyle
  2
Linepattern
 70
    14
177
     2
291
     1
 71
     2
176
     1
 72
     2
176
     1
 73
     0
176
     1
 90
        0
176
     1
 40
-0.6
176
     1
 41
-30.0
176
     1
 62
     5
 63
     7
421
 16777215
176
     1
 74
     1
176
     1
 91
        4
176
     1
 64
     7
176
     1
 65
   257
176
     1
 75
     7
176
     1
175
     7
176
     1
 42
1.0
176
     1
 92
        8
176
     1
 66
     7
176
     1
 43
1.0
176
     1
 76
     1
176
     1
 77
     6
176
     1
 78
     2
176
     1
 67
     7
176
     1
 79
     5
176
     1
170
     0
176
     1
171
     0
176
     1
290
     0
176
     1
 93
        1
176
     1
 44
0.0
176
     1
173
     0
176
     1
  0
VISUALSTYLE
  5
33
102
{ACAD_REACTORS
330
2A
102
}
330
2A
100
AcDbVisualStyle
  2
Realistic
 70
     8
177
     2
291
     0
 71
     2
176
     1
 72
     2
176
     1
 73
     0
176
     1
 90
        0
176
     1
 40
-0.6
176
     1
 41
-30.0
176
     1
 62
     5
 63
     7
421
 16777215
176
     1
 74
     1
176
     1
 91
        0
176
     1
 64
     7
176
     1
 65
   257
176
     1
 75
     1
176
     1
175
     1
176
     1
 42
1.0
176
     1
 92
        8
176
     1
 66
     8
424
  7895160
176
     1
 43
1.0
176
     1
 76
     1
176
     1
 77
     6
176
     1
 78
     2
176
     1
 67
     7
176
     1
 79
     5
176
     1
170
     0
176
     1
171
     0
176
     1
290
     0
176
     1
 93
       13
176
     1
 44
0.0
176
     1
173
     0
176
     1
  0
VISUALSTYLE
  5
37
102
{ACAD_REACTORS
330
2A
102
}
330
2A
100
AcDbVisualStyle
  2
Thicken
 70
    13
177
     2
291
     1
 71
     2
176
     1
 72
     2
176
     1
 73
     0
176
     1
 90
        0
176
     1
 40
-0.6
176
     1
 41
-30.0
176
     1
 62
     5
 63
     7
421
 16777215
176
     1
 74
     1
176
     1
 91
        4
176
     1
 64
     7
176
     1
 65
   257
176
     1
 75
     1
176
     1
175
     1
176
     1
 42
1.0
176
     1
 92
       12
176
     1
 66
     7
176
     1
 43
1.0
176
     1
 76
     1
176
     1
 77
     6
176
     1
 78
     2
176
     1
 67
     7
176
     1
 79
     5
176
     1
170
     0
176
     1
171
     0
176
     1
290
     0
176
     1
 93
        1
176
     1
 44
0.0
176
     1
173
     0
176
     1
  0
ENDSEC
  0
EOF
