  0
SECTION
  2
HEADER
  9
$ACADVER
  1
AC1024
  9
$ACADMAINTVER
 70
     6
  9
$DWGCODEPAGE
  3
UNDEFINED
  9
$INSBASE
 10
0.0
 20
0.0
 30
0.0
  9
$EXTMIN
 10
1.000000000000000E+20
 20
1.000000000000000E+20
 30
1.000000000000000E+20
  9
$EXTMAX
 10
-1.000000000000000E+20
 20
-1.000000000000000E+20
 30
-1.000000000000000E+20
  9
$LIMMIN
 10
0.0
 20
0.0
  9
$LIMMAX
 10
12.0
 20
9.0
  9
$ORTHOMODE
 70
     0
  9
$REGENMODE
 70
     1
  9
$FILLMODE
 70
     1
  9
$QTEXTMODE
 70
     0
  9
$MIRRTEXT
 70
     1
  9
$LTSCALE
 40
1.0
  9
$ATTMODE
 70
     1
  9
$TEXTSIZE
 40
0.2
  9
$TRACEWID
 40
0.05
  9
$TEXTSTYLE
  7
Standard
  9
$CLAYER
  8
0
  9
$CELTYPE
  6
ByLayer
  9
$CECOLOR
 62
   256
  9
$CELTSCALE
 40
1.0
  9
$DISPSILH
 70
     0
  9
$DIMSCALE
 40
1.0
  9
$DIMASZ
 40
0.18
  9
$DIMEXO
 40
0.0625
  9
$DIMDLI
 40
0.38
  9
$DIMRND
 40
0.0
  9
$DIMDLE
 40
0.0
  9
$DIMEXE
 40
0.18
  9
$DIMTP
 40
0.0
  9
$DIMTM
 40
0.0
  9
$DIMTXT
 40
0.18
  9
$DIMCEN
 40
0.09
  9
$DIMTSZ
 40
0.0
  9
$DIMTOL
 70
     0
  9
$DIMLIM
 70
     0
  9
$DIMTIH
 70
     1
  9
$DIMTOH
 70
     1
  9
$DIMSE1
 70
     0
  9
$DIMSE2
 70
     0
  9
$DIMTAD
 70
     0
  9
$DIMZIN
 70
     0
  9
$DIMBLK
  1

  9
$DIMASO
 70
     1
  9
$DIMSHO
 70
     1
  9
$DIMPOST
  1

  9
$DIMAPOST
  1

  9
$DIMALT
 70
     0
  9
$DIMALTD
 70
     2
  9
$DIMALTF
 40
25.4
  9
$DIMLFAC
 40
1.0
  9
$DIMTOFL
 70
     0
  9
$DIMTVP
 40
0.0
  9
$DIMTIX
 70
     0
  9
$DIMSOXD
 70
     0
  9
$DIMSAH
 70
     0
  9
$DIMBLK1
  1

  9
$DIMBLK2
  1

  9
$DIMSTYLE
  2
Standard
  9
$DIMCLRD
 70
     0
  9
$DIMCLRE
 70
     0
  9
$DIMCLRT
 70
     0
  9
$DIMTFAC
 40
1.0
  9
$DIMGAP
 40
0.09
  9
$DIMJUST
 70
     0
  9
$DIMSD1
 70
     0
  9
$DIMSD2
 70
     0
  9
$DIMTOLJ
 70
     1
  9
$DIMTZIN
 70
     0
  9
$DIMALTZ
 70
     0
  9
$DIMALTTZ
 70
     0
  9
$DIMUPT
 70
     0
  9
$DIMDEC
 70
     4
  9
$DIMTDEC
 70
     4
  9
$DIMALTU
 70
     2
  9
$DIMALTTD
 70
     2
  9
$DIMTXSTY
  7
Standard
  9
$DIMAUNIT
 70
     0
  9
$DIMADEC
 70
     0
  9
$DIMALTRND
 40
0.0
  9
$DIMAZIN
 70
     0
  9
$DIMDSEP
 70
    46
  9
$DIMATFIT
 70
     3
  9
$DIMFRAC
 70
     0
  9
$DIMLDRBLK
  1

  9
$DIMLUNIT
 70
     2
  9
$DIMLWD
 70
    -2
  9
$DIMLWE
 70
    -2
  9
$DIMTMOVE
 70
     0
  9
$DIMFXL
 40
1.0
  9
$DIMFXLON
 70
     0
  9
$DIMJOGANG
 40
0.7853981633974483
  9
$DIMTFILL
 70
     0
  9
$DIMTFILLCLR
 70
     0
  9
$DIMARCSYM
 70
     0
  9
$DIMLTYPE
  6

  9
$DIMLTEX1
  6

  9
$DIMLTEX2
  6

  9
$DIMTXTDIRECTION
 70
     0
  9
$LUNITS
 70
     2
  9
$LUPREC
 70
     4
  9
$SKETCHINC
 40
0.1
  9
$FILLETRAD
 40
0.5
  9
$AUNITS
 70
     0
  9
$AUPREC
 70
     0
  9
$MENU
  1
.
  9
$ELEVATION
 40
0.0
  9
$PELEVATION
 40
0.0
  9
$THICKNESS
 40
0.0
  9
$LIMCHECK
 70
     0
  9
$CHAMFERA
 40
0.5
  9
$CHAMFERB
 40
0.5
  9
$CHAMFERC
 40
1.0
  9
$CHAMFERD
 40
0.0
  9
$SKPOLY
 70
     0
  9
$TDCREATE
 40
2458263.583032396
  9
$TDUCREATE
 40
2458263.208032407
  9
$TDUPDATE
 40
2458263.583032396
  9
$TDUUPDATE
 40
2458263.208032407
  9
$TDINDWG
 40
0.0000000116
  9
$TDUSRTIMER
 40
0.0000000116
  9
$USRTIMER
 70
     1
  9
$ANGBASE
 50
0.0
  9
$ANGDIR
 70
     0
  9
$PDMODE
 70
     0
  9
$PDSIZE
 40
0.0
  9
$PLINEWID
 40
0.0
  9
$SPLFRAME
 70
     0
  9
$SPLINETYPE
 70
     6
  9
$SPLINESEGS
 70
     8
  9
$HANDSEED
  5
DC
  9
$SURFTAB1
 70
     6
  9
$SURFTAB2
 70
     6
  9
$SURFTYPE
 70
     6
  9
$SURFU
 70
     6
  9
$SURFV
 70
     6
  9
$UCSBASE
  2

  9
$UCSNAME
  2

  9
$UCSORG
 10
0.0
 20
0.0
 30
0.0
  9
$UCSXDIR
 10
1.0
 20
0.0
 30
0.0
  9
$UCSYDIR
 10
0.0
 20
1.0
 30
0.0
  9
$UCSORTHOREF
  2

  9
$UCSORTHOVIEW
 70
     0
  9
$UCSORGTOP
 10
0.0
 20
0.0
 30
0.0
  9
$UCSORGBOTTOM
 10
0.0
 20
0.0
 30
0.0
  9
$UCSORGLEFT
 10
0.0
 20
0.0
 30
0.0
  9
$UCSORGRIGHT
 10
0.0
 20
0.0
 30
0.0
  9
$UCSORGFRONT
 10
0.0
 20
0.0
 30
0.0
  9
$UCSORGBACK
 10
0.0
 20
0.0
 30
0.0
  9
$PUCSBASE
  2

  9
$PUCSNAME
  2

  9
$PUCSORG
 10
0.0
 20
0.0
 30
0.0
  9
$PUCSXDIR
 10
1.0
 20
0.0
 30
0.0
  9
$PUCSYDIR
 10
0.0
 20
1.0
 30
0.0
  9
$PUCSORTHOREF
  2

  9
$PUCSORTHOVIEW
 70
     0
  9
$PUCSORGTOP
 10
0.0
 20
0.0
 30
0.0
  9
$PUCSORGBOTTOM
 10
0.0
 20
0.0
 30
0.0
  9
$PUCSORGLEFT
 10
0.0
 20
0.0
 30
0.0
  9
$PUCSORGRIGHT
 10
0.0
 20
0.0
 30
0.0
  9
$PUCSORGFRONT
 10
0.0
 20
0.0
 30
0.0
  9
$PUCSORGBACK
 10
0.0
 20
0.0
 30
0.0
  9
$USERI1
 70
     0
  9
$USERI2
 70
     0
  9
$USERI3
 70
     0
  9
$USERI4
 70
     0
  9
$USERI5
 70
     0
  9
$USERR1
 40
0.0
  9
$USERR2
 40
0.0
  9
$USERR3
 40
0.0
  9
$USERR4
 40
0.0
  9
$USERR5
 40
0.0
  9
$WORLDVIEW
 70
     1
  9
$SHADEDGE
 70
     3
  9
$SHADEDIF
 70
    70
  9
$TILEMODE
 70
     1
  9
$MAXACTVP
 70
    64
  9
$PINSBASE
 10
0.0
 20
0.0
 30
0.0
  9
$PLIMCHECK
 70
     0
  9
$PEXTMIN
 10
1.000000000000000E+20
 20
1.000000000000000E+20
 30
1.000000000000000E+20
  9
$PEXTMAX
 10
-1.000000000000000E+20
 20
-1.000000000000000E+20
 30
-1.000000000000000E+20
  9
$PLIMMIN
 10
0.0
 20
0.0
  9
$PLIMMAX
 10
12.0
 20
9.0
  9
$UNITMODE
 70
     0
  9
$VISRETAIN
 70
     1
  9
$PLINEGEN
 70
     0
  9
$PSLTSCALE
 70
     1
  9
$TREEDEPTH
 70
  3020
  9
$CMLSTYLE
  2
Standard
  9
$CMLJUST
 70
     0
  9
$CMLSCALE
 40
1.0
  9
$PROXYGRAPHICS
 70
     1
  9
$MEASUREMENT
 70
     0
  9
$CELWEIGHT
370
    -1
  9
$ENDCAPS
280
     0
  9
$JOINSTYLE
280
     0
  9
$LWDISPLAY
290
     1
  9
$INSUNITS
 70
     1
  9
$HYPERLINKBASE
  1

  9
$STYLESHEET
  1

  9
$XEDIT
290
     1
  9
$CEPSNTYPE
380
     0
  9
$PSTYLEMODE
290
     1
  9
$FINGERPRINTGUID
  2
{57191240-2090-F930-31F1-26012909D0B4}
  9
$VERSIONGUID
  2
{FAEB1C32-E019-11D5-929B-00C0DF256EC4}
  9
$EXTNAMES
290
     1
  9
$PSVPSCALE
 40
0.0
  9
$OLESTARTUP
290
     0
  9
$SORTENTS
280
   127
  9
$INDEXCTL
280
     0
  9
$HIDETEXT
280
     1
  9
$XCLIPFRAME
280
     2
  9
$HALOGAP
280
     0
  9
$OBSCOLOR
 70
   257
  9
$OBSLTYPE
280
     0
  9
$INTERSECTIONDISPLAY
280
     0
  9
$INTERSECTIONCOLOR
 70
   257
  9
$DIMASSOC
280
     2
  9
$PROJECTNAME
  1

  9
$CAMERADISPLAY
290
     0
  9
$LENSLENGTH
 40
50.0
  9
$CAMERAHEIGHT
 40
0.0
  9
$STEPSPERSEC
 40
2.0
  9
$STEPSIZE
 40
6.0
  9
$3DDWFPREC
 40
2.0
  9
$PSOLWIDTH
 40
0.25
  9
$PSOLHEIGHT
 40
4.0
  9
$LOFTANG1
 40
1.570796326794897
  9
$LOFTANG2
 40
1.570796326794897
  9
$LOFTMAG1
 40
0.0
  9
$LOFTMAG2
 40
0.0
  9
$LOFTPARAM
 70
     7
  9
$LOFTNORMALS
280
     1
  9
$LATITUDE
 40
37.795
  9
$LONGITUDE
 40
-122.394
  9
$NORTHDIRECTION
 40
0.0
  9
$TIMEZONE
 70
 -8000
  9
$LIGHTGLYPHDISPLAY
280
     1
  9
$TILEMODELIGHTSYNCH
280
     1
  9
$CMATERIAL
347
3C
  9
$SOLIDHIST
280
     1
  9
$SHOWHIST
280
     1
  9
$DWFFRAME
280
     2
  9
$DGNFRAME
280
     2
  9
$REALWORLDSCALE
290
     1
  9
$INTERFERECOLOR
 62
   256
  9
$CSHADOW
280
     0
  9
$SHADOWPLANELOCATION
 40
0.0
  0
ENDSEC
  0
SECTION
  2
CLASSES
  0
CLASS
  1
ACDBDICTIONARYWDFLT
  2
AcDbDictionaryWithDefault
  3
ObjectDBX Classes
 90
        0
 91
        4
280
     0
281
     0
  0
CLASS
  1
VISUALSTYLE
  2
AcDbVisualStyle
  3
ObjectDBX Classes
 90
     4095
 91
        4
280
     0
281
     0
  0
CLASS
  1
MATERIAL
  2
AcDbMaterial
  3
ObjectDBX Classes
 90
     1153
 91
        4
280
     0
281
     0
  0
CLASS
  1
SUN
  2
AcDbSun
  3
SCENEOE
 90
     1024
 91
        4
280
     0
281
     0
  0
ENDSEC
  0
SECTION
  2
TABLES
  0
TABLE
  2
VPORT
  5
8
330
0
100
AcDbSymbolTable
 70
     1
  0
VPORT
  5
29
330
8
100
AcDbSymbolTableRecord
100
AcDbViewportTableRecord
  2
*Active
 70
     0
 10
0.0
 20
0.0
 11
1.0
 21
1.0
 12
0.0
 22
0.0
 13
0.0
 23
0.0
 14
0.5
 24
0.5
 15
0.5
 25
0.5
 16
0.0
 26
0.0
 36
1.0
 17
105.0007777515277
 27
-148.5000416295416
 37
0.0
 40
297.0000832590831
 41
0.7070757462376333
 42
50.0
 43
0.0
 44
0.0
 50
0.0
 51
0.0
 71
     0
 72
   100
 73
     1
 74
     3
 75
     0
 76
     0
 77
     0
 78
     0
281
     0
 65
     1
110
0.0
120
0.0
130
0.0
111
1.0
121
0.0
131
0.0
112
0.0
122
1.0
132
0.0
 79
     0
146
0.0
 60
     3
 61
     5
292
     1
282
     1
141
0.0
142
0.0
 63
   250
361
3F
  0
ENDTAB
  0
TABLE
  2
LTYPE
  5
5
330
0
100
AcDbSymbolTable
 70
     1
  0
LTYPE
  5
14
330
5
100
AcDbSymbolTableRecord
100
AcDbLinetypeTableRecord
  2
ByBlock
 70
     0
  3

 72
    65
 73
     0
 40
0.0
  0
LTYPE
  5
15
330
5
100
AcDbSymbolTableRecord
100
AcDbLinetypeTableRecord
  2
ByLayer
 70
     0
  3

 72
    65
 73
     0
 40
0.0
  0
LTYPE
  5
16
330
5
100
AcDbSymbolTableRecord
100
AcDbLinetypeTableRecord
  2
Continuous
 70
     0
  3
Solid line
 72
    65
 73
     0
 40
0.0
  0
ENDTAB
  0
TABLE
  2
LAYER
  5
2
330
0
100
AcDbSymbolTable
 70
     2
  0
LAYER
  5
10
330
2
100
AcDbSymbolTableRecord
100
AcDbLayerTableRecord
  2
0
 70
     0
 62
     7
  6
Continuous
370
    -3
390
F
347
3E
  0
LAYER
  5
40
330
2
100
AcDbSymbolTableRecord
100
AcDbLayerTableRecord
  2
_U+30EC_U+30A4_U+30E4_U+30FC 1
 70
     0
 62
     7
  6
Continuous
370
    -3
390
F
347
3E
  0
ENDTAB
  0
TABLE
  2
STYLE
  5
3
330
0
100
AcDbSymbolTable
 70
     1
  0
STYLE
  5
11
330
3
100
AcDbSymbolTableRecord
100
AcDbTextStyleTableRecord
  2
Standard
 70
     0
 40
0.0
 41
1.0
 50
0.0
 71
     0
 42
0.2
  3
txt
  4

  0
ENDTAB
  0
TABLE
  2
VIEW
  5
6
330
0
100
AcDbSymbolTable
 70
     0
  0
ENDTAB
  0
TABLE
  2
UCS
  5
7
330
0
100
AcDbSymbolTable
 70
     0
  0
ENDTAB
  0
TABLE
  2
APPID
  5
9
330
0
100
AcDbSymbolTable
 70
     1
  0
APPID
  5
12
330
9
100
AcDbSymbolTableRecord
100
AcDbRegAppTableRecord
  2
ACAD
 70
     0
  0
ENDTAB
  0
TABLE
  2
DIMSTYLE
  5
A
330
0
100
AcDbSymbolTable
 70
     1
100
AcDbDimStyleTable
  0
DIMSTYLE
105
27
330
A
100
AcDbSymbolTableRecord
100
AcDbDimStyleTableRecord
  2
Standard
 70
     0
178
     0
340
11
  0
ENDTAB
  0
TABLE
  2
BLOCK_RECORD
  5
1
330
0
100
AcDbSymbolTable
 70
     6
  0
BLOCK_RECORD
  5
1F
330
1
100
AcDbSymbolTableRecord
100
AcDbBlockTableRecord
  2
*Model_Space
340
22
 70
     0
280
     1
281
     0
  0
BLOCK_RECORD
  5
1B
330
1
100
AcDbSymbolTableRecord
100
AcDbBlockTableRecord
  2
*Paper_Space
340
1E
 70
     0
280
     1
281
     0
  0
BLOCK_RECORD
  5
23
330
1
100
AcDbSymbolTableRecord
100
AcDbBlockTableRecord
  2
*Paper_Space0
340
26
 70
     0
280
     1
281
     0
  0
BLOCK_RECORD
  5
85
330
1
100
AcDbSymbolTableRecord
100
AcDbBlockTableRecord
  2
block 2
340
0
102
{BLKREFS
331
86
102
}
 70
     0
280
     1
281
     0
  0
BLOCK_RECORD
  5
99
330
1
100
AcDbSymbolTableRecord
100
AcDbBlockTableRecord
  2
block 3
340
0
102
{BLKREFS
331
9A
102
}
 70
     0
280
     1
281
     0
  0
BLOCK_RECORD
  5
AD
330
1
100
AcDbSymbolTableRecord
100
AcDbBlockTableRecord
  2
block 4
340
0
102
{BLKREFS
331
AE
102
}
 70
     0
280
     1
281
     0
  0
BLOCK_RECORD
  5
C1
330
1
100
AcDbSymbolTableRecord
100
AcDbBlockTableRecord
  2
block 5
340
0
102
{BLKREFS
331
C2
102
}
 70
     0
280
     1
281
     0
  0
BLOCK_RECORD
  5
D4
330
1
100
AcDbSymbolTableRecord
100
AcDbBlockTableRecord
  2
block 6
340
0
102
{BLKREFS
331
D5
102
}
 70
     0
280
     1
281
     0
  0
ENDTAB
  0
ENDSEC
  0
SECTION
  2
BLOCKS
  0
BLOCK
  5
20
330
1F
100
AcDbEntity
  8
0
100
AcDbBlockBegin
  2
*Model_Space
 70
     0
 10
0.0
 20
0.0
 30
0.0
  3
*Model_Space
  1

  0
ENDBLK
  5
21
330
1F
100
AcDbEntity
  8
0
100
AcDbBlockEnd
  0
BLOCK
  5
1C
330
1B
100
AcDbEntity
 67
     1
  8
0
100
AcDbBlockBegin
  2
*Paper_Space
 70
     0
 10
0.0
 20
0.0
 30
0.0
  3
*Paper_Space
  1

  0
ENDBLK
  5
1D
330
1B
100
AcDbEntity
 67
     1
  8
0
100
AcDbBlockEnd
  0
BLOCK
  5
24
330
23
100
AcDbEntity
  8
0
100
AcDbBlockBegin
  2
*Paper_Space0
 70
     0
 10
0.0
 20
0.0
 30
0.0
  3
*Paper_Space0
  1

  0
ENDBLK
  5
25
330
23
100
AcDbEntity
  8
0
100
AcDbBlockEnd
  0
BLOCK
  5
87
330
85
100
AcDbEntity
  8
0
100
AcDbBlockBegin
  2
block 2
 70
     0
 10
0.0
 20
0.0
 30
0.0
  3
block 2
  1

  0
SPLINE
  5
89
330
85
100
AcDbEntity
  8
_U+30EC_U+30A4_U+30E4_U+30FC 1
370
     0
100
AcDbSpline
210
0.0
220
0.0
230
1.0
 70
    11
 71
     3
 72
    26
 73
    22
 74
     0
 42
0.0000000001
 43
0.0000000001
 12
1.0
 22
0.0
 32
0.0
 13
1.0
 23
0.0
 33
0.0
 40
0.0
 40
0.0
 40
0.0
 40
0.0
 40
1.0
 40
1.0
 40
1.0
 40
2.0
 40
2.0
 40
2.0
 40
3.0
 40
3.0
 40
3.0
 40
4.0
 40
4.0
 40
4.0
 40
5.0
 40
5.0
 40
5.0
 40
6.0
 40
6.0
 40
6.0
 40
7.0
 40
7.0
 40
7.0
 40
7.0
 10
97.50274791399238
 20
-139.7077514299168
 30
0.0
 10
97.50274791399238
 20
-139.7077514299168
 30
0.0
 10
97.50274791399238
 20
-138.6035983268943
 30
0.0
 10
97.50274791399238
 20
-138.6035983268943
 30
0.0
 10
97.50274791399238
 20
-138.6035983268943
 30
0.0
 10
97.14997013630278
 20
-138.6035983268943
 30
0.0
 10
97.14997013630278
 20
-138.6035983268943
 30
0.0
 10
97.14997013630278
 20
-138.6035983268943
 30
0.0
 10
97.14997013630278
 20
-138.4554592210285
 30
0.0
 10
97.14997013630278
 20
-138.4554592210285
 30
0.0
 10
97.50498722605778
 20
-138.4406453104419
 30
0.0
 10
97.55476885581965
 20
-138.2776922939896
 30
0.0
 10
97.58646373428394
 20
-138.1633151238793
 30
0.0
 10
97.58646373428394
 20
-138.1633151238793
 30
0.0
 10
97.7423543049915
 20
-138.1633151238793
 30
0.0
 10
97.7423543049915
 20
-138.1633151238793
 30
0.0
 10
97.7423543049915
 20
-138.1633151238793
 30
0.0
 10
97.7423543049915
 20
-139.7077514299168
 30
0.0
 10
97.7423543049915
 20
-139.7077514299168
 30
0.0
 10
97.7423543049915
 20
-139.7077514299168
 30
0.0
 10
97.50274791399238
 20
-139.7077514299168
 30
0.0
 10
97.50274791399238
 20
-139.7077514299168
 30
0.0
  0
HATCH
  5
8A
330
85
100
AcDbEntity
  8
_U+30EC_U+30A4_U+30E4_U+30FC 1
 62
   179
420
  2234388
100
AcDbHatch
 10
0.0
 20
0.0
 30
0.0
210
0.0
220
0.0
230
1.0
  2
SOLID
 70
     1
 71
     0
 91
        1
 92
        1
 93
        1
 72
     4
 94
        3
 73
     0
 74
     1
 95
       26
 96
       22
 40
0.0
 40
0.0
 40
0.0
 40
0.0
 40
1.0
 40
1.0
 40
1.0
 40
2.0
 40
2.0
 40
2.0
 40
3.0
 40
3.0
 40
3.0
 40
4.0
 40
4.0
 40
4.0
 40
5.0
 40
5.0
 40
5.0
 40
6.0
 40
6.0
 40
6.0
 40
7.0
 40
7.0
 40
7.0
 40
7.0
 10
97.50274791399238
 20
-139.7077514299168
 10
97.50274791399238
 20
-139.7077514299168
 10
97.50274791399238
 20
-138.6035983268943
 10
97.50274791399238
 20
-138.6035983268943
 10
97.50274791399238
 20
-138.6035983268943
 10
97.14997013630278
 20
-138.6035983268943
 10
97.14997013630278
 20
-138.6035983268943
 10
97.14997013630278
 20
-138.6035983268943
 10
97.14997013630278
 20
-138.4554592210285
 10
97.14997013630278
 20
-138.4554592210285
 10
97.50498722605778
 20
-138.4406453104419
 10
97.55476885581965
 20
-138.2776922939896
 10
97.58646373428394
 20
-138.1633151238793
 10
97.58646373428394
 20
-138.1633151238793
 10
97.7423543049915
 20
-138.1633151238793
 10
97.7423543049915
 20
-138.1633151238793
 10
97.7423543049915
 20
-138.1633151238793
 10
97.7423543049915
 20
-139.7077514299168
 10
97.7423543049915
 20
-139.7077514299168
 10
97.7423543049915
 20
-139.7077514299168
 10
97.50274791399238
 20
-139.7077514299168
 10
97.50274791399238
 20
-139.7077514299168
 97
        0
 97
        0
 75
     2
 76
     1
 98
        0
  0
SPLINE
  5
8B
330
85
100
AcDbEntity
  8
_U+30EC_U+30A4_U+30E4_U+30FC 1
370
     0
100
AcDbSpline
210
0.0
220
0.0
230
1.0
 70
    11
 71
     3
 72
    62
 73
    58
 74
     0
 42
0.0000000001
 43
0.0000000001
 12
1.0
 22
0.0
 32
0.0
 13
1.0
 23
0.0
 33
0.0
 40
0.0
 40
0.0
 40
0.0
 40
0.0
 40
1.0
 40
1.0
 40
1.0
 40
2.0
 40
2.0
 40
2.0
 40
3.0
 40
3.0
 40
3.0
 40
4.0
 40
4.0
 40
4.0
 40
5.0
 40
5.0
 40
5.0
 40
6.0
 40
6.0
 40
6.0
 40
7.0
 40
7.0
 40
7.0
 40
8.0
 40
8.0
 40
8.0
 40
9.0
 40
9.0
 40
9.0
 40
10.0
 40
10.0
 40
10.0
 40
11.0
 40
11.0
 40
11.0
 40
12.0
 40
12.0
 40
12.0
 40
13.0
 40
13.0
 40
13.0
 40
14.0
 40
14.0
 40
14.0
 40
15.0
 40
15.0
 40
15.0
 40
16.0
 40
16.0
 40
16.0
 40
17.0
 40
17.0
 40
17.0
 40
18.0
 40
18.0
 40
18.0
 40
19.0
 40
19.0
 40
19.0
 40
19.0
 10
98.80344371444845
 20
-139.75839433355
 30
0.0
 10
98.70181339763357
 20
-139.75839433355
 30
0.0
 10
98.4689249428307
 20
-139.73737925109
 30
0.0
 10
98.33542749277726
 20
-139.5513440948865
 30
0.0
 10
98.25636255139078
 20
-139.4390339820673
 30
0.0
 10
98.25188392725995
 20
-139.3398152320921
 30
0.0
 10
98.24723304835486
 20
-139.255065883155
 30
0.0
 10
98.24723304835486
 20
-139.255065883155
 30
0.0
 10
98.48253306999743
 20
-139.255065883155
 30
0.0
 10
98.48253306999743
 20
-139.255065883155
 30
0.0
 10
98.48477238206284
 20
-139.3291354360879
 30
0.0
 10
98.49596894238991
 20
-139.5637464386334
 30
0.0
 10
98.79896509031762
 20
-139.5637464386334
 30
0.0
 10
98.94589841276353
 20
-139.5637464386334
 30
0.0
 10
99.10867917444159
 20
-139.4941555098313
 30
0.0
 10
99.10867917444159
 20
-139.2657456791593
 30
0.0
 10
99.10867917444159
 20
-139.1493014517578
 30
0.0
 10
99.06802704771563
 20
-139.1007256054158
 30
0.0
 10
99.03409285718593
 20
-139.0690307269515
 30
0.0
 10
98.95502791579945
 20
-138.9949611740186
 30
0.0
 10
98.83065996878192
 20
-138.9822143207232
 30
0.0
 10
98.77192109075841
 20
-138.9822143207232
 30
0.0
 10
98.75142277262118
 20
-138.9822143207232
 30
0.0
 10
98.71300995796064
 20
-138.9842813780143
 30
0.0
 10
98.68372664633601
 20
-138.9884154925967
 30
0.0
 10
98.68372664633601
 20
-138.9884154925967
 30
0.0
 10
98.68372664633601
 20
-138.79376759768
 30
0.0
 10
98.68372664633601
 20
-138.79376759768
 30
0.0
 10
98.72437877306197
 20
-138.800313279102
 30
0.0
 10
98.76950952391874
 20
-138.8023803363932
 30
0.0
 10
98.77639971488924
 20
-138.8023803363932
 30
0.0
 10
98.84650740801408
 20
-138.8023803363932
 30
0.0
 10
99.05889754467972
 20
-138.7810207443846
 30
0.0
 10
99.05889754467972
 20
-138.544342684548
 30
0.0
 10
99.05889754467972
 20
-138.3665757575091
 30
0.0
 10
98.91885441320431
 20
-138.3114542297451
 30
0.0
 10
98.80120440238304
 20
-138.3114542297451
 30
0.0
 10
98.51870657259255
 20
-138.3114542297451
 30
0.0
 10
98.50957706955664
 20
-138.544342684548
 30
0.0
 10
98.50509844542582
 20
-138.6160006706411
 30
0.0
 10
98.50509844542582
 20
-138.6160006706411
 30
0.0
 10
98.28805742985507
 20
-138.6160006706411
 30
0.0
 10
98.28805742985507
 20
-138.6160006706411
 30
0.0
 10
98.29701467811672
 20
-138.4912882140751
 30
0.0
 10
98.3264702445156
 20
-138.1147392775373
 30
0.0
 10
98.81481252954977
 20
-138.1147392775373
 30
0.0
 10
99.0544189205489
 20
-138.1147392775373
 30
0.0
 10
99.31211206284559
 20
-138.241863300943
 30
0.0
 10
99.31211206284559
 20
-138.537797003126
 30
0.0
 10
99.31211206284559
 20
-138.724176668878
 30
0.0
 10
99.21048174603072
 20
-138.8065144509755
 30
0.0
 10
99.10420055031076
 20
-138.8678371506129
 30
0.0
 10
99.16982961930476
 20
-138.8953979144949
 30
0.0
 10
99.36413300467287
 20
-138.9756686393012
 30
0.0
 10
99.36413300467287
 20
-139.2529988258638
 30
0.0
 10
99.36413300467287
 20
-139.5913072025154
 30
0.0
 10
99.09972192617994
 20
-139.75839433355
 30
0.0
 10
98.80344371444845
 20
-139.75839433355
 30
0.0
  0
HATCH
  5
8C
330
85
100
AcDbEntity
  8
_U+30EC_U+30A4_U+30E4_U+30FC 1
 62
   179
420
  2234388
100
AcDbHatch
 10
0.0
 20
0.0
 30
0.0
210
0.0
220
0.0
230
1.0
  2
SOLID
 70
     1
 71
     0
 91
        1
 92
        1
 93
        1
 72
     4
 94
        3
 73
     0
 74
     1
 95
       62
 96
       58
 40
0.0
 40
0.0
 40
0.0
 40
0.0
 40
1.0
 40
1.0
 40
1.0
 40
2.0
 40
2.0
 40
2.0
 40
3.0
 40
3.0
 40
3.0
 40
4.0
 40
4.0
 40
4.0
 40
5.0
 40
5.0
 40
5.0
 40
6.0
 40
6.0
 40
6.0
 40
7.0
 40
7.0
 40
7.0
 40
8.0
 40
8.0
 40
8.0
 40
9.0
 40
9.0
 40
9.0
 40
10.0
 40
10.0
 40
10.0
 40
11.0
 40
11.0
 40
11.0
 40
12.0
 40
12.0
 40
12.0
 40
13.0
 40
13.0
 40
13.0
 40
14.0
 40
14.0
 40
14.0
 40
15.0
 40
15.0
 40
15.0
 40
16.0
 40
16.0
 40
16.0
 40
17.0
 40
17.0
 40
17.0
 40
18.0
 40
18.0
 40
18.0
 40
19.0
 40
19.0
 40
19.0
 40
19.0
 10
98.80344371444845
 20
-139.75839433355
 10
98.70181339763357
 20
-139.75839433355
 10
98.4689249428307
 20
-139.73737925109
 10
98.33542749277726
 20
-139.5513440948865
 10
98.25636255139078
 20
-139.4390339820673
 10
98.25188392725995
 20
-139.3398152320921
 10
98.24723304835486
 20
-139.255065883155
 10
98.24723304835486
 20
-139.255065883155
 10
98.48253306999743
 20
-139.255065883155
 10
98.48253306999743
 20
-139.255065883155
 10
98.48477238206284
 20
-139.3291354360879
 10
98.49596894238991
 20
-139.5637464386334
 10
98.79896509031762
 20
-139.5637464386334
 10
98.94589841276353
 20
-139.5637464386334
 10
99.10867917444159
 20
-139.4941555098313
 10
99.10867917444159
 20
-139.2657456791593
 10
99.10867917444159
 20
-139.1493014517578
 10
99.06802704771563
 20
-139.1007256054158
 10
99.03409285718593
 20
-139.0690307269515
 10
98.95502791579945
 20
-138.9949611740186
 10
98.83065996878192
 20
-138.9822143207232
 10
98.77192109075841
 20
-138.9822143207232
 10
98.75142277262118
 20
-138.9822143207232
 10
98.71300995796064
 20
-138.9842813780143
 10
98.68372664633601
 20
-138.9884154925967
 10
98.68372664633601
 20
-138.9884154925967
 10
98.68372664633601
 20
-138.79376759768
 10
98.68372664633601
 20
-138.79376759768
 10
98.72437877306197
 20
-138.800313279102
 10
98.76950952391874
 20
-138.8023803363932
 10
98.77639971488924
 20
-138.8023803363932
 10
98.84650740801408
 20
-138.8023803363932
 10
99.05889754467972
 20
-138.7810207443846
 10
99.05889754467972
 20
-138.544342684548
 10
99.05889754467972
 20
-138.3665757575091
 10
98.91885441320431
 20
-138.3114542297451
 10
98.80120440238304
 20
-138.3114542297451
 10
98.51870657259255
 20
-138.3114542297451
 10
98.50957706955664
 20
-138.544342684548
 10
98.50509844542582
 20
-138.6160006706411
 10
98.50509844542582
 20
-138.6160006706411
 10
98.28805742985507
 20
-138.6160006706411
 10
98.28805742985507
 20
-138.6160006706411
 10
98.29701467811672
 20
-138.4912882140751
 10
98.3264702445156
 20
-138.1147392775373
 10
98.81481252954977
 20
-138.1147392775373
 10
99.0544189205489
 20
-138.1147392775373
 10
99.31211206284559
 20
-138.241863300943
 10
99.31211206284559
 20
-138.537797003126
 10
99.31211206284559
 20
-138.724176668878
 10
99.21048174603072
 20
-138.8065144509755
 10
99.10420055031076
 20
-138.8678371506129
 10
99.16982961930476
 20
-138.8953979144949
 10
99.36413300467287
 20
-138.9756686393012
 10
99.36413300467287
 20
-139.2529988258638
 10
99.36413300467287
 20
-139.5913072025154
 10
99.09972192617994
 20
-139.75839433355
 10
98.80344371444845
 20
-139.75839433355
 97
        0
 97
        0
 75
     2
 76
     1
 98
        0
  0
ENDBLK
  5
88
330
85
100
AcDbEntity
  8
0
100
AcDbBlockEnd
  0
BLOCK
  5
9B
330
99
100
AcDbEntity
  8
0
100
AcDbBlockBegin
  2
block 3
 70
     0
 10
0.0
 20
0.0
 30
0.0
  3
block 3
  1

  0
SPLINE
  5
9D
330
99
100
AcDbEntity
  8
_U+30EC_U+30A4_U+30E4_U+30FC 1
370
     0
100
AcDbSpline
210
0.0
220
0.0
230
1.0
 70
    11
 71
     3
 72
    44
 73
    40
 74
     0
 42
0.0000000001
 43
0.0000000001
 12
1.0
 22
0.0
 32
0.0
 13
1.0
 23
0.0
 33
0.0
 40
0.0
 40
0.0
 40
0.0
 40
0.0
 40
1.0
 40
1.0
 40
1.0
 40
2.0
 40
2.0
 40
2.0
 40
3.0
 40
3.0
 40
3.0
 40
4.0
 40
4.0
 40
4.0
 40
5.0
 40
5.0
 40
5.0
 40
6.0
 40
6.0
 40
6.0
 40
7.0
 40
7.0
 40
7.0
 40
8.0
 40
8.0
 40
8.0
 40
9.0
 40
9.0
 40
9.0
 40
10.0
 40
10.0
 40
10.0
 40
11.0
 40
11.0
 40
11.0
 40
12.0
 40
12.0
 40
12.0
 40
13.0
 40
13.0
 40
13.0
 40
13.0
 10
102.1541435834024
 20
-157.6258653034755
 30
0.0
 10
101.9212551285996
 20
-157.7846842053455
 30
0.0
 10
101.8218641238501
 20
-157.8587537582784
 30
0.0
 10
101.7698431820228
 20
-158.0024142400133
 30
0.0
 10
101.7698431820228
 20
-158.0024142400133
 30
0.0
 10
102.6018337417107
 20
-158.0024142400133
 30
0.0
 10
102.6018337417107
 20
-158.0024142400133
 30
0.0
 10
102.6018337417107
 20
-158.0024142400133
 30
0.0
 10
102.6018337417107
 20
-158.2077419309342
 30
0.0
 10
102.6018337417107
 20
-158.2077419309342
 30
0.0
 10
102.6018337417107
 20
-158.2077419309342
 30
0.0
 10
101.5030205366902
 20
-158.2077419309342
 30
0.0
 10
101.5030205366902
 20
-158.2077419309342
 30
0.0
 10
101.5369547272199
 20
-157.8501410195653
 30
0.0
 10
101.6070624203448
 20
-157.7719373520501
 30
0.0
 10
102.0185790760579
 20
-157.4735920830275
 30
0.0
 10
102.2921196575867
 20
-157.2748100735285
 30
0.0
 10
102.3622273507115
 20
-157.2069416924691
 30
0.0
 10
102.3622273507115
 20
-157.0694823826076
 30
0.0
 10
102.3622273507115
 20
-156.950971097915
 30
0.0
 10
102.2852294666162
 20
-156.8200574694756
 30
0.0
 10
102.075078642016
 20
-156.8200574694756
 30
0.0
 10
101.7970594363563
 20
-156.8200574694756
 30
0.0
 10
101.7879299333204
 20
-157.0505343574387
 30
0.0
 10
101.7834513091896
 20
-157.1669785848402
 30
0.0
 10
101.7834513091896
 20
-157.1669785848402
 30
0.0
 10
101.5438449181904
 20
-157.1669785848402
 30
0.0
 10
101.5438449181904
 20
-157.1669785848402
 30
0.0
 10
101.5528021664521
 20
-157.0398545614345
 30
0.0
 10
101.5641709815534
 20
-156.9278889581639
 30
0.0
 10
101.6499538591361
 20
-156.8093776734713
 30
0.0
 10
101.7676038699574
 20
-156.6484917143101
 30
0.0
 10
101.9665581342306
 20
-156.6147297785546
 30
0.0
 10
102.0909260812481
 20
-156.6147297785546
 30
0.0
 10
102.3870320382053
 20
-156.6147297785546
 30
0.0
 10
102.6085516779069
 20
-156.798697877467
 30
0.0
 10
102.6085516779069
 20
-157.0715494398988
 30
0.0
 10
102.6085516779069
 20
-157.3003037801194
 30
0.0
 10
102.4843559856636
 20
-157.3995225300946
 30
0.0
 10
102.1541435834024
 20
-157.6258653034755
 30
0.0
  0
HATCH
  5
9E
330
99
100
AcDbEntity
  8
_U+30EC_U+30A4_U+30E4_U+30FC 1
 62
   179
420
  2234388
100
AcDbHatch
 10
0.0
 20
0.0
 30
0.0
210
0.0
220
0.0
230
1.0
  2
SOLID
 70
     1
 71
     0
 91
        1
 92
        1
 93
        1
 72
     4
 94
        3
 73
     0
 74
     1
 95
       44
 96
       40
 40
0.0
 40
0.0
 40
0.0
 40
0.0
 40
1.0
 40
1.0
 40
1.0
 40
2.0
 40
2.0
 40
2.0
 40
3.0
 40
3.0
 40
3.0
 40
4.0
 40
4.0
 40
4.0
 40
5.0
 40
5.0
 40
5.0
 40
6.0
 40
6.0
 40
6.0
 40
7.0
 40
7.0
 40
7.0
 40
8.0
 40
8.0
 40
8.0
 40
9.0
 40
9.0
 40
9.0
 40
10.0
 40
10.0
 40
10.0
 40
11.0
 40
11.0
 40
11.0
 40
12.0
 40
12.0
 40
12.0
 40
13.0
 40
13.0
 40
13.0
 40
13.0
 10
102.1541435834024
 20
-157.6258653034755
 10
101.9212551285996
 20
-157.7846842053455
 10
101.8218641238501
 20
-157.8587537582784
 10
101.7698431820228
 20
-158.0024142400133
 10
101.7698431820228
 20
-158.0024142400133
 10
102.6018337417107
 20
-158.0024142400133
 10
102.6018337417107
 20
-158.0024142400133
 10
102.6018337417107
 20
-158.0024142400133
 10
102.6018337417107
 20
-158.2077419309342
 10
102.6018337417107
 20
-158.2077419309342
 10
102.6018337417107
 20
-158.2077419309342
 10
101.5030205366902
 20
-158.2077419309342
 10
101.5030205366902
 20
-158.2077419309342
 10
101.5369547272199
 20
-157.8501410195653
 10
101.6070624203448
 20
-157.7719373520501
 10
102.0185790760579
 20
-157.4735920830275
 10
102.2921196575867
 20
-157.2748100735285
 10
102.3622273507115
 20
-157.2069416924691
 10
102.3622273507115
 20
-157.0694823826076
 10
102.3622273507115
 20
-156.950971097915
 10
102.2852294666162
 20
-156.8200574694756
 10
102.075078642016
 20
-156.8200574694756
 10
101.7970594363563
 20
-156.8200574694756
 10
101.7879299333204
 20
-157.0505343574387
 10
101.7834513091896
 20
-157.1669785848402
 10
101.7834513091896
 20
-157.1669785848402
 10
101.5438449181904
 20
-157.1669785848402
 10
101.5438449181904
 20
-157.1669785848402
 10
101.5528021664521
 20
-157.0398545614345
 10
101.5641709815534
 20
-156.9278889581639
 10
101.6499538591361
 20
-156.8093776734713
 10
101.7676038699574
 20
-156.6484917143101
 10
101.9665581342306
 20
-156.6147297785546
 10
102.0909260812481
 20
-156.6147297785546
 10
102.3870320382053
 20
-156.6147297785546
 10
102.6085516779069
 20
-156.798697877467
 10
102.6085516779069
 20
-157.0715494398988
 10
102.6085516779069
 20
-157.3003037801194
 10
102.4843559856636
 20
-157.3995225300946
 10
102.1541435834024
 20
-157.6258653034755
 97
        0
 97
        0
 75
     2
 76
     1
 98
        0
  0
SPLINE
  5
9F
330
99
100
AcDbEntity
  8
_U+30EC_U+30A4_U+30E4_U+30FC 1
370
     0
100
AcDbSpline
210
0.0
220
0.0
230
1.0
 70
    11
 71
     3
 72
    44
 73
    40
 74
     0
 42
0.0000000001
 43
0.0000000001
 12
1.0
 22
0.0
 32
0.0
 13
1.0
 23
0.0
 33
0.0
 40
0.0
 40
0.0
 40
0.0
 40
0.0
 40
1.0
 40
1.0
 40
1.0
 40
2.0
 40
2.0
 40
2.0
 40
3.0
 40
3.0
 40
3.0
 40
4.0
 40
4.0
 40
4.0
 40
5.0
 40
5.0
 40
5.0
 40
6.0
 40
6.0
 40
6.0
 40
7.0
 40
7.0
 40
7.0
 40
8.0
 40
8.0
 40
8.0
 40
9.0
 40
9.0
 40
9.0
 40
10.0
 40
10.0
 40
10.0
 40
11.0
 40
11.0
 40
11.0
 40
12.0
 40
12.0
 40
12.0
 40
13.0
 40
13.0
 40
13.0
 40
13.0
 10
103.4119479450672
 20
-157.6258653034755
 30
0.0
 10
103.1790594902643
 20
-157.7846842053455
 30
0.0
 10
103.0796684855148
 20
-157.8587537582784
 30
0.0
 10
103.0276475436875
 20
-158.0024142400133
 30
0.0
 10
103.0276475436875
 20
-158.0024142400133
 30
0.0
 10
103.8596381033754
 20
-158.0024142400133
 30
0.0
 10
103.8596381033754
 20
-158.0024142400133
 30
0.0
 10
103.8596381033754
 20
-158.0024142400133
 30
0.0
 10
103.8596381033754
 20
-158.2077419309342
 30
0.0
 10
103.8596381033754
 20
-158.2077419309342
 30
0.0
 10
103.8596381033754
 20
-158.2077419309342
 30
0.0
 10
102.7608248983549
 20
-158.2077419309342
 30
0.0
 10
102.7608248983549
 20
-158.2077419309342
 30
0.0
 10
102.7947590888846
 20
-157.8501410195653
 30
0.0
 10
102.8648667820095
 20
-157.7719373520501
 30
0.0
 10
103.2763834377226
 20
-157.4735920830275
 30
0.0
 10
103.5499240192514
 20
-157.2748100735285
 30
0.0
 10
103.6200317123762
 20
-157.2069416924691
 30
0.0
 10
103.6200317123762
 20
-157.0694823826076
 30
0.0
 10
103.6200317123762
 20
-156.950971097915
 30
0.0
 10
103.5430338282809
 20
-156.8200574694756
 30
0.0
 10
103.3328830036807
 20
-156.8200574694756
 30
0.0
 10
103.054863798021
 20
-156.8200574694756
 30
0.0
 10
103.0457342949851
 20
-157.0505343574387
 30
0.0
 10
103.0412556708543
 20
-157.1669785848402
 30
0.0
 10
103.0412556708543
 20
-157.1669785848402
 30
0.0
 10
102.8016492798551
 20
-157.1669785848402
 30
0.0
 10
102.8016492798551
 20
-157.1669785848402
 30
0.0
 10
102.8106065281168
 20
-157.0398545614345
 30
0.0
 10
102.8219753432181
 20
-156.9278889581639
 30
0.0
 10
102.9077582208008
 20
-156.8093776734713
 30
0.0
 10
103.0254082316221
 20
-156.6484917143101
 30
0.0
 10
103.2243624958953
 20
-156.6147297785546
 30
0.0
 10
103.3487304429128
 20
-156.6147297785546
 30
0.0
 10
103.64483639987
 20
-156.6147297785546
 30
0.0
 10
103.8663560395716
 20
-156.798697877467
 30
0.0
 10
103.8663560395716
 20
-157.0715494398988
 30
0.0
 10
103.8663560395716
 20
-157.3003037801194
 30
0.0
 10
103.7421603473284
 20
-157.3995225300946
 30
0.0
 10
103.4119479450672
 20
-157.6258653034755
 30
0.0
  0
HATCH
  5
A0
330
99
100
AcDbEntity
  8
_U+30EC_U+30A4_U+30E4_U+30FC 1
 62
   179
420
  2234388
100
AcDbHatch
 10
0.0
 20
0.0
 30
0.0
210
0.0
220
0.0
230
1.0
  2
SOLID
 70
     1
 71
     0
 91
        1
 92
        1
 93
        1
 72
     4
 94
        3
 73
     0
 74
     1
 95
       44
 96
       40
 40
0.0
 40
0.0
 40
0.0
 40
0.0
 40
1.0
 40
1.0
 40
1.0
 40
2.0
 40
2.0
 40
2.0
 40
3.0
 40
3.0
 40
3.0
 40
4.0
 40
4.0
 40
4.0
 40
5.0
 40
5.0
 40
5.0
 40
6.0
 40
6.0
 40
6.0
 40
7.0
 40
7.0
 40
7.0
 40
8.0
 40
8.0
 40
8.0
 40
9.0
 40
9.0
 40
9.0
 40
10.0
 40
10.0
 40
10.0
 40
11.0
 40
11.0
 40
11.0
 40
12.0
 40
12.0
 40
12.0
 40
13.0
 40
13.0
 40
13.0
 40
13.0
 10
103.4119479450672
 20
-157.6258653034755
 10
103.1790594902643
 20
-157.7846842053455
 10
103.0796684855148
 20
-157.8587537582784
 10
103.0276475436875
 20
-158.0024142400133
 10
103.0276475436875
 20
-158.0024142400133
 10
103.8596381033754
 20
-158.0024142400133
 10
103.8596381033754
 20
-158.0024142400133
 10
103.8596381033754
 20
-158.0024142400133
 10
103.8596381033754
 20
-158.2077419309342
 10
103.8596381033754
 20
-158.2077419309342
 10
103.8596381033754
 20
-158.2077419309342
 10
102.7608248983549
 20
-158.2077419309342
 10
102.7608248983549
 20
-158.2077419309342
 10
102.7947590888846
 20
-157.8501410195653
 10
102.8648667820095
 20
-157.7719373520501
 10
103.2763834377226
 20
-157.4735920830275
 10
103.5499240192514
 20
-157.2748100735285
 10
103.6200317123762
 20
-157.2069416924691
 10
103.6200317123762
 20
-157.0694823826076
 10
103.6200317123762
 20
-156.950971097915
 10
103.5430338282809
 20
-156.8200574694756
 10
103.3328830036807
 20
-156.8200574694756
 10
103.054863798021
 20
-156.8200574694756
 10
103.0457342949851
 20
-157.0505343574387
 10
103.0412556708543
 20
-157.1669785848402
 10
103.0412556708543
 20
-157.1669785848402
 10
102.8016492798551
 20
-157.1669785848402
 10
102.8016492798551
 20
-157.1669785848402
 10
102.8106065281168
 20
-157.0398545614345
 10
102.8219753432181
 20
-156.9278889581639
 10
102.9077582208008
 20
-156.8093776734713
 10
103.0254082316221
 20
-156.6484917143101
 10
103.2243624958953
 20
-156.6147297785546
 10
103.3487304429128
 20
-156.6147297785546
 10
103.64483639987
 20
-156.6147297785546
 10
103.8663560395716
 20
-156.798697877467
 10
103.8663560395716
 20
-157.0715494398988
 10
103.8663560395716
 20
-157.3003037801194
 10
103.7421603473284
 20
-157.3995225300946
 10
103.4119479450672
 20
-157.6258653034755
 97
        0
 97
        0
 75
     2
 76
     1
 98
        0
  0
ENDBLK
  5
9C
330
99
100
AcDbEntity
  8
0
100
AcDbBlockEnd
  0
BLOCK
  5
AF
330
AD
100
AcDbEntity
  8
0
100
AcDbBlockBegin
  2
block 4
 70
     0
 10
0.0
 20
0.0
 30
0.0
  3
block 4
  1

  0
SPLINE
  5
B1
330
AD
100
AcDbEntity
  8
_U+30EC_U+30A4_U+30E4_U+30FC 1
370
     0
100
AcDbSpline
210
0.0
220
0.0
230
1.0
 70
    11
 71
     3
 72
    29
 73
    25
 74
     0
 42
0.0000000001
 43
0.0000000001
 12
1.0
 22
0.0
 32
0.0
 13
1.0
 23
0.0
 33
0.0
 40
0.0
 40
0.0
 40
0.0
 40
0.0
 40
1.0
 40
1.0
 40
1.0
 40
2.0
 40
2.0
 40
2.0
 40
3.0
 40
3.0
 40
3.0
 40
4.0
 40
4.0
 40
4.0
 40
5.0
 40
5.0
 40
5.0
 40
6.0
 40
6.0
 40
6.0
 40
7.0
 40
7.0
 40
7.0
 40
8.0
 40
8.0
 40
8.0
 40
8.0
 10
116.5992566982807
 20
-150.1779133739139
 30
0.0
 10
116.5992566982807
 20
-150.4631672800925
 30
0.0
 10
116.4617973884193
 20
-150.7342962947817
 30
0.0
 10
116.1128092157635
 20
-150.7342962947817
 30
0.0
 10
115.8568386212094
 20
-150.7342962947817
 30
0.0
 10
115.7617539858165
 20
-150.5830566029792
 30
0.0
 10
115.7004312861791
 20
-150.4697129615145
 30
0.0
 10
115.6411756438328
 20
-150.6030381567937
 30
0.0
 10
115.5267984737225
 20
-150.6843424102456
 30
0.0
 10
115.3659125145613
 20
-150.6843424102456
 30
0.0
 10
115.0909938948384
 20
-150.6843424102456
 30
0.0
 10
114.955601642268
 20
-150.4721245283542
 30
0.0
 10
114.955601642268
 20
-150.1779133739139
 30
0.0
 10
114.955601642268
 20
-149.8750894807604
 30
0.0
 10
115.0996066335515
 20
-149.6714843375821
 30
0.0
 10
115.3659125145613
 20
-149.6714843375821
 30
0.0
 10
115.5267984737225
 20
-149.6714843375821
 30
0.0
 10
115.6411756438328
 20
-149.7555446674222
 30
0.0
 10
115.7004312861791
 20
-149.8885253531529
 30
0.0
 10
115.7510741898122
 20
-149.7937852273085
 30
0.0
 10
115.8461588252051
 20
-149.6242865294342
 30
0.0
 10
116.1086751011812
 20
-149.6242865294342
 30
0.0
 10
116.4831569804278
 20
-149.6242865294342
 30
0.0
 10
116.5992566982807
 20
-149.9226317984568
 30
0.0
 10
116.5992566982807
 20
-150.1779133739139
 30
0.0
  0
SPLINE
  5
B2
330
AD
100
AcDbEntity
  8
_U+30EC_U+30A4_U+30E4_U+30FC 1
370
     0
100
AcDbSpline
210
0.0
220
0.0
230
1.0
 70
    11
 71
     3
 72
    17
 73
    13
 74
     0
 42
0.0000000001
 43
0.0000000001
 12
1.0
 22
0.0
 32
0.0
 13
1.0
 23
0.0
 33
0.0
 40
0.0
 40
0.0
 40
0.0
 40
0.0
 40
1.0
 40
1.0
 40
1.0
 40
2.0
 40
2.0
 40
2.0
 40
3.0
 40
3.0
 40
3.0
 40
4.0
 40
4.0
 40
4.0
 40
4.0
 10
115.1481824798935
 20
-150.1779133739139
 30
0.0
 10
115.1481824798935
 20
-150.3543022627587
 30
0.0
 10
115.2432671152864
 20
-150.4449082740207
 30
0.0
 10
115.3786593678567
 20
-150.4449082740207
 30
0.0
 10
115.5013047671316
 20
-150.4449082740207
 30
0.0
 10
115.6198160518242
 20
-150.3680826446997
 30
0.0
 10
115.6198160518242
 20
-150.1779133739139
 30
0.0
 10
115.6198160518242
 20
-149.9884331222251
 30
0.0
 10
115.5013047671316
 20
-149.9112629833555
 30
0.0
 10
115.3786593678567
 20
-149.9112629833555
 30
0.0
 10
115.2432671152864
 20
-149.9112629833555
 30
0.0
 10
115.1481824798935
 20
-150.0042805614573
 30
0.0
 10
115.1481824798935
 20
-150.1779133739139
 30
0.0
  0
SPLINE
  5
B3
330
AD
100
AcDbEntity
  8
_U+30EC_U+30A4_U+30E4_U+30FC 1
370
     0
100
AcDbSpline
210
0.0
220
0.0
230
1.0
 70
    11
 71
     3
 72
    17
 73
    13
 74
     0
 42
0.0000000001
 43
0.0000000001
 12
1.0
 22
0.0
 32
0.0
 13
1.0
 23
0.0
 33
0.0
 40
0.0
 40
0.0
 40
0.0
 40
0.0
 40
1.0
 40
1.0
 40
1.0
 40
2.0
 40
2.0
 40
2.0
 40
3.0
 40
3.0
 40
3.0
 40
4.0
 40
4.0
 40
4.0
 40
4.0
 10
115.8082627748674
 20
-150.1779133739139
 30
0.0
 10
115.8082627748674
 20
-150.3319091421045
 30
0.0
 10
115.8950791810957
 20
-150.4948621585569
 30
0.0
 10
116.0979953051769
 20
-150.4948621585569
 30
0.0
 10
116.3033229960978
 20
-150.4948621585569
 30
0.0
 10
116.4046088033641
 20
-150.359125396438
 30
0.0
 10
116.4046088033641
 20
-150.1779133739139
 30
0.0
 10
116.4046088033641
 20
-149.9791313644149
 30
0.0
 10
116.2819634040892
 20
-149.8616536083679
 30
0.0
 10
116.1041964770504
 20
-149.8616536083679
 30
0.0
 10
115.8823323278003
 20
-149.8616536083679
 30
0.0
 10
115.8082627748674
 20
-150.035630930373
 30
0.0
 10
115.8082627748674
 20
-150.1779133739139
 30
0.0
  0
HATCH
  5
B4
330
AD
100
AcDbEntity
  8
_U+30EC_U+30A4_U+30E4_U+30FC 1
 62
   179
420
  2234388
100
AcDbHatch
 10
0.0
 20
0.0
 30
0.0
210
0.0
220
0.0
230
1.0
  2
SOLID
 70
     1
 71
     0
 91
        3
 92
        1
 93
        1
 72
     4
 94
        3
 73
     0
 74
     1
 95
       29
 96
       25
 40
0.0
 40
0.0
 40
0.0
 40
0.0
 40
1.0
 40
1.0
 40
1.0
 40
2.0
 40
2.0
 40
2.0
 40
3.0
 40
3.0
 40
3.0
 40
4.0
 40
4.0
 40
4.0
 40
5.0
 40
5.0
 40
5.0
 40
6.0
 40
6.0
 40
6.0
 40
7.0
 40
7.0
 40
7.0
 40
8.0
 40
8.0
 40
8.0
 40
8.0
 10
116.5992566982807
 20
-150.1779133739139
 10
116.5992566982807
 20
-150.4631672800925
 10
116.4617973884193
 20
-150.7342962947817
 10
116.1128092157635
 20
-150.7342962947817
 10
115.8568386212094
 20
-150.7342962947817
 10
115.7617539858165
 20
-150.5830566029792
 10
115.7004312861791
 20
-150.4697129615145
 10
115.6411756438328
 20
-150.6030381567937
 10
115.5267984737225
 20
-150.6843424102456
 10
115.3659125145613
 20
-150.6843424102456
 10
115.0909938948384
 20
-150.6843424102456
 10
114.955601642268
 20
-150.4721245283542
 10
114.955601642268
 20
-150.1779133739139
 10
114.955601642268
 20
-149.8750894807604
 10
115.0996066335515
 20
-149.6714843375821
 10
115.3659125145613
 20
-149.6714843375821
 10
115.5267984737225
 20
-149.6714843375821
 10
115.6411756438328
 20
-149.7555446674222
 10
115.7004312861791
 20
-149.8885253531529
 10
115.7510741898122
 20
-149.7937852273085
 10
115.8461588252051
 20
-149.6242865294342
 10
116.1086751011812
 20
-149.6242865294342
 10
116.4831569804278
 20
-149.6242865294342
 10
116.5992566982807
 20
-149.9226317984568
 10
116.5992566982807
 20
-150.1779133739139
 97
        0
 97
        0
 92
        1
 93
        1
 72
     4
 94
        3
 73
     0
 74
     1
 95
       17
 96
       13
 40
0.0
 40
0.0
 40
0.0
 40
0.0
 40
1.0
 40
1.0
 40
1.0
 40
2.0
 40
2.0
 40
2.0
 40
3.0
 40
3.0
 40
3.0
 40
4.0
 40
4.0
 40
4.0
 40
4.0
 10
115.1481824798935
 20
-150.1779133739139
 10
115.1481824798935
 20
-150.3543022627587
 10
115.2432671152864
 20
-150.4449082740207
 10
115.3786593678567
 20
-150.4449082740207
 10
115.5013047671316
 20
-150.4449082740207
 10
115.6198160518242
 20
-150.3680826446997
 10
115.6198160518242
 20
-150.1779133739139
 10
115.6198160518242
 20
-149.9884331222251
 10
115.5013047671316
 20
-149.9112629833555
 10
115.3786593678567
 20
-149.9112629833555
 10
115.2432671152864
 20
-149.9112629833555
 10
115.1481824798935
 20
-150.0042805614573
 10
115.1481824798935
 20
-150.1779133739139
 97
        0
 97
        0
 92
        1
 93
        1
 72
     4
 94
        3
 73
     0
 74
     1
 95
       17
 96
       13
 40
0.0
 40
0.0
 40
0.0
 40
0.0
 40
1.0
 40
1.0
 40
1.0
 40
2.0
 40
2.0
 40
2.0
 40
3.0
 40
3.0
 40
3.0
 40
4.0
 40
4.0
 40
4.0
 40
4.0
 10
115.8082627748674
 20
-150.1779133739139
 10
115.8082627748674
 20
-150.3319091421045
 10
115.8950791810957
 20
-150.4948621585569
 10
116.0979953051769
 20
-150.4948621585569
 10
116.3033229960978
 20
-150.4948621585569
 10
116.4046088033641
 20
-150.359125396438
 10
116.4046088033641
 20
-150.1779133739139
 10
116.4046088033641
 20
-149.9791313644149
 10
116.2819634040892
 20
-149.8616536083679
 10
116.1041964770504
 20
-149.8616536083679
 10
115.8823323278003
 20
-149.8616536083679
 10
115.8082627748674
 20
-150.035630930373
 10
115.8082627748674
 20
-150.1779133739139
 97
        0
 97
        0
 75
     2
 76
     1
 98
        0
  0
POLYLINE
  5
B5
330
AD
100
AcDbEntity
  8
_U+30EC_U+30A4_U+30E4_U+30FC 1
370
     0
100
AcDb2dPolyline
 66
     1
 10
0.0
 20
0.0
 30
0.0
  0
VERTEX
  5
B6
330
B5
100
AcDbEntity
  8
_U+30EC_U+30A4_U+30E4_U+30FC 1
370
     0
100
AcDbVertex
100
AcDb2dVertex
 10
116.5486137946476
 20
-149.3903645459858
 30
0.0
  0
VERTEX
  5
B7
330
B5
100
AcDbEntity
  8
_U+30EC_U+30A4_U+30E4_U+30FC 1
370
     0
100
AcDbVertex
100
AcDb2dVertex
 10
116.2967773146758
 20
-149.3903645459858
 30
0.0
  0
VERTEX
  5
B8
330
B5
100
AcDbEntity
  8
_U+30EC_U+30A4_U+30E4_U+30FC 1
370
     0
100
AcDbVertex
100
AcDb2dVertex
 10
116.2967773146758
 20
-149.1216470981363
 30
0.0
  0
VERTEX
  5
B9
330
B5
100
AcDbEntity
  8
_U+30EC_U+30A4_U+30E4_U+30FC 1
370
     0
100
AcDbVertex
100
AcDb2dVertex
 10
116.5486137946476
 20
-149.1216470981363
 30
0.0
  0
VERTEX
  5
BA
330
B5
100
AcDbEntity
  8
_U+30EC_U+30A4_U+30E4_U+30FC 1
370
     0
100
AcDbVertex
100
AcDb2dVertex
 10
116.5486137946476
 20
-149.3903645459858
 30
0.0
  0
SEQEND
  5
BB
330
B5
100
AcDbEntity
  8
_U+30EC_U+30A4_U+30E4_U+30FC 1
370
     0
  0
HATCH
  5
BC
330
AD
100
AcDbEntity
  8
_U+30EC_U+30A4_U+30E4_U+30FC 1
 62
   179
420
  2234388
100
AcDbHatch
 10
0.0
 20
0.0
 30
0.0
210
0.0
220
0.0
230
1.0
  2
SOLID
 70
     1
 71
     0
 91
        1
 92
        1
 93
        4
 72
     1
 10
116.5486137946476
 20
-149.3903645459858
 11
116.2967773146758
 21
-149.3903645459858
 72
     1
 10
116.2967773146758
 20
-149.3903645459858
 11
116.2967773146758
 21
-149.1216470981363
 72
     1
 10
116.2967773146758
 20
-149.1216470981363
 11
116.5486137946476
 21
-149.1216470981363
 72
     1
 10
116.5486137946476
 20
-149.1216470981363
 11
116.5486137946476
 21
-149.3903645459858
 97
        0
 75
     2
 76
     1
 98
        0
  0
SPLINE
  5
BD
330
AD
100
AcDbEntity
  8
_U+30EC_U+30A4_U+30E4_U+30FC 1
370
     0
100
AcDbSpline
210
0.0
220
0.0
230
1.0
 70
    11
 71
     3
 72
    53
 73
    49
 74
     0
 42
0.0000000001
 43
0.0000000001
 12
1.0
 22
0.0
 32
0.0
 13
1.0
 23
0.0
 33
0.0
 40
0.0
 40
0.0
 40
0.0
 40
0.0
 40
1.0
 40
1.0
 40
1.0
 40
2.0
 40
2.0
 40
2.0
 40
3.0
 40
3.0
 40
3.0
 40
4.0
 40
4.0
 40
4.0
 40
5.0
 40
5.0
 40
5.0
 40
6.0
 40
6.0
 40
6.0
 40
7.0
 40
7.0
 40
7.0
 40
8.0
 40
8.0
 40
8.0
 40
9.0
 40
9.0
 40
9.0
 40
10.0
 40
10.0
 40
10.0
 40
11.0
 40
11.0
 40
11.0
 40
12.0
 40
12.0
 40
12.0
 40
13.0
 40
13.0
 40
13.0
 40
14.0
 40
14.0
 40
14.0
 40
15.0
 40
15.0
 40
15.0
 40
16.0
 40
16.0
 40
16.0
 40
16.0
 10
116.5992566982807
 20
-148.3547688431196
 30
0.0
 10
116.5992566982807
 20
-148.4384846634112
 30
0.0
 10
116.582375730403
 20
-148.5470051711966
 30
0.0
 10
116.5189859734744
 20
-148.6555256789819
 30
0.0
 10
116.409087427495
 20
-148.8408718160884
 30
0.0
 10
116.2778292895069
 20
-148.863609446291
 30
0.0
 10
116.1699978008186
 20
-148.883935509654
 30
0.0
 10
116.1699978008186
 20
-148.883935509654
 30
0.0
 10
116.1699978008186
 20
-148.6465684307203
 30
0.0
 10
116.1699978008186
 20
-148.6465684307203
 30
0.0
 10
116.3687798103175
 20
-148.5876572979225
 30
0.0
 10
116.3984076314907
 20
-148.452092790578
 30
0.0
 10
116.3984076314907
 20
-148.3525295310542
 30
0.0
 10
116.3984076314907
 20
-148.2033568965429
 30
0.0
 10
116.298844371967
 20
-148.0405761348649
 30
0.0
 10
116.0663004267126
 20
-148.0405761348649
 30
0.0
 10
115.8103298321585
 20
-148.0405761348649
 30
0.0
 10
115.740394393808
 20
-148.2328124629418
 30
0.0
 10
115.740394393808
 20
-148.3616590340901
 30
0.0
 10
115.740394393808
 20
-148.3955932246199
 30
0.0
 10
115.740394393808
 20
-148.5470051711966
 30
0.0
 10
115.8695854745048
 20
-148.6419175518152
 30
0.0
 10
115.8695854745048
 20
-148.6419175518152
 30
0.0
 10
115.850637449336
 20
-148.8296752557613
 30
0.0
 10
115.850637449336
 20
-148.8296752557613
 30
0.0
 10
115.850637449336
 20
-148.8296752557613
 30
0.0
 10
115.0041774886101
 20
-148.7006564298387
 30
0.0
 10
115.0041774886101
 20
-148.7006564298387
 30
0.0
 10
115.0041774886101
 20
-148.7006564298387
 30
0.0
 10
115.0041774886101
 20
-147.8686658701509
 30
0.0
 10
115.0041774886101
 20
-147.8686658701509
 30
0.0
 10
115.0041774886101
 20
-147.8686658701509
 30
0.0
 10
115.1988253835267
 20
-147.8686658701509
 30
0.0
 10
115.1988253835267
 20
-147.8686658701509
 30
0.0
 10
115.1988253835267
 20
-147.8686658701509
 30
0.0
 10
115.1988253835267
 20
-148.5266791078336
 30
0.0
 10
115.1988253835267
 20
-148.5266791078336
 30
0.0
 10
115.1988253835267
 20
-148.5266791078336
 30
0.0
 10
115.6218831091154
 20
-148.5967868009585
 30
0.0
 10
115.6218831091154
 20
-148.5967868009585
 30
0.0
 10
115.5881211733599
 20
-148.5311577319644
 30
0.0
 10
115.5478135561825
 20
-148.4429632875421
 30
0.0
 10
115.5478135561825
 20
-148.3163560284591
 30
0.0
 10
115.5478135561825
 20
-148.0450547589957
 30
0.0
 10
115.7341932219345
 20
-147.7918402408298
 30
0.0
 10
116.0473524015437
 20
-147.7918402408298
 30
0.0
 10
116.3646456957352
 20
-147.7918402408298
 30
0.0
 10
116.5992566982807
 20
-148.0316188866032
 30
0.0
 10
116.5992566982807
 20
-148.3547688431196
 30
0.0
  0
HATCH
  5
BE
330
AD
100
AcDbEntity
  8
_U+30EC_U+30A4_U+30E4_U+30FC 1
 62
   179
420
  2234388
100
AcDbHatch
 10
0.0
 20
0.0
 30
0.0
210
0.0
220
0.0
230
1.0
  2
SOLID
 70
     1
 71
     0
 91
        1
 92
        1
 93
        1
 72
     4
 94
        3
 73
     0
 74
     1
 95
       53
 96
       49
 40
0.0
 40
0.0
 40
0.0
 40
0.0
 40
1.0
 40
1.0
 40
1.0
 40
2.0
 40
2.0
 40
2.0
 40
3.0
 40
3.0
 40
3.0
 40
4.0
 40
4.0
 40
4.0
 40
5.0
 40
5.0
 40
5.0
 40
6.0
 40
6.0
 40
6.0
 40
7.0
 40
7.0
 40
7.0
 40
8.0
 40
8.0
 40
8.0
 40
9.0
 40
9.0
 40
9.0
 40
10.0
 40
10.0
 40
10.0
 40
11.0
 40
11.0
 40
11.0
 40
12.0
 40
12.0
 40
12.0
 40
13.0
 40
13.0
 40
13.0
 40
14.0
 40
14.0
 40
14.0
 40
15.0
 40
15.0
 40
15.0
 40
16.0
 40
16.0
 40
16.0
 40
16.0
 10
116.5992566982807
 20
-148.3547688431196
 10
116.5992566982807
 20
-148.4384846634112
 10
116.582375730403
 20
-148.5470051711966
 10
116.5189859734744
 20
-148.6555256789819
 10
116.409087427495
 20
-148.8408718160884
 10
116.2778292895069
 20
-148.863609446291
 10
116.1699978008186
 20
-148.883935509654
 10
116.1699978008186
 20
-148.883935509654
 10
116.1699978008186
 20
-148.6465684307203
 10
116.1699978008186
 20
-148.6465684307203
 10
116.3687798103175
 20
-148.5876572979225
 10
116.3984076314907
 20
-148.452092790578
 10
116.3984076314907
 20
-148.3525295310542
 10
116.3984076314907
 20
-148.2033568965429
 10
116.298844371967
 20
-148.0405761348649
 10
116.0663004267126
 20
-148.0405761348649
 10
115.8103298321585
 20
-148.0405761348649
 10
115.740394393808
 20
-148.2328124629418
 10
115.740394393808
 20
-148.3616590340901
 10
115.740394393808
 20
-148.3955932246199
 10
115.740394393808
 20
-148.5470051711966
 10
115.8695854745048
 20
-148.6419175518152
 10
115.8695854745048
 20
-148.6419175518152
 10
115.850637449336
 20
-148.8296752557613
 10
115.850637449336
 20
-148.8296752557613
 10
115.850637449336
 20
-148.8296752557613
 10
115.0041774886101
 20
-148.7006564298387
 10
115.0041774886101
 20
-148.7006564298387
 10
115.0041774886101
 20
-148.7006564298387
 10
115.0041774886101
 20
-147.8686658701509
 10
115.0041774886101
 20
-147.8686658701509
 10
115.0041774886101
 20
-147.8686658701509
 10
115.1988253835267
 20
-147.8686658701509
 10
115.1988253835267
 20
-147.8686658701509
 10
115.1988253835267
 20
-147.8686658701509
 10
115.1988253835267
 20
-148.5266791078336
 10
115.1988253835267
 20
-148.5266791078336
 10
115.1988253835267
 20
-148.5266791078336
 10
115.6218831091154
 20
-148.5967868009585
 10
115.6218831091154
 20
-148.5967868009585
 10
115.5881211733599
 20
-148.5311577319644
 10
115.5478135561825
 20
-148.4429632875421
 10
115.5478135561825
 20
-148.3163560284591
 10
115.5478135561825
 20
-148.0450547589957
 10
115.7341932219345
 20
-147.7918402408298
 10
116.0473524015437
 20
-147.7918402408298
 10
116.3646456957352
 20
-147.7918402408298
 10
116.5992566982807
 20
-148.0316188866032
 10
116.5992566982807
 20
-148.3547688431196
 97
        0
 97
        0
 75
     2
 76
     1
 98
        0
  0
ENDBLK
  5
B0
330
AD
100
AcDbEntity
  8
0
100
AcDbBlockEnd
  0
BLOCK
  5
C3
330
C1
100
AcDbEntity
  8
0
100
AcDbBlockBegin
  2
block 5
 70
     0
 10
0.0
 20
0.0
 30
0.0
  3
block 5
  1

  0
SPLINE
  5
C5
330
C1
100
AcDbEntity
  8
_U+30EC_U+30A4_U+30E4_U+30FC 1
370
     0
100
AcDbSpline
210
0.0
220
0.0
230
1.0
 70
    11
 71
     3
 72
    26
 73
    22
 74
     0
 42
0.0000000001
 43
0.0000000001
 12
1.0
 22
0.0
 32
0.0
 13
1.0
 23
0.0
 33
0.0
 40
0.0
 40
0.0
 40
0.0
 40
0.0
 40
1.0
 40
1.0
 40
1.0
 40
2.0
 40
2.0
 40
2.0
 40
3.0
 40
3.0
 40
3.0
 40
4.0
 40
4.0
 40
4.0
 40
5.0
 40
5.0
 40
5.0
 40
6.0
 40
6.0
 40
6.0
 40
7.0
 40
7.0
 40
7.0
 40
7.0
 10
96.50573728056106
 20
-149.3252522413145
 30
0.0
 10
96.50573728056106
 20
-149.3252522413145
 30
0.0
 10
96.50573728056106
 20
-148.2212713930662
 30
0.0
 10
96.50573728056106
 20
-148.2212713930662
 30
0.0
 10
96.50573728056106
 20
-148.2212713930662
 30
0.0
 10
96.17569713307414
 20
-148.2212713930662
 30
0.0
 10
96.17569713307414
 20
-148.2212713930662
 30
0.0
 10
96.17569713307414
 20
-148.2212713930662
 30
0.0
 10
96.17569713307414
 20
-148.0731322872005
 30
0.0
 10
96.17569713307414
 20
-148.0731322872005
 30
0.0
 10
96.50780433785222
 20
-148.0583183766139
 30
0.0
 10
96.5543131269031
 20
-147.8953653601616
 30
0.0
 10
96.58394094807625
 20
-147.7809881900513
 30
0.0
 10
96.58394094807625
 20
-147.7809881900513
 30
0.0
 10
96.73001299665083
 20
-147.7809881900513
 30
0.0
 10
96.73001299665083
 20
-147.7809881900513
 30
0.0
 10
96.73001299665083
 20
-147.7809881900513
 30
0.0
 10
96.73001299665083
 20
-149.3252522413145
 30
0.0
 10
96.73001299665083
 20
-149.3252522413145
 30
0.0
 10
96.73001299665083
 20
-149.3252522413145
 30
0.0
 10
96.50573728056106
 20
-149.3252522413145
 30
0.0
 10
96.50573728056106
 20
-149.3252522413145
 30
0.0
  0
HATCH
  5
C6
330
C1
100
AcDbEntity
  8
_U+30EC_U+30A4_U+30E4_U+30FC 1
 62
   179
420
  2234388
100
AcDbHatch
 10
0.0
 20
0.0
 30
0.0
210
0.0
220
0.0
230
1.0
  2
SOLID
 70
     1
 71
     0
 91
        1
 92
        1
 93
        1
 72
     4
 94
        3
 73
     0
 74
     1
 95
       26
 96
       22
 40
0.0
 40
0.0
 40
0.0
 40
0.0
 40
1.0
 40
1.0
 40
1.0
 40
2.0
 40
2.0
 40
2.0
 40
3.0
 40
3.0
 40
3.0
 40
4.0
 40
4.0
 40
4.0
 40
5.0
 40
5.0
 40
5.0
 40
6.0
 40
6.0
 40
6.0
 40
7.0
 40
7.0
 40
7.0
 40
7.0
 10
96.50573728056106
 20
-149.3252522413145
 10
96.50573728056106
 20
-149.3252522413145
 10
96.50573728056106
 20
-148.2212713930662
 10
96.50573728056106
 20
-148.2212713930662
 10
96.50573728056106
 20
-148.2212713930662
 10
96.17569713307414
 20
-148.2212713930662
 10
96.17569713307414
 20
-148.2212713930662
 10
96.17569713307414
 20
-148.2212713930662
 10
96.17569713307414
 20
-148.0731322872005
 10
96.17569713307414
 20
-148.0731322872005
 10
96.50780433785222
 20
-148.0583183766139
 10
96.5543131269031
 20
-147.8953653601616
 10
96.58394094807625
 20
-147.7809881900513
 10
96.58394094807625
 20
-147.7809881900513
 10
96.73001299665083
 20
-147.7809881900513
 10
96.73001299665083
 20
-147.7809881900513
 10
96.73001299665083
 20
-147.7809881900513
 10
96.73001299665083
 20
-149.3252522413145
 10
96.73001299665083
 20
-149.3252522413145
 10
96.73001299665083
 20
-149.3252522413145
 10
96.50573728056106
 20
-149.3252522413145
 10
96.50573728056106
 20
-149.3252522413145
 97
        0
 97
        0
 75
     2
 76
     1
 98
        0
  0
ENDBLK
  5
C4
330
C1
100
AcDbEntity
  8
0
100
AcDbBlockEnd
  0
BLOCK
  5
D6
330
D4
100
AcDbEntity
  8
0
100
AcDbBlockBegin
  2
block 6
 70
     0
 10
0.0
 20
0.0
 30
0.0
  3
block 6
  1

  0
SPLINE
  5
D8
330
D4
100
AcDbEntity
  8
_U+30EC_U+30A4_U+30E4_U+30FC 1
370
     0
100
AcDbSpline
210
0.0
220
0.0
230
1.0
 70
    11
 71
     3
 72
    26
 73
    22
 74
     0
 42
0.0000000001
 43
0.0000000001
 12
1.0
 22
0.0
 32
0.0
 13
1.0
 23
0.0
 33
0.0
 40
0.0
 40
0.0
 40
0.0
 40
0.0
 40
1.0
 40
1.0
 40
1.0
 40
2.0
 40
2.0
 40
2.0
 40
3.0
 40
3.0
 40
3.0
 40
4.0
 40
4.0
 40
4.0
 40
5.0
 40
5.0
 40
5.0
 40
6.0
 40
6.0
 40
6.0
 40
7.0
 40
7.0
 40
7.0
 40
7.0
 10
116.3873833259379
 20
-154.3244302999606
 30
0.0
 10
116.3873833259379
 20
-154.3244302999606
 30
0.0
 10
115.2832302229153
 20
-154.3244302999606
 30
0.0
 10
115.2832302229153
 20
-154.3244302999606
 30
0.0
 10
115.2832302229153
 20
-154.3244302999606
 30
0.0
 10
115.2832302229153
 20
-154.6772080776501
 30
0.0
 10
115.2832302229153
 20
-154.6772080776501
 30
0.0
 10
115.2832302229153
 20
-154.6772080776501
 30
0.0
 10
115.1350911170496
 20
-154.6772080776501
 30
0.0
 10
115.1350911170496
 20
-154.6772080776501
 30
0.0
 10
115.120277206463
 20
-154.3223632426694
 30
0.0
 10
114.9573241900107
 20
-154.2724093581333
 30
0.0
 10
114.8429470199004
 20
-154.240714479669
 30
0.0
 10
114.8429470199004
 20
-154.240714479669
 30
0.0
 10
114.8429470199004
 20
-154.0846516541872
 30
0.0
 10
114.8429470199004
 20
-154.0846516541872
 30
0.0
 10
114.8429470199004
 20
-154.0846516541872
 30
0.0
 10
116.3873833259379
 20
-154.0846516541872
 30
0.0
 10
116.3873833259379
 20
-154.0846516541872
 30
0.0
 10
116.3873833259379
 20
-154.0846516541872
 30
0.0
 10
116.3873833259379
 20
-154.3244302999606
 30
0.0
 10
116.3873833259379
 20
-154.3244302999606
 30
0.0
  0
HATCH
  5
D9
330
D4
100
AcDbEntity
  8
_U+30EC_U+30A4_U+30E4_U+30FC 1
 62
   179
420
  2234388
100
AcDbHatch
 10
0.0
 20
0.0
 30
0.0
210
0.0
220
0.0
230
1.0
  2
SOLID
 70
     1
 71
     0
 91
        1
 92
        1
 93
        1
 72
     4
 94
        3
 73
     0
 74
     1
 95
       26
 96
       22
 40
0.0
 40
0.0
 40
0.0
 40
0.0
 40
1.0
 40
1.0
 40
1.0
 40
2.0
 40
2.0
 40
2.0
 40
3.0
 40
3.0
 40
3.0
 40
4.0
 40
4.0
 40
4.0
 40
5.0
 40
5.0
 40
5.0
 40
6.0
 40
6.0
 40
6.0
 40
7.0
 40
7.0
 40
7.0
 40
7.0
 10
116.3873833259379
 20
-154.3244302999606
 10
116.3873833259379
 20
-154.3244302999606
 10
115.2832302229153
 20
-154.3244302999606
 10
115.2832302229153
 20
-154.3244302999606
 10
115.2832302229153
 20
-154.3244302999606
 10
115.2832302229153
 20
-154.6772080776501
 10
115.2832302229153
 20
-154.6772080776501
 10
115.2832302229153
 20
-154.6772080776501
 10
115.1350911170496
 20
-154.6772080776501
 10
115.1350911170496
 20
-154.6772080776501
 10
115.120277206463
 20
-154.3223632426694
 10
114.9573241900107
 20
-154.2724093581333
 10
114.8429470199004
 20
-154.240714479669
 10
114.8429470199004
 20
-154.240714479669
 10
114.8429470199004
 20
-154.0846516541872
 10
114.8429470199004
 20
-154.0846516541872
 10
114.8429470199004
 20
-154.0846516541872
 10
116.3873833259379
 20
-154.0846516541872
 10
116.3873833259379
 20
-154.0846516541872
 10
116.3873833259379
 20
-154.0846516541872
 10
116.3873833259379
 20
-154.3244302999606
 10
116.3873833259379
 20
-154.3244302999606
 97
        0
 97
        0
 75
     2
 76
     1
 98
        0
  0
ENDBLK
  5
D7
330
D4
100
AcDbEntity
  8
0
100
AcDbBlockEnd
  0
ENDSEC
  0
SECTION
  2
ENTITIES
  0
SPLINE
  5
41
330
1F
100
AcDbEntity
  8
_U+30EC_U+30A4_U+30E4_U+30FC 1
370
     0
100
AcDbSpline
210
0.0
220
0.0
230
1.0
 70
    11
 71
     3
 72
    50
 73
    46
 74
     0
 42
0.0000000001
 43
0.0000000001
 12
1.0
 22
0.0
 32
0.0
 13
1.0
 23
0.0
 33
0.0
 40
0.0
 40
0.0
 40
0.0
 40
0.0
 40
1.0
 40
1.0
 40
1.0
 40
2.0
 40
2.0
 40
2.0
 40
3.0
 40
3.0
 40
3.0
 40
4.0
 40
4.0
 40
4.0
 40
5.0
 40
5.0
 40
5.0
 40
6.0
 40
6.0
 40
6.0
 40
7.0
 40
7.0
 40
7.0
 40
8.0
 40
8.0
 40
8.0
 40
9.0
 40
9.0
 40
9.0
 40
10.0
 40
10.0
 40
10.0
 40
11.0
 40
11.0
 40
11.0
 40
12.0
 40
12.0
 40
12.0
 40
13.0
 40
13.0
 40
13.0
 40
14.0
 40
14.0
 40
14.0
 40
15.0
 40
15.0
 40
15.0
 40
15.0
 10
113.3289459792904
 20
-154.3045456394566
 30
0.0
 10
113.3289459792904
 20
-154.3045456394566
 30
0.0
 10
107.6784941510046
 20
-154.3045456394566
 30
0.0
 10
107.6784941510046
 20
-154.3045456394566
 30
0.0
 10
107.5003504166471
 20
-153.9951652989578
 30
0.0
 10
107.1701487803092
 20
-153.804307009075
 30
0.0
 10
106.8127847192549
 20
-153.804307009075
 30
0.0
 10
106.8127847192549
 20
-153.804307009075
 30
0.0
 10
98.67878508749936
 20
-153.804307009075
 30
0.0
 10
98.67878508749936
 20
-153.804307009075
 30
0.0
 10
98.67878508749936
 20
-153.804307009075
 30
0.0
 10
98.67878508749936
 20
-145.3044813004794
 30
0.0
 10
98.67878508749936
 20
-145.3044813004794
 30
0.0
 10
98.67878508749936
 20
-145.3044813004794
 30
0.0
 10
104.6784727046789
 20
-145.3044813004794
 30
0.0
 10
104.6784727046789
 20
-145.3044813004794
 30
0.0
 10
104.6784727046789
 20
-145.3044813004794
 30
0.0
 10
104.6784727046789
 20
-144.7044102624893
 30
0.0
 10
104.6784727046789
 20
-144.7044102624893
 30
0.0
 10
100.3618864868182
 20
-144.1710125880621
 30
0.0
 10
95.99556170288946
 20
-144.1710125880621
 30
0.0
 10
91.67862020955648
 20
-144.7044102624893
 30
0.0
 10
91.67862020955648
 20
-144.7044102624893
 30
0.0
 10
91.67862020955648
 20
-145.3044813004794
 30
0.0
 10
91.67862020955648
 20
-145.3044813004794
 30
0.0
 10
91.67862020955648
 20
-145.3044813004794
 30
0.0
 10
97.67901837767985
 20
-145.3044813004794
 30
0.0
 10
97.67901837767985
 20
-145.3044813004794
 30
0.0
 10
97.67901837767985
 20
-145.3044813004794
 30
0.0
 10
97.67901837767985
 20
-153.804307009075
 30
0.0
 10
97.67901837767985
 20
-153.804307009075
 30
0.0
 10
97.67901837767985
 20
-153.804307009075
 30
0.0
 10
92.6787421948479
 20
-153.804307009075
 30
0.0
 10
92.6787421948479
 20
-153.804307009075
 30
0.0
 10
92.12628883601823
 20
-153.804307009075
 30
0.0
 10
91.67862020955648
 20
-154.2523416769317
 30
0.0
 10
91.67862020955648
 20
-154.8040844848179
 30
0.0
 10
91.67862020955648
 20
-154.8040844848179
 30
0.0
 10
113.6785478095795
 20
-154.8040844848179
 30
0.0
 10
113.6785478095795
 20
-154.8040844848179
 30
0.0
 10
113.6785478095795
 20
-154.8040844848179
 30
0.0
 10
113.6785478095795
 20
-154.6545027452177
 30
0.0
 10
113.6785478095795
 20
-154.6545027452177
 30
0.0
 10
113.6785478095795
 20
-154.4608345493297
 30
0.0
 10
113.5222588997065
 20
-154.3045456394566
 30
0.0
 10
113.3289459792904
 20
-154.3045456394566
 30
0.0
  0
HATCH
  5
42
330
1F
100
AcDbEntity
  8
_U+30EC_U+30A4_U+30E4_U+30FC 1
 62
     9
420
 13224394
100
AcDbHatch
 10
0.0
 20
0.0
 30
0.0
210
0.0
220
0.0
230
1.0
  2
SOLID
 70
     1
 71
     0
 91
        1
 92
        1
 93
        2
 72
     4
 94
        3
 73
     0
 74
     0
 95
       50
 96
       46
 40
0.0
 40
0.0
 40
0.0
 40
0.0
 40
0.3527777776895833
 40
0.3527777776895833
 40
0.3527777776895833
 40
0.7055555553791667
 40
0.7055555553791667
 40
0.7055555553791667
 40
1.05833333306875
 40
1.05833333306875
 40
1.05833333306875
 40
1.411111110758333
 40
1.411111110758333
 40
1.411111110758333
 40
1.763888888447917
 40
1.763888888447917
 40
1.763888888447917
 40
2.1166666661375
 40
2.1166666661375
 40
2.1166666661375
 40
2.469444443827083
 40
2.469444443827083
 40
2.469444443827083
 40
2.822222221516667
 40
2.822222221516667
 40
2.822222221516667
 40
3.17499999920625
 40
3.17499999920625
 40
3.17499999920625
 40
3.527777776895833
 40
3.527777776895833
 40
3.527777776895833
 40
3.880555554585417
 40
3.880555554585417
 40
3.880555554585417
 40
4.233333332275
 40
4.233333332275
 40
4.233333332275
 40
4.586111109964584
 40
4.586111109964584
 40
4.586111109964584
 40
4.938888887654167
 40
4.938888887654167
 40
4.938888887654167
 40
5.29166666534375
 40
5.29166666534375
 40
5.29166666534375
 40
5.29166666534375
 10
113.3289459792904
 20
-154.3045456394566
 10
113.3289459792904
 20
-154.3045456394566
 10
107.6784941510046
 20
-154.3045456394566
 10
107.6784941510046
 20
-154.3045456394566
 10
107.5003504166471
 20
-153.9951652989578
 10
107.1701487803092
 20
-153.804307009075
 10
106.8127847192549
 20
-153.804307009075
 10
106.8127847192549
 20
-153.804307009075
 10
98.67878508749936
 20
-153.804307009075
 10
98.67878508749936
 20
-153.804307009075
 10
98.67878508749936
 20
-153.804307009075
 10
98.67878508749936
 20
-145.3044813004794
 10
98.67878508749936
 20
-145.3044813004794
 10
98.67878508749936
 20
-145.3044813004794
 10
104.6784727046789
 20
-145.3044813004794
 10
104.6784727046789
 20
-145.3044813004794
 10
104.6784727046789
 20
-145.3044813004794
 10
104.6784727046789
 20
-144.7044102624893
 10
104.6784727046789
 20
-144.7044102624893
 10
100.3618864868182
 20
-144.1710125880621
 10
95.99556170288946
 20
-144.1710125880621
 10
91.67862020955648
 20
-144.7044102624893
 10
91.67862020955648
 20
-144.7044102624893
 10
91.67862020955648
 20
-145.3044813004794
 10
91.67862020955648
 20
-145.3044813004794
 10
91.67862020955648
 20
-145.3044813004794
 10
97.67901837767985
 20
-145.3044813004794
 10
97.67901837767985
 20
-145.3044813004794
 10
97.67901837767985
 20
-145.3044813004794
 10
97.67901837767985
 20
-153.804307009075
 10
97.67901837767985
 20
-153.804307009075
 10
97.67901837767985
 20
-153.804307009075
 10
92.6787421948479
 20
-153.804307009075
 10
92.6787421948479
 20
-153.804307009075
 10
92.12628883601823
 20
-153.804307009075
 10
91.67862020955648
 20
-154.2523416769317
 10
91.67862020955648
 20
-154.8040844848179
 10
91.67862020955648
 20
-154.8040844848179
 10
113.6785478095795
 20
-154.8040844848179
 10
113.6785478095795
 20
-154.8040844848179
 10
113.6785478095795
 20
-154.8040844848179
 10
113.6785478095795
 20
-154.6545027452177
 10
113.6785478095795
 20
-154.6545027452177
 10
113.6785478095795
 20
-154.4608345493297
 10
113.5222588997065
 20
-154.3045456394566
 10
113.3289459792904
 20
-154.3045456394566
 97
        0
 72
     1
 10
113.3289459792904
 20
-154.3045456394566
 11
113.3289459792904
 21
-154.3045456394566
 97
        0
 75
     2
 76
     1
 98
        0
  0
POLYLINE
  5
43
330
1F
100
AcDbEntity
  8
_U+30EC_U+30A4_U+30E4_U+30FC 1
 62
   179
420
  2234388
370
    25
100
AcDb2dPolyline
 66
     1
 10
0.0
 20
0.0
 30
0.0
  0
VERTEX
  5
44
330
43
100
AcDbEntity
  8
_U+30EC_U+30A4_U+30E4_U+30FC 1
 62
   179
420
  2234388
370
    25
100
AcDbVertex
100
AcDb2dVertex
 10
92.67867759930755
 20
-153.804307009075
 30
0.0
  0
VERTEX
  5
45
330
43
100
AcDbEntity
  8
_U+30EC_U+30A4_U+30E4_U+30FC 1
 62
   179
420
  2234388
370
    25
100
AcDbVertex
100
AcDb2dVertex
 10
97.67894301621612
 20
-153.804307009075
 30
0.0
  0
SEQEND
  5
46
330
43
100
AcDbEntity
  8
_U+30EC_U+30A4_U+30E4_U+30FC 1
 62
   179
420
  2234388
370
    25
  0
POLYLINE
  5
47
330
1F
100
AcDbEntity
  8
_U+30EC_U+30A4_U+30E4_U+30FC 1
 62
   179
420
  2234388
370
    25
100
AcDb2dPolyline
 66
     1
 10
0.0
 20
0.0
 30
0.0
  0
VERTEX
  5
48
330
47
100
AcDbEntity
  8
_U+30EC_U+30A4_U+30E4_U+30FC 1
 62
   179
420
  2234388
370
    25
100
AcDbVertex
100
AcDb2dVertex
 10
91.67858791178631
 20
-154.8040844848179
 30
0.0
  0
VERTEX
  5
49
330
47
100
AcDbEntity
  8
_U+30EC_U+30A4_U+30E4_U+30FC 1
 62
   179
420
  2234388
370
    25
100
AcDbVertex
100
AcDb2dVertex
 10
113.6785155118093
 20
-154.8040844848179
 30
0.0
  0
SEQEND
  5
4A
330
47
100
AcDbEntity
  8
_U+30EC_U+30A4_U+30E4_U+30FC 1
 62
   179
420
  2234388
370
    25
  0
POLYLINE
  5
4B
330
1F
100
AcDbEntity
  8
_U+30EC_U+30A4_U+30E4_U+30FC 1
 62
   179
420
  2234388
370
    25
100
AcDb2dPolyline
 66
     1
 10
0.0
 20
0.0
 30
0.0
  0
VERTEX
  5
4C
330
4B
100
AcDbEntity
  8
_U+30EC_U+30A4_U+30E4_U+30FC 1
 62
   179
420
  2234388
370
    25
100
AcDbVertex
100
AcDb2dVertex
 10
97.67891071844595
 20
-145.3045889597134
 30
0.0
  0
VERTEX
  5
4D
330
4B
100
AcDbEntity
  8
_U+30EC_U+30A4_U+30E4_U+30FC 1
 62
   179
420
  2234388
370
    25
100
AcDbVertex
100
AcDb2dVertex
 10
97.67891071844595
 20
-153.8044254342323
 30
0.0
  0
SEQEND
  5
4E
330
4B
100
AcDbEntity
  8
_U+30EC_U+30A4_U+30E4_U+30FC 1
 62
   179
420
  2234388
370
    25
  0
POLYLINE
  5
4F
330
1F
100
AcDbEntity
  8
_U+30EC_U+30A4_U+30E4_U+30FC 1
 62
   179
420
  2234388
370
    25
100
AcDb2dPolyline
 66
     1
 10
0.0
 20
0.0
 30
0.0
  0
VERTEX
  5
50
330
4F
100
AcDbEntity
  8
_U+30EC_U+30A4_U+30E4_U+30FC 1
 62
   179
420
  2234388
370
    25
100
AcDbVertex
100
AcDb2dVertex
 10
98.67867742826544
 20
-145.3045889597134
 30
0.0
  0
VERTEX
  5
51
330
4F
100
AcDbEntity
  8
_U+30EC_U+30A4_U+30E4_U+30FC 1
 62
   179
420
  2234388
370
    25
100
AcDbVertex
100
AcDb2dVertex
 10
98.67867742826544
 20
-153.8044254342323
 30
0.0
  0
SEQEND
  5
52
330
4F
100
AcDbEntity
  8
_U+30EC_U+30A4_U+30E4_U+30FC 1
 62
   179
420
  2234388
370
    25
  0
POLYLINE
  5
53
330
1F
100
AcDbEntity
  8
_U+30EC_U+30A4_U+30E4_U+30FC 1
 62
   179
420
  2234388
370
    25
100
AcDb2dPolyline
 66
     1
 10
0.0
 20
0.0
 30
0.0
  0
VERTEX
  5
54
330
53
100
AcDbEntity
  8
_U+30EC_U+30A4_U+30E4_U+30FC 1
 62
   179
420
  2234388
370
    25
100
AcDbVertex
100
AcDb2dVertex
 10
98.67867742826544
 20
-153.804307009075
 30
0.0
  0
VERTEX
  5
55
330
53
100
AcDbEntity
  8
_U+30EC_U+30A4_U+30E4_U+30FC 1
 62
   179
420
  2234388
370
    25
100
AcDbVertex
100
AcDb2dVertex
 10
106.8130215695695
 20
-153.804307009075
 30
0.0
  0
SEQEND
  5
56
330
53
100
AcDbEntity
  8
_U+30EC_U+30A4_U+30E4_U+30FC 1
 62
   179
420
  2234388
370
    25
  0
POLYLINE
  5
57
330
1F
100
AcDbEntity
  8
_U+30EC_U+30A4_U+30E4_U+30FC 1
 62
   179
420
  2234388
370
    25
100
AcDb2dPolyline
 66
     1
 10
0.0
 20
0.0
 30
0.0
  0
VERTEX
  5
58
330
57
100
AcDbEntity
  8
_U+30EC_U+30A4_U+30E4_U+30FC 1
 62
   179
420
  2234388
370
    25
100
AcDbVertex
100
AcDb2dVertex
 10
91.67858791178631
 20
-144.7044425602595
 30
0.0
  0
VERTEX
  5
59
330
57
100
AcDbEntity
  8
_U+30EC_U+30A4_U+30E4_U+30FC 1
 62
   179
420
  2234388
370
    25
100
AcDbVertex
100
AcDb2dVertex
 10
91.67858791178631
 20
-145.3045243641733
 30
0.0
  0
SEQEND
  5
5A
330
57
100
AcDbEntity
  8
_U+30EC_U+30A4_U+30E4_U+30FC 1
 62
   179
420
  2234388
370
    25
  0
POLYLINE
  5
5B
330
1F
100
AcDbEntity
  8
_U+30EC_U+30A4_U+30E4_U+30FC 1
 62
   179
420
  2234388
370
    25
100
AcDb2dPolyline
 66
     1
 10
0.0
 20
0.0
 30
0.0
  0
VERTEX
  5
5C
330
5B
100
AcDbEntity
  8
_U+30EC_U+30A4_U+30E4_U+30FC 1
 62
   179
420
  2234388
370
    25
100
AcDbVertex
100
AcDb2dVertex
 10
98.67867742826544
 20
-145.3045889597134
 30
0.0
  0
VERTEX
  5
5D
330
5B
100
AcDbEntity
  8
_U+30EC_U+30A4_U+30E4_U+30FC 1
 62
   179
420
  2234388
370
    25
100
AcDbVertex
100
AcDb2dVertex
 10
104.6787203209169
 20
-145.3045889597134
 30
0.0
  0
SEQEND
  5
5E
330
5B
100
AcDbEntity
  8
_U+30EC_U+30A4_U+30E4_U+30FC 1
 62
   179
420
  2234388
370
    25
  0
POLYLINE
  5
5F
330
1F
100
AcDbEntity
  8
_U+30EC_U+30A4_U+30E4_U+30FC 1
 62
   179
420
  2234388
370
    25
100
AcDb2dPolyline
 66
     1
 10
0.0
 20
0.0
 30
0.0
  0
VERTEX
  5
60
330
5F
100
AcDbEntity
  8
_U+30EC_U+30A4_U+30E4_U+30FC 1
 62
   179
420
  2234388
370
    25
100
AcDbVertex
100
AcDb2dVertex
 10
91.67858791178631
 20
-145.3045889597134
 30
0.0
  0
VERTEX
  5
61
330
5F
100
AcDbEntity
  8
_U+30EC_U+30A4_U+30E4_U+30FC 1
 62
   179
420
  2234388
370
    25
100
AcDbVertex
100
AcDb2dVertex
 10
97.6789753139863
 20
-145.3045889597134
 30
0.0
  0
SEQEND
  5
62
330
5F
100
AcDbEntity
  8
_U+30EC_U+30A4_U+30E4_U+30FC 1
 62
   179
420
  2234388
370
    25
  0
POLYLINE
  5
63
330
1F
100
AcDbEntity
  8
_U+30EC_U+30A4_U+30E4_U+30FC 1
 62
   179
420
  2234388
370
    25
100
AcDb2dPolyline
 66
     1
 10
0.0
 20
0.0
 30
0.0
  0
VERTEX
  5
64
330
63
100
AcDbEntity
  8
_U+30EC_U+30A4_U+30E4_U+30FC 1
 62
   179
420
  2234388
370
    25
100
AcDbVertex
100
AcDb2dVertex
 10
104.6786557253766
 20
-144.7044425602595
 30
0.0
  0
VERTEX
  5
65
330
63
100
AcDbEntity
  8
_U+30EC_U+30A4_U+30E4_U+30FC 1
 62
   179
420
  2234388
370
    25
100
AcDbVertex
100
AcDb2dVertex
 10
104.6786557253766
 20
-145.3045243641733
 30
0.0
  0
SEQEND
  5
66
330
63
100
AcDbEntity
  8
_U+30EC_U+30A4_U+30E4_U+30FC 1
 62
   179
420
  2234388
370
    25
  0
POLYLINE
  5
67
330
1F
100
AcDbEntity
  8
_U+30EC_U+30A4_U+30E4_U+30FC 1
 62
   179
420
  2234388
370
    25
100
AcDb2dPolyline
 66
     1
 10
0.0
 20
0.0
 30
0.0
  0
VERTEX
  5
68
330
67
100
AcDbEntity
  8
_U+30EC_U+30A4_U+30E4_U+30FC 1
 62
   179
420
  2234388
370
    25
100
AcDbVertex
100
AcDb2dVertex
 10
113.6786124051198
 20
-154.6545781066814
 30
0.0
  0
VERTEX
  5
69
330
67
100
AcDbEntity
  8
_U+30EC_U+30A4_U+30E4_U+30FC 1
 62
   179
420
  2234388
370
    25
100
AcDbVertex
100
AcDb2dVertex
 10
113.6786124051198
 20
-154.8041598462816
 30
0.0
  0
SEQEND
  5
6A
330
67
100
AcDbEntity
  8
_U+30EC_U+30A4_U+30E4_U+30FC 1
 62
   179
420
  2234388
370
    25
  0
POLYLINE
  5
6B
330
1F
100
AcDbEntity
  8
_U+30EC_U+30A4_U+30E4_U+30FC 1
 62
   179
420
  2234388
370
    25
100
AcDb2dPolyline
 66
     1
 10
0.0
 20
0.0
 30
0.0
  0
VERTEX
  5
6C
330
6B
100
AcDbEntity
  8
_U+30EC_U+30A4_U+30E4_U+30FC 1
 62
   179
420
  2234388
370
    25
100
AcDbVertex
100
AcDb2dVertex
 10
107.6786771717023
 20
-154.3045456394566
 30
0.0
  0
VERTEX
  5
6D
330
6B
100
AcDbEntity
  8
_U+30EC_U+30A4_U+30E4_U+30FC 1
 62
   179
420
  2234388
370
    25
100
AcDbVertex
100
AcDb2dVertex
 10
113.3291182340646
 20
-154.3045456394566
 30
0.0
  0
SEQEND
  5
6E
330
6B
100
AcDbEntity
  8
_U+30EC_U+30A4_U+30E4_U+30FC 1
 62
   179
420
  2234388
370
    25
  0
SPLINE
  5
6F
330
1F
100
AcDbEntity
  8
_U+30EC_U+30A4_U+30E4_U+30FC 1
 62
   179
420
  2234388
370
    25
100
AcDbSpline
210
0.0
220
0.0
230
1.0
 70
     8
 71
     3
 72
     8
 73
     4
 74
     0
 42
0.0000000001
 43
0.0000000001
 12
1.0
 22
0.0
 32
0.0
 13
1.0
 23
0.0
 33
0.0
 40
0.0
 40
0.0
 40
0.0
 40
0.0
 40
1.0
 40
1.0
 40
1.0
 40
1.0
 10
104.6786557253766
 20
-144.7044425602595
 30
0.0
 10
100.3620587415924
 20
-144.1710448858323
 30
0.0
 10
95.99573395766372
 20
-144.1710448858323
 30
0.0
 10
91.67843718885882
 20
-144.7044425602595
 30
0.0
  0
SPLINE
  5
70
330
1F
100
AcDbEntity
  8
_U+30EC_U+30A4_U+30E4_U+30FC 1
 62
   179
420
  2234388
370
    25
100
AcDbSpline
210
0.0
220
0.0
230
1.0
 70
     8
 71
     3
 72
     8
 73
     4
 74
     0
 42
0.0000000001
 43
0.0000000001
 12
1.0
 22
0.0
 32
0.0
 13
1.0
 23
0.0
 33
0.0
 40
0.0
 40
0.0
 40
0.0
 40
0.0
 40
1.0
 40
1.0
 40
1.0
 40
1.0
 10
92.67867759930755
 20
-153.804307009075
 30
0.0
 10
92.12657951594947
 20
-153.804307009075
 30
0.0
 10
91.67854484809274
 20
-154.2523416769317
 30
0.0
 10
91.67854484809274
 20
-154.8040844848179
 30
0.0
  0
SPLINE
  5
71
330
1F
100
AcDbEntity
  8
_U+30EC_U+30A4_U+30E4_U+30FC 1
 62
   179
420
  2234388
370
    25
100
AcDbSpline
210
0.0
220
0.0
230
1.0
 70
     8
 71
     3
 72
     8
 73
     4
 74
     0
 42
0.0000000001
 43
0.0000000001
 12
1.0
 22
0.0
 32
0.0
 13
1.0
 23
0.0
 33
0.0
 40
0.0
 40
0.0
 40
0.0
 40
0.0
 40
1.0
 40
1.0
 40
1.0
 40
1.0
 10
107.6786771717023
 20
-154.3045456394566
 30
0.0
 10
107.5001673959494
 20
-153.9951652989578
 30
0.0
 10
107.1703210350835
 20
-153.804307009075
 30
0.0
 10
106.8129569740292
 20
-153.804307009075
 30
0.0
  0
SPLINE
  5
72
330
1F
100
AcDbEntity
  8
_U+30EC_U+30A4_U+30E4_U+30FC 1
 62
   179
420
  2234388
370
    25
100
AcDbSpline
210
0.0
220
0.0
230
1.0
 70
     8
 71
     3
 72
     8
 73
     4
 74
     0
 42
0.0000000001
 43
0.0000000001
 12
1.0
 22
0.0
 32
0.0
 13
1.0
 23
0.0
 33
0.0
 40
0.0
 40
0.0
 40
0.0
 40
0.0
 40
1.0
 40
1.0
 40
1.0
 40
1.0
 10
113.6786124051198
 20
-154.6545781066814
 30
0.0
 10
113.6786124051198
 20
-154.4609099107934
 30
0.0
 10
113.5223234952468
 20
-154.3046317668438
 30
0.0
 10
113.3289998089073
 20
-154.3046317668438
 30
0.0
  0
SPLINE
  5
73
330
1F
100
AcDbEntity
  8
_U+30EC_U+30A4_U+30E4_U+30FC 1
 62
   179
420
  2234388
370
     9
100
AcDbSpline
210
0.0
220
0.0
230
1.0
 70
    11
 71
     3
 72
    17
 73
    13
 74
     0
 42
0.0000000001
 43
0.0000000001
 12
1.0
 22
0.0
 32
0.0
 13
1.0
 23
0.0
 33
0.0
 40
0.0
 40
0.0
 40
0.0
 40
0.0
 40
1.0
 40
1.0
 40
1.0
 40
2.0
 40
2.0
 40
2.0
 40
3.0
 40
3.0
 40
3.0
 40
4.0
 40
4.0
 40
4.0
 40
4.0
 10
91.77884019040707
 20
-158.8045078304432
 30
0.0
 10
91.77884019040707
 20
-158.7494831959897
 30
0.0
 10
91.73403241725204
 20
-158.7046754228347
 30
0.0
 10
91.67864174140325
 20
-158.7046754228347
 30
0.0
 10
91.62361710694978
 20
-158.7046754228347
 30
0.0
 10
91.57880933379475
 20
-158.7494831959897
 30
0.0
 10
91.57880933379475
 20
-158.8045078304432
 30
0.0
 10
91.57880933379475
 20
-158.8595432308201
 30
0.0
 10
91.62361710694978
 20
-158.9043510039751
 30
0.0
 10
91.67864174140325
 20
-158.9043510039751
 30
0.0
 10
91.73403241725204
 20
-158.9043510039751
 30
0.0
 10
91.77884019040707
 20
-158.8595432308201
 30
0.0
 10
91.77884019040707
 20
-158.8045078304432
 30
0.0
  0
SPLINE
  5
74
330
1F
100
AcDbEntity
  8
_U+30EC_U+30A4_U+30E4_U+30FC 1
 62
   179
420
  2234388
370
     9
100
AcDbSpline
210
0.0
220
0.0
230
1.0
 70
    11
 71
     3
 72
    17
 73
    13
 74
     0
 42
0.0000000001
 43
0.0000000001
 12
1.0
 22
0.0
 32
0.0
 13
1.0
 23
0.0
 33
0.0
 40
0.0
 40
0.0
 40
0.0
 40
0.0
 40
1.0
 40
1.0
 40
1.0
 40
2.0
 40
2.0
 40
2.0
 40
3.0
 40
3.0
 40
3.0
 40
4.0
 40
4.0
 40
4.0
 40
4.0
 10
113.778875449664
 20
-158.8045078304432
 30
0.0
 10
113.778875449664
 20
-158.7494831959897
 30
0.0
 10
113.734067676509
 20
-158.7046754228347
 30
0.0
 10
113.6786770006602
 20
-158.7046754228347
 30
0.0
 10
113.6236523662067
 20
-158.7046754228347
 30
0.0
 10
113.5788445930517
 20
-158.7494831959897
 30
0.0
 10
113.5788445930517
 20
-158.8045078304432
 30
0.0
 10
113.5788445930517
 20
-158.8595432308201
 30
0.0
 10
113.6236523662067
 20
-158.9043510039751
 30
0.0
 10
113.6786770006602
 20
-158.9043510039751
 30
0.0
 10
113.734067676509
 20
-158.9043510039751
 30
0.0
 10
113.778875449664
 20
-158.8595432308201
 30
0.0
 10
113.778875449664
 20
-158.8045078304432
 30
0.0
  0
SPLINE
  5
75
330
1F
100
AcDbEntity
  8
_U+30EC_U+30A4_U+30E4_U+30FC 1
 62
   179
420
  2234388
370
     9
100
AcDbSpline
210
0.0
220
0.0
230
1.0
 70
    11
 71
     3
 72
    17
 73
    13
 74
     0
 42
0.0000000001
 43
0.0000000001
 12
1.0
 22
0.0
 32
0.0
 13
1.0
 23
0.0
 33
0.0
 40
0.0
 40
0.0
 40
0.0
 40
0.0
 40
1.0
 40
1.0
 40
1.0
 40
2.0
 40
2.0
 40
2.0
 40
3.0
 40
3.0
 40
3.0
 40
4.0
 40
4.0
 40
4.0
 40
4.0
 10
117.61565675974
 20
-153.804307009075
 30
0.0
 10
117.61565675974
 20
-153.7492823746215
 30
0.0
 10
117.5708489865849
 20
-153.7044746014665
 30
0.0
 10
117.5154583107362
 20
-153.7044746014665
 30
0.0
 10
117.4604336762827
 20
-153.7044746014665
 30
0.0
 10
117.4156259031276
 20
-153.7492823746215
 30
0.0
 10
117.4156259031276
 20
-153.804307009075
 30
0.0
 10
117.4156259031276
 20
-153.8593424094518
 30
0.0
 10
117.4604336762827
 20
-153.9041501826069
 30
0.0
 10
117.5154583107362
 20
-153.9041501826069
 30
0.0
 10
117.5708489865849
 20
-153.9041501826069
 30
0.0
 10
117.61565675974
 20
-153.8593424094518
 30
0.0
 10
117.61565675974
 20
-153.804307009075
 30
0.0
  0
SPLINE
  5
76
330
1F
100
AcDbEntity
  8
_U+30EC_U+30A4_U+30E4_U+30FC 1
 62
   179
420
  2234388
370
     9
100
AcDbSpline
210
0.0
220
0.0
230
1.0
 70
    11
 71
     3
 72
    17
 73
    13
 74
     0
 42
0.0000000001
 43
0.0000000001
 12
1.0
 22
0.0
 32
0.0
 13
1.0
 23
0.0
 33
0.0
 40
0.0
 40
0.0
 40
0.0
 40
0.0
 40
1.0
 40
1.0
 40
1.0
 40
2.0
 40
2.0
 40
2.0
 40
3.0
 40
3.0
 40
3.0
 40
4.0
 40
4.0
 40
4.0
 40
4.0
 10
117.61565675974
 20
-145.3045889597134
 30
0.0
 10
117.61565675974
 20
-145.248853774316
 30
0.0
 10
117.5708489865849
 20
-145.2040567670844
 30
0.0
 10
117.5154583107362
 20
-145.2040567670844
 30
0.0
 10
117.4604336762827
 20
-145.2040567670844
 30
0.0
 10
117.4156259031276
 20
-145.248853774316
 30
0.0
 10
117.4156259031276
 20
-145.3045889597134
 30
0.0
 10
117.4156259031276
 20
-145.3596243600902
 30
0.0
 10
117.4604336762827
 20
-145.4044321332456
 30
0.0
 10
117.5154583107362
 20
-145.4044321332456
 30
0.0
 10
117.5708489865849
 20
-145.4044321332456
 30
0.0
 10
117.61565675974
 20
-145.3596243600902
 30
0.0
 10
117.61565675974
 20
-145.3045889597134
 30
0.0
  0
SPLINE
  5
77
330
1F
100
AcDbEntity
  8
_U+30EC_U+30A4_U+30E4_U+30FC 1
 62
   179
420
  2234388
370
     9
100
AcDbSpline
210
0.0
220
0.0
230
1.0
 70
    11
 71
     3
 72
    17
 73
    13
 74
     0
 42
0.0000000001
 43
0.0000000001
 12
1.0
 22
0.0
 32
0.0
 13
1.0
 23
0.0
 33
0.0
 40
0.0
 40
0.0
 40
0.0
 40
0.0
 40
1.0
 40
1.0
 40
1.0
 40
2.0
 40
2.0
 40
2.0
 40
3.0
 40
3.0
 40
3.0
 40
4.0
 40
4.0
 40
4.0
 40
4.0
 10
104.7788757062272
 20
-140.304355840575
 30
0.0
 10
104.7788757062272
 20
-140.2493312061215
 30
0.0
 10
104.7340679330721
 20
-140.2045234329665
 30
0.0
 10
104.6786772572233
 20
-140.2045234329665
 30
0.0
 10
104.6236526227699
 20
-140.2045234329665
 30
0.0
 10
104.5788448496152
 20
-140.2493312061215
 30
0.0
 10
104.5788448496152
 20
-140.304355840575
 30
0.0
 10
104.5788448496152
 20
-140.3593912409518
 30
0.0
 10
104.6236526227699
 20
-140.4041990141069
 30
0.0
 10
104.6786772572233
 20
-140.4041990141069
 30
0.0
 10
104.7340679330721
 20
-140.4041990141069
 30
0.0
 10
104.7788757062272
 20
-140.3593912409518
 30
0.0
 10
104.7788757062272
 20
-140.304355840575
 30
0.0
  0
SPLINE
  5
78
330
1F
100
AcDbEntity
  8
_U+30EC_U+30A4_U+30E4_U+30FC 1
 62
   179
420
  2234388
370
     9
100
AcDbSpline
210
0.0
220
0.0
230
1.0
 70
    11
 71
     3
 72
    17
 73
    13
 74
     0
 42
0.0000000001
 43
0.0000000001
 12
1.0
 22
0.0
 32
0.0
 13
1.0
 23
0.0
 33
0.0
 40
0.0
 40
0.0
 40
0.0
 40
0.0
 40
1.0
 40
1.0
 40
1.0
 40
2.0
 40
2.0
 40
2.0
 40
3.0
 40
3.0
 40
3.0
 40
4.0
 40
4.0
 40
4.0
 40
4.0
 10
91.77884019040707
 20
-140.304355840575
 30
0.0
 10
91.77884019040707
 20
-140.2493312061215
 30
0.0
 10
91.73403241725204
 20
-140.2045234329665
 30
0.0
 10
91.67864174140325
 20
-140.2045234329665
 30
0.0
 10
91.62361710694978
 20
-140.2045234329665
 30
0.0
 10
91.57880933379475
 20
-140.2493312061215
 30
0.0
 10
91.57880933379475
 20
-140.304355840575
 30
0.0
 10
91.57880933379475
 20
-140.3593912409518
 30
0.0
 10
91.62361710694978
 20
-140.4041990141069
 30
0.0
 10
91.67864174140325
 20
-140.4041990141069
 30
0.0
 10
91.73403241725204
 20
-140.4041990141069
 30
0.0
 10
91.77884019040707
 20
-140.3593912409518
 30
0.0
 10
91.77884019040707
 20
-140.304355840575
 30
0.0
  0
POLYLINE
  5
79
330
1F
100
AcDbEntity
  8
_U+30EC_U+30A4_U+30E4_U+30FC 1
 62
   179
420
  2234388
370
     9
100
AcDb2dPolyline
 66
     1
 10
0.0
 20
0.0
 30
0.0
  0
VERTEX
  5
7A
330
79
100
AcDbEntity
  8
_U+30EC_U+30A4_U+30E4_U+30FC 1
 62
   179
420
  2234388
370
     9
100
AcDbVertex
100
AcDb2dVertex
 10
91.67858791178631
 20
-140.304355840575
 30
0.0
  0
VERTEX
  5
7B
330
79
100
AcDbEntity
  8
_U+30EC_U+30A4_U+30E4_U+30FC 1
 62
   179
420
  2234388
370
     9
100
AcDbVertex
100
AcDb2dVertex
 10
104.6787956823807
 20
-140.304355840575
 30
0.0
  0
SEQEND
  5
7C
330
79
100
AcDbEntity
  8
_U+30EC_U+30A4_U+30E4_U+30FC 1
 62
   179
420
  2234388
370
     9
  0
POLYLINE
  5
7D
330
1F
100
AcDbEntity
  8
_U+30EC_U+30A4_U+30E4_U+30FC 1
 62
   179
420
  2234388
370
     9
100
AcDb2dPolyline
 66
     1
 10
0.0
 20
0.0
 30
0.0
  0
VERTEX
  5
7E
330
7D
100
AcDbEntity
  8
_U+30EC_U+30A4_U+30E4_U+30FC 1
 62
   179
420
  2234388
370
     9
100
AcDbVertex
100
AcDb2dVertex
 10
91.67858791178631
 20
-142.1640183835128
 30
0.0
  0
VERTEX
  5
7F
330
7D
100
AcDbEntity
  8
_U+30EC_U+30A4_U+30E4_U+30FC 1
 62
   179
420
  2234388
370
     9
100
AcDbVertex
100
AcDb2dVertex
 10
91.67858791178631
 20
-139.3047613855297
 30
0.0
  0
SEQEND
  5
80
330
7D
100
AcDbEntity
  8
_U+30EC_U+30A4_U+30E4_U+30FC 1
 62
   179
420
  2234388
370
     9
  0
POLYLINE
  5
81
330
1F
100
AcDbEntity
  8
_U+30EC_U+30A4_U+30E4_U+30FC 1
 62
   179
420
  2234388
370
     9
100
AcDb2dPolyline
 66
     1
 10
0.0
 20
0.0
 30
0.0
  0
VERTEX
  5
82
330
81
100
AcDbEntity
  8
_U+30EC_U+30A4_U+30E4_U+30FC 1
 62
   179
420
  2234388
370
     9
100
AcDbVertex
100
AcDb2dVertex
 10
104.6786557253766
 20
-142.1640183835128
 30
0.0
  0
VERTEX
  5
83
330
81
100
AcDbEntity
  8
_U+30EC_U+30A4_U+30E4_U+30FC 1
 62
   179
420
  2234388
370
     9
100
AcDbVertex
100
AcDb2dVertex
 10
104.6786557253766
 20
-139.3047613855297
 30
0.0
  0
SEQEND
  5
84
330
81
100
AcDbEntity
  8
_U+30EC_U+30A4_U+30E4_U+30FC 1
 62
   179
420
  2234388
370
     9
  0
INSERT
  5
86
330
1F
100
AcDbEntity
  8
_U+30EC_U+30A4_U+30E4_U+30FC 1
100
AcDbBlockReference
  2
block 2
 10
0.0
 20
0.0
 30
0.0
  0
POLYLINE
  5
8D
330
1F
100
AcDbEntity
  8
_U+30EC_U+30A4_U+30E4_U+30FC 1
 62
   179
420
  2234388
370
     9
100
AcDb2dPolyline
 66
     1
 10
0.0
 20
0.0
 30
0.0
  0
VERTEX
  5
8E
330
8D
100
AcDbEntity
  8
_U+30EC_U+30A4_U+30E4_U+30FC 1
 62
   179
420
  2234388
370
     9
100
AcDbVertex
100
AcDb2dVertex
 10
91.67858791178631
 20
-158.8045078304432
 30
0.0
  0
VERTEX
  5
8F
330
8D
100
AcDbEntity
  8
_U+30EC_U+30A4_U+30E4_U+30FC 1
 62
   179
420
  2234388
370
     9
100
AcDbVertex
100
AcDb2dVertex
 10
113.6785155118093
 20
-158.8045078304432
 30
0.0
  0
SEQEND
  5
90
330
8D
100
AcDbEntity
  8
_U+30EC_U+30A4_U+30E4_U+30FC 1
 62
   179
420
  2234388
370
     9
  0
POLYLINE
  5
91
330
1F
100
AcDbEntity
  8
_U+30EC_U+30A4_U+30E4_U+30FC 1
 62
   179
420
  2234388
370
     9
100
AcDb2dPolyline
 66
     1
 10
0.0
 20
0.0
 30
0.0
  0
VERTEX
  5
92
330
91
100
AcDbEntity
  8
_U+30EC_U+30A4_U+30E4_U+30FC 1
 62
   179
420
  2234388
370
     9
100
AcDbVertex
100
AcDb2dVertex
 10
91.67858791178631
 20
-157.3445086615645
 30
0.0
  0
VERTEX
  5
93
330
91
100
AcDbEntity
  8
_U+30EC_U+30A4_U+30E4_U+30FC 1
 62
   179
420
  2234388
370
     9
100
AcDbVertex
100
AcDb2dVertex
 10
91.67858791178631
 20
-159.8044360291136
 30
0.0
  0
SEQEND
  5
94
330
91
100
AcDbEntity
  8
_U+30EC_U+30A4_U+30E4_U+30FC 1
 62
   179
420
  2234388
370
     9
  0
POLYLINE
  5
95
330
1F
100
AcDbEntity
  8
_U+30EC_U+30A4_U+30E4_U+30FC 1
 62
   179
420
  2234388
370
     9
100
AcDb2dPolyline
 66
     1
 10
0.0
 20
0.0
 30
0.0
  0
VERTEX
  5
96
330
95
100
AcDbEntity
  8
_U+30EC_U+30A4_U+30E4_U+30FC 1
 62
   179
420
  2234388
370
     9
100
AcDbVertex
100
AcDb2dVertex
 10
113.6786124051198
 20
-157.3445086615645
 30
0.0
  0
VERTEX
  5
97
330
95
100
AcDbEntity
  8
_U+30EC_U+30A4_U+30E4_U+30FC 1
 62
   179
420
  2234388
370
     9
100
AcDbVertex
100
AcDb2dVertex
 10
113.6786124051198
 20
-159.8044360291136
 30
0.0
  0
SEQEND
  5
98
330
95
100
AcDbEntity
  8
_U+30EC_U+30A4_U+30E4_U+30FC 1
 62
   179
420
  2234388
370
     9
  0
INSERT
  5
9A
330
1F
100
AcDbEntity
  8
_U+30EC_U+30A4_U+30E4_U+30FC 1
100
AcDbBlockReference
  2
block 3
 10
0.0
 20
0.0
 30
0.0
  0
POLYLINE
  5
A1
330
1F
100
AcDbEntity
  8
_U+30EC_U+30A4_U+30E4_U+30FC 1
 62
   179
420
  2234388
370
     9
100
AcDb2dPolyline
 66
     1
 10
0.0
 20
0.0
 30
0.0
  0
VERTEX
  5
A2
330
A1
100
AcDbEntity
  8
_U+30EC_U+30A4_U+30E4_U+30FC 1
 62
   179
420
  2234388
370
     9
100
AcDbVertex
100
AcDb2dVertex
 10
117.515426012966
 20
-145.3045889597134
 30
0.0
  0
VERTEX
  5
A3
330
A1
100
AcDbEntity
  8
_U+30EC_U+30A4_U+30E4_U+30FC 1
 62
   179
420
  2234388
370
     9
100
AcDbVertex
100
AcDb2dVertex
 10
117.515426012966
 20
-153.8044254342323
 30
0.0
  0
SEQEND
  5
A4
330
A1
100
AcDbEntity
  8
_U+30EC_U+30A4_U+30E4_U+30FC 1
 62
   179
420
  2234388
370
     9
  0
POLYLINE
  5
A5
330
1F
100
AcDbEntity
  8
_U+30EC_U+30A4_U+30E4_U+30FC 1
 62
   179
420
  2234388
370
     9
100
AcDb2dPolyline
 66
     1
 10
0.0
 20
0.0
 30
0.0
  0
VERTEX
  5
A6
330
A5
100
AcDbEntity
  8
_U+30EC_U+30A4_U+30E4_U+30FC 1
 62
   179
420
  2234388
370
     9
100
AcDbVertex
100
AcDb2dVertex
 10
116.5198149495756
 20
-145.3045889597134
 30
0.0
  0
VERTEX
  5
A7
330
A5
100
AcDbEntity
  8
_U+30EC_U+30A4_U+30E4_U+30FC 1
 62
   179
420
  2234388
370
     9
100
AcDbVertex
100
AcDb2dVertex
 10
118.5154726367937
 20
-145.3045889597134
 30
0.0
  0
SEQEND
  5
A8
330
A5
100
AcDbEntity
  8
_U+30EC_U+30A4_U+30E4_U+30FC 1
 62
   179
420
  2234388
370
     9
  0
POLYLINE
  5
A9
330
1F
100
AcDbEntity
  8
_U+30EC_U+30A4_U+30E4_U+30FC 1
 62
   179
420
  2234388
370
     9
100
AcDb2dPolyline
 66
     1
 10
0.0
 20
0.0
 30
0.0
  0
VERTEX
  5
AA
330
A9
100
AcDbEntity
  8
_U+30EC_U+30A4_U+30E4_U+30FC 1
 62
   179
420
  2234388
370
     9
100
AcDbVertex
100
AcDb2dVertex
 10
116.5198149495756
 20
-153.804307009075
 30
0.0
  0
VERTEX
  5
AB
330
A9
100
AcDbEntity
  8
_U+30EC_U+30A4_U+30E4_U+30FC 1
 62
   179
420
  2234388
370
     9
100
AcDbVertex
100
AcDb2dVertex
 10
118.5154726367937
 20
-153.804307009075
 30
0.0
  0
SEQEND
  5
AC
330
A9
100
AcDbEntity
  8
_U+30EC_U+30A4_U+30E4_U+30FC 1
 62
   179
420
  2234388
370
     9
  0
INSERT
  5
AE
330
1F
100
AcDbEntity
  8
_U+30EC_U+30A4_U+30E4_U+30FC 1
100
AcDbBlockReference
  2
block 4
 10
0.0
 20
0.0
 30
0.0
  0
SPLINE
  5
BF
330
1F
100
AcDbEntity
  8
_U+30EC_U+30A4_U+30E4_U+30FC 1
 62
   179
420
  2234388
370
     9
100
AcDbSpline
210
0.0
220
0.0
230
1.0
 70
    11
 71
     3
 72
    17
 73
    13
 74
     0
 42
0.0000000001
 43
0.0000000001
 12
1.0
 22
0.0
 32
0.0
 13
1.0
 23
0.0
 33
0.0
 40
0.0
 40
0.0
 40
0.0
 40
0.0
 40
1.0
 40
1.0
 40
1.0
 40
2.0
 40
2.0
 40
2.0
 40
3.0
 40
3.0
 40
3.0
 40
4.0
 40
4.0
 40
4.0
 40
4.0
 10
97.78086401296255
 20
-149.56170421676
 30
0.0
 10
97.78086401296255
 20
-149.5066795823065
 30
0.0
 10
97.73605623980752
 20
-149.4618718091515
 30
0.0
 10
97.68102083943066
 20
-149.4618718091515
 30
0.0
 10
97.62598543905379
 20
-149.4618718091515
 30
0.0
 10
97.58118843182216
 20
-149.5066795823065
 30
0.0
 10
97.58118843182216
 20
-149.56170421676
 30
0.0
 10
97.58118843182216
 20
-149.6167396171368
 30
0.0
 10
97.62598543905379
 20
-149.6615473902919
 30
0.0
 10
97.68102083943066
 20
-149.6615473902919
 30
0.0
 10
97.73605623980752
 20
-149.6615473902919
 30
0.0
 10
97.78086401296255
 20
-149.6167396171368
 30
0.0
 10
97.78086401296255
 20
-149.56170421676
 30
0.0
  0
SPLINE
  5
C0
330
1F
100
AcDbEntity
  8
_U+30EC_U+30A4_U+30E4_U+30FC 1
 62
   179
420
  2234388
370
     9
100
AcDbSpline
210
0.0
220
0.0
230
1.0
 70
    11
 71
     3
 72
    17
 73
    13
 74
     0
 42
0.0000000001
 43
0.0000000001
 12
1.0
 22
0.0
 32
0.0
 13
1.0
 23
0.0
 33
0.0
 40
0.0
 40
0.0
 40
0.0
 40
0.0
 40
1.0
 40
1.0
 40
1.0
 40
2.0
 40
2.0
 40
2.0
 40
3.0
 40
3.0
 40
3.0
 40
4.0
 40
4.0
 40
4.0
 40
4.0
 10
98.78063072278206
 20
-149.56170421676
 30
0.0
 10
98.78063072278206
 20
-149.5066795823065
 30
0.0
 10
98.73582294962704
 20
-149.4618718091515
 30
0.0
 10
98.68078754925017
 20
-149.4618718091515
 30
0.0
 10
98.6257521488733
 20
-149.4618718091515
 30
0.0
 10
98.58095514164165
 20
-149.5066795823065
 30
0.0
 10
98.58095514164165
 20
-149.56170421676
 30
0.0
 10
98.58095514164165
 20
-149.6167396171368
 30
0.0
 10
98.6257521488733
 20
-149.6615473902919
 30
0.0
 10
98.68078754925017
 20
-149.6615473902919
 30
0.0
 10
98.73582294962704
 20
-149.6615473902919
 30
0.0
 10
98.78063072278206
 20
-149.6167396171368
 30
0.0
 10
98.78063072278206
 20
-149.56170421676
 30
0.0
  0
INSERT
  5
C2
330
1F
100
AcDbEntity
  8
_U+30EC_U+30A4_U+30E4_U+30FC 1
100
AcDbBlockReference
  2
block 5
 10
0.0
 20
0.0
 30
0.0
  0
POLYLINE
  5
C7
330
1F
100
AcDbEntity
  8
_U+30EC_U+30A4_U+30E4_U+30FC 1
 62
   179
420
  2234388
370
     9
100
AcDb2dPolyline
 66
     1
 10
0.0
 20
0.0
 30
0.0
  0
VERTEX
  5
C8
330
C7
100
AcDbEntity
  8
_U+30EC_U+30A4_U+30E4_U+30FC 1
 62
   179
420
  2234388
370
     9
100
AcDbVertex
100
AcDb2dVertex
 10
99.54203988871583
 20
-149.56170421676
 30
0.0
  0
VERTEX
  5
C9
330
C7
100
AcDbEntity
  8
_U+30EC_U+30A4_U+30E4_U+30FC 1
 62
   179
420
  2234388
370
     9
100
AcDbVertex
100
AcDb2dVertex
 10
95.7031053939616
 20
-149.56170421676
 30
0.0
  0
SEQEND
  5
CA
330
C7
100
AcDbEntity
  8
_U+30EC_U+30A4_U+30E4_U+30FC 1
 62
   179
420
  2234388
370
     9
  0
SPLINE
  5
CB
330
1F
100
AcDbEntity
  8
_U+30EC_U+30A4_U+30E4_U+30FC 1
 62
   179
420
  2234388
370
     9
100
AcDbSpline
210
0.0
220
0.0
230
1.0
 70
    11
 71
     3
 72
    17
 73
    13
 74
     0
 42
0.0000000001
 43
0.0000000001
 12
1.0
 22
0.0
 32
0.0
 13
1.0
 23
0.0
 33
0.0
 40
0.0
 40
0.0
 40
0.0
 40
0.0
 40
1.0
 40
1.0
 40
1.0
 40
2.0
 40
2.0
 40
2.0
 40
3.0
 40
3.0
 40
3.0
 40
4.0
 40
4.0
 40
4.0
 40
4.0
 10
117.6153337820382
 20
-154.8016836839016
 30
0.0
 10
117.6153337820382
 20
-154.7463037739762
 30
0.0
 10
117.5705260088832
 20
-154.7014960008212
 30
0.0
 10
117.5154906085063
 20
-154.7014960008212
 30
0.0
 10
117.4604552081295
 20
-154.7014960008212
 30
0.0
 10
117.4156582008978
 20
-154.7463037739762
 30
0.0
 10
117.4156582008978
 20
-154.8016836839016
 30
0.0
 10
117.4156582008978
 20
-154.8567190842784
 30
0.0
 10
117.4604552081295
 20
-154.9015268574335
 30
0.0
 10
117.5154906085063
 20
-154.9015268574335
 30
0.0
 10
117.5705260088832
 20
-154.9015268574335
 30
0.0
 10
117.6153337820382
 20
-154.8567190842784
 30
0.0
 10
117.6153337820382
 20
-154.8016836839016
 30
0.0
  0
POLYLINE
  5
CC
330
1F
100
AcDbEntity
  8
_U+30EC_U+30A4_U+30E4_U+30FC 1
 62
   179
420
  2234388
370
     9
100
AcDb2dPolyline
 66
     1
 10
0.0
 20
0.0
 30
0.0
  0
VERTEX
  5
CD
330
CC
100
AcDbEntity
  8
_U+30EC_U+30A4_U+30E4_U+30FC 1
 62
   179
420
  2234388
370
     9
100
AcDbVertex
100
AcDb2dVertex
 10
117.515426012966
 20
-153.1542067250849
 30
0.0
  0
VERTEX
  5
CE
330
CC
100
AcDbEntity
  8
_U+30EC_U+30A4_U+30E4_U+30FC 1
 62
   179
420
  2234388
370
     9
100
AcDbVertex
100
AcDb2dVertex
 10
117.515426012966
 20
-154.8016836839016
 30
0.0
  0
SEQEND
  5
CF
330
CC
100
AcDbEntity
  8
_U+30EC_U+30A4_U+30E4_U+30FC 1
 62
   179
420
  2234388
370
     9
  0
POLYLINE
  5
D0
330
1F
100
AcDbEntity
  8
_U+30EC_U+30A4_U+30E4_U+30FC 1
 62
   179
420
  2234388
370
     9
100
AcDb2dPolyline
 66
     1
 10
0.0
 20
0.0
 30
0.0
  0
VERTEX
  5
D1
330
D0
100
AcDbEntity
  8
_U+30EC_U+30A4_U+30E4_U+30FC 1
 62
   179
420
  2234388
370
     9
100
AcDbVertex
100
AcDb2dVertex
 10
116.5198149495756
 20
-154.8016836839016
 30
0.0
  0
VERTEX
  5
D2
330
D0
100
AcDbEntity
  8
_U+30EC_U+30A4_U+30E4_U+30FC 1
 62
   179
420
  2234388
370
     9
100
AcDbVertex
100
AcDb2dVertex
 10
118.5154726367937
 20
-154.8016836839016
 30
0.0
  0
SEQEND
  5
D3
330
D0
100
AcDbEntity
  8
_U+30EC_U+30A4_U+30E4_U+30FC 1
 62
   179
420
  2234388
370
     9
  0
INSERT
  5
D5
330
1F
100
AcDbEntity
  8
_U+30EC_U+30A4_U+30E4_U+30FC 1
100
AcDbBlockReference
  2
block 6
 10
0.0
 20
0.0
 30
0.0
  0
ENDSEC
  0
SECTION
  2
OBJECTS
  0
DICTIONARY
  5
C
330
0
100
AcDbDictionary
281
     1
  3
ACAD_GROUP
350
D
  3
ACAD_LAYOUT
350
1A
  3
ACAD_MATERIAL
350
3B
  3
ACAD_MLEADERSTYLE
350
DB
  3
ACAD_MLINESTYLE
350
17
  3
ACAD_PLOTSETTINGS
350
19
  3
ACAD_PLOTSTYLENAME
350
E
  3
ACAD_TABLESTYLE
350
DA
  3
ACAD_VISUALSTYLE
350
2A
  0
SUN
  5
3F
330
29
100
AcDbSun
 90
        1
290
     0
 63
     7
421
 16777215
 40
1.0
291
     1
 91
  2455826
 92
 54000000
292
     0
 70
     2
 71
   256
280
     1
  0
DICTIONARY
  5
D
102
{ACAD_REACTORS
330
C
102
}
330
C
100
AcDbDictionary
281
     1
  0
DICTIONARY
  5
1A
102
{ACAD_REACTORS
330
C
102
}
330
C
100
AcDbDictionary
281
     1
  3
Layout1
350
1E
  3
Layout2
350
26
  3
Model
350
22
  0
DICTIONARY
  5
3B
102
{ACAD_REACTORS
330
C
102
}
330
C
100
AcDbDictionary
281
     1
  3
ByBlock
350
3D
  3
ByLayer
350
3C
  3
Global
350
3E
  0
DICTIONARY
  5
DB
102
{ACAD_REACTORS
330
C
102
}
330
C
100
AcDbDictionary
281
     1
  0
DICTIONARY
  5
17
102
{ACAD_REACTORS
330
C
102
}
330
C
100
AcDbDictionary
281
     1
  3
Standard
350
18
  0
DICTIONARY
  5
19
102
{ACAD_REACTORS
330
C
102
}
330
C
100
AcDbDictionary
281
     1
  0
ACDBDICTIONARYWDFLT
  5
E
102
{ACAD_REACTORS
330
C
102
}
330
C
100
AcDbDictionary
281
     1
  3
Normal
350
F
100
AcDbDictionaryWithDefault
340
F
  0
DICTIONARY
  5
DA
102
{ACAD_REACTORS
330
C
102
}
330
C
100
AcDbDictionary
281
     1
  0
DICTIONARY
  5
2A
102
{ACAD_REACTORS
330
C
102
}
330
C
100
AcDbDictionary
281
     1
  3
2dWireframe
350
2F
  3
3D Hidden
350
31
  3
3dWireframe
350
30
  3
Basic
350
32
  3
Brighten
350
36
  3
ColorChange
350
3A
  3
Conceptual
350
34
  3
Dim
350
35
  3
Facepattern
350
39
  3
Flat
350
2B
  3
FlatWithEdges
350
2C
  3
Gouraud
350
2D
  3
GouraudWithEdges
350
2E
  3
Linepattern
350
38
  3
Realistic
350
33
  3
Thicken
350
37
  0
LAYOUT
  5
1E
102
{ACAD_REACTORS
330
1A
102
}
330
1A
100
AcDbPlotSettings
  1

  2
none_device
  4

  6

 40
0.0
 41
0.0
 42
0.0
 43
0.0
 44
0.0
 45
0.0
 46
0.0
 47
0.0
 48
0.0
 49
0.0
140
0.0
141
0.0
142
1.0
143
1.0
 70
   688
 72
     0
 73
     0
 74
     5
  7

 75
    16
 76
     0
 77
     2
 78
   300
147
1.0
148
0.0
149
0.0
100
AcDbLayout
  1
Layout1
 70
     1
 71
     1
 10
0.0
 20
0.0
 11
12.0
 21
9.0
 12
0.0
 22
0.0
 32
0.0
 14
1.000000000000000E+20
 24
1.000000000000000E+20
 34
1.000000000000000E+20
 15
-1.000000000000000E+20
 25
-1.000000000000000E+20
 35
-1.000000000000000E+20
146
0.0
 13
0.0
 23
0.0
 33
0.0
 16
1.0
 26
0.0
 36
0.0
 17
0.0
 27
1.0
 37
0.0
 76
     0
330
1B
  0
LAYOUT
  5
26
102
{ACAD_REACTORS
330
1A
102
}
330
1A
100
AcDbPlotSettings
  1

  2
none_device
  4

  6

 40
0.0
 41
0.0
 42
0.0
 43
0.0
 44
0.0
 45
0.0
 46
0.0
 47
0.0
 48
0.0
 49
0.0
140
0.0
141
0.0
142
1.0
143
1.0
 70
   688
 72
     0
 73
     0
 74
     5
  7

 75
    16
 76
     0
 77
     2
 78
   300
147
1.0
148
0.0
149
0.0
100
AcDbLayout
  1
Layout2
 70
     1
 71
     2
 10
0.0
 20
0.0
 11
0.0
 21
0.0
 12
0.0
 22
0.0
 32
0.0
 14
0.0
 24
0.0
 34
0.0
 15
0.0
 25
0.0
 35
0.0
146
0.0
 13
0.0
 23
0.0
 33
0.0
 16
1.0
 26
0.0
 36
0.0
 17
0.0
 27
1.0
 37
0.0
 76
     0
330
23
  0
LAYOUT
  5
22
102
{ACAD_REACTORS
330
1A
102
}
330
1A
100
AcDbPlotSettings
  1

  2
none_device
  4

  6

 40
0.0
 41
0.0
 42
0.0
 43
0.0
 44
0.0
 45
0.0
 46
0.0
 47
0.0
 48
0.0
 49
0.0
140
0.0
141
0.0
142
1.0
143
1.0
 70
  1712
 72
     0
 73
     0
 74
     0
  7

 75
     0
 76
     0
 77
     2
 78
   300
147
1.0
148
0.0
149
0.0
100
AcDbLayout
  1
Model
 70
     1
 71
     0
 10
0.0
 20
0.0
 11
12.0
 21
9.0
 12
0.0
 22
0.0
 32
0.0
 14
1.000000000000000E+20
 24
1.000000000000000E+20
 34
1.000000000000000E+20
 15
-1.000000000000000E+20
 25
-1.000000000000000E+20
 35
-1.000000000000000E+20
146
0.0
 13
0.0
 23
0.0
 33
0.0
 16
1.0
 26
0.0
 36
0.0
 17
0.0
 27
1.0
 37
0.0
 76
     0
330
1F
331
29
  0
MATERIAL
  5
3D
102
{ACAD_REACTORS
330
3B
102
}
330
3B
100
AcDbMaterial
  1
ByBlock
 72
     1
 94
      127
  0
MATERIAL
  5
3C
102
{ACAD_REACTORS
330
3B
102
}
330
3B
100
AcDbMaterial
  1
ByLayer
 72
     1
 94
      127
  0
MATERIAL
  5
3E
102
{ACAD_REACTORS
330
3B
102
}
330
3B
100
AcDbMaterial
  1
Global
 72
     1
 94
      127
  0
MLINESTYLE
  5
18
102
{ACAD_REACTORS
330
17
102
}
330
17
100
AcDbMlineStyle
  2
Standard
 70
     0
  3

 62
   256
 51
90.0
 52
90.0
 71
     2
 49
0.5
 62
   256
  6
BYLAYER
 49
-0.5
 62
   256
  6
BYLAYER
  0
ACDBPLACEHOLDER
  5
F
102
{ACAD_REACTORS
330
E
102
}
330
E
  0
VISUALSTYLE
  5
2F
102
{ACAD_REACTORS
330
2A
102
}
330
2A
100
AcDbVisualStyle
  2
2dWireframe
 70
     4
177
     2
291
     0
 71
     0
176
     1
 72
     2
176
     1
 73
     0
176
     1
 90
        0
176
     1
 40
-0.6
176
     1
 41
-30.0
176
     1
 62
     5
 63
     7
421
 16777215
176
     1
 74
     1
176
     1
 91
        4
176
     1
 64
     7
176
     1
 65
   257
176
     1
 75
     1
176
     1
175
     1
176
     1
 42
1.0
176
     1
 92
        0
176
     1
 66
   257
176
     1
 43
1.0
176
     1
 76
     1
176
     1
 77
     6
176
     1
 78
     2
176
     1
 67
     7
176
     1
 79
     5
176
     1
170
     0
176
     1
171
     0
176
     1
290
     0
176
     1
 93
        1
176
     1
 44
0.0
176
     1
173
     0
176
     1
  0
VISUALSTYLE
  5
31
102
{ACAD_REACTORS
330
2A
102
}
330
2A
100
AcDbVisualStyle
  2
3D Hidden
 70
     6
177
     2
291
     0
 71
     1
176
     1
 72
     2
176
     1
 73
     2
176
     1
 90
        0
176
     1
 40
-0.6
176
     1
 41
-30.0
176
     1
 62
     5
 63
     7
421
 16777215
176
     1
 74
     2
176
     1
 91
        2
176
     1
 64
     7
176
     1
 65
   257
176
     1
 75
     2
176
     1
175
     1
176
     1
 42
40.0
176
     1
 92
        0
176
     1
 66
   257
176
     1
 43
1.0
176
     1
 76
     1
176
     1
 77
     6
176
     1
 78
     2
176
     1
 67
     7
176
     1
 79
     3
176
     1
170
     0
176
     1
171
     0
176
     1
290
     0
176
     1
 93
        1
176
     1
 44
0.0
176
     1
173
     0
176
     1
  0
VISUALSTYLE
  5
30
102
{ACAD_REACTORS
330
2A
102
}
330
2A
100
AcDbVisualStyle
  2
3dWireframe
 70
     5
177
     2
291
     0
 71
     0
176
     1
 72
     2
176
     1
 73
     0
176
     1
 90
        0
176
     1
 40
-0.6
176
     1
 41
-30.0
176
     1
 62
     5
 63
     7
421
 16777215
176
     1
 74
     1
176
     1
 91
        4
176
     1
 64
     7
176
     1
 65
   257
176
     1
 75
     1
176
     1
175
     1
176
     1
 42
1.0
176
     1
 92
        0
176
     1
 66
   257
176
     1
 43
1.0
176
     1
 76
     1
176
     1
 77
     6
176
     1
 78
     2
176
     1
 67
     7
176
     1
 79
     5
176
     1
170
     0
176
     1
171
     0
176
     1
290
     0
176
     1
 93
        1
176
     1
 44
0.0
176
     1
173
     0
176
     1
  0
VISUALSTYLE
  5
32
102
{ACAD_REACTORS
330
2A
102
}
330
2A
100
AcDbVisualStyle
  2
Basic
 70
     7
177
     2
291
     1
 71
     1
176
     1
 72
     0
176
     1
 73
     1
176
     1
 90
        0
176
     1
 40
-0.6
176
     1
 41
-30.0
176
     1
 62
     5
 63
     7
421
 16777215
176
     1
 74
     0
176
     1
 91
        4
176
     1
 64
     7
176
     1
 65
   257
176
     1
 75
     1
176
     1
175
     1
176
     1
 42
1.0
176
     1
 92
        8
176
     1
 66
     7
176
     1
 43
1.0
176
     1
 76
     1
176
     1
 77
     6
176
     1
 78
     2
176
     1
 67
     7
176
     1
 79
     5
176
     1
170
     0
176
     1
171
     0
176
     1
290
     0
176
     1
 93
        1
176
     1
 44
0.0
176
     1
173
     0
176
     1
  0
VISUALSTYLE
  5
36
102
{ACAD_REACTORS
330
2A
102
}
330
2A
100
AcDbVisualStyle
  2
Brighten
 70
    12
177
     2
291
     1
 71
     2
176
     1
 72
     2
176
     1
 73
     0
176
     1
 90
        0
176
     1
 40
-0.6
176
     1
 41
-30.0
176
     1
 62
     5
 63
     7
421
 16777215
176
     1
 74
     1
176
     1
 91
        4
176
     1
 64
     7
176
     1
 65
   257
176
     1
 75
     1
176
     1
175
     1
176
     1
 42
1.0
176
     1
 92
        8
176
     1
 66
     7
176
     1
 43
1.0
176
     1
 76
     1
176
     1
 77
     6
176
     1
 78
     2
176
     1
 67
     7
176
     1
 79
     5
176
     1
170
     0
176
     1
171
     0
176
     1
290
     0
176
     1
 93
        1
176
     1
 44
50.0
176
     1
173
     0
176
     1
  0
VISUALSTYLE
  5
3A
102
{ACAD_REACTORS
330
2A
102
}
330
2A
100
AcDbVisualStyle
  2
ColorChange
 70
    16
177
     2
291
     1
 71
     2
176
     1
 72
     2
176
     1
 73
     3
176
     1
 90
        0
176
     1
 40
-0.6
176
     1
 41
-30.0
176
     1
 62
     5
 63
     8
421
  8421504
176
     1
 74
     1
176
     1
 91
        4
176
     1
 64
     7
176
     1
 65
   257
176
     1
 75
     1
176
     1
175
     1
176
     1
 42
1.0
176
     1
 92
        8
176
     1
 66
     8
424
  8421504
176
     1
 43
1.0
176
     1
 76
     1
176
     1
 77
     6
176
     1
 78
     2
176
     1
 67
     7
176
     1
 79
     5
176
     1
170
     0
176
     1
171
     0
176
     1
290
     0
176
     1
 93
        1
176
     1
 44
0.0
176
     1
173
     0
176
     1
  0
VISUALSTYLE
  5
34
102
{ACAD_REACTORS
330
2A
102
}
330
2A
100
AcDbVisualStyle
  2
Conceptual
 70
     9
177
     2
291
     0
 71
     3
176
     1
 72
     2
176
     1
 73
     0
176
     1
 90
        0
176
     1
 40
-0.6
176
     1
 41
-30.0
176
     1
 62
     5
 63
     7
421
 16777215
176
     1
 74
     2
176
     1
 91
        2
176
     1
 64
     7
176
     1
 65
   257
176
     1
 75
     1
176
     1
175
     1
176
     1
 42
40.0
176
     1
 92
        8
176
     1
 66
     7
176
     1
 43
1.0
176
     1
 76
     1
176
     1
 77
     6
176
     1
 78
     2
176
     1
 67
     7
176
     1
 79
     3
176
     1
170
     0
176
     1
171
     0
176
     1
290
     0
176
     1
 93
        1
176
     1
 44
0.0
176
     1
173
     0
176
     1
  0
VISUALSTYLE
  5
35
102
{ACAD_REACTORS
330
2A
102
}
330
2A
100
AcDbVisualStyle
  2
Dim
 70
    11
177
     2
291
     1
 71
     2
176
     1
 72
     2
176
     1
 73
     0
176
     1
 90
        0
176
     1
 40
-0.6
176
     1
 41
-30.0
176
     1
 62
     5
 63
     7
421
 16777215
176
     1
 74
     1
176
     1
 91
        4
176
     1
 64
     7
176
     1
 65
   257
176
     1
 75
     1
176
     1
175
     1
176
     1
 42
1.0
176
     1
 92
        8
176
     1
 66
     7
176
     1
 43
1.0
176
     1
 76
     1
176
     1
 77
     6
176
     1
 78
     2
176
     1
 67
     7
176
     1
 79
     5
176
     1
170
     0
176
     1
171
     0
176
     1
290
     0
176
     1
 93
        1
176
     1
 44
-50.0
176
     1
173
     0
176
     1
  0
VISUALSTYLE
  5
39
102
{ACAD_REACTORS
330
2A
102
}
330
2A
100
AcDbVisualStyle
  2
Facepattern
 70
    15
177
     2
291
     1
 71
     2
176
     1
 72
     2
176
     1
 73
     0
176
     1
 90
        0
176
     1
 40
-0.6
176
     1
 41
-30.0
176
     1
 62
     5
 63
     7
421
 16777215
176
     1
 74
     1
176
     1
 91
        4
176
     1
 64
     7
176
     1
 65
   257
176
     1
 75
     1
176
     1
175
     1
176
     1
 42
1.0
176
     1
 92
        8
176
     1
 66
     7
176
     1
 43
1.0
176
     1
 76
     1
176
     1
 77
     6
176
     1
 78
     2
176
     1
 67
     7
176
     1
 79
     5
176
     1
170
     0
176
     1
171
     0
176
     1
290
     0
176
     1
 93
        1
176
     1
 44
0.0
176
     1
173
     0
176
     1
  0
VISUALSTYLE
  5
2B
102
{ACAD_REACTORS
330
2A
102
}
330
2A
100
AcDbVisualStyle
  2
Flat
 70
     0
177
     2
291
     1
 71
     2
176
     1
 72
     1
176
     1
 73
     1
176
     1
 90
        2
176
     1
 40
-0.6
176
     1
 41
30.0
176
     1
 62
     5
 63
     7
421
 16777215
176
     1
 74
     0
176
     1
 91
        4
176
     1
 64
     7
176
     1
 65
   257
176
     1
 75
     1
176
     1
175
     1
176
     1
 42
1.0
176
     1
 92
        8
176
     1
 66
     7
176
     1
 43
1.0
176
     1
 76
     1
176
     1
 77
     6
176
     1
 78
     2
176
     1
 67
     7
176
     1
 79
     5
176
     1
170
     0
176
     1
171
     0
176
     1
290
     0
176
     1
 93
       13
176
     1
 44
0.0
176
     1
173
     0
176
     1
  0
VISUALSTYLE
  5
2C
102
{ACAD_REACTORS
330
2A
102
}
330
2A
100
AcDbVisualStyle
  2
FlatWithEdges
 70
     1
177
     2
291
     1
 71
     2
176
     1
 72
     1
176
     1
 73
     1
176
     1
 90
        2
176
     1
 40
-0.6
176
     1
 41
30.0
176
     1
 62
     5
 63
     7
421
 16777215
176
     1
 74
     1
176
     1
 91
        4
176
     1
 64
     7
176
     1
 65
   257
176
     1
 75
     1
176
     1
175
     1
176
     1
 42
1.0
176
     1
 92
        0
176
     1
 66
   257
176
     1
 43
1.0
176
     1
 76
     1
176
     1
 77
     6
176
     1
 78
     2
176
     1
 67
     7
176
     1
 79
     5
176
     1
170
     0
176
     1
171
     0
176
     1
290
     0
176
     1
 93
       13
176
     1
 44
0.0
176
     1
173
     0
176
     1
  0
VISUALSTYLE
  5
2D
102
{ACAD_REACTORS
330
2A
102
}
330
2A
100
AcDbVisualStyle
  2
Gouraud
 70
     2
177
     2
291
     1
 71
     2
176
     1
 72
     2
176
     1
 73
     1
176
     1
 90
        2
176
     1
 40
-0.6
176
     1
 41
30.0
176
     1
 62
     5
 63
     7
421
 16777215
176
     1
 74
     0
176
     1
 91
        4
176
     1
 64
     7
176
     1
 65
   257
176
     1
 75
     1
176
     1
175
     1
176
     1
 42
1.0
176
     1
 92
        0
176
     1
 66
     7
176
     1
 43
1.0
176
     1
 76
     1
176
     1
 77
     6
176
     1
 78
     2
176
     1
 67
     7
176
     1
 79
     5
176
     1
170
     0
176
     1
171
     0
176
     1
290
     0
176
     1
 93
       13
176
     1
 44
0.0
176
     1
173
     0
176
     1
  0
VISUALSTYLE
  5
2E
102
{ACAD_REACTORS
330
2A
102
}
330
2A
100
AcDbVisualStyle
  2
GouraudWithEdges
 70
     3
177
     2
291
     1
 71
     2
176
     1
 72
     2
176
     1
 73
     1
176
     1
 90
        2
176
     1
 40
-0.6
176
     1
 41
30.0
176
     1
 62
     5
 63
     7
421
 16777215
176
     1
 74
     1
176
     1
 91
        4
176
     1
 64
     7
176
     1
 65
   257
176
     1
 75
     1
176
     1
175
     1
176
     1
 42
1.0
176
     1
 92
        0
176
     1
 66
   257
176
     1
 43
1.0
176
     1
 76
     1
176
     1
 77
     6
176
     1
 78
     2
176
     1
 67
     7
176
     1
 79
     5
176
     1
170
     0
176
     1
171
     0
176
     1
290
     0
176
     1
 93
       13
176
     1
 44
0.0
176
     1
173
     0
176
     1
  0
VISUALSTYLE
  5
38
102
{ACAD_REACTORS
330
2A
102
}
330
2A
100
AcDbVisualStyle
  2
Linepattern
 70
    14
177
     2
291
     1
 71
     2
176
     1
 72
     2
176
     1
 73
     0
176
     1
 90
        0
176
     1
 40
-0.6
176
     1
 41
-30.0
176
     1
 62
     5
 63
     7
421
 16777215
176
     1
 74
     1
176
     1
 91
        4
176
     1
 64
     7
176
     1
 65
   257
176
     1
 75
     7
176
     1
175
     7
176
     1
 42
1.0
176
     1
 92
        8
176
     1
 66
     7
176
     1
 43
1.0
176
     1
 76
     1
176
     1
 77
     6
176
     1
 78
     2
176
     1
 67
     7
176
     1
 79
     5
176
     1
170
     0
176
     1
171
     0
176
     1
290
     0
176
     1
 93
        1
176
     1
 44
0.0
176
     1
173
     0
176
     1
  0
VISUALSTYLE
  5
33
102
{ACAD_REACTORS
330
2A
102
}
330
2A
100
AcDbVisualStyle
  2
Realistic
 70
     8
177
     2
291
     0
 71
     2
176
     1
 72
     2
176
     1
 73
     0
176
     1
 90
        0
176
     1
 40
-0.6
176
     1
 41
-30.0
176
     1
 62
     5
 63
     7
421
 16777215
176
     1
 74
     1
176
     1
 91
        0
176
     1
 64
     7
176
     1
 65
   257
176
     1
 75
     1
176
     1
175
     1
176
     1
 42
1.0
176
     1
 92
        8
176
     1
 66
     8
424
  7895160
176
     1
 43
1.0
176
     1
 76
     1
176
     1
 77
     6
176
     1
 78
     2
176
     1
 67
     7
176
     1
 79
     5
176
     1
170
     0
176
     1
171
     0
176
     1
290
     0
176
     1
 93
       13
176
     1
 44
0.0
176
     1
173
     0
176
     1
  0
VISUALSTYLE
  5
37
102
{ACAD_REACTORS
330
2A
102
}
330
2A
100
AcDbVisualStyle
  2
Thicken
 70
    13
177
     2
291
     1
 71
     2
176
     1
 72
     2
176
     1
 73
     0
176
     1
 90
        0
176
     1
 40
-0.6
176
     1
 41
-30.0
176
     1
 62
     5
 63
     7
421
 16777215
176
     1
 74
     1
176
     1
 91
        4
176
     1
 64
     7
176
     1
 65
   257
176
     1
 75
     1
176
     1
175
     1
176
     1
 42
1.0
176
     1
 92
       12
176
     1
 66
     7
176
     1
 43
1.0
176
     1
 76
     1
176
     1
 77
     6
176
     1
 78
     2
176
     1
 67
     7
176
     1
 79
     5
176
     1
170
     0
176
     1
171
     0
176
     1
290
     0
176
     1
 93
        1
176
     1
 44
0.0
176
     1
173
     0
176
     1
  0
ENDSEC
  0
EOF
