  0
SECTION
  2
HEADER
  9
$ACADVER
  1
AC1024
  9
$ACADMAINTVER
 70
     6
  9
$DWGCODEPAGE
  3
UNDEFINED
  9
$INSBASE
 10
0.0
 20
0.0
 30
0.0
  9
$EXTMIN
 10
1.000000000000000E+20
 20
1.000000000000000E+20
 30
1.000000000000000E+20
  9
$EXTMAX
 10
-1.000000000000000E+20
 20
-1.000000000000000E+20
 30
-1.000000000000000E+20
  9
$LIMMIN
 10
0.0
 20
0.0
  9
$LIMMAX
 10
12.0
 20
9.0
  9
$ORTHOMODE
 70
     0
  9
$REGENMODE
 70
     1
  9
$FILLMODE
 70
     1
  9
$QTEXTMODE
 70
     0
  9
$MIRRTEXT
 70
     1
  9
$LTSCALE
 40
1.0
  9
$ATTMODE
 70
     1
  9
$TEXTSIZE
 40
0.2
  9
$TRACEWID
 40
0.05
  9
$TEXTSTYLE
  7
Standard
  9
$CLAYER
  8
0
  9
$CELTYPE
  6
ByLayer
  9
$CECOLOR
 62
   256
  9
$CELTSCALE
 40
1.0
  9
$DISPSILH
 70
     0
  9
$DIMSCALE
 40
1.0
  9
$DIMASZ
 40
0.18
  9
$DIMEXO
 40
0.0625
  9
$DIMDLI
 40
0.38
  9
$DIMRND
 40
0.0
  9
$DIMDLE
 40
0.0
  9
$DIMEXE
 40
0.18
  9
$DIMTP
 40
0.0
  9
$DIMTM
 40
0.0
  9
$DIMTXT
 40
0.18
  9
$DIMCEN
 40
0.09
  9
$DIMTSZ
 40
0.0
  9
$DIMTOL
 70
     0
  9
$DIMLIM
 70
     0
  9
$DIMTIH
 70
     1
  9
$DIMTOH
 70
     1
  9
$DIMSE1
 70
     0
  9
$DIMSE2
 70
     0
  9
$DIMTAD
 70
     0
  9
$DIMZIN
 70
     0
  9
$DIMBLK
  1

  9
$DIMASO
 70
     1
  9
$DIMSHO
 70
     1
  9
$DIMPOST
  1

  9
$DIMAPOST
  1

  9
$DIMALT
 70
     0
  9
$DIMALTD
 70
     2
  9
$DIMALTF
 40
25.4
  9
$DIMLFAC
 40
1.0
  9
$DIMTOFL
 70
     0
  9
$DIMTVP
 40
0.0
  9
$DIMTIX
 70
     0
  9
$DIMSOXD
 70
     0
  9
$DIMSAH
 70
     0
  9
$DIMBLK1
  1

  9
$DIMBLK2
  1

  9
$DIMSTYLE
  2
Standard
  9
$DIMCLRD
 70
     0
  9
$DIMCLRE
 70
     0
  9
$DIMCLRT
 70
     0
  9
$DIMTFAC
 40
1.0
  9
$DIMGAP
 40
0.09
  9
$DIMJUST
 70
     0
  9
$DIMSD1
 70
     0
  9
$DIMSD2
 70
     0
  9
$DIMTOLJ
 70
     1
  9
$DIMTZIN
 70
     0
  9
$DIMALTZ
 70
     0
  9
$DIMALTTZ
 70
     0
  9
$DIMUPT
 70
     0
  9
$DIMDEC
 70
     4
  9
$DIMTDEC
 70
     4
  9
$DIMALTU
 70
     2
  9
$DIMALTTD
 70
     2
  9
$DIMTXSTY
  7
Standard
  9
$DIMAUNIT
 70
     0
  9
$DIMADEC
 70
     0
  9
$DIMALTRND
 40
0.0
  9
$DIMAZIN
 70
     0
  9
$DIMDSEP
 70
    46
  9
$DIMATFIT
 70
     3
  9
$DIMFRAC
 70
     0
  9
$DIMLDRBLK
  1

  9
$DIMLUNIT
 70
     2
  9
$DIMLWD
 70
    -2
  9
$DIMLWE
 70
    -2
  9
$DIMTMOVE
 70
     0
  9
$DIMFXL
 40
1.0
  9
$DIMFXLON
 70
     0
  9
$DIMJOGANG
 40
0.7853981633974483
  9
$DIMTFILL
 70
     0
  9
$DIMTFILLCLR
 70
     0
  9
$DIMARCSYM
 70
     0
  9
$DIMLTYPE
  6

  9
$DIMLTEX1
  6

  9
$DIMLTEX2
  6

  9
$DIMTXTDIRECTION
 70
     0
  9
$LUNITS
 70
     2
  9
$LUPREC
 70
     4
  9
$SKETCHINC
 40
0.1
  9
$FILLETRAD
 40
0.5
  9
$AUNITS
 70
     0
  9
$AUPREC
 70
     0
  9
$MENU
  1
.
  9
$ELEVATION
 40
0.0
  9
$PELEVATION
 40
0.0
  9
$THICKNESS
 40
0.0
  9
$LIMCHECK
 70
     0
  9
$CHAMFERA
 40
0.5
  9
$CHAMFERB
 40
0.5
  9
$CHAMFERC
 40
1.0
  9
$CHAMFERD
 40
0.0
  9
$SKPOLY
 70
     0
  9
$TDCREATE
 40
2458263.582986111
  9
$TDUCREATE
 40
2458263.207986111
  9
$TDUPDATE
 40
2458263.582986111
  9
$TDUUPDATE
 40
2458263.207986111
  9
$TDINDWG
 40
0.0000000116
  9
$TDUSRTIMER
 40
0.0000000116
  9
$USRTIMER
 70
     1
  9
$ANGBASE
 50
0.0
  9
$ANGDIR
 70
     0
  9
$PDMODE
 70
     0
  9
$PDSIZE
 40
0.0
  9
$PLINEWID
 40
0.0
  9
$SPLFRAME
 70
     0
  9
$SPLINETYPE
 70
     6
  9
$SPLINESEGS
 70
     8
  9
$HANDSEED
  5
D0
  9
$SURFTAB1
 70
     6
  9
$SURFTAB2
 70
     6
  9
$SURFTYPE
 70
     6
  9
$SURFU
 70
     6
  9
$SURFV
 70
     6
  9
$UCSBASE
  2

  9
$UCSNAME
  2

  9
$UCSORG
 10
0.0
 20
0.0
 30
0.0
  9
$UCSXDIR
 10
1.0
 20
0.0
 30
0.0
  9
$UCSYDIR
 10
0.0
 20
1.0
 30
0.0
  9
$UCSORTHOREF
  2

  9
$UCSORTHOVIEW
 70
     0
  9
$UCSORGTOP
 10
0.0
 20
0.0
 30
0.0
  9
$UCSORGBOTTOM
 10
0.0
 20
0.0
 30
0.0
  9
$UCSORGLEFT
 10
0.0
 20
0.0
 30
0.0
  9
$UCSORGRIGHT
 10
0.0
 20
0.0
 30
0.0
  9
$UCSORGFRONT
 10
0.0
 20
0.0
 30
0.0
  9
$UCSORGBACK
 10
0.0
 20
0.0
 30
0.0
  9
$PUCSBASE
  2

  9
$PUCSNAME
  2

  9
$PUCSORG
 10
0.0
 20
0.0
 30
0.0
  9
$PUCSXDIR
 10
1.0
 20
0.0
 30
0.0
  9
$PUCSYDIR
 10
0.0
 20
1.0
 30
0.0
  9
$PUCSORTHOREF
  2

  9
$PUCSORTHOVIEW
 70
     0
  9
$PUCSORGTOP
 10
0.0
 20
0.0
 30
0.0
  9
$PUCSORGBOTTOM
 10
0.0
 20
0.0
 30
0.0
  9
$PUCSORGLEFT
 10
0.0
 20
0.0
 30
0.0
  9
$PUCSORGRIGHT
 10
0.0
 20
0.0
 30
0.0
  9
$PUCSORGFRONT
 10
0.0
 20
0.0
 30
0.0
  9
$PUCSORGBACK
 10
0.0
 20
0.0
 30
0.0
  9
$USERI1
 70
     0
  9
$USERI2
 70
     0
  9
$USERI3
 70
     0
  9
$USERI4
 70
     0
  9
$USERI5
 70
     0
  9
$USERR1
 40
0.0
  9
$USERR2
 40
0.0
  9
$USERR3
 40
0.0
  9
$USERR4
 40
0.0
  9
$USERR5
 40
0.0
  9
$WORLDVIEW
 70
     1
  9
$SHADEDGE
 70
     3
  9
$SHADEDIF
 70
    70
  9
$TILEMODE
 70
     1
  9
$MAXACTVP
 70
    64
  9
$PINSBASE
 10
0.0
 20
0.0
 30
0.0
  9
$PLIMCHECK
 70
     0
  9
$PEXTMIN
 10
1.000000000000000E+20
 20
1.000000000000000E+20
 30
1.000000000000000E+20
  9
$PEXTMAX
 10
-1.000000000000000E+20
 20
-1.000000000000000E+20
 30
-1.000000000000000E+20
  9
$PLIMMIN
 10
0.0
 20
0.0
  9
$PLIMMAX
 10
12.0
 20
9.0
  9
$UNITMODE
 70
     0
  9
$VISRETAIN
 70
     1
  9
$PLINEGEN
 70
     0
  9
$PSLTSCALE
 70
     1
  9
$TREEDEPTH
 70
  3020
  9
$CMLSTYLE
  2
Standard
  9
$CMLJUST
 70
     0
  9
$CMLSCALE
 40
1.0
  9
$PROXYGRAPHICS
 70
     1
  9
$MEASUREMENT
 70
     0
  9
$CELWEIGHT
370
    -1
  9
$ENDCAPS
280
     0
  9
$JOINSTYLE
280
     0
  9
$LWDISPLAY
290
     1
  9
$INSUNITS
 70
     1
  9
$HYPERLINKBASE
  1

  9
$STYLESHEET
  1

  9
$XEDIT
290
     1
  9
$CEPSNTYPE
380
     0
  9
$PSTYLEMODE
290
     1
  9
$FINGERPRINTGUID
  2
{BFCC16CC-2846-381D-593E-60C5DFB96EB7}
  9
$VERSIONGUID
  2
{FAEB1C32-E019-11D5-929B-00C0DF256EC4}
  9
$EXTNAMES
290
     1
  9
$PSVPSCALE
 40
0.0
  9
$OLESTARTUP
290
     0
  9
$SORTENTS
280
   127
  9
$INDEXCTL
280
     0
  9
$HIDETEXT
280
     1
  9
$XCLIPFRAME
280
     2
  9
$HALOGAP
280
     0
  9
$OBSCOLOR
 70
   257
  9
$OBSLTYPE
280
     0
  9
$INTERSECTIONDISPLAY
280
     0
  9
$INTERSECTIONCOLOR
 70
   257
  9
$DIMASSOC
280
     2
  9
$PROJECTNAME
  1

  9
$CAMERADISPLAY
290
     0
  9
$LENSLENGTH
 40
50.0
  9
$CAMERAHEIGHT
 40
0.0
  9
$STEPSPERSEC
 40
2.0
  9
$STEPSIZE
 40
6.0
  9
$3DDWFPREC
 40
2.0
  9
$PSOLWIDTH
 40
0.25
  9
$PSOLHEIGHT
 40
4.0
  9
$LOFTANG1
 40
1.570796326794897
  9
$LOFTANG2
 40
1.570796326794897
  9
$LOFTMAG1
 40
0.0
  9
$LOFTMAG2
 40
0.0
  9
$LOFTPARAM
 70
     7
  9
$LOFTNORMALS
280
     1
  9
$LATITUDE
 40
37.795
  9
$LONGITUDE
 40
-122.394
  9
$NORTHDIRECTION
 40
0.0
  9
$TIMEZONE
 70
 -8000
  9
$LIGHTGLYPHDISPLAY
280
     1
  9
$TILEMODELIGHTSYNCH
280
     1
  9
$CMATERIAL
347
3C
  9
$SOLIDHIST
280
     1
  9
$SHOWHIST
280
     1
  9
$DWFFRAME
280
     2
  9
$DGNFRAME
280
     2
  9
$REALWORLDSCALE
290
     1
  9
$INTERFERECOLOR
 62
   256
  9
$CSHADOW
280
     0
  9
$SHADOWPLANELOCATION
 40
0.0
  0
ENDSEC
  0
SECTION
  2
CLASSES
  0
CLASS
  1
ACDBDICTIONARYWDFLT
  2
AcDbDictionaryWithDefault
  3
ObjectDBX Classes
 90
        0
 91
        4
280
     0
281
     0
  0
CLASS
  1
VISUALSTYLE
  2
AcDbVisualStyle
  3
ObjectDBX Classes
 90
     4095
 91
        4
280
     0
281
     0
  0
CLASS
  1
MATERIAL
  2
AcDbMaterial
  3
ObjectDBX Classes
 90
     1153
 91
        4
280
     0
281
     0
  0
CLASS
  1
SUN
  2
AcDbSun
  3
SCENEOE
 90
     1024
 91
        4
280
     0
281
     0
  0
ENDSEC
  0
SECTION
  2
TABLES
  0
TABLE
  2
VPORT
  5
8
330
0
100
AcDbSymbolTable
 70
     1
  0
VPORT
  5
29
330
8
100
AcDbSymbolTableRecord
100
AcDbViewportTableRecord
  2
*Active
 70
     0
 10
0.0
 20
0.0
 11
1.0
 21
1.0
 12
0.0
 22
0.0
 13
0.0
 23
0.0
 14
0.5
 24
0.5
 15
0.5
 25
0.5
 16
0.0
 26
0.0
 36
1.0
 17
105.0007777515277
 27
-148.5000416295416
 37
0.0
 40
297.0000832590831
 41
0.7070757462376333
 42
50.0
 43
0.0
 44
0.0
 50
0.0
 51
0.0
 71
     0
 72
   100
 73
     1
 74
     3
 75
     0
 76
     0
 77
     0
 78
     0
281
     0
 65
     1
110
0.0
120
0.0
130
0.0
111
1.0
121
0.0
131
0.0
112
0.0
122
1.0
132
0.0
 79
     0
146
0.0
 60
     3
 61
     5
292
     1
282
     1
141
0.0
142
0.0
 63
   250
361
3F
  0
ENDTAB
  0
TABLE
  2
LTYPE
  5
5
330
0
100
AcDbSymbolTable
 70
     1
  0
LTYPE
  5
14
330
5
100
AcDbSymbolTableRecord
100
AcDbLinetypeTableRecord
  2
ByBlock
 70
     0
  3

 72
    65
 73
     0
 40
0.0
  0
LTYPE
  5
15
330
5
100
AcDbSymbolTableRecord
100
AcDbLinetypeTableRecord
  2
ByLayer
 70
     0
  3

 72
    65
 73
     0
 40
0.0
  0
LTYPE
  5
16
330
5
100
AcDbSymbolTableRecord
100
AcDbLinetypeTableRecord
  2
Continuous
 70
     0
  3
Solid line
 72
    65
 73
     0
 40
0.0
  0
ENDTAB
  0
TABLE
  2
LAYER
  5
2
330
0
100
AcDbSymbolTable
 70
     2
  0
LAYER
  5
10
330
2
100
AcDbSymbolTableRecord
100
AcDbLayerTableRecord
  2
0
 70
     0
 62
     7
  6
Continuous
370
    -3
390
F
347
3E
  0
LAYER
  5
40
330
2
100
AcDbSymbolTableRecord
100
AcDbLayerTableRecord
  2
_U+30EC_U+30A4_U+30E4_U+30FC 1
 70
     0
 62
     7
  6
Continuous
370
    -3
390
F
347
3E
  0
ENDTAB
  0
TABLE
  2
STYLE
  5
3
330
0
100
AcDbSymbolTable
 70
     1
  0
STYLE
  5
11
330
3
100
AcDbSymbolTableRecord
100
AcDbTextStyleTableRecord
  2
Standard
 70
     0
 40
0.0
 41
1.0
 50
0.0
 71
     0
 42
0.2
  3
txt
  4

  0
ENDTAB
  0
TABLE
  2
VIEW
  5
6
330
0
100
AcDbSymbolTable
 70
     0
  0
ENDTAB
  0
TABLE
  2
UCS
  5
7
330
0
100
AcDbSymbolTable
 70
     0
  0
ENDTAB
  0
TABLE
  2
APPID
  5
9
330
0
100
AcDbSymbolTable
 70
     1
  0
APPID
  5
12
330
9
100
AcDbSymbolTableRecord
100
AcDbRegAppTableRecord
  2
ACAD
 70
     0
  0
ENDTAB
  0
TABLE
  2
DIMSTYLE
  5
A
330
0
100
AcDbSymbolTable
 70
     1
100
AcDbDimStyleTable
  0
DIMSTYLE
105
27
330
A
100
AcDbSymbolTableRecord
100
AcDbDimStyleTableRecord
  2
Standard
 70
     0
178
     0
340
11
  0
ENDTAB
  0
TABLE
  2
BLOCK_RECORD
  5
1
330
0
100
AcDbSymbolTable
 70
     7
  0
BLOCK_RECORD
  5
1F
330
1
100
AcDbSymbolTableRecord
100
AcDbBlockTableRecord
  2
*Model_Space
340
22
 70
     0
280
     1
281
     0
  0
BLOCK_RECORD
  5
1B
330
1
100
AcDbSymbolTableRecord
100
AcDbBlockTableRecord
  2
*Paper_Space
340
1E
 70
     0
280
     1
281
     0
  0
BLOCK_RECORD
  5
23
330
1
100
AcDbSymbolTableRecord
100
AcDbBlockTableRecord
  2
*Paper_Space0
340
26
 70
     0
280
     1
281
     0
  0
BLOCK_RECORD
  5
52
330
1
100
AcDbSymbolTableRecord
100
AcDbBlockTableRecord
  2
block 2
340
0
102
{BLKREFS
331
53
102
}
 70
     0
280
     1
281
     0
  0
BLOCK_RECORD
  5
70
330
1
100
AcDbSymbolTableRecord
100
AcDbBlockTableRecord
  2
block 3
340
0
102
{BLKREFS
331
71
102
}
 70
     0
280
     1
281
     0
  0
BLOCK_RECORD
  5
82
330
1
100
AcDbSymbolTableRecord
100
AcDbBlockTableRecord
  2
block 4
340
0
102
{BLKREFS
331
83
102
}
 70
     0
280
     1
281
     0
  0
BLOCK_RECORD
  5
92
330
1
100
AcDbSymbolTableRecord
100
AcDbBlockTableRecord
  2
block 5
340
0
102
{BLKREFS
331
93
102
}
 70
     0
280
     1
281
     0
  0
BLOCK_RECORD
  5
A2
330
1
100
AcDbSymbolTableRecord
100
AcDbBlockTableRecord
  2
block 6
340
0
102
{BLKREFS
331
A3
102
}
 70
     0
280
     1
281
     0
  0
BLOCK_RECORD
  5
B0
330
1
100
AcDbSymbolTableRecord
100
AcDbBlockTableRecord
  2
block 7
340
0
102
{BLKREFS
331
B1
102
}
 70
     0
280
     1
281
     0
  0
ENDTAB
  0
ENDSEC
  0
SECTION
  2
BLOCKS
  0
BLOCK
  5
20
330
1F
100
AcDbEntity
  8
0
100
AcDbBlockBegin
  2
*Model_Space
 70
     0
 10
0.0
 20
0.0
 30
0.0
  3
*Model_Space
  1

  0
ENDBLK
  5
21
330
1F
100
AcDbEntity
  8
0
100
AcDbBlockEnd
  0
BLOCK
  5
1C
330
1B
100
AcDbEntity
 67
     1
  8
0
100
AcDbBlockBegin
  2
*Paper_Space
 70
     0
 10
0.0
 20
0.0
 30
0.0
  3
*Paper_Space
  1

  0
ENDBLK
  5
1D
330
1B
100
AcDbEntity
 67
     1
  8
0
100
AcDbBlockEnd
  0
BLOCK
  5
24
330
23
100
AcDbEntity
  8
0
100
AcDbBlockBegin
  2
*Paper_Space0
 70
     0
 10
0.0
 20
0.0
 30
0.0
  3
*Paper_Space0
  1

  0
ENDBLK
  5
25
330
23
100
AcDbEntity
  8
0
100
AcDbBlockEnd
  0
BLOCK
  5
54
330
52
100
AcDbEntity
  8
0
100
AcDbBlockBegin
  2
block 2
 70
     0
 10
0.0
 20
0.0
 30
0.0
  3
block 2
  1

  0
SPLINE
  5
56
330
52
100
AcDbEntity
  8
_U+30EC_U+30A4_U+30E4_U+30FC 1
370
     0
100
AcDbSpline
210
0.0
220
0.0
230
1.0
 70
    11
 71
     3
 72
    44
 73
    40
 74
     0
 42
0.0000000001
 43
0.0000000001
 12
1.0
 22
0.0
 32
0.0
 13
1.0
 23
0.0
 33
0.0
 40
0.0
 40
0.0
 40
0.0
 40
0.0
 40
1.0
 40
1.0
 40
1.0
 40
2.0
 40
2.0
 40
2.0
 40
3.0
 40
3.0
 40
3.0
 40
4.0
 40
4.0
 40
4.0
 40
5.0
 40
5.0
 40
5.0
 40
6.0
 40
6.0
 40
6.0
 40
7.0
 40
7.0
 40
7.0
 40
8.0
 40
8.0
 40
8.0
 40
9.0
 40
9.0
 40
9.0
 40
10.0
 40
10.0
 40
10.0
 40
11.0
 40
11.0
 40
11.0
 40
12.0
 40
12.0
 40
12.0
 40
13.0
 40
13.0
 40
13.0
 40
13.0
 10
100.8872097187018
 20
-157.8632323824092
 30
0.0
 10
100.6543212638989
 20
-158.0217067747307
 30
0.0
 10
100.5547580043752
 20
-158.0957763276636
 30
0.0
 10
100.5030815720965
 20
-158.239781318947
 30
0.0
 10
100.5030815720965
 20
-158.239781318947
 30
0.0
 10
101.3347276222358
 20
-158.239781318947
 30
0.0
 10
101.3347276222358
 20
-158.239781318947
 30
0.0
 10
101.3347276222358
 20
-158.239781318947
 30
0.0
 10
101.3347276222358
 20
-158.4447645003194
 30
0.0
 10
101.3347276222358
 20
-158.4447645003194
 30
0.0
 10
101.3347276222358
 20
-158.4447645003194
 30
0.0
 10
100.2360866719896
 20
-158.4447645003194
 30
0.0
 10
100.2360866719896
 20
-158.4447645003194
 30
0.0
 10
100.2701931172936
 20
-158.0871635889504
 30
0.0
 10
100.3401285556441
 20
-158.0089599214353
 30
0.0
 10
100.751472956583
 20
-157.7106146524126
 30
0.0
 10
101.0250135381118
 20
-157.5118326429137
 30
0.0
 10
101.0952934860109
 20
-157.4443087714028
 30
0.0
 10
101.0952934860109
 20
-157.3068494615414
 30
0.0
 10
101.0952934860109
 20
-157.1883381768488
 30
0.0
 10
101.0184678566898
 20
-157.0570800388607
 30
0.0
 10
100.8079725225411
 20
-157.0570800388607
 30
0.0
 10
100.5299533168814
 20
-157.0570800388607
 30
0.0
 10
100.5209960686198
 20
-157.287556926824
 30
0.0
 10
100.5165174444889
 20
-157.4040011542254
 30
0.0
 10
100.5165174444889
 20
-157.4040011542254
 30
0.0
 10
100.2767387987155
 20
-157.4040011542254
 30
0.0
 10
100.2767387987155
 20
-157.4040011542254
 30
0.0
 10
100.2860405565257
 20
-157.2772216403682
 30
0.0
 10
100.2970648620785
 20
-157.1649115275491
 30
0.0
 10
100.3831922492098
 20
-157.0464002428565
 30
0.0
 10
100.5006700052568
 20
-156.8858587932438
 30
0.0
 10
100.6994520147557
 20
-156.8517523479399
 30
0.0
 10
100.8238199617732
 20
-156.8517523479399
 30
0.0
 10
101.1200981735047
 20
-156.8517523479399
 30
0.0
 10
101.3416178132063
 20
-157.0360649564007
 30
0.0
 10
101.3416178132063
 20
-157.3089165188325
 30
0.0
 10
101.3416178132063
 20
-157.5373263495046
 30
0.0
 10
101.2172498661888
 20
-157.6368896090283
 30
0.0
 10
100.8872097187018
 20
-157.8632323824092
 30
0.0
  0
HATCH
  5
57
330
52
100
AcDbEntity
  8
_U+30EC_U+30A4_U+30E4_U+30FC 1
 62
   179
420
  2234388
100
AcDbHatch
 10
0.0
 20
0.0
 30
0.0
210
0.0
220
0.0
230
1.0
  2
SOLID
 70
     1
 71
     0
 91
        1
 92
        1
 93
        1
 72
     4
 94
        3
 73
     0
 74
     1
 95
       44
 96
       40
 40
0.0
 40
0.0
 40
0.0
 40
0.0
 40
1.0
 40
1.0
 40
1.0
 40
2.0
 40
2.0
 40
2.0
 40
3.0
 40
3.0
 40
3.0
 40
4.0
 40
4.0
 40
4.0
 40
5.0
 40
5.0
 40
5.0
 40
6.0
 40
6.0
 40
6.0
 40
7.0
 40
7.0
 40
7.0
 40
8.0
 40
8.0
 40
8.0
 40
9.0
 40
9.0
 40
9.0
 40
10.0
 40
10.0
 40
10.0
 40
11.0
 40
11.0
 40
11.0
 40
12.0
 40
12.0
 40
12.0
 40
13.0
 40
13.0
 40
13.0
 40
13.0
 10
100.8872097187018
 20
-157.8632323824092
 10
100.6543212638989
 20
-158.0217067747307
 10
100.5547580043752
 20
-158.0957763276636
 10
100.5030815720965
 20
-158.239781318947
 10
100.5030815720965
 20
-158.239781318947
 10
101.3347276222358
 20
-158.239781318947
 10
101.3347276222358
 20
-158.239781318947
 10
101.3347276222358
 20
-158.239781318947
 10
101.3347276222358
 20
-158.4447645003194
 10
101.3347276222358
 20
-158.4447645003194
 10
101.3347276222358
 20
-158.4447645003194
 10
100.2360866719896
 20
-158.4447645003194
 10
100.2360866719896
 20
-158.4447645003194
 10
100.2701931172936
 20
-158.0871635889504
 10
100.3401285556441
 20
-158.0089599214353
 10
100.751472956583
 20
-157.7106146524126
 10
101.0250135381118
 20
-157.5118326429137
 10
101.0952934860109
 20
-157.4443087714028
 10
101.0952934860109
 20
-157.3068494615414
 10
101.0952934860109
 20
-157.1883381768488
 10
101.0184678566898
 20
-157.0570800388607
 10
100.8079725225411
 20
-157.0570800388607
 10
100.5299533168814
 20
-157.0570800388607
 10
100.5209960686198
 20
-157.287556926824
 10
100.5165174444889
 20
-157.4040011542254
 10
100.5165174444889
 20
-157.4040011542254
 10
100.2767387987155
 20
-157.4040011542254
 10
100.2767387987155
 20
-157.4040011542254
 10
100.2860405565257
 20
-157.2772216403682
 10
100.2970648620785
 20
-157.1649115275491
 10
100.3831922492098
 20
-157.0464002428565
 10
100.5006700052568
 20
-156.8858587932438
 10
100.6994520147557
 20
-156.8517523479399
 10
100.8238199617732
 20
-156.8517523479399
 10
101.1200981735047
 20
-156.8517523479399
 10
101.3416178132063
 20
-157.0360649564007
 10
101.3416178132063
 20
-157.3089165188325
 10
101.3416178132063
 20
-157.5373263495046
 10
101.2172498661888
 20
-157.6368896090283
 10
100.8872097187018
 20
-157.8632323824092
 97
        0
 97
        0
 75
     2
 76
     1
 98
        0
  0
SPLINE
  5
58
330
52
100
AcDbEntity
  8
_U+30EC_U+30A4_U+30E4_U+30FC 1
370
     0
100
AcDbSpline
210
0.0
220
0.0
230
1.0
 70
    11
 71
     3
 72
    29
 73
    25
 74
     0
 42
0.0000000001
 43
0.0000000001
 12
1.0
 22
0.0
 32
0.0
 13
1.0
 23
0.0
 33
0.0
 40
0.0
 40
0.0
 40
0.0
 40
0.0
 40
1.0
 40
1.0
 40
1.0
 40
2.0
 40
2.0
 40
2.0
 40
3.0
 40
3.0
 40
3.0
 40
4.0
 40
4.0
 40
4.0
 40
5.0
 40
5.0
 40
5.0
 40
6.0
 40
6.0
 40
6.0
 40
7.0
 40
7.0
 40
7.0
 40
8.0
 40
8.0
 40
8.0
 40
8.0
 10
102.4705756037226
 20
-158.2669975732805
 30
0.0
 10
102.3551649049668
 20
-158.4764593787837
 30
0.0
 10
102.1698187678603
 20
-158.4957519135011
 30
0.0
 10
102.0454508208428
 20
-158.4957519135011
 30
0.0
 10
101.8738850656774
 20
-158.4957519135011
 30
0.0
 10
101.7223008643264
 20
-158.4492431244502
 30
0.0
 10
101.6206705475115
 20
-158.2669975732805
 30
0.0
 10
101.5097384728865
 20
-158.0723496783639
 30
0.0
 10
101.4894124095235
 20
-157.8356716185272
 30
0.0
 10
101.4894124095235
 20
-157.6727186020749
 30
0.0
 10
101.4894124095235
 20
-157.5287136107914
 30
0.0
 10
101.5076714155953
 20
-157.2772216403682
 30
0.0
 10
101.6206705475115
 20
-157.0780951213208
 30
0.0
 10
101.7357367367188
 20
-156.8751789972395
 30
0.0
 10
101.9076470014328
 20
-156.8517523479399
 30
0.0
 10
102.0454508208428
 20
-156.8517523479399
 30
0.0
 10
102.2152940282656
 20
-156.8517523479399
 30
0.0
 10
102.3689452869078
 20
-156.8961940796996
 30
0.0
 10
102.4705756037226
 20
-157.0780951213208
 30
0.0
 10
102.5770290542169
 20
-157.2706759589462
 30
0.0
 10
102.6018337417107
 20
-157.4990857896183
 30
0.0
 10
102.6018337417107
 20
-157.6727186020749
 30
0.0
 10
102.6018337417107
 20
-157.8439398476918
 30
0.0
 10
102.579096111508
 20
-158.0747612452035
 30
0.0
 10
102.4705756037226
 20
-158.2669975732805
 30
0.0
  0
SPLINE
  5
59
330
52
100
AcDbEntity
  8
_U+30EC_U+30A4_U+30E4_U+30FC 1
370
     0
100
AcDbSpline
210
0.0
220
0.0
230
1.0
 70
    11
 71
     3
 72
    17
 73
    13
 74
     0
 42
0.0000000001
 43
0.0000000001
 12
1.0
 22
0.0
 32
0.0
 13
1.0
 23
0.0
 33
0.0
 40
0.0
 40
0.0
 40
0.0
 40
0.0
 40
1.0
 40
1.0
 40
1.0
 40
2.0
 40
2.0
 40
2.0
 40
3.0
 40
3.0
 40
3.0
 40
4.0
 40
4.0
 40
4.0
 40
4.0
 10
102.0454508208428
 20
-157.0443331855653
 30
0.0
 10
101.7788004302845
 20
-157.0443331855653
 30
0.0
 10
101.7291910552969
 20
-157.3278645440014
 30
0.0
 10
101.7291910552969
 20
-157.6727186020749
 30
0.0
 10
101.7291910552969
 20
-157.9920789535576
 30
0.0
 10
101.7674316151831
 20
-158.3011040185845
 30
0.0
 10
102.0454508208428
 20
-158.3011040185845
 30
0.0
 10
102.31003415411
 20
-158.3011040185845
 30
0.0
 10
102.3620550959373
 20
-158.0196397174395
 30
0.0
 10
102.3620550959373
 20
-157.6727186020749
 30
0.0
 10
102.3620550959373
 20
-157.3533582505922
 30
0.0
 10
102.3214029692113
 20
-157.0443331855653
 30
0.0
 10
102.0454508208428
 20
-157.0443331855653
 30
0.0
  0
HATCH
  5
5A
330
52
100
AcDbEntity
  8
_U+30EC_U+30A4_U+30E4_U+30FC 1
 62
   179
420
  2234388
100
AcDbHatch
 10
0.0
 20
0.0
 30
0.0
210
0.0
220
0.0
230
1.0
  2
SOLID
 70
     1
 71
     0
 91
        2
 92
        1
 93
        1
 72
     4
 94
        3
 73
     0
 74
     1
 95
       29
 96
       25
 40
0.0
 40
0.0
 40
0.0
 40
0.0
 40
1.0
 40
1.0
 40
1.0
 40
2.0
 40
2.0
 40
2.0
 40
3.0
 40
3.0
 40
3.0
 40
4.0
 40
4.0
 40
4.0
 40
5.0
 40
5.0
 40
5.0
 40
6.0
 40
6.0
 40
6.0
 40
7.0
 40
7.0
 40
7.0
 40
8.0
 40
8.0
 40
8.0
 40
8.0
 10
102.4705756037226
 20
-158.2669975732805
 10
102.3551649049668
 20
-158.4764593787837
 10
102.1698187678603
 20
-158.4957519135011
 10
102.0454508208428
 20
-158.4957519135011
 10
101.8738850656774
 20
-158.4957519135011
 10
101.7223008643264
 20
-158.4492431244502
 10
101.6206705475115
 20
-158.2669975732805
 10
101.5097384728865
 20
-158.0723496783639
 10
101.4894124095235
 20
-157.8356716185272
 10
101.4894124095235
 20
-157.6727186020749
 10
101.4894124095235
 20
-157.5287136107914
 10
101.5076714155953
 20
-157.2772216403682
 10
101.6206705475115
 20
-157.0780951213208
 10
101.7357367367188
 20
-156.8751789972395
 10
101.9076470014328
 20
-156.8517523479399
 10
102.0454508208428
 20
-156.8517523479399
 10
102.2152940282656
 20
-156.8517523479399
 10
102.3689452869078
 20
-156.8961940796996
 10
102.4705756037226
 20
-157.0780951213208
 10
102.5770290542169
 20
-157.2706759589462
 10
102.6018337417107
 20
-157.4990857896183
 10
102.6018337417107
 20
-157.6727186020749
 10
102.6018337417107
 20
-157.8439398476918
 10
102.579096111508
 20
-158.0747612452035
 10
102.4705756037226
 20
-158.2669975732805
 97
        0
 97
        0
 92
        1
 93
        1
 72
     4
 94
        3
 73
     0
 74
     1
 95
       17
 96
       13
 40
0.0
 40
0.0
 40
0.0
 40
0.0
 40
1.0
 40
1.0
 40
1.0
 40
2.0
 40
2.0
 40
2.0
 40
3.0
 40
3.0
 40
3.0
 40
4.0
 40
4.0
 40
4.0
 40
4.0
 10
102.0454508208428
 20
-157.0443331855653
 10
101.7788004302845
 20
-157.0443331855653
 10
101.7291910552969
 20
-157.3278645440014
 10
101.7291910552969
 20
-157.6727186020749
 10
101.7291910552969
 20
-157.9920789535576
 10
101.7674316151831
 20
-158.3011040185845
 10
102.0454508208428
 20
-158.3011040185845
 10
102.31003415411
 20
-158.3011040185845
 10
102.3620550959373
 20
-158.0196397174395
 10
102.3620550959373
 20
-157.6727186020749
 10
102.3620550959373
 20
-157.3533582505922
 10
102.3214029692113
 20
-157.0443331855653
 10
102.0454508208428
 20
-157.0443331855653
 97
        0
 97
        0
 75
     2
 76
     1
 98
        0
  0
ENDBLK
  5
55
330
52
100
AcDbEntity
  8
0
100
AcDbBlockEnd
  0
BLOCK
  5
72
330
70
100
AcDbEntity
  8
0
100
AcDbBlockBegin
  2
block 3
 70
     0
 10
0.0
 20
0.0
 30
0.0
  3
block 3
  1

  0
SPLINE
  5
74
330
70
100
AcDbEntity
  8
_U+30EC_U+30A4_U+30E4_U+30FC 1
370
     0
100
AcDbSpline
210
0.0
220
0.0
230
1.0
 70
    11
 71
     3
 72
    29
 73
    25
 74
     0
 42
0.0000000001
 43
0.0000000001
 12
1.0
 22
0.0
 32
0.0
 13
1.0
 23
0.0
 33
0.0
 40
0.0
 40
0.0
 40
0.0
 40
0.0
 40
1.0
 40
1.0
 40
1.0
 40
2.0
 40
2.0
 40
2.0
 40
3.0
 40
3.0
 40
3.0
 40
4.0
 40
4.0
 40
4.0
 40
5.0
 40
5.0
 40
5.0
 40
6.0
 40
6.0
 40
6.0
 40
7.0
 40
7.0
 40
7.0
 40
8.0
 40
8.0
 40
8.0
 40
8.0
 10
118.3317952178129
 20
-150.6047607045363
 30
0.0
 10
118.3317952178129
 20
-150.8896701011665
 30
0.0
 10
118.1939913984029
 20
-151.1607991158556
 30
0.0
 10
117.8450032257471
 20
-151.1607991158556
 30
0.0
 10
117.589032631193
 20
-151.1607991158556
 30
0.0
 10
117.4939479958001
 20
-151.0092149145046
 30
0.0
 10
117.4326252961627
 20
-150.8962157825885
 30
0.0
 10
117.3733696538164
 20
-151.0295409778676
 30
0.0
 10
117.2589924837061
 20
-151.111189740868
 30
0.0
 10
117.0984510340934
 20
-151.111189740868
 30
0.0
 10
116.823187904822
 20
-151.111189740868
 30
0.0
 10
116.6877956522517
 20
-150.8986273494281
 30
0.0
 10
116.6877956522517
 20
-150.6047607045363
 30
0.0
 10
116.6877956522517
 20
-150.3015923018343
 30
0.0
 10
116.8318006435351
 20
-150.0983316682046
 30
0.0
 10
117.0984510340934
 20
-150.0983316682046
 30
0.0
 10
117.2589924837061
 20
-150.0983316682046
 30
0.0
 10
117.3733696538164
 20
-150.1817029789476
 30
0.0
 10
117.4326252961627
 20
-150.3153726837753
 30
0.0
 10
117.4832681997959
 20
-150.2202880483824
 30
0.0
 10
117.5786973447373
 20
-150.0507893505082
 30
0.0
 10
117.8408691111648
 20
-150.0507893505082
 30
0.0
 10
118.2153509904115
 20
-150.0507893505082
 30
0.0
 10
118.3317952178129
 20
-150.3491346195308
 30
0.0
 10
118.3317952178129
 20
-150.6047607045363
 30
0.0
  0
SPLINE
  5
75
330
70
100
AcDbEntity
  8
_U+30EC_U+30A4_U+30E4_U+30FC 1
370
     0
100
AcDbSpline
210
0.0
220
0.0
230
1.0
 70
    11
 71
     3
 72
    17
 73
    13
 74
     0
 42
0.0000000001
 43
0.0000000001
 12
1.0
 22
0.0
 32
0.0
 13
1.0
 23
0.0
 33
0.0
 40
0.0
 40
0.0
 40
0.0
 40
0.0
 40
1.0
 40
1.0
 40
1.0
 40
2.0
 40
2.0
 40
2.0
 40
3.0
 40
3.0
 40
3.0
 40
4.0
 40
4.0
 40
4.0
 40
4.0
 10
116.8803764898771
 20
-150.6047607045363
 30
0.0
 10
116.8803764898771
 20
-150.7808050838326
 30
0.0
 10
116.97546112527
 20
-150.8714110950947
 30
0.0
 10
117.1108533778403
 20
-150.8714110950947
 30
0.0
 10
117.2338432866638
 20
-150.8714110950947
 30
0.0
 10
117.3523545713564
 20
-150.7945854657736
 30
0.0
 10
117.3523545713564
 20
-150.6047607045363
 30
0.0
 10
117.3523545713564
 20
-150.4145914337505
 30
0.0
 10
117.2338432866638
 20
-150.3377658044295
 30
0.0
 10
117.1108533778403
 20
-150.3377658044295
 30
0.0
 10
116.97546112527
 20
-150.3377658044295
 30
0.0
 10
116.8803764898771
 20
-150.4304388729827
 30
0.0
 10
116.8803764898771
 20
-150.6047607045363
 30
0.0
  0
SPLINE
  5
76
330
70
100
AcDbEntity
  8
_U+30EC_U+30A4_U+30E4_U+30FC 1
370
     0
100
AcDbSpline
210
0.0
220
0.0
230
1.0
 70
    11
 71
     3
 72
    17
 73
    13
 74
     0
 42
0.0000000001
 43
0.0000000001
 12
1.0
 22
0.0
 32
0.0
 13
1.0
 23
0.0
 33
0.0
 40
0.0
 40
0.0
 40
0.0
 40
0.0
 40
1.0
 40
1.0
 40
1.0
 40
2.0
 40
2.0
 40
2.0
 40
3.0
 40
3.0
 40
3.0
 40
4.0
 40
4.0
 40
4.0
 40
4.0
 10
117.540456784851
 20
-150.6047607045363
 30
0.0
 10
117.540456784851
 20
-150.7584119631784
 30
0.0
 10
117.6272731910793
 20
-150.9210204700823
 30
0.0
 10
117.8301893151605
 20
-150.9210204700823
 30
0.0
 10
118.0355170060814
 20
-150.9210204700823
 30
0.0
 10
118.1371473228963
 20
-150.7856282175119
 30
0.0
 10
118.1371473228963
 20
-150.6047607045363
 30
0.0
 10
118.1371473228963
 20
-150.4056341854889
 30
0.0
 10
118.0145019236214
 20
-150.2881564294419
 30
0.0
 10
117.8367349965825
 20
-150.2881564294419
 30
0.0
 10
117.6145263377839
 20
-150.2881564294419
 30
0.0
 10
117.540456784851
 20
-150.462133751447
 30
0.0
 10
117.540456784851
 20
-150.6047607045363
 30
0.0
  0
HATCH
  5
77
330
70
100
AcDbEntity
  8
_U+30EC_U+30A4_U+30E4_U+30FC 1
 62
   179
420
  2234388
100
AcDbHatch
 10
0.0
 20
0.0
 30
0.0
210
0.0
220
0.0
230
1.0
  2
SOLID
 70
     1
 71
     0
 91
        3
 92
        1
 93
        1
 72
     4
 94
        3
 73
     0
 74
     1
 95
       29
 96
       25
 40
0.0
 40
0.0
 40
0.0
 40
0.0
 40
1.0
 40
1.0
 40
1.0
 40
2.0
 40
2.0
 40
2.0
 40
3.0
 40
3.0
 40
3.0
 40
4.0
 40
4.0
 40
4.0
 40
5.0
 40
5.0
 40
5.0
 40
6.0
 40
6.0
 40
6.0
 40
7.0
 40
7.0
 40
7.0
 40
8.0
 40
8.0
 40
8.0
 40
8.0
 10
118.3317952178129
 20
-150.6047607045363
 10
118.3317952178129
 20
-150.8896701011665
 10
118.1939913984029
 20
-151.1607991158556
 10
117.8450032257471
 20
-151.1607991158556
 10
117.589032631193
 20
-151.1607991158556
 10
117.4939479958001
 20
-151.0092149145046
 10
117.4326252961627
 20
-150.8962157825885
 10
117.3733696538164
 20
-151.0295409778676
 10
117.2589924837061
 20
-151.111189740868
 10
117.0984510340934
 20
-151.111189740868
 10
116.823187904822
 20
-151.111189740868
 10
116.6877956522517
 20
-150.8986273494281
 10
116.6877956522517
 20
-150.6047607045363
 10
116.6877956522517
 20
-150.3015923018343
 10
116.8318006435351
 20
-150.0983316682046
 10
117.0984510340934
 20
-150.0983316682046
 10
117.2589924837061
 20
-150.0983316682046
 10
117.3733696538164
 20
-150.1817029789476
 10
117.4326252961627
 20
-150.3153726837753
 10
117.4832681997959
 20
-150.2202880483824
 10
117.5786973447373
 20
-150.0507893505082
 10
117.8408691111648
 20
-150.0507893505082
 10
118.2153509904115
 20
-150.0507893505082
 10
118.3317952178129
 20
-150.3491346195308
 10
118.3317952178129
 20
-150.6047607045363
 97
        0
 97
        0
 92
        1
 93
        1
 72
     4
 94
        3
 73
     0
 74
     1
 95
       17
 96
       13
 40
0.0
 40
0.0
 40
0.0
 40
0.0
 40
1.0
 40
1.0
 40
1.0
 40
2.0
 40
2.0
 40
2.0
 40
3.0
 40
3.0
 40
3.0
 40
4.0
 40
4.0
 40
4.0
 40
4.0
 10
116.8803764898771
 20
-150.6047607045363
 10
116.8803764898771
 20
-150.7808050838326
 10
116.97546112527
 20
-150.8714110950947
 10
117.1108533778403
 20
-150.8714110950947
 10
117.2338432866638
 20
-150.8714110950947
 10
117.3523545713564
 20
-150.7945854657736
 10
117.3523545713564
 20
-150.6047607045363
 10
117.3523545713564
 20
-150.4145914337505
 10
117.2338432866638
 20
-150.3377658044295
 10
117.1108533778403
 20
-150.3377658044295
 10
116.97546112527
 20
-150.3377658044295
 10
116.8803764898771
 20
-150.4304388729827
 10
116.8803764898771
 20
-150.6047607045363
 97
        0
 97
        0
 92
        1
 93
        1
 72
     4
 94
        3
 73
     0
 74
     1
 95
       17
 96
       13
 40
0.0
 40
0.0
 40
0.0
 40
0.0
 40
1.0
 40
1.0
 40
1.0
 40
2.0
 40
2.0
 40
2.0
 40
3.0
 40
3.0
 40
3.0
 40
4.0
 40
4.0
 40
4.0
 40
4.0
 10
117.540456784851
 20
-150.6047607045363
 10
117.540456784851
 20
-150.7584119631784
 10
117.6272731910793
 20
-150.9210204700823
 10
117.8301893151605
 20
-150.9210204700823
 10
118.0355170060814
 20
-150.9210204700823
 10
118.1371473228963
 20
-150.7856282175119
 10
118.1371473228963
 20
-150.6047607045363
 10
118.1371473228963
 20
-150.4056341854889
 10
118.0145019236214
 20
-150.2881564294419
 10
117.8367349965825
 20
-150.2881564294419
 10
117.6145263377839
 20
-150.2881564294419
 10
117.540456784851
 20
-150.462133751447
 10
117.540456784851
 20
-150.6047607045363
 97
        0
 97
        0
 75
     2
 76
     1
 98
        0
  0
POLYLINE
  5
78
330
70
100
AcDbEntity
  8
_U+30EC_U+30A4_U+30E4_U+30FC 1
370
     0
100
AcDb2dPolyline
 66
     1
 10
0.0
 20
0.0
 30
0.0
  0
VERTEX
  5
79
330
78
100
AcDbEntity
  8
_U+30EC_U+30A4_U+30E4_U+30FC 1
370
     0
100
AcDbVertex
100
AcDb2dVertex
 10
118.2808078046312
 20
-149.8172118766082
 30
0.0
  0
VERTEX
  5
7A
330
78
100
AcDbEntity
  8
_U+30EC_U+30A4_U+30E4_U+30FC 1
370
     0
100
AcDbVertex
100
AcDb2dVertex
 10
118.0293158342079
 20
-149.8172118766082
 30
0.0
  0
VERTEX
  5
7B
330
78
100
AcDbEntity
  8
_U+30EC_U+30A4_U+30E4_U+30FC 1
370
     0
100
AcDbVertex
100
AcDb2dVertex
 10
118.0293158342079
 20
-149.5481499192102
 30
0.0
  0
VERTEX
  5
7C
330
78
100
AcDbEntity
  8
_U+30EC_U+30A4_U+30E4_U+30FC 1
370
     0
100
AcDbVertex
100
AcDb2dVertex
 10
118.2808078046312
 20
-149.5481499192102
 30
0.0
  0
VERTEX
  5
7D
330
78
100
AcDbEntity
  8
_U+30EC_U+30A4_U+30E4_U+30FC 1
370
     0
100
AcDbVertex
100
AcDb2dVertex
 10
118.2808078046312
 20
-149.8172118766082
 30
0.0
  0
SEQEND
  5
7E
330
78
100
AcDbEntity
  8
_U+30EC_U+30A4_U+30E4_U+30FC 1
370
     0
  0
HATCH
  5
7F
330
70
100
AcDbEntity
  8
_U+30EC_U+30A4_U+30E4_U+30FC 1
 62
   179
420
  2234388
100
AcDbHatch
 10
0.0
 20
0.0
 30
0.0
210
0.0
220
0.0
230
1.0
  2
SOLID
 70
     1
 71
     0
 91
        1
 92
        1
 93
        4
 72
     1
 10
118.2808078046312
 20
-149.8172118766082
 11
118.0293158342079
 21
-149.8172118766082
 72
     1
 10
118.0293158342079
 20
-149.8172118766082
 11
118.0293158342079
 21
-149.5481499192102
 72
     1
 10
118.0293158342079
 20
-149.5481499192102
 11
118.2808078046312
 21
-149.5481499192102
 72
     1
 10
118.2808078046312
 20
-149.5481499192102
 11
118.2808078046312
 21
-149.8172118766082
 97
        0
 75
     2
 76
     1
 98
        0
  0
SPLINE
  5
80
330
70
100
AcDbEntity
  8
_U+30EC_U+30A4_U+30E4_U+30FC 1
370
     0
100
AcDbSpline
210
0.0
220
0.0
230
1.0
 70
    11
 71
     3
 72
    53
 73
    49
 74
     0
 42
0.0000000001
 43
0.0000000001
 12
1.0
 22
0.0
 32
0.0
 13
1.0
 23
0.0
 33
0.0
 40
0.0
 40
0.0
 40
0.0
 40
0.0
 40
1.0
 40
1.0
 40
1.0
 40
2.0
 40
2.0
 40
2.0
 40
3.0
 40
3.0
 40
3.0
 40
4.0
 40
4.0
 40
4.0
 40
5.0
 40
5.0
 40
5.0
 40
6.0
 40
6.0
 40
6.0
 40
7.0
 40
7.0
 40
7.0
 40
8.0
 40
8.0
 40
8.0
 40
9.0
 40
9.0
 40
9.0
 40
10.0
 40
10.0
 40
10.0
 40
11.0
 40
11.0
 40
11.0
 40
12.0
 40
12.0
 40
12.0
 40
13.0
 40
13.0
 40
13.0
 40
14.0
 40
14.0
 40
14.0
 40
15.0
 40
15.0
 40
15.0
 40
16.0
 40
16.0
 40
16.0
 40
16.0
 10
118.3317952178129
 20
-148.7812716641936
 30
0.0
 10
118.3317952178129
 20
-148.8646429749366
 30
0.0
 10
118.3145697403866
 20
-148.9735079922705
 30
0.0
 10
118.251179983458
 20
-149.0816839905074
 30
0.0
 10
118.1412814374786
 20
-149.2673746371623
 30
0.0
 10
118.0100232994906
 20
-149.2897677578165
 30
0.0
 10
117.9021918108022
 20
-149.3100938211794
 30
0.0
 10
117.9021918108022
 20
-149.3100938211794
 30
0.0
 10
117.9021918108022
 20
-149.0727267422457
 30
0.0
 10
117.9021918108022
 20
-149.0727267422457
 30
0.0
 10
118.1009738203011
 20
-149.0141601189965
 30
0.0
 10
118.1306016414743
 20
-148.8784233568776
 30
0.0
 10
118.1306016414743
 20
-148.7788600973539
 30
0.0
 10
118.1306016414743
 20
-148.6296874628426
 30
0.0
 10
118.0313828914991
 20
-148.4670789559388
 30
0.0
 10
117.7984944366962
 20
-148.4670789559388
 30
0.0
 10
117.5425238421421
 20
-148.4670789559388
 30
0.0
 10
117.4729329133401
 20
-148.6589707744672
 30
0.0
 10
117.4729329133401
 20
-148.7878173456156
 30
0.0
 10
117.4729329133401
 20
-148.8219237909195
 30
0.0
 10
117.4729329133401
 20
-148.9735079922705
 30
0.0
 10
117.6017794844884
 20
-149.0682481181149
 30
0.0
 10
117.6017794844884
 20
-149.0682481181149
 30
0.0
 10
117.5828314593196
 20
-149.256005822061
 30
0.0
 10
117.5828314593196
 20
-149.256005822061
 30
0.0
 10
117.5828314593196
 20
-149.256005822061
 30
0.0
 10
116.7367160081422
 20
-149.1271592509127
 30
0.0
 10
116.7367160081422
 20
-149.1271592509127
 30
0.0
 10
116.7367160081422
 20
-149.1271592509127
 30
0.0
 10
116.7367160081422
 20
-148.2951686912248
 30
0.0
 10
116.7367160081422
 20
-148.2951686912248
 30
0.0
 10
116.7367160081422
 20
-148.2951686912248
 30
0.0
 10
116.9313639030588
 20
-148.2951686912248
 30
0.0
 10
116.9313639030588
 20
-148.2951686912248
 30
0.0
 10
116.9313639030588
 20
-148.2951686912248
 30
0.0
 10
116.9313639030588
 20
-148.952837419359
 30
0.0
 10
116.9313639030588
 20
-148.952837419359
 30
0.0
 10
116.9313639030588
 20
-148.952837419359
 30
0.0
 10
117.3544216286475
 20
-149.0231173672581
 30
0.0
 10
117.3544216286475
 20
-149.0231173672581
 30
0.0
 10
117.3203151833435
 20
-148.9576605530384
 30
0.0
 10
117.2803520757146
 20
-148.869466108616
 30
0.0
 10
117.2803520757146
 20
-148.7426865947588
 30
0.0
 10
117.2803520757146
 20
-148.4715575800696
 30
0.0
 10
117.4663872319181
 20
-148.2183430619038
 30
0.0
 10
117.7795464115273
 20
-148.2183430619038
 30
0.0
 10
118.0968397057188
 20
-148.2183430619038
 30
0.0
 10
118.3317952178129
 20
-148.4577771981286
 30
0.0
 10
118.3317952178129
 20
-148.7812716641936
 30
0.0
  0
HATCH
  5
81
330
70
100
AcDbEntity
  8
_U+30EC_U+30A4_U+30E4_U+30FC 1
 62
   179
420
  2234388
100
AcDbHatch
 10
0.0
 20
0.0
 30
0.0
210
0.0
220
0.0
230
1.0
  2
SOLID
 70
     1
 71
     0
 91
        1
 92
        1
 93
        1
 72
     4
 94
        3
 73
     0
 74
     1
 95
       53
 96
       49
 40
0.0
 40
0.0
 40
0.0
 40
0.0
 40
1.0
 40
1.0
 40
1.0
 40
2.0
 40
2.0
 40
2.0
 40
3.0
 40
3.0
 40
3.0
 40
4.0
 40
4.0
 40
4.0
 40
5.0
 40
5.0
 40
5.0
 40
6.0
 40
6.0
 40
6.0
 40
7.0
 40
7.0
 40
7.0
 40
8.0
 40
8.0
 40
8.0
 40
9.0
 40
9.0
 40
9.0
 40
10.0
 40
10.0
 40
10.0
 40
11.0
 40
11.0
 40
11.0
 40
12.0
 40
12.0
 40
12.0
 40
13.0
 40
13.0
 40
13.0
 40
14.0
 40
14.0
 40
14.0
 40
15.0
 40
15.0
 40
15.0
 40
16.0
 40
16.0
 40
16.0
 40
16.0
 10
118.3317952178129
 20
-148.7812716641936
 10
118.3317952178129
 20
-148.8646429749366
 10
118.3145697403866
 20
-148.9735079922705
 10
118.251179983458
 20
-149.0816839905074
 10
118.1412814374786
 20
-149.2673746371623
 10
118.0100232994906
 20
-149.2897677578165
 10
117.9021918108022
 20
-149.3100938211794
 10
117.9021918108022
 20
-149.3100938211794
 10
117.9021918108022
 20
-149.0727267422457
 10
117.9021918108022
 20
-149.0727267422457
 10
118.1009738203011
 20
-149.0141601189965
 10
118.1306016414743
 20
-148.8784233568776
 10
118.1306016414743
 20
-148.7788600973539
 10
118.1306016414743
 20
-148.6296874628426
 10
118.0313828914991
 20
-148.4670789559388
 10
117.7984944366962
 20
-148.4670789559388
 10
117.5425238421421
 20
-148.4670789559388
 10
117.4729329133401
 20
-148.6589707744672
 10
117.4729329133401
 20
-148.7878173456156
 10
117.4729329133401
 20
-148.8219237909195
 10
117.4729329133401
 20
-148.9735079922705
 10
117.6017794844884
 20
-149.0682481181149
 10
117.6017794844884
 20
-149.0682481181149
 10
117.5828314593196
 20
-149.256005822061
 10
117.5828314593196
 20
-149.256005822061
 10
117.5828314593196
 20
-149.256005822061
 10
116.7367160081422
 20
-149.1271592509127
 10
116.7367160081422
 20
-149.1271592509127
 10
116.7367160081422
 20
-149.1271592509127
 10
116.7367160081422
 20
-148.2951686912248
 10
116.7367160081422
 20
-148.2951686912248
 10
116.7367160081422
 20
-148.2951686912248
 10
116.9313639030588
 20
-148.2951686912248
 10
116.9313639030588
 20
-148.2951686912248
 10
116.9313639030588
 20
-148.2951686912248
 10
116.9313639030588
 20
-148.952837419359
 10
116.9313639030588
 20
-148.952837419359
 10
116.9313639030588
 20
-148.952837419359
 10
117.3544216286475
 20
-149.0231173672581
 10
117.3544216286475
 20
-149.0231173672581
 10
117.3203151833435
 20
-148.9576605530384
 10
117.2803520757146
 20
-148.869466108616
 10
117.2803520757146
 20
-148.7426865947588
 10
117.2803520757146
 20
-148.4715575800696
 10
117.4663872319181
 20
-148.2183430619038
 10
117.7795464115273
 20
-148.2183430619038
 10
118.0968397057188
 20
-148.2183430619038
 10
118.3317952178129
 20
-148.4577771981286
 10
118.3317952178129
 20
-148.7812716641936
 97
        0
 97
        0
 75
     2
 76
     1
 98
        0
  0
ENDBLK
  5
73
330
70
100
AcDbEntity
  8
0
100
AcDbBlockEnd
  0
BLOCK
  5
84
330
82
100
AcDbEntity
  8
0
100
AcDbBlockBegin
  2
block 4
 70
     0
 10
0.0
 20
0.0
 30
0.0
  3
block 4
  1

  0
SPLINE
  5
86
330
82
100
AcDbEntity
  8
_U+30EC_U+30A4_U+30E4_U+30FC 1
370
     0
100
AcDbSpline
210
0.0
220
0.0
230
1.0
 70
    11
 71
     3
 72
    26
 73
    22
 74
     0
 42
0.0000000001
 43
0.0000000001
 12
1.0
 22
0.0
 32
0.0
 13
1.0
 23
0.0
 33
0.0
 40
0.0
 40
0.0
 40
0.0
 40
0.0
 40
1.0
 40
1.0
 40
1.0
 40
2.0
 40
2.0
 40
2.0
 40
3.0
 40
3.0
 40
3.0
 40
4.0
 40
4.0
 40
4.0
 40
5.0
 40
5.0
 40
5.0
 40
6.0
 40
6.0
 40
6.0
 40
7.0
 40
7.0
 40
7.0
 40
7.0
 10
114.0474744723562
 20
-145.836404043402
 30
0.0
 10
114.0474744723562
 20
-145.836404043402
 30
0.0
 10
112.9433213693336
 20
-145.836404043402
 30
0.0
 10
112.9433213693336
 20
-145.836404043402
 30
0.0
 10
112.9433213693336
 20
-145.836404043402
 30
0.0
 10
112.9433213693336
 20
-146.1888373115431
 30
0.0
 10
112.9433213693336
 20
-146.1888373115431
 30
0.0
 10
112.9433213693336
 20
-146.1888373115431
 30
0.0
 10
112.7951822634679
 20
-146.1888373115431
 30
0.0
 10
112.7951822634679
 20
-146.1888373115431
 30
0.0
 10
112.7803683528813
 20
-145.8339924765623
 30
0.0
 10
112.617415336429
 20
-145.7843831015747
 30
0.0
 10
112.5033826758672
 20
-145.7526882231105
 30
0.0
 10
112.5033826758672
 20
-145.7526882231105
 30
0.0
 10
112.5033826758672
 20
-145.5966253976286
 30
0.0
 10
112.5033826758672
 20
-145.5966253976286
 30
0.0
 10
112.5033826758672
 20
-145.5966253976286
 30
0.0
 10
114.0474744723562
 20
-145.5966253976286
 30
0.0
 10
114.0474744723562
 20
-145.5966253976286
 30
0.0
 10
114.0474744723562
 20
-145.5966253976286
 30
0.0
 10
114.0474744723562
 20
-145.836404043402
 30
0.0
 10
114.0474744723562
 20
-145.836404043402
 30
0.0
  0
HATCH
  5
87
330
82
100
AcDbEntity
  8
_U+30EC_U+30A4_U+30E4_U+30FC 1
 62
   179
420
  2234388
100
AcDbHatch
 10
0.0
 20
0.0
 30
0.0
210
0.0
220
0.0
230
1.0
  2
SOLID
 70
     1
 71
     0
 91
        1
 92
        1
 93
        1
 72
     4
 94
        3
 73
     0
 74
     1
 95
       26
 96
       22
 40
0.0
 40
0.0
 40
0.0
 40
0.0
 40
1.0
 40
1.0
 40
1.0
 40
2.0
 40
2.0
 40
2.0
 40
3.0
 40
3.0
 40
3.0
 40
4.0
 40
4.0
 40
4.0
 40
5.0
 40
5.0
 40
5.0
 40
6.0
 40
6.0
 40
6.0
 40
7.0
 40
7.0
 40
7.0
 40
7.0
 10
114.0474744723562
 20
-145.836404043402
 10
114.0474744723562
 20
-145.836404043402
 10
112.9433213693336
 20
-145.836404043402
 10
112.9433213693336
 20
-145.836404043402
 10
112.9433213693336
 20
-145.836404043402
 10
112.9433213693336
 20
-146.1888373115431
 10
112.9433213693336
 20
-146.1888373115431
 10
112.9433213693336
 20
-146.1888373115431
 10
112.7951822634679
 20
-146.1888373115431
 10
112.7951822634679
 20
-146.1888373115431
 10
112.7803683528813
 20
-145.8339924765623
 10
112.617415336429
 20
-145.7843831015747
 10
112.5033826758672
 20
-145.7526882231105
 10
112.5033826758672
 20
-145.7526882231105
 10
112.5033826758672
 20
-145.5966253976286
 10
112.5033826758672
 20
-145.5966253976286
 10
112.5033826758672
 20
-145.5966253976286
 10
114.0474744723562
 20
-145.5966253976286
 10
114.0474744723562
 20
-145.5966253976286
 10
114.0474744723562
 20
-145.5966253976286
 10
114.0474744723562
 20
-145.836404043402
 10
114.0474744723562
 20
-145.836404043402
 97
        0
 97
        0
 75
     2
 76
     1
 98
        0
  0
POLYLINE
  5
88
330
82
100
AcDbEntity
  8
_U+30EC_U+30A4_U+30E4_U+30FC 1
370
     0
100
AcDb2dPolyline
 66
     1
 10
0.0
 20
0.0
 30
0.0
  0
VERTEX
  5
89
330
88
100
AcDbEntity
  8
_U+30EC_U+30A4_U+30E4_U+30FC 1
370
     0
100
AcDbVertex
100
AcDb2dVertex
 10
114.0474744723562
 20
-144.9968342736466
 30
0.0
  0
VERTEX
  5
8A
330
88
100
AcDbEntity
  8
_U+30EC_U+30A4_U+30E4_U+30FC 1
370
     0
100
AcDbVertex
100
AcDb2dVertex
 10
113.795982501933
 20
-144.9968342736466
 30
0.0
  0
VERTEX
  5
8B
330
88
100
AcDbEntity
  8
_U+30EC_U+30A4_U+30E4_U+30FC 1
370
     0
100
AcDbVertex
100
AcDb2dVertex
 10
113.795982501933
 20
-144.7277723162486
 30
0.0
  0
VERTEX
  5
8C
330
88
100
AcDbEntity
  8
_U+30EC_U+30A4_U+30E4_U+30FC 1
370
     0
100
AcDbVertex
100
AcDb2dVertex
 10
114.0474744723562
 20
-144.7277723162486
 30
0.0
  0
VERTEX
  5
8D
330
88
100
AcDbEntity
  8
_U+30EC_U+30A4_U+30E4_U+30FC 1
370
     0
100
AcDbVertex
100
AcDb2dVertex
 10
114.0474744723562
 20
-144.9968342736466
 30
0.0
  0
SEQEND
  5
8E
330
88
100
AcDbEntity
  8
_U+30EC_U+30A4_U+30E4_U+30FC 1
370
     0
  0
HATCH
  5
8F
330
82
100
AcDbEntity
  8
_U+30EC_U+30A4_U+30E4_U+30FC 1
 62
   179
420
  2234388
100
AcDbHatch
 10
0.0
 20
0.0
 30
0.0
210
0.0
220
0.0
230
1.0
  2
SOLID
 70
     1
 71
     0
 91
        1
 92
        1
 93
        4
 72
     1
 10
114.0474744723562
 20
-144.9968342736466
 11
113.795982501933
 21
-144.9968342736466
 72
     1
 10
113.795982501933
 20
-144.9968342736466
 11
113.795982501933
 21
-144.7277723162486
 72
     1
 10
113.795982501933
 20
-144.7277723162486
 11
114.0474744723562
 21
-144.7277723162486
 72
     1
 10
114.0474744723562
 20
-144.7277723162486
 11
114.0474744723562
 21
-144.9968342736466
 97
        0
 75
     2
 76
     1
 98
        0
  0
SPLINE
  5
90
330
82
100
AcDbEntity
  8
_U+30EC_U+30A4_U+30E4_U+30FC 1
370
     0
100
AcDbSpline
210
0.0
220
0.0
230
1.0
 70
    11
 71
     3
 72
    53
 73
    49
 74
     0
 42
0.0000000001
 43
0.0000000001
 12
1.0
 22
0.0
 32
0.0
 13
1.0
 23
0.0
 33
0.0
 40
0.0
 40
0.0
 40
0.0
 40
0.0
 40
1.0
 40
1.0
 40
1.0
 40
2.0
 40
2.0
 40
2.0
 40
3.0
 40
3.0
 40
3.0
 40
4.0
 40
4.0
 40
4.0
 40
5.0
 40
5.0
 40
5.0
 40
6.0
 40
6.0
 40
6.0
 40
7.0
 40
7.0
 40
7.0
 40
8.0
 40
8.0
 40
8.0
 40
9.0
 40
9.0
 40
9.0
 40
10.0
 40
10.0
 40
10.0
 40
11.0
 40
11.0
 40
11.0
 40
12.0
 40
12.0
 40
12.0
 40
13.0
 40
13.0
 40
13.0
 40
14.0
 40
14.0
 40
14.0
 40
15.0
 40
15.0
 40
15.0
 40
16.0
 40
16.0
 40
16.0
 40
16.0
 10
114.0984618855379
 20
-143.960894061232
 30
0.0
 10
114.0984618855379
 20
-144.0442653719751
 30
0.0
 10
114.0812364081116
 20
-144.153130389309
 30
0.0
 10
114.017846651183
 20
-144.2613063875458
 30
0.0
 10
113.9079481052036
 20
-144.4469970342008
 30
0.0
 10
113.7766899672156
 20
-144.4693901548549
 30
0.0
 10
113.6688584785272
 20
-144.4897162182179
 30
0.0
 10
113.6688584785272
 20
-144.4897162182179
 30
0.0
 10
113.6688584785272
 20
-144.2523491392841
 30
0.0
 10
113.6688584785272
 20
-144.2523491392841
 30
0.0
 10
113.8676404880262
 20
-144.1937825160349
 30
0.0
 10
113.8972683091993
 20
-144.058045753916
 30
0.0
 10
113.8972683091993
 20
-143.9584824943923
 30
0.0
 10
113.8972683091993
 20
-143.809309859881
 30
0.0
 10
113.7980495592241
 20
-143.6467013529772
 30
0.0
 10
113.5651611044212
 20
-143.6467013529772
 30
0.0
 10
113.3091905098672
 20
-143.6467013529772
 30
0.0
 10
113.2395995810651
 20
-143.8385931715056
 30
0.0
 10
113.2395995810651
 20
-143.967439742654
 30
0.0
 10
113.2395995810651
 20
-144.001546187958
 30
0.0
 10
113.2395995810651
 20
-144.153130389309
 30
0.0
 10
113.3684461522135
 20
-144.2478705151533
 30
0.0
 10
113.3684461522135
 20
-144.2478705151533
 30
0.0
 10
113.3494981270446
 20
-144.4356282190994
 30
0.0
 10
113.3494981270446
 20
-144.4356282190994
 30
0.0
 10
113.3494981270446
 20
-144.4356282190994
 30
0.0
 10
112.5033826758672
 20
-144.3067816479511
 30
0.0
 10
112.5033826758672
 20
-144.3067816479511
 30
0.0
 10
112.5033826758672
 20
-144.3067816479511
 30
0.0
 10
112.5033826758672
 20
-143.4747910882633
 30
0.0
 10
112.5033826758672
 20
-143.4747910882633
 30
0.0
 10
112.5033826758672
 20
-143.4747910882633
 30
0.0
 10
112.6980305707838
 20
-143.4747910882633
 30
0.0
 10
112.6980305707838
 20
-143.4747910882633
 30
0.0
 10
112.6980305707838
 20
-143.4747910882633
 30
0.0
 10
112.6980305707838
 20
-144.1324598163974
 30
0.0
 10
112.6980305707838
 20
-144.1324598163974
 30
0.0
 10
112.6980305707838
 20
-144.1324598163974
 30
0.0
 10
113.1210882963725
 20
-144.2027397642966
 30
0.0
 10
113.1210882963725
 20
-144.2027397642966
 30
0.0
 10
113.0869818510685
 20
-144.1372829500768
 30
0.0
 10
113.0470187434396
 20
-144.0490885056544
 30
0.0
 10
113.0470187434396
 20
-143.9223089917972
 30
0.0
 10
113.0470187434396
 20
-143.6511799771081
 30
0.0
 10
113.2330538996431
 20
-143.3979654589422
 30
0.0
 10
113.5462130792523
 20
-143.3979654589422
 30
0.0
 10
113.8635063734439
 20
-143.3979654589422
 30
0.0
 10
114.0984618855379
 20
-143.637399595167
 30
0.0
 10
114.0984618855379
 20
-143.960894061232
 30
0.0
  0
HATCH
  5
91
330
82
100
AcDbEntity
  8
_U+30EC_U+30A4_U+30E4_U+30FC 1
 62
   179
420
  2234388
100
AcDbHatch
 10
0.0
 20
0.0
 30
0.0
210
0.0
220
0.0
230
1.0
  2
SOLID
 70
     1
 71
     0
 91
        1
 92
        1
 93
        1
 72
     4
 94
        3
 73
     0
 74
     1
 95
       53
 96
       49
 40
0.0
 40
0.0
 40
0.0
 40
0.0
 40
1.0
 40
1.0
 40
1.0
 40
2.0
 40
2.0
 40
2.0
 40
3.0
 40
3.0
 40
3.0
 40
4.0
 40
4.0
 40
4.0
 40
5.0
 40
5.0
 40
5.0
 40
6.0
 40
6.0
 40
6.0
 40
7.0
 40
7.0
 40
7.0
 40
8.0
 40
8.0
 40
8.0
 40
9.0
 40
9.0
 40
9.0
 40
10.0
 40
10.0
 40
10.0
 40
11.0
 40
11.0
 40
11.0
 40
12.0
 40
12.0
 40
12.0
 40
13.0
 40
13.0
 40
13.0
 40
14.0
 40
14.0
 40
14.0
 40
15.0
 40
15.0
 40
15.0
 40
16.0
 40
16.0
 40
16.0
 40
16.0
 10
114.0984618855379
 20
-143.960894061232
 10
114.0984618855379
 20
-144.0442653719751
 10
114.0812364081116
 20
-144.153130389309
 10
114.017846651183
 20
-144.2613063875458
 10
113.9079481052036
 20
-144.4469970342008
 10
113.7766899672156
 20
-144.4693901548549
 10
113.6688584785272
 20
-144.4897162182179
 10
113.6688584785272
 20
-144.4897162182179
 10
113.6688584785272
 20
-144.2523491392841
 10
113.6688584785272
 20
-144.2523491392841
 10
113.8676404880262
 20
-144.1937825160349
 10
113.8972683091993
 20
-144.058045753916
 10
113.8972683091993
 20
-143.9584824943923
 10
113.8972683091993
 20
-143.809309859881
 10
113.7980495592241
 20
-143.6467013529772
 10
113.5651611044212
 20
-143.6467013529772
 10
113.3091905098672
 20
-143.6467013529772
 10
113.2395995810651
 20
-143.8385931715056
 10
113.2395995810651
 20
-143.967439742654
 10
113.2395995810651
 20
-144.001546187958
 10
113.2395995810651
 20
-144.153130389309
 10
113.3684461522135
 20
-144.2478705151533
 10
113.3684461522135
 20
-144.2478705151533
 10
113.3494981270446
 20
-144.4356282190994
 10
113.3494981270446
 20
-144.4356282190994
 10
113.3494981270446
 20
-144.4356282190994
 10
112.5033826758672
 20
-144.3067816479511
 10
112.5033826758672
 20
-144.3067816479511
 10
112.5033826758672
 20
-144.3067816479511
 10
112.5033826758672
 20
-143.4747910882633
 10
112.5033826758672
 20
-143.4747910882633
 10
112.5033826758672
 20
-143.4747910882633
 10
112.6980305707838
 20
-143.4747910882633
 10
112.6980305707838
 20
-143.4747910882633
 10
112.6980305707838
 20
-143.4747910882633
 10
112.6980305707838
 20
-144.1324598163974
 10
112.6980305707838
 20
-144.1324598163974
 10
112.6980305707838
 20
-144.1324598163974
 10
113.1210882963725
 20
-144.2027397642966
 10
113.1210882963725
 20
-144.2027397642966
 10
113.0869818510685
 20
-144.1372829500768
 10
113.0470187434396
 20
-144.0490885056544
 10
113.0470187434396
 20
-143.9223089917972
 10
113.0470187434396
 20
-143.6511799771081
 10
113.2330538996431
 20
-143.3979654589422
 10
113.5462130792523
 20
-143.3979654589422
 10
113.8635063734439
 20
-143.3979654589422
 10
114.0984618855379
 20
-143.637399595167
 10
114.0984618855379
 20
-143.960894061232
 97
        0
 97
        0
 75
     2
 76
     1
 98
        0
  0
ENDBLK
  5
85
330
82
100
AcDbEntity
  8
0
100
AcDbBlockEnd
  0
BLOCK
  5
94
330
92
100
AcDbEntity
  8
0
100
AcDbBlockBegin
  2
block 5
 70
     0
 10
0.0
 20
0.0
 30
0.0
  3
block 5
  1

  0
SPLINE
  5
96
330
92
100
AcDbEntity
  8
_U+30EC_U+30A4_U+30E4_U+30FC 1
370
     0
100
AcDbSpline
210
0.0
220
0.0
230
1.0
 70
    11
 71
     3
 72
    26
 73
    22
 74
     0
 42
0.0000000001
 43
0.0000000001
 12
1.0
 22
0.0
 32
0.0
 13
1.0
 23
0.0
 33
0.0
 40
0.0
 40
0.0
 40
0.0
 40
0.0
 40
1.0
 40
1.0
 40
1.0
 40
2.0
 40
2.0
 40
2.0
 40
3.0
 40
3.0
 40
3.0
 40
4.0
 40
4.0
 40
4.0
 40
5.0
 40
5.0
 40
5.0
 40
6.0
 40
6.0
 40
6.0
 40
7.0
 40
7.0
 40
7.0
 40
7.0
 10
114.0474744723562
 20
-154.4643011766617
 30
0.0
 10
114.0474744723562
 20
-154.4643011766617
 30
0.0
 10
112.9433213693336
 20
-154.4643011766617
 30
0.0
 10
112.9433213693336
 20
-154.4643011766617
 30
0.0
 10
112.9433213693336
 20
-154.4643011766617
 30
0.0
 10
112.9433213693336
 20
-154.8167344448028
 30
0.0
 10
112.9433213693336
 20
-154.8167344448028
 30
0.0
 10
112.9433213693336
 20
-154.8167344448028
 30
0.0
 10
112.7951822634679
 20
-154.8167344448028
 30
0.0
 10
112.7951822634679
 20
-154.8167344448028
 30
0.0
 10
112.7803683528813
 20
-154.461889609822
 30
0.0
 10
112.617415336429
 20
-154.4122802348344
 30
0.0
 10
112.5030381663187
 20
-154.3805853563701
 30
0.0
 10
112.5030381663187
 20
-154.3805853563701
 30
0.0
 10
112.5030381663187
 20
-154.2245225308883
 30
0.0
 10
112.5030381663187
 20
-154.2245225308883
 30
0.0
 10
112.5030381663187
 20
-154.2245225308883
 30
0.0
 10
114.0474744723562
 20
-154.2245225308883
 30
0.0
 10
114.0474744723562
 20
-154.2245225308883
 30
0.0
 10
114.0474744723562
 20
-154.2245225308883
 30
0.0
 10
114.0474744723562
 20
-154.4643011766617
 30
0.0
 10
114.0474744723562
 20
-154.4643011766617
 30
0.0
  0
HATCH
  5
97
330
92
100
AcDbEntity
  8
_U+30EC_U+30A4_U+30E4_U+30FC 1
 62
   179
420
  2234388
100
AcDbHatch
 10
0.0
 20
0.0
 30
0.0
210
0.0
220
0.0
230
1.0
  2
SOLID
 70
     1
 71
     0
 91
        1
 92
        1
 93
        1
 72
     4
 94
        3
 73
     0
 74
     1
 95
       26
 96
       22
 40
0.0
 40
0.0
 40
0.0
 40
0.0
 40
1.0
 40
1.0
 40
1.0
 40
2.0
 40
2.0
 40
2.0
 40
3.0
 40
3.0
 40
3.0
 40
4.0
 40
4.0
 40
4.0
 40
5.0
 40
5.0
 40
5.0
 40
6.0
 40
6.0
 40
6.0
 40
7.0
 40
7.0
 40
7.0
 40
7.0
 10
114.0474744723562
 20
-154.4643011766617
 10
114.0474744723562
 20
-154.4643011766617
 10
112.9433213693336
 20
-154.4643011766617
 10
112.9433213693336
 20
-154.4643011766617
 10
112.9433213693336
 20
-154.4643011766617
 10
112.9433213693336
 20
-154.8167344448028
 10
112.9433213693336
 20
-154.8167344448028
 10
112.9433213693336
 20
-154.8167344448028
 10
112.7951822634679
 20
-154.8167344448028
 10
112.7951822634679
 20
-154.8167344448028
 10
112.7803683528813
 20
-154.461889609822
 10
112.617415336429
 20
-154.4122802348344
 10
112.5030381663187
 20
-154.3805853563701
 10
112.5030381663187
 20
-154.3805853563701
 10
112.5030381663187
 20
-154.2245225308883
 10
112.5030381663187
 20
-154.2245225308883
 10
112.5030381663187
 20
-154.2245225308883
 10
114.0474744723562
 20
-154.2245225308883
 10
114.0474744723562
 20
-154.2245225308883
 10
114.0474744723562
 20
-154.2245225308883
 10
114.0474744723562
 20
-154.4643011766617
 10
114.0474744723562
 20
-154.4643011766617
 97
        0
 97
        0
 75
     2
 76
     1
 98
        0
  0
ENDBLK
  5
95
330
92
100
AcDbEntity
  8
0
100
AcDbBlockEnd
  0
BLOCK
  5
A4
330
A2
100
AcDbEntity
  8
0
100
AcDbBlockBegin
  2
block 6
 70
     0
 10
0.0
 20
0.0
 30
0.0
  3
block 6
  1

  0
SPLINE
  5
A6
330
A2
100
AcDbEntity
  8
_U+30EC_U+30A4_U+30E4_U+30FC 1
370
     0
100
AcDbSpline
210
0.0
220
0.0
230
1.0
 70
    11
 71
     3
 72
    32
 73
    28
 74
     0
 42
0.0000000001
 43
0.0000000001
 12
1.0
 22
0.0
 32
0.0
 13
1.0
 23
0.0
 33
0.0
 40
0.0
 40
0.0
 40
0.0
 40
0.0
 40
1.0
 40
1.0
 40
1.0
 40
2.0
 40
2.0
 40
2.0
 40
3.0
 40
3.0
 40
3.0
 40
4.0
 40
4.0
 40
4.0
 40
5.0
 40
5.0
 40
5.0
 40
6.0
 40
6.0
 40
6.0
 40
7.0
 40
7.0
 40
7.0
 40
8.0
 40
8.0
 40
8.0
 40
9.0
 40
9.0
 40
9.0
 40
9.0
 10
101.351264080565
 20
-139.9852538712537
 30
0.0
 10
100.7997042933765
 20
-139.9852538712537
 30
0.0
 10
100.7907470451148
 20
-139.430938007677
 30
0.0
 10
100.7907470451148
 20
-139.2173420875915
 30
0.0
 10
100.7907470451148
 20
-138.986692944854
 30
0.0
 10
100.8110731084778
 20
-138.3393595031756
 30
0.0
 10
101.3922607168394
 20
-138.3393595031756
 30
0.0
 10
101.5776068539459
 20
-138.3393595031756
 30
0.0
 10
101.8397786203734
 20
-138.4091226867519
 30
0.0
 10
101.8804307470993
 20
-138.74122989153
 30
0.0
 10
101.8804307470993
 20
-138.74122989153
 30
0.0
 10
101.6520209164273
 20
-138.74122989153
 30
0.0
 10
101.6520209164273
 20
-138.74122989153
 30
0.0
 10
101.640652101326
 20
-138.6842135612491
 30
0.0
 10
101.6068901655705
 20
-138.5360744553834
 30
0.0
 10
101.3898491499998
 20
-138.5360744553834
 30
0.0
 10
101.0777234990361
 20
-138.5360744553834
 30
0.0
 10
101.035004315019
 20
-138.8640475455791
 30
0.0
 10
101.021223933078
 20
-139.0692029817258
 30
0.0
 10
101.1207871926018
 20
-138.9909993142106
 30
0.0
 10
101.193134197792
 20
-138.9317436718643
 30
0.0
 10
101.3877820927086
 20
-138.9317436718643
 30
0.0
 10
101.579673911237
 20
-138.9317436718643
 30
0.0
 10
101.903168377302
 20
-139.0395751605526
 30
0.0
 10
101.903168377302
 20
-139.4457519182636
 30
0.0
 10
101.903168377302
 20
-139.7652845245205
 30
0.0
 10
101.6906059858621
 20
-139.9852538712537
 30
0.0
 10
101.351264080565
 20
-139.9852538712537
 30
0.0
  0
SPLINE
  5
A7
330
A2
100
AcDbEntity
  8
_U+30EC_U+30A4_U+30E4_U+30FC 1
370
     0
100
AcDbSpline
210
0.0
220
0.0
230
1.0
 70
    11
 71
     3
 72
    17
 73
    13
 74
     0
 42
0.0000000001
 43
0.0000000001
 12
1.0
 22
0.0
 32
0.0
 13
1.0
 23
0.0
 33
0.0
 40
0.0
 40
0.0
 40
0.0
 40
0.0
 40
1.0
 40
1.0
 40
1.0
 40
2.0
 40
2.0
 40
2.0
 40
3.0
 40
3.0
 40
3.0
 40
4.0
 40
4.0
 40
4.0
 40
4.0
 10
101.3695230866368
 20
-139.1263915667809
 30
0.0
 10
101.0890923141375
 20
-139.1263915667809
 30
0.0
 10
101.0484401874115
 20
-139.3379204295752
 30
0.0
 10
101.0484401874115
 20
-139.4541924022024
 30
0.0
 10
101.0484401874115
 20
-139.6298922719502
 30
0.0
 10
101.1500705042264
 20
-139.7926730336282
 30
0.0
 10
101.3467854564341
 20
-139.7926730336282
 30
0.0
 10
101.4756320275825
 20
-139.7926730336282
 30
0.0
 10
101.6633897315286
 20
-139.7334173912819
 30
0.0
 10
101.6633897315286
 20
-139.4478189755547
 30
0.0
 10
101.6633897315286
 20
-139.2237155142392
 30
0.0
 10
101.5142170970173
 20
-139.1263915667809
 30
0.0
 10
101.3695230866368
 20
-139.1263915667809
 30
0.0
  0
HATCH
  5
A8
330
A2
100
AcDbEntity
  8
_U+30EC_U+30A4_U+30E4_U+30FC 1
 62
   179
420
  2234388
100
AcDbHatch
 10
0.0
 20
0.0
 30
0.0
210
0.0
220
0.0
230
1.0
  2
SOLID
 70
     1
 71
     0
 91
        2
 92
        1
 93
        1
 72
     4
 94
        3
 73
     0
 74
     1
 95
       32
 96
       28
 40
0.0
 40
0.0
 40
0.0
 40
0.0
 40
1.0
 40
1.0
 40
1.0
 40
2.0
 40
2.0
 40
2.0
 40
3.0
 40
3.0
 40
3.0
 40
4.0
 40
4.0
 40
4.0
 40
5.0
 40
5.0
 40
5.0
 40
6.0
 40
6.0
 40
6.0
 40
7.0
 40
7.0
 40
7.0
 40
8.0
 40
8.0
 40
8.0
 40
9.0
 40
9.0
 40
9.0
 40
9.0
 10
101.351264080565
 20
-139.9852538712537
 10
100.7997042933765
 20
-139.9852538712537
 10
100.7907470451148
 20
-139.430938007677
 10
100.7907470451148
 20
-139.2173420875915
 10
100.7907470451148
 20
-138.986692944854
 10
100.8110731084778
 20
-138.3393595031756
 10
101.3922607168394
 20
-138.3393595031756
 10
101.5776068539459
 20
-138.3393595031756
 10
101.8397786203734
 20
-138.4091226867519
 10
101.8804307470993
 20
-138.74122989153
 10
101.8804307470993
 20
-138.74122989153
 10
101.6520209164273
 20
-138.74122989153
 10
101.6520209164273
 20
-138.74122989153
 10
101.640652101326
 20
-138.6842135612491
 10
101.6068901655705
 20
-138.5360744553834
 10
101.3898491499998
 20
-138.5360744553834
 10
101.0777234990361
 20
-138.5360744553834
 10
101.035004315019
 20
-138.8640475455791
 10
101.021223933078
 20
-139.0692029817258
 10
101.1207871926018
 20
-138.9909993142106
 10
101.193134197792
 20
-138.9317436718643
 10
101.3877820927086
 20
-138.9317436718643
 10
101.579673911237
 20
-138.9317436718643
 10
101.903168377302
 20
-139.0395751605526
 10
101.903168377302
 20
-139.4457519182636
 10
101.903168377302
 20
-139.7652845245205
 10
101.6906059858621
 20
-139.9852538712537
 10
101.351264080565
 20
-139.9852538712537
 97
        0
 97
        0
 92
        1
 93
        1
 72
     4
 94
        3
 73
     0
 74
     1
 95
       17
 96
       13
 40
0.0
 40
0.0
 40
0.0
 40
0.0
 40
1.0
 40
1.0
 40
1.0
 40
2.0
 40
2.0
 40
2.0
 40
3.0
 40
3.0
 40
3.0
 40
4.0
 40
4.0
 40
4.0
 40
4.0
 10
101.3695230866368
 20
-139.1263915667809
 10
101.0890923141375
 20
-139.1263915667809
 10
101.0484401874115
 20
-139.3379204295752
 10
101.0484401874115
 20
-139.4541924022024
 10
101.0484401874115
 20
-139.6298922719502
 10
101.1500705042264
 20
-139.7926730336282
 10
101.3467854564341
 20
-139.7926730336282
 10
101.4756320275825
 20
-139.7926730336282
 10
101.6633897315286
 20
-139.7334173912819
 10
101.6633897315286
 20
-139.4478189755547
 10
101.6633897315286
 20
-139.2237155142392
 10
101.5142170970173
 20
-139.1263915667809
 10
101.3695230866368
 20
-139.1263915667809
 97
        0
 97
        0
 75
     2
 76
     1
 98
        0
  0
ENDBLK
  5
A5
330
A2
100
AcDbEntity
  8
0
100
AcDbBlockEnd
  0
BLOCK
  5
B2
330
B0
100
AcDbEntity
  8
0
100
AcDbBlockBegin
  2
block 7
 70
     0
 10
0.0
 20
0.0
 30
0.0
  3
block 7
  1

  0
SPLINE
  5
B4
330
B0
100
AcDbEntity
  8
_U+30EC_U+30A4_U+30E4_U+30FC 1
370
     0
100
AcDbSpline
210
0.0
220
0.0
230
1.0
 70
    11
 71
     3
 72
    26
 73
    22
 74
     0
 42
0.0000000001
 43
0.0000000001
 12
1.0
 22
0.0
 32
0.0
 13
1.0
 23
0.0
 33
0.0
 40
0.0
 40
0.0
 40
0.0
 40
0.0
 40
1.0
 40
1.0
 40
1.0
 40
2.0
 40
2.0
 40
2.0
 40
3.0
 40
3.0
 40
3.0
 40
4.0
 40
4.0
 40
4.0
 40
5.0
 40
5.0
 40
5.0
 40
6.0
 40
6.0
 40
6.0
 40
7.0
 40
7.0
 40
7.0
 40
7.0
 10
91.73565807168414
 20
-143.3945203634569
 30
0.0
 10
91.73565807168414
 20
-143.3945203634569
 30
0.0
 10
91.73565807168414
 20
-142.2901950056601
 30
0.0
 10
91.73565807168414
 20
-142.2901950056601
 30
0.0
 10
91.73565807168414
 20
-142.2901950056601
 30
0.0
 10
91.40561792419722
 20
-142.2901950056601
 30
0.0
 10
91.40561792419722
 20
-142.2901950056601
 30
0.0
 10
91.40561792419722
 20
-142.2901950056601
 30
0.0
 10
91.40561792419722
 20
-142.1420558997943
 30
0.0
 10
91.40561792419722
 20
-142.1420558997943
 30
0.0
 10
91.7377251289753
 20
-142.127414243982
 30
0.0
 10
91.78423391802617
 20
-141.9644612275297
 30
0.0
 10
91.81386173919931
 20
-141.8502563121937
 30
0.0
 10
91.81386173919931
 20
-141.8502563121937
 30
0.0
 10
91.9599337877739
 20
-141.8502563121937
 30
0.0
 10
91.9599337877739
 20
-141.8502563121937
 30
0.0
 10
91.9599337877739
 20
-141.8502563121937
 30
0.0
 10
91.9599337877739
 20
-143.3945203634569
 30
0.0
 10
91.9599337877739
 20
-143.3945203634569
 30
0.0
 10
91.9599337877739
 20
-143.3945203634569
 30
0.0
 10
91.73565807168414
 20
-143.3945203634569
 30
0.0
 10
91.73565807168414
 20
-143.3945203634569
 30
0.0
  0
HATCH
  5
B5
330
B0
100
AcDbEntity
  8
_U+30EC_U+30A4_U+30E4_U+30FC 1
 62
   179
420
  2234388
100
AcDbHatch
 10
0.0
 20
0.0
 30
0.0
210
0.0
220
0.0
230
1.0
  2
SOLID
 70
     1
 71
     0
 91
        1
 92
        1
 93
        1
 72
     4
 94
        3
 73
     0
 74
     1
 95
       26
 96
       22
 40
0.0
 40
0.0
 40
0.0
 40
0.0
 40
1.0
 40
1.0
 40
1.0
 40
2.0
 40
2.0
 40
2.0
 40
3.0
 40
3.0
 40
3.0
 40
4.0
 40
4.0
 40
4.0
 40
5.0
 40
5.0
 40
5.0
 40
6.0
 40
6.0
 40
6.0
 40
7.0
 40
7.0
 40
7.0
 40
7.0
 10
91.73565807168414
 20
-143.3945203634569
 10
91.73565807168414
 20
-143.3945203634569
 10
91.73565807168414
 20
-142.2901950056601
 10
91.73565807168414
 20
-142.2901950056601
 10
91.73565807168414
 20
-142.2901950056601
 10
91.40561792419722
 20
-142.2901950056601
 10
91.40561792419722
 20
-142.2901950056601
 10
91.40561792419722
 20
-142.2901950056601
 10
91.40561792419722
 20
-142.1420558997943
 10
91.40561792419722
 20
-142.1420558997943
 10
91.7377251289753
 20
-142.127414243982
 10
91.78423391802617
 20
-141.9644612275297
 10
91.81386173919931
 20
-141.8502563121937
 10
91.81386173919931
 20
-141.8502563121937
 10
91.9599337877739
 20
-141.8502563121937
 10
91.9599337877739
 20
-141.8502563121937
 10
91.9599337877739
 20
-141.8502563121937
 10
91.9599337877739
 20
-143.3945203634569
 10
91.9599337877739
 20
-143.3945203634569
 10
91.9599337877739
 20
-143.3945203634569
 10
91.73565807168414
 20
-143.3945203634569
 10
91.73565807168414
 20
-143.3945203634569
 97
        0
 97
        0
 75
     2
 76
     1
 98
        0
  0
POLYLINE
  5
B6
330
B0
100
AcDbEntity
  8
_U+30EC_U+30A4_U+30E4_U+30FC 1
370
     0
100
AcDb2dPolyline
 66
     1
 10
0.0
 20
0.0
 30
0.0
  0
VERTEX
  5
B7
330
B6
100
AcDbEntity
  8
_U+30EC_U+30A4_U+30E4_U+30FC 1
370
     0
100
AcDbVertex
100
AcDb2dVertex
 10
92.5211398423211
 20
-143.3945203634569
 30
0.0
  0
VERTEX
  5
B8
330
B6
100
AcDbEntity
  8
_U+30EC_U+30A4_U+30E4_U+30FC 1
370
     0
100
AcDbVertex
100
AcDb2dVertex
 10
92.5211398423211
 20
-143.1428561382594
 30
0.0
  0
VERTEX
  5
B9
330
B6
100
AcDbEntity
  8
_U+30EC_U+30A4_U+30E4_U+30FC 1
370
     0
100
AcDbVertex
100
AcDb2dVertex
 10
92.77297632229288
 20
-143.1428561382594
 30
0.0
  0
VERTEX
  5
BA
330
B6
100
AcDbEntity
  8
_U+30EC_U+30A4_U+30E4_U+30FC 1
370
     0
100
AcDbVertex
100
AcDb2dVertex
 10
92.77297632229288
 20
-143.3945203634569
 30
0.0
  0
VERTEX
  5
BB
330
B6
100
AcDbEntity
  8
_U+30EC_U+30A4_U+30E4_U+30FC 1
370
     0
100
AcDbVertex
100
AcDb2dVertex
 10
92.5211398423211
 20
-143.3945203634569
 30
0.0
  0
SEQEND
  5
BC
330
B6
100
AcDbEntity
  8
_U+30EC_U+30A4_U+30E4_U+30FC 1
370
     0
  0
HATCH
  5
BD
330
B0
100
AcDbEntity
  8
_U+30EC_U+30A4_U+30E4_U+30FC 1
 62
   179
420
  2234388
100
AcDbHatch
 10
0.0
 20
0.0
 30
0.0
210
0.0
220
0.0
230
1.0
  2
SOLID
 70
     1
 71
     0
 91
        1
 92
        1
 93
        4
 72
     1
 10
92.5211398423211
 20
-143.3945203634569
 11
92.5211398423211
 21
-143.1428561382594
 72
     1
 10
92.5211398423211
 20
-143.1428561382594
 11
92.77297632229288
 21
-143.1428561382594
 72
     1
 10
92.77297632229288
 20
-143.1428561382594
 11
92.77297632229288
 21
-143.3945203634569
 72
     1
 10
92.77297632229288
 20
-143.3945203634569
 11
92.5211398423211
 21
-143.3945203634569
 97
        0
 75
     2
 76
     1
 98
        0
  0
SPLINE
  5
BE
330
B0
100
AcDbEntity
  8
_U+30EC_U+30A4_U+30E4_U+30FC 1
370
     0
100
AcDbSpline
210
0.0
220
0.0
230
1.0
 70
    11
 71
     3
 72
    53
 73
    49
 74
     0
 42
0.0000000001
 43
0.0000000001
 12
1.0
 22
0.0
 32
0.0
 13
1.0
 23
0.0
 33
0.0
 40
0.0
 40
0.0
 40
0.0
 40
0.0
 40
1.0
 40
1.0
 40
1.0
 40
2.0
 40
2.0
 40
2.0
 40
3.0
 40
3.0
 40
3.0
 40
4.0
 40
4.0
 40
4.0
 40
5.0
 40
5.0
 40
5.0
 40
6.0
 40
6.0
 40
6.0
 40
7.0
 40
7.0
 40
7.0
 40
8.0
 40
8.0
 40
8.0
 40
9.0
 40
9.0
 40
9.0
 40
10.0
 40
10.0
 40
10.0
 40
11.0
 40
11.0
 40
11.0
 40
12.0
 40
12.0
 40
12.0
 40
13.0
 40
13.0
 40
13.0
 40
14.0
 40
14.0
 40
14.0
 40
15.0
 40
15.0
 40
15.0
 40
16.0
 40
16.0
 40
16.0
 40
16.0
 10
93.49024520232189
 20
-143.4453355218644
 30
0.0
 10
93.41204153480672
 20
-143.4453355218644
 30
0.0
 10
93.31041121799184
 20
-143.4284545539867
 30
0.0
 10
93.20878090117698
 20
-143.3648925422838
 30
0.0
 10
93.0354925982689
 20
-143.25482174153
 30
0.0
 10
93.01413300626037
 20
-143.1237358583163
 30
0.0
 10
92.99518498109148
 20
-143.015904369628
 30
0.0
 10
92.99518498109148
 20
-143.015904369628
 30
0.0
 10
93.2173936398901
 20
-143.015904369628
 30
0.0
 10
93.2173936398901
 20
-143.015904369628
 30
0.0
 10
93.27217065810557
 20
-143.2146863791269
 30
0.0
 10
93.3992946815113
 20
-143.2443142003
 30
0.0
 10
93.49231225961304
 20
-143.2443142003
 30
0.0
 10
93.63183862676566
 20
-143.2443142003
 30
0.0
 10
93.7841118472137
 20
-143.1449231955506
 30
0.0
 10
93.7841118472137
 20
-142.912206995522
 30
0.0
 10
93.7841118472137
 20
-142.6562364009679
 30
0.0
 10
93.60427786288366
 20
-142.5864732173916
 30
0.0
 10
93.48369952089992
 20
-142.5864732173916
 30
0.0
 10
93.45200464243561
 20
-142.5864732173916
 30
0.0
 10
93.31041121799184
 20
-142.5864732173916
 30
0.0
 10
93.2215277544724
 20
-142.7154920433142
 30
0.0
 10
93.2215277544724
 20
-142.7154920433142
 30
0.0
 10
93.04582788472466
 20
-142.696371763371
 30
0.0
 10
93.04582788472466
 20
-142.696371763371
 30
0.0
 10
93.04582788472466
 20
-142.696371763371
 30
0.0
 10
93.1664062267084
 20
-141.8502563121937
 30
0.0
 10
93.1664062267084
 20
-141.8502563121937
 30
0.0
 10
93.1664062267084
 20
-141.8502563121937
 30
0.0
 10
93.94499780637487
 20
-141.8502563121937
 30
0.0
 10
93.94499780637487
 20
-141.8502563121937
 30
0.0
 10
93.94499780637487
 20
-141.8502563121937
 30
0.0
 10
93.94499780637487
 20
-142.0449042071103
 30
0.0
 10
93.94499780637487
 20
-142.0449042071103
 30
0.0
 10
93.94499780637487
 20
-142.0449042071103
 30
0.0
 10
93.32935924316072
 20
-142.0449042071103
 30
0.0
 10
93.32935924316072
 20
-142.0449042071103
 30
0.0
 10
93.32935924316072
 20
-142.0449042071103
 30
0.0
 10
93.26390242894097
 20
-142.467961932699
 30
0.0
 10
93.26390242894097
 20
-142.467961932699
 30
0.0
 10
93.32522512857842
 20
-142.4340277421693
 30
0.0
 10
93.40756291067589
 20
-142.3938923797661
 30
0.0
 10
93.52607419536848
 20
-142.3938923797661
 30
0.0
 10
93.7799777326314
 20
-142.3938923797661
 30
0.0
 10
94.01700030201658
 20
-142.5800997907439
 30
0.0
 10
94.01700030201658
 20
-142.8930867155788
 30
0.0
 10
94.01700030201658
 20
-143.2105522645446
 30
0.0
 10
93.79272458592682
 20
-143.4453355218644
 30
0.0
 10
93.49024520232189
 20
-143.4453355218644
 30
0.0
  0
HATCH
  5
BF
330
B0
100
AcDbEntity
  8
_U+30EC_U+30A4_U+30E4_U+30FC 1
 62
   179
420
  2234388
100
AcDbHatch
 10
0.0
 20
0.0
 30
0.0
210
0.0
220
0.0
230
1.0
  2
SOLID
 70
     1
 71
     0
 91
        1
 92
        1
 93
        1
 72
     4
 94
        3
 73
     0
 74
     1
 95
       53
 96
       49
 40
0.0
 40
0.0
 40
0.0
 40
0.0
 40
1.0
 40
1.0
 40
1.0
 40
2.0
 40
2.0
 40
2.0
 40
3.0
 40
3.0
 40
3.0
 40
4.0
 40
4.0
 40
4.0
 40
5.0
 40
5.0
 40
5.0
 40
6.0
 40
6.0
 40
6.0
 40
7.0
 40
7.0
 40
7.0
 40
8.0
 40
8.0
 40
8.0
 40
9.0
 40
9.0
 40
9.0
 40
10.0
 40
10.0
 40
10.0
 40
11.0
 40
11.0
 40
11.0
 40
12.0
 40
12.0
 40
12.0
 40
13.0
 40
13.0
 40
13.0
 40
14.0
 40
14.0
 40
14.0
 40
15.0
 40
15.0
 40
15.0
 40
16.0
 40
16.0
 40
16.0
 40
16.0
 10
93.49024520232189
 20
-143.4453355218644
 10
93.41204153480672
 20
-143.4453355218644
 10
93.31041121799184
 20
-143.4284545539867
 10
93.20878090117698
 20
-143.3648925422838
 10
93.0354925982689
 20
-143.25482174153
 10
93.01413300626037
 20
-143.1237358583163
 10
92.99518498109148
 20
-143.015904369628
 10
92.99518498109148
 20
-143.015904369628
 10
93.2173936398901
 20
-143.015904369628
 10
93.2173936398901
 20
-143.015904369628
 10
93.27217065810557
 20
-143.2146863791269
 10
93.3992946815113
 20
-143.2443142003
 10
93.49231225961304
 20
-143.2443142003
 10
93.63183862676566
 20
-143.2443142003
 10
93.7841118472137
 20
-143.1449231955506
 10
93.7841118472137
 20
-142.912206995522
 10
93.7841118472137
 20
-142.6562364009679
 10
93.60427786288366
 20
-142.5864732173916
 10
93.48369952089992
 20
-142.5864732173916
 10
93.45200464243561
 20
-142.5864732173916
 10
93.31041121799184
 20
-142.5864732173916
 10
93.2215277544724
 20
-142.7154920433142
 10
93.2215277544724
 20
-142.7154920433142
 10
93.04582788472466
 20
-142.696371763371
 10
93.04582788472466
 20
-142.696371763371
 10
93.04582788472466
 20
-142.696371763371
 10
93.1664062267084
 20
-141.8502563121937
 10
93.1664062267084
 20
-141.8502563121937
 10
93.1664062267084
 20
-141.8502563121937
 10
93.94499780637487
 20
-141.8502563121937
 10
93.94499780637487
 20
-141.8502563121937
 10
93.94499780637487
 20
-141.8502563121937
 10
93.94499780637487
 20
-142.0449042071103
 10
93.94499780637487
 20
-142.0449042071103
 10
93.94499780637487
 20
-142.0449042071103
 10
93.32935924316072
 20
-142.0449042071103
 10
93.32935924316072
 20
-142.0449042071103
 10
93.32935924316072
 20
-142.0449042071103
 10
93.26390242894097
 20
-142.467961932699
 10
93.26390242894097
 20
-142.467961932699
 10
93.32522512857842
 20
-142.4340277421693
 10
93.40756291067589
 20
-142.3938923797661
 10
93.52607419536848
 20
-142.3938923797661
 10
93.7799777326314
 20
-142.3938923797661
 10
94.01700030201658
 20
-142.5800997907439
 10
94.01700030201658
 20
-142.8930867155788
 10
94.01700030201658
 20
-143.2105522645446
 10
93.79272458592682
 20
-143.4453355218644
 10
93.49024520232189
 20
-143.4453355218644
 97
        0
 97
        0
 75
     2
 76
     1
 98
        0
  0
SPLINE
  5
C0
330
B0
100
AcDbEntity
  8
_U+30EC_U+30A4_U+30E4_U+30FC 1
370
     0
100
AcDbSpline
210
0.0
220
0.0
230
1.0
 70
    11
 71
     3
 72
    44
 73
    40
 74
     0
 42
0.0000000001
 43
0.0000000001
 12
1.0
 22
0.0
 32
0.0
 13
1.0
 23
0.0
 33
0.0
 40
0.0
 40
0.0
 40
0.0
 40
0.0
 40
1.0
 40
1.0
 40
1.0
 40
2.0
 40
2.0
 40
2.0
 40
3.0
 40
3.0
 40
3.0
 40
4.0
 40
4.0
 40
4.0
 40
5.0
 40
5.0
 40
5.0
 40
6.0
 40
6.0
 40
6.0
 40
7.0
 40
7.0
 40
7.0
 40
8.0
 40
8.0
 40
8.0
 40
9.0
 40
9.0
 40
9.0
 40
10.0
 40
10.0
 40
10.0
 40
11.0
 40
11.0
 40
11.0
 40
12.0
 40
12.0
 40
12.0
 40
13.0
 40
13.0
 40
13.0
 40
13.0
 10
95.20004609165139
 20
-143.3945203634569
 30
0.0
 10
95.1769639519002
 20
-143.3500786316972
 30
0.0
 10
95.15560435989165
 20
-143.2971964159986
 30
0.0
 10
95.15353730260051
 20
-143.0665472732611
 30
0.0
 10
95.14940318801821
 20
-142.8233235320025
 30
0.0
 10
95.09014754567191
 20
-142.7535603484262
 30
0.0
 10
94.91238061863302
 20
-142.7535603484262
 30
0.0
 10
94.91238061863302
 20
-142.7535603484262
 30
0.0
 10
94.50413680363091
 20
-142.7535603484262
 30
0.0
 10
94.50413680363091
 20
-142.7535603484262
 30
0.0
 10
94.50413680363091
 20
-142.7535603484262
 30
0.0
 10
94.50413680363091
 20
-143.3945203634569
 30
0.0
 10
94.50413680363091
 20
-143.3945203634569
 30
0.0
 10
94.50413680363091
 20
-143.3945203634569
 30
0.0
 10
94.26918129153688
 20
-143.3945203634569
 30
0.0
 10
94.26918129153688
 20
-143.3945203634569
 30
0.0
 10
94.26918129153688
 20
-143.3945203634569
 30
0.0
 10
94.26918129153688
 20
-141.8502563121937
 30
0.0
 10
94.26918129153688
 20
-141.8502563121937
 30
0.0
 10
94.26918129153688
 20
-141.8502563121937
 30
0.0
 10
94.94407549709732
 20
-141.8502563121937
 30
0.0
 10
94.94407549709732
 20
-141.8502563121937
 30
0.0
 10
95.25103350483307
 20
-141.8502563121937
 30
0.0
 10
95.4181206358677
 20
-142.0214775578106
 30
0.0
 10
95.4181206358677
 20
-142.2774481523647
 30
0.0
 10
95.4181206358677
 20
-142.3282633107721
 30
0.0
 10
95.40950789715457
 20
-142.4107733476438
 30
0.0
 10
95.36506616539485
 20
-142.4912163272244
 30
0.0
 10
95.30581052304855
 20
-142.5949137013305
 30
0.0
 10
95.2403537088288
 20
-142.6138617264993
 30
0.0
 10
95.17903100919136
 20
-142.630742694377
 30
0.0
 10
95.31649031905283
 20
-142.6731173688456
 30
0.0
 10
95.38435870011224
 20
-142.7218654699619
 30
0.0
 10
95.38849281469454
 20
-143.036919452088
 30
0.0
 10
95.39262692927684
 20
-143.3077039572286
 30
0.0
 10
95.42845592232345
 20
-143.3395710904672
 30
0.0
 10
95.49632430338286
 20
-143.3945203634569
 30
0.0
 10
95.49632430338286
 20
-143.3945203634569
 30
0.0
 10
95.20004609165139
 20
-143.3945203634569
 30
0.0
 10
95.20004609165139
 20
-143.3945203634569
 30
0.0
  0
SPLINE
  5
C1
330
B0
100
AcDbEntity
  8
_U+30EC_U+30A4_U+30E4_U+30FC 1
370
     0
100
AcDbSpline
210
0.0
220
0.0
230
1.0
 70
    11
 71
     3
 72
    20
 73
    16
 74
     0
 42
0.0000000001
 43
0.0000000001
 12
1.0
 22
0.0
 32
0.0
 13
1.0
 23
0.0
 33
0.0
 40
0.0
 40
0.0
 40
0.0
 40
0.0
 40
1.0
 40
1.0
 40
1.0
 40
2.0
 40
2.0
 40
2.0
 40
3.0
 40
3.0
 40
3.0
 40
4.0
 40
4.0
 40
4.0
 40
5.0
 40
5.0
 40
5.0
 40
5.0
 10
94.94855412122814
 20
-142.061785174988
 30
0.0
 10
94.94855412122814
 20
-142.061785174988
 30
0.0
 10
94.50413680363091
 20
-142.061785174988
 30
0.0
 10
94.50413680363091
 20
-142.061785174988
 30
0.0
 10
94.50413680363091
 20
-142.061785174988
 30
0.0
 10
94.50413680363091
 20
-142.5420314856319
 30
0.0
 10
94.50413680363091
 20
-142.5420314856319
 30
0.0
 10
94.50413680363091
 20
-142.5420314856319
 30
0.0
 10
94.94614255438847
 20
-142.5420314856319
 30
0.0
 10
94.94614255438847
 20
-142.5420314856319
 30
0.0
 10
95.04570581391219
 20
-142.5420314856319
 30
0.0
 10
95.1810980664825
 20
-142.4658948754078
 30
0.0
 10
95.1810980664825
 20
-142.2945013750167
 30
0.0
 10
95.1810980664825
 20
-142.2161254527272
 30
0.0
 10
95.14733613072706
 20
-142.061785174988
 30
0.0
 10
94.94855412122814
 20
-142.061785174988
 30
0.0
  0
HATCH
  5
C2
330
B0
100
AcDbEntity
  8
_U+30EC_U+30A4_U+30E4_U+30FC 1
 62
   179
420
  2234388
100
AcDbHatch
 10
0.0
 20
0.0
 30
0.0
210
0.0
220
0.0
230
1.0
  2
SOLID
 70
     1
 71
     0
 91
        2
 92
        1
 93
        1
 72
     4
 94
        3
 73
     0
 74
     1
 95
       44
 96
       40
 40
0.0
 40
0.0
 40
0.0
 40
0.0
 40
1.0
 40
1.0
 40
1.0
 40
2.0
 40
2.0
 40
2.0
 40
3.0
 40
3.0
 40
3.0
 40
4.0
 40
4.0
 40
4.0
 40
5.0
 40
5.0
 40
5.0
 40
6.0
 40
6.0
 40
6.0
 40
7.0
 40
7.0
 40
7.0
 40
8.0
 40
8.0
 40
8.0
 40
9.0
 40
9.0
 40
9.0
 40
10.0
 40
10.0
 40
10.0
 40
11.0
 40
11.0
 40
11.0
 40
12.0
 40
12.0
 40
12.0
 40
13.0
 40
13.0
 40
13.0
 40
13.0
 10
95.20004609165139
 20
-143.3945203634569
 10
95.1769639519002
 20
-143.3500786316972
 10
95.15560435989165
 20
-143.2971964159986
 10
95.15353730260051
 20
-143.0665472732611
 10
95.14940318801821
 20
-142.8233235320025
 10
95.09014754567191
 20
-142.7535603484262
 10
94.91238061863302
 20
-142.7535603484262
 10
94.91238061863302
 20
-142.7535603484262
 10
94.50413680363091
 20
-142.7535603484262
 10
94.50413680363091
 20
-142.7535603484262
 10
94.50413680363091
 20
-142.7535603484262
 10
94.50413680363091
 20
-143.3945203634569
 10
94.50413680363091
 20
-143.3945203634569
 10
94.50413680363091
 20
-143.3945203634569
 10
94.26918129153688
 20
-143.3945203634569
 10
94.26918129153688
 20
-143.3945203634569
 10
94.26918129153688
 20
-143.3945203634569
 10
94.26918129153688
 20
-141.8502563121937
 10
94.26918129153688
 20
-141.8502563121937
 10
94.26918129153688
 20
-141.8502563121937
 10
94.94407549709732
 20
-141.8502563121937
 10
94.94407549709732
 20
-141.8502563121937
 10
95.25103350483307
 20
-141.8502563121937
 10
95.4181206358677
 20
-142.0214775578106
 10
95.4181206358677
 20
-142.2774481523647
 10
95.4181206358677
 20
-142.3282633107721
 10
95.40950789715457
 20
-142.4107733476438
 10
95.36506616539485
 20
-142.4912163272244
 10
95.30581052304855
 20
-142.5949137013305
 10
95.2403537088288
 20
-142.6138617264993
 10
95.17903100919136
 20
-142.630742694377
 10
95.31649031905283
 20
-142.6731173688456
 10
95.38435870011224
 20
-142.7218654699619
 10
95.38849281469454
 20
-143.036919452088
 10
95.39262692927684
 20
-143.3077039572286
 10
95.42845592232345
 20
-143.3395710904672
 10
95.49632430338286
 20
-143.3945203634569
 10
95.49632430338286
 20
-143.3945203634569
 10
95.20004609165139
 20
-143.3945203634569
 10
95.20004609165139
 20
-143.3945203634569
 97
        0
 97
        0
 92
        1
 93
        1
 72
     4
 94
        3
 73
     0
 74
     1
 95
       20
 96
       16
 40
0.0
 40
0.0
 40
0.0
 40
0.0
 40
1.0
 40
1.0
 40
1.0
 40
2.0
 40
2.0
 40
2.0
 40
3.0
 40
3.0
 40
3.0
 40
4.0
 40
4.0
 40
4.0
 40
5.0
 40
5.0
 40
5.0
 40
5.0
 10
94.94855412122814
 20
-142.061785174988
 10
94.94855412122814
 20
-142.061785174988
 10
94.50413680363091
 20
-142.061785174988
 10
94.50413680363091
 20
-142.061785174988
 10
94.50413680363091
 20
-142.061785174988
 10
94.50413680363091
 20
-142.5420314856319
 10
94.50413680363091
 20
-142.5420314856319
 10
94.50413680363091
 20
-142.5420314856319
 10
94.94614255438847
 20
-142.5420314856319
 10
94.94614255438847
 20
-142.5420314856319
 10
95.04570581391219
 20
-142.5420314856319
 10
95.1810980664825
 20
-142.4658948754078
 10
95.1810980664825
 20
-142.2945013750167
 10
95.1810980664825
 20
-142.2161254527272
 10
95.14733613072706
 20
-142.061785174988
 10
94.94855412122814
 20
-142.061785174988
 97
        0
 97
        0
 75
     2
 76
     1
 98
        0
  0
ENDBLK
  5
B3
330
B0
100
AcDbEntity
  8
0
100
AcDbBlockEnd
  0
ENDSEC
  0
SECTION
  2
ENTITIES
  0
SPLINE
  5
41
330
1F
100
AcDbEntity
  8
_U+30EC_U+30A4_U+30E4_U+30FC 1
 62
   179
420
  2234388
370
     9
100
AcDbSpline
210
0.0
220
0.0
230
1.0
 70
    11
 71
     3
 72
    17
 73
    13
 74
     0
 42
0.0000000001
 43
0.0000000001
 12
1.0
 22
0.0
 32
0.0
 13
1.0
 23
0.0
 33
0.0
 40
0.0
 40
0.0
 40
0.0
 40
0.0
 40
1.0
 40
1.0
 40
1.0
 40
2.0
 40
2.0
 40
2.0
 40
3.0
 40
3.0
 40
3.0
 40
4.0
 40
4.0
 40
4.0
 40
4.0
 10
115.4401112585749
 20
-145.4404333810664
 30
0.0
 10
115.4401112585749
 20
-145.385419512536
 30
0.0
 10
115.3953034854198
 20
-145.3406117393813
 30
0.0
 10
115.340268085043
 20
-145.3406117393813
 30
0.0
 10
115.2852326846661
 20
-145.3406117393813
 30
0.0
 10
115.2404249115111
 20
-145.385419512536
 30
0.0
 10
115.2404249115111
 20
-145.4404333810664
 30
0.0
 10
115.2404249115111
 20
-145.4954687814433
 30
0.0
 10
115.2852326846661
 20
-145.540276554598
 30
0.0
 10
115.340268085043
 20
-145.540276554598
 30
0.0
 10
115.3953034854198
 20
-145.540276554598
 30
0.0
 10
115.4401112585749
 20
-145.4954687814433
 30
0.0
 10
115.4401112585749
 20
-145.4404333810664
 30
0.0
  0
SPLINE
  5
42
330
1F
100
AcDbEntity
  8
_U+30EC_U+30A4_U+30E4_U+30FC 1
 62
   179
420
  2234388
370
     9
100
AcDbSpline
210
0.0
220
0.0
230
1.0
 70
    11
 71
     3
 72
    17
 73
    13
 74
     0
 42
0.0000000001
 43
0.0000000001
 12
1.0
 22
0.0
 32
0.0
 13
1.0
 23
0.0
 33
0.0
 40
0.0
 40
0.0
 40
0.0
 40
0.0
 40
1.0
 40
1.0
 40
1.0
 40
2.0
 40
2.0
 40
2.0
 40
3.0
 40
3.0
 40
3.0
 40
4.0
 40
4.0
 40
4.0
 40
4.0
 10
115.4401112585749
 20
-153.9405820673634
 30
0.0
 10
115.4401112585749
 20
-153.885202157438
 30
0.0
 10
115.3953034854198
 20
-153.840394384283
 30
0.0
 10
115.340268085043
 20
-153.840394384283
 30
0.0
 10
115.2852326846661
 20
-153.840394384283
 30
0.0
 10
115.2404249115111
 20
-153.885202157438
 30
0.0
 10
115.2404249115111
 20
-153.9405820673634
 30
0.0
 10
115.2404249115111
 20
-153.9956174677403
 30
0.0
 10
115.2852326846661
 20
-154.0404252408953
 30
0.0
 10
115.340268085043
 20
-154.0404252408953
 30
0.0
 10
115.3953034854198
 20
-154.0404252408953
 30
0.0
 10
115.4401112585749
 20
-153.9956174677403
 30
0.0
 10
115.4401112585749
 20
-153.9405820673634
 30
0.0
  0
SPLINE
  5
43
330
1F
100
AcDbEntity
  8
_U+30EC_U+30A4_U+30E4_U+30FC 1
 62
   179
420
  2234388
370
     9
100
AcDbSpline
210
0.0
220
0.0
230
1.0
 70
    11
 71
     3
 72
    17
 73
    13
 74
     0
 42
0.0000000001
 43
0.0000000001
 12
1.0
 22
0.0
 32
0.0
 13
1.0
 23
0.0
 33
0.0
 40
0.0
 40
0.0
 40
0.0
 40
0.0
 40
1.0
 40
1.0
 40
1.0
 40
2.0
 40
2.0
 40
2.0
 40
3.0
 40
3.0
 40
3.0
 40
4.0
 40
4.0
 40
4.0
 40
4.0
 10
115.4401112585749
 20
-154.9404564364168
 30
0.0
 10
115.4401112585749
 20
-154.8850765264914
 30
0.0
 10
115.3953034854198
 20
-154.8402687533364
 30
0.0
 10
115.340268085043
 20
-154.8402687533364
 30
0.0
 10
115.2852326846661
 20
-154.8402687533364
 30
0.0
 10
115.2404249115111
 20
-154.8850765264914
 30
0.0
 10
115.2404249115111
 20
-154.9404564364168
 30
0.0
 10
115.2404249115111
 20
-154.9954918367937
 30
0.0
 10
115.2852326846661
 20
-155.0402996099487
 30
0.0
 10
115.340268085043
 20
-155.0402996099487
 30
0.0
 10
115.3953034854198
 20
-155.0402996099487
 30
0.0
 10
115.4401112585749
 20
-154.9954918367937
 30
0.0
 10
115.4401112585749
 20
-154.9404564364168
 30
0.0
  0
SPLINE
  5
44
330
1F
100
AcDbEntity
  8
_U+30EC_U+30A4_U+30E4_U+30FC 1
 62
   179
420
  2234388
370
     9
100
AcDbSpline
210
0.0
220
0.0
230
1.0
 70
    11
 71
     3
 72
    17
 73
    13
 74
     0
 42
0.0000000001
 43
0.0000000001
 12
1.0
 22
0.0
 32
0.0
 13
1.0
 23
0.0
 33
0.0
 40
0.0
 40
0.0
 40
0.0
 40
0.0
 40
1.0
 40
1.0
 40
1.0
 40
2.0
 40
2.0
 40
2.0
 40
3.0
 40
3.0
 40
3.0
 40
4.0
 40
4.0
 40
4.0
 40
4.0
 10
91.51253430939727
 20
-159.0403353823319
 30
0.0
 10
91.51253430939727
 20
-158.9849554724065
 30
0.0
 10
91.46772653624222
 20
-158.9401476992515
 30
0.0
 10
91.41269113586536
 20
-158.9401476992515
 30
0.0
 10
91.35765573548849
 20
-158.9401476992515
 30
0.0
 10
91.31285872825686
 20
-158.9849554724065
 30
0.0
 10
91.31285872825686
 20
-159.0403353823319
 30
0.0
 10
91.31285872825686
 20
-159.0953707827088
 30
0.0
 10
91.35765573548849
 20
-159.1401785558638
 30
0.0
 10
91.41269113586536
 20
-159.1401785558638
 30
0.0
 10
91.46772653624222
 20
-159.1401785558638
 30
0.0
 10
91.51253430939727
 20
-159.0953707827088
 30
0.0
 10
91.51253430939727
 20
-159.0403353823319
 30
0.0
  0
SPLINE
  5
45
330
1F
100
AcDbEntity
  8
_U+30EC_U+30A4_U+30E4_U+30FC 1
 62
   179
420
  2234388
370
     9
100
AcDbSpline
210
0.0
220
0.0
230
1.0
 70
    11
 71
     3
 72
    17
 73
    13
 74
     0
 42
0.0000000001
 43
0.0000000001
 12
1.0
 22
0.0
 32
0.0
 13
1.0
 23
0.0
 33
0.0
 40
0.0
 40
0.0
 40
0.0
 40
0.0
 40
1.0
 40
1.0
 40
1.0
 40
2.0
 40
2.0
 40
2.0
 40
3.0
 40
3.0
 40
3.0
 40
4.0
 40
4.0
 40
4.0
 40
4.0
 10
111.5123578958415
 20
-159.0403353823319
 30
0.0
 10
111.5123578958415
 20
-158.9849554724065
 30
0.0
 10
111.4675501226865
 20
-158.9401476992515
 30
0.0
 10
111.4125147223096
 20
-158.9401476992515
 30
0.0
 10
111.3574793219328
 20
-158.9401476992515
 30
0.0
 10
111.3126715487777
 20
-158.9849554724065
 30
0.0
 10
111.3126715487777
 20
-159.0403353823319
 30
0.0
 10
111.3126715487777
 20
-159.0953707827088
 30
0.0
 10
111.3574793219328
 20
-159.1401785558638
 30
0.0
 10
111.4125147223096
 20
-159.1401785558638
 30
0.0
 10
111.4675501226865
 20
-159.1401785558638
 30
0.0
 10
111.5123578958415
 20
-159.0953707827088
 30
0.0
 10
111.5123578958415
 20
-159.0403353823319
 30
0.0
  0
POLYLINE
  5
46
330
1F
100
AcDbEntity
  8
_U+30EC_U+30A4_U+30E4_U+30FC 1
 62
   179
420
  2234388
370
     9
100
AcDb2dPolyline
 66
     1
 10
0.0
 20
0.0
 30
0.0
  0
VERTEX
  5
47
330
46
100
AcDbEntity
  8
_U+30EC_U+30A4_U+30E4_U+30FC 1
 62
   179
420
  2234388
370
     9
100
AcDbVertex
100
AcDb2dVertex
 10
91.41262654032502
 20
-159.0403353823319
 30
0.0
  0
VERTEX
  5
48
330
46
100
AcDbEntity
  8
_U+30EC_U+30A4_U+30E4_U+30FC 1
 62
   179
420
  2234388
370
     9
100
AcDbVertex
100
AcDb2dVertex
 10
111.4122994038418
 20
-159.0403353823319
 30
0.0
  0
SEQEND
  5
49
330
46
100
AcDbEntity
  8
_U+30EC_U+30A4_U+30E4_U+30FC 1
 62
   179
420
  2234388
370
     9
  0
POLYLINE
  5
4A
330
1F
100
AcDbEntity
  8
_U+30EC_U+30A4_U+30E4_U+30FC 1
 62
   179
420
  2234388
370
     9
100
AcDb2dPolyline
 66
     1
 10
0.0
 20
0.0
 30
0.0
  0
VERTEX
  5
4B
330
4A
100
AcDbEntity
  8
_U+30EC_U+30A4_U+30E4_U+30FC 1
 62
   179
420
  2234388
370
     9
100
AcDbVertex
100
AcDb2dVertex
 10
91.41262654032502
 20
-156.7799867026127
 30
0.0
  0
VERTEX
  5
4C
330
4A
100
AcDbEntity
  8
_U+30EC_U+30A4_U+30E4_U+30FC 1
 62
   179
420
  2234388
370
     9
100
AcDbVertex
100
AcDb2dVertex
 10
91.41262654032502
 20
-160.0400159647643
 30
0.0
  0
SEQEND
  5
4D
330
4A
100
AcDbEntity
  8
_U+30EC_U+30A4_U+30E4_U+30FC 1
 62
   179
420
  2234388
370
     9
  0
POLYLINE
  5
4E
330
1F
100
AcDbEntity
  8
_U+30EC_U+30A4_U+30E4_U+30FC 1
 62
   179
420
  2234388
370
     9
100
AcDb2dPolyline
 66
     1
 10
0.0
 20
0.0
 30
0.0
  0
VERTEX
  5
4F
330
4E
100
AcDbEntity
  8
_U+30EC_U+30A4_U+30E4_U+30FC 1
 62
   179
420
  2234388
370
     9
100
AcDbVertex
100
AcDb2dVertex
 10
111.4124501267693
 20
-157.5802608519895
 30
0.0
  0
VERTEX
  5
50
330
4E
100
AcDbEntity
  8
_U+30EC_U+30A4_U+30E4_U+30FC 1
 62
   179
420
  2234388
370
     9
100
AcDbVertex
100
AcDb2dVertex
 10
111.4124501267693
 20
-160.0401882195386
 30
0.0
  0
SEQEND
  5
51
330
4E
100
AcDbEntity
  8
_U+30EC_U+30A4_U+30E4_U+30FC 1
 62
   179
420
  2234388
370
     9
  0
INSERT
  5
53
330
1F
100
AcDbEntity
  8
_U+30EC_U+30A4_U+30E4_U+30FC 1
100
AcDbBlockReference
  2
block 2
 10
0.0
 20
0.0
 30
0.0
  0
POLYLINE
  5
5B
330
1F
100
AcDbEntity
  8
_U+30EC_U+30A4_U+30E4_U+30FC 1
 62
   179
420
  2234388
370
     9
100
AcDb2dPolyline
 66
     1
 10
0.0
 20
0.0
 30
0.0
  0
VERTEX
  5
5C
330
5B
100
AcDbEntity
  8
_U+30EC_U+30A4_U+30E4_U+30FC 1
 62
   179
420
  2234388
370
     9
100
AcDbVertex
100
AcDb2dVertex
 10
115.3402034895026
 20
-143.9404603386351
 30
0.0
  0
VERTEX
  5
5D
330
5B
100
AcDbEntity
  8
_U+30EC_U+30A4_U+30E4_U+30FC 1
 62
   179
420
  2234388
370
     9
100
AcDbVertex
100
AcDb2dVertex
 10
115.3402034895026
 20
-154.94043490457
 30
0.0
  0
SEQEND
  5
5E
330
5B
100
AcDbEntity
  8
_U+30EC_U+30A4_U+30E4_U+30FC 1
 62
   179
420
  2234388
370
     9
  0
POLYLINE
  5
5F
330
1F
100
AcDbEntity
  8
_U+30EC_U+30A4_U+30E4_U+30FC 1
 62
   179
420
  2234388
370
     9
100
AcDb2dPolyline
 66
     1
 10
0.0
 20
0.0
 30
0.0
  0
VERTEX
  5
60
330
5F
100
AcDbEntity
  8
_U+30EC_U+30A4_U+30E4_U+30FC 1
 62
   179
420
  2234388
370
     9
100
AcDbVertex
100
AcDb2dVertex
 10
114.3359150918587
 20
-145.4404333810664
 30
0.0
  0
VERTEX
  5
61
330
5F
100
AcDbEntity
  8
_U+30EC_U+30A4_U+30E4_U+30FC 1
 62
   179
420
  2234388
370
     9
100
AcDbVertex
100
AcDb2dVertex
 10
116.340379304411
 20
-145.4404333810664
 30
0.0
  0
SEQEND
  5
62
330
5F
100
AcDbEntity
  8
_U+30EC_U+30A4_U+30E4_U+30FC 1
 62
   179
420
  2234388
370
     9
  0
SPLINE
  5
63
330
1F
100
AcDbEntity
  8
_U+30EC_U+30A4_U+30E4_U+30FC 1
 62
   179
420
  2234388
370
     9
100
AcDbSpline
210
0.0
220
0.0
230
1.0
 70
    11
 71
     3
 72
    17
 73
    13
 74
     0
 42
0.0000000001
 43
0.0000000001
 12
1.0
 22
0.0
 32
0.0
 13
1.0
 23
0.0
 33
0.0
 40
0.0
 40
0.0
 40
0.0
 40
0.0
 40
1.0
 40
1.0
 40
1.0
 40
2.0
 40
2.0
 40
2.0
 40
3.0
 40
3.0
 40
3.0
 40
4.0
 40
4.0
 40
4.0
 40
4.0
 10
115.4401112585749
 20
-143.9404603386351
 30
0.0
 10
115.4401112585749
 20
-143.885446470105
 30
0.0
 10
115.3953034854198
 20
-143.84063869695
 30
0.0
 10
115.340268085043
 20
-143.84063869695
 30
0.0
 10
115.2852326846661
 20
-143.84063869695
 30
0.0
 10
115.2404249115111
 20
-143.885446470105
 30
0.0
 10
115.2404249115111
 20
-143.9404603386351
 30
0.0
 10
115.2404249115111
 20
-143.995495739012
 30
0.0
 10
115.2852326846661
 20
-144.040303512167
 30
0.0
 10
115.340268085043
 20
-144.040303512167
 30
0.0
 10
115.3953034854198
 20
-144.040303512167
 30
0.0
 10
115.4401112585749
 20
-143.995495739012
 30
0.0
 10
115.4401112585749
 20
-143.9404603386351
 30
0.0
  0
POLYLINE
  5
64
330
1F
100
AcDbEntity
  8
_U+30EC_U+30A4_U+30E4_U+30FC 1
 62
   179
420
  2234388
370
     9
100
AcDb2dPolyline
 66
     1
 10
0.0
 20
0.0
 30
0.0
  0
VERTEX
  5
65
330
64
100
AcDbEntity
  8
_U+30EC_U+30A4_U+30E4_U+30FC 1
 62
   179
420
  2234388
370
     9
100
AcDbVertex
100
AcDb2dVertex
 10
114.3359150918587
 20
-143.9404603386351
 30
0.0
  0
VERTEX
  5
66
330
64
100
AcDbEntity
  8
_U+30EC_U+30A4_U+30E4_U+30FC 1
 62
   179
420
  2234388
370
     9
100
AcDbVertex
100
AcDb2dVertex
 10
116.340379304411
 20
-143.9404603386351
 30
0.0
  0
SEQEND
  5
67
330
64
100
AcDbEntity
  8
_U+30EC_U+30A4_U+30E4_U+30FC 1
 62
   179
420
  2234388
370
     9
  0
POLYLINE
  5
68
330
1F
100
AcDbEntity
  8
_U+30EC_U+30A4_U+30E4_U+30FC 1
 62
   179
420
  2234388
370
     9
100
AcDb2dPolyline
 66
     1
 10
0.0
 20
0.0
 30
0.0
  0
VERTEX
  5
69
330
68
100
AcDbEntity
  8
_U+30EC_U+30A4_U+30E4_U+30FC 1
 62
   179
420
  2234388
370
     9
100
AcDbVertex
100
AcDb2dVertex
 10
114.3445493624186
 20
-153.9405820673634
 30
0.0
  0
VERTEX
  5
6A
330
68
100
AcDbEntity
  8
_U+30EC_U+30A4_U+30E4_U+30FC 1
 62
   179
420
  2234388
370
     9
100
AcDbVertex
100
AcDb2dVertex
 10
116.3402070496367
 20
-153.9405820673634
 30
0.0
  0
SEQEND
  5
6B
330
68
100
AcDbEntity
  8
_U+30EC_U+30A4_U+30E4_U+30FC 1
 62
   179
420
  2234388
370
     9
  0
POLYLINE
  5
6C
330
1F
100
AcDbEntity
  8
_U+30EC_U+30A4_U+30E4_U+30FC 1
 62
   179
420
  2234388
370
     9
100
AcDb2dPolyline
 66
     1
 10
0.0
 20
0.0
 30
0.0
  0
VERTEX
  5
6D
330
6C
100
AcDbEntity
  8
_U+30EC_U+30A4_U+30E4_U+30FC 1
 62
   179
420
  2234388
370
     9
100
AcDbVertex
100
AcDb2dVertex
 10
114.3445493624186
 20
-154.9402841816425
 30
0.0
  0
VERTEX
  5
6E
330
6C
100
AcDbEntity
  8
_U+30EC_U+30A4_U+30E4_U+30FC 1
 62
   179
420
  2234388
370
     9
100
AcDbVertex
100
AcDb2dVertex
 10
116.3402070496367
 20
-154.9402841816425
 30
0.0
  0
SEQEND
  5
6F
330
6C
100
AcDbEntity
  8
_U+30EC_U+30A4_U+30E4_U+30FC 1
 62
   179
420
  2234388
370
     9
  0
INSERT
  5
71
330
1F
100
AcDbEntity
  8
_U+30EC_U+30A4_U+30E4_U+30FC 1
100
AcDbBlockReference
  2
block 3
 10
0.0
 20
0.0
 30
0.0
  0
INSERT
  5
83
330
1F
100
AcDbEntity
  8
_U+30EC_U+30A4_U+30E4_U+30FC 1
100
AcDbBlockReference
  2
block 4
 10
0.0
 20
0.0
 30
0.0
  0
INSERT
  5
93
330
1F
100
AcDbEntity
  8
_U+30EC_U+30A4_U+30E4_U+30FC 1
100
AcDbBlockReference
  2
block 5
 10
0.0
 20
0.0
 30
0.0
  0
SPLINE
  5
98
330
1F
100
AcDbEntity
  8
_U+30EC_U+30A4_U+30E4_U+30FC 1
 62
   179
420
  2234388
370
     9
100
AcDbSpline
210
0.0
220
0.0
230
1.0
 70
    11
 71
     3
 72
    17
 73
    13
 74
     0
 42
0.0000000001
 43
0.0000000001
 12
1.0
 22
0.0
 32
0.0
 13
1.0
 23
0.0
 33
0.0
 40
0.0
 40
0.0
 40
0.0
 40
0.0
 40
1.0
 40
1.0
 40
1.0
 40
2.0
 40
2.0
 40
2.0
 40
3.0
 40
3.0
 40
3.0
 40
4.0
 40
4.0
 40
4.0
 40
4.0
 10
104.5480973724093
 20
-141.2353928954637
 30
0.0
 10
104.5480973724093
 20
-141.1803790269337
 30
0.0
 10
104.503289599254
 20
-141.1355712537786
 30
0.0
 10
104.4482541988771
 20
-141.1355712537786
 30
0.0
 10
104.3932187985002
 20
-141.1355712537786
 30
0.0
 10
104.3484110253452
 20
-141.1803790269337
 30
0.0
 10
104.3484110253452
 20
-141.2353928954637
 30
0.0
 10
104.3484110253452
 20
-141.2904282958406
 30
0.0
 10
104.3932187985002
 20
-141.3352360689956
 30
0.0
 10
104.4482541988771
 20
-141.3352360689956
 30
0.0
 10
104.503289599254
 20
-141.3352360689956
 30
0.0
 10
104.5480973724093
 20
-141.2904282958406
 30
0.0
 10
104.5480973724093
 20
-141.2353928954637
 30
0.0
  0
SPLINE
  5
99
330
1F
100
AcDbEntity
  8
_U+30EC_U+30A4_U+30E4_U+30FC 1
 62
   179
420
  2234388
370
     9
100
AcDbSpline
210
0.0
220
0.0
230
1.0
 70
    11
 71
     3
 72
    17
 73
    13
 74
     0
 42
0.0000000001
 43
0.0000000001
 12
1.0
 22
0.0
 32
0.0
 13
1.0
 23
0.0
 33
0.0
 40
0.0
 40
0.0
 40
0.0
 40
0.0
 40
1.0
 40
1.0
 40
1.0
 40
2.0
 40
2.0
 40
2.0
 40
3.0
 40
3.0
 40
3.0
 40
4.0
 40
4.0
 40
4.0
 40
4.0
 10
98.54740852435404
 20
-141.2353928954637
 30
0.0
 10
98.54740852435404
 20
-141.1803790269337
 30
0.0
 10
98.50260075119901
 20
-141.1355712537786
 30
0.0
 10
98.44756535082215
 20
-141.1355712537786
 30
0.0
 10
98.39252995044528
 20
-141.1355712537786
 30
0.0
 10
98.34773294321363
 20
-141.1803790269337
 30
0.0
 10
98.34773294321363
 20
-141.2353928954637
 30
0.0
 10
98.34773294321363
 20
-141.2904282958406
 30
0.0
 10
98.39252995044528
 20
-141.3352360689956
 30
0.0
 10
98.44756535082215
 20
-141.3352360689956
 30
0.0
 10
98.50260075119901
 20
-141.3352360689956
 30
0.0
 10
98.54740852435404
 20
-141.2904282958406
 30
0.0
 10
98.54740852435404
 20
-141.2353928954637
 30
0.0
  0
POLYLINE
  5
9A
330
1F
100
AcDbEntity
  8
_U+30EC_U+30A4_U+30E4_U+30FC 1
 62
   179
420
  2234388
370
     9
100
AcDb2dPolyline
 66
     1
 10
0.0
 20
0.0
 30
0.0
  0
VERTEX
  5
9B
330
9A
100
AcDbEntity
  8
_U+30EC_U+30A4_U+30E4_U+30FC 1
 62
   179
420
  2234388
370
     9
100
AcDbVertex
100
AcDb2dVertex
 10
98.44751152120519
 20
-139.7753183651216
 30
0.0
  0
VERTEX
  5
9C
330
9A
100
AcDbEntity
  8
_U+30EC_U+30A4_U+30E4_U+30FC 1
 62
   179
420
  2234388
370
     9
100
AcDbVertex
100
AcDb2dVertex
 10
98.44751152120519
 20
-142.2359562836142
 30
0.0
  0
SEQEND
  5
9D
330
9A
100
AcDbEntity
  8
_U+30EC_U+30A4_U+30E4_U+30FC 1
 62
   179
420
  2234388
370
     9
  0
POLYLINE
  5
9E
330
1F
100
AcDbEntity
  8
_U+30EC_U+30A4_U+30E4_U+30FC 1
 62
   179
420
  2234388
370
     9
100
AcDb2dPolyline
 66
     1
 10
0.0
 20
0.0
 30
0.0
  0
VERTEX
  5
9F
330
9E
100
AcDbEntity
  8
_U+30EC_U+30A4_U+30E4_U+30FC 1
 62
   179
420
  2234388
370
     9
100
AcDbVertex
100
AcDb2dVertex
 10
104.4481465396432
 20
-139.7753183651216
 30
0.0
  0
VERTEX
  5
A0
330
9E
100
AcDbEntity
  8
_U+30EC_U+30A4_U+30E4_U+30FC 1
 62
   179
420
  2234388
370
     9
100
AcDbVertex
100
AcDb2dVertex
 10
104.4481465396432
 20
-142.2359562836142
 30
0.0
  0
SEQEND
  5
A1
330
9E
100
AcDbEntity
  8
_U+30EC_U+30A4_U+30E4_U+30FC 1
 62
   179
420
  2234388
370
     9
  0
INSERT
  5
A3
330
1F
100
AcDbEntity
  8
_U+30EC_U+30A4_U+30E4_U+30FC 1
100
AcDbBlockReference
  2
block 6
 10
0.0
 20
0.0
 30
0.0
  0
POLYLINE
  5
A9
330
1F
100
AcDbEntity
  8
_U+30EC_U+30A4_U+30E4_U+30FC 1
 62
   179
420
  2234388
370
     9
100
AcDb2dPolyline
 66
     1
 10
0.0
 20
0.0
 30
0.0
  0
VERTEX
  5
AA
330
A9
100
AcDbEntity
  8
_U+30EC_U+30A4_U+30E4_U+30FC 1
 62
   179
420
  2234388
370
     9
100
AcDbVertex
100
AcDb2dVertex
 10
104.4475221160865
 20
-141.2353928954637
 30
0.0
  0
VERTEX
  5
AB
330
A9
100
AcDbEntity
  8
_U+30EC_U+30A4_U+30E4_U+30FC 1
 62
   179
420
  2234388
370
     9
100
AcDbVertex
100
AcDb2dVertex
 10
98.44746845751162
 20
-141.2353928954637
 30
0.0
  0
SEQEND
  5
AC
330
A9
100
AcDbEntity
  8
_U+30EC_U+30A4_U+30E4_U+30FC 1
 62
   179
420
  2234388
370
     9
  0
SPLINE
  5
AD
330
1F
100
AcDbEntity
  8
_U+30EC_U+30A4_U+30E4_U+30FC 1
370
     0
100
AcDbSpline
210
0.0
220
0.0
230
1.0
 70
    11
 71
     3
 72
    41
 73
    37
 74
     0
 42
0.0000000001
 43
0.0000000001
 12
1.0
 22
0.0
 32
0.0
 13
1.0
 23
0.0
 33
0.0
 40
0.0
 40
0.0
 40
0.0
 40
0.0
 40
1.0
 40
1.0
 40
1.0
 40
2.0
 40
2.0
 40
2.0
 40
3.0
 40
3.0
 40
3.0
 40
4.0
 40
4.0
 40
4.0
 40
5.0
 40
5.0
 40
5.0
 40
6.0
 40
6.0
 40
6.0
 40
7.0
 40
7.0
 40
7.0
 40
8.0
 40
8.0
 40
8.0
 40
9.0
 40
9.0
 40
9.0
 40
10.0
 40
10.0
 40
10.0
 40
11.0
 40
11.0
 40
11.0
 40
12.0
 40
12.0
 40
12.0
 40
12.0
 10
109.9682876311993
 20
-154.0370447409504
 30
0.0
 10
109.9682876311993
 20
-154.0370447409504
 30
0.0
 10
101.9672686851744
 20
-154.0370447409504
 30
0.0
 10
101.9672686851744
 20
-154.0370447409504
 30
0.0
 10
101.9672686851744
 20
-154.0370447409504
 30
0.0
 10
101.9672686851744
 20
-145.538295624694
 30
0.0
 10
101.9672686851744
 20
-145.538295624694
 30
0.0
 10
101.9672686851744
 20
-145.538295624694
 30
0.0
 10
104.4451966766339
 20
-145.538295624694
 30
0.0
 10
104.4451966766339
 20
-145.538295624694
 30
0.0
 10
104.4451966766339
 20
-145.0888398549496
 30
0.0
 10
103.8930985932762
 20
-144.0379134771741
 30
0.0
 10
103.3134828097294
 20
-144.0379134771741
 30
0.0
 10
103.3134828097294
 20
-144.0379134771741
 30
0.0
 10
99.6220199335906
 20
-144.0379134771741
 30
0.0
 10
99.6220199335906
 20
-144.0379134771741
 30
0.0
 10
99.04203810864878
 20
-144.0379134771741
 30
0.0
 10
98.49066134215794
 20
-144.8584921580671
 30
0.0
 10
98.49066134215794
 20
-145.538295624694
 30
0.0
 10
98.49066134215794
 20
-145.538295624694
 30
0.0
 10
100.9671574658064
 20
-145.538295624694
 30
0.0
 10
100.9671574658064
 20
-145.538295624694
 30
0.0
 10
100.9671574658064
 20
-145.538295624694
 30
0.0
 10
100.9671574658064
 20
-154.0370447409504
 30
0.0
 10
100.9671574658064
 20
-154.0370447409504
 30
0.0
 10
100.9671574658064
 20
-154.0370447409504
 30
0.0
 10
92.96721511212061
 20
-154.0370447409504
 30
0.0
 10
92.96721511212061
 20
-154.0370447409504
 30
0.0
 10
91.87784362191444
 20
-154.0370447409504
 30
0.0
 10
91.46755428146797
 20
-155.0371774921652
 30
0.0
 10
91.46755428146797
 20
-155.0371774921652
 30
0.0
 10
91.46755428146797
 20
-155.0371774921652
 30
0.0
 10
111.4679376959286
 20
-155.0371774921652
 30
0.0
 10
111.4679376959286
 20
-155.0371774921652
 30
0.0
 10
111.4679376959286
 20
-155.0371774921652
 30
0.0
 10
110.9313640741009
 20
-154.0370447409504
 30
0.0
 10
109.9682876311993
 20
-154.0370447409504
 30
0.0
  0
HATCH
  5
AE
330
1F
100
AcDbEntity
  8
_U+30EC_U+30A4_U+30E4_U+30FC 1
 62
     9
420
 13224394
100
AcDbHatch
 10
0.0
 20
0.0
 30
0.0
210
0.0
220
0.0
230
1.0
  2
SOLID
 70
     1
 71
     0
 91
        1
 92
        1
 93
        2
 72
     4
 94
        3
 73
     0
 74
     0
 95
       41
 96
       37
 40
0.0
 40
0.0
 40
0.0
 40
0.0
 40
0.3527777776895833
 40
0.3527777776895833
 40
0.3527777776895833
 40
0.7055555553791667
 40
0.7055555553791667
 40
0.7055555553791667
 40
1.05833333306875
 40
1.05833333306875
 40
1.05833333306875
 40
1.411111110758333
 40
1.411111110758333
 40
1.411111110758333
 40
1.763888888447917
 40
1.763888888447917
 40
1.763888888447917
 40
2.1166666661375
 40
2.1166666661375
 40
2.1166666661375
 40
2.469444443827083
 40
2.469444443827083
 40
2.469444443827083
 40
2.822222221516667
 40
2.822222221516667
 40
2.822222221516667
 40
3.17499999920625
 40
3.17499999920625
 40
3.17499999920625
 40
3.527777776895833
 40
3.527777776895833
 40
3.527777776895833
 40
3.880555554585417
 40
3.880555554585417
 40
3.880555554585417
 40
4.233333332275
 40
4.233333332275
 40
4.233333332275
 40
4.233333332275
 10
109.9682876311993
 20
-154.0370447409504
 10
109.9682876311993
 20
-154.0370447409504
 10
101.9672686851744
 20
-154.0370447409504
 10
101.9672686851744
 20
-154.0370447409504
 10
101.9672686851744
 20
-154.0370447409504
 10
101.9672686851744
 20
-145.538295624694
 10
101.9672686851744
 20
-145.538295624694
 10
101.9672686851744
 20
-145.538295624694
 10
104.4451966766339
 20
-145.538295624694
 10
104.4451966766339
 20
-145.538295624694
 10
104.4451966766339
 20
-145.0888398549496
 10
103.8930985932762
 20
-144.0379134771741
 10
103.3134828097294
 20
-144.0379134771741
 10
103.3134828097294
 20
-144.0379134771741
 10
99.6220199335906
 20
-144.0379134771741
 10
99.6220199335906
 20
-144.0379134771741
 10
99.04203810864878
 20
-144.0379134771741
 10
98.49066134215794
 20
-144.8584921580671
 10
98.49066134215794
 20
-145.538295624694
 10
98.49066134215794
 20
-145.538295624694
 10
100.9671574658064
 20
-145.538295624694
 10
100.9671574658064
 20
-145.538295624694
 10
100.9671574658064
 20
-145.538295624694
 10
100.9671574658064
 20
-154.0370447409504
 10
100.9671574658064
 20
-154.0370447409504
 10
100.9671574658064
 20
-154.0370447409504
 10
92.96721511212061
 20
-154.0370447409504
 10
92.96721511212061
 20
-154.0370447409504
 10
91.87784362191444
 20
-154.0370447409504
 10
91.46755428146797
 20
-155.0371774921652
 10
91.46755428146797
 20
-155.0371774921652
 10
91.46755428146797
 20
-155.0371774921652
 10
111.4679376959286
 20
-155.0371774921652
 10
111.4679376959286
 20
-155.0371774921652
 10
111.4679376959286
 20
-155.0371774921652
 10
110.9313640741009
 20
-154.0370447409504
 10
109.9682876311993
 20
-154.0370447409504
 97
        0
 72
     1
 10
109.9682876311993
 20
-154.0370447409504
 11
109.9682876311993
 21
-154.0370447409504
 97
        0
 75
     2
 76
     1
 98
        0
  0
SPLINE
  5
AF
330
1F
100
AcDbEntity
  8
_U+30EC_U+30A4_U+30E4_U+30FC 1
 62
   179
420
  2234388
370
    25
100
AcDbSpline
210
0.0
220
0.0
230
1.0
 70
    11
 71
     3
 72
    41
 73
    37
 74
     0
 42
0.0000000001
 43
0.0000000001
 12
1.0
 22
0.0
 32
0.0
 13
1.0
 23
0.0
 33
0.0
 40
0.0
 40
0.0
 40
0.0
 40
0.0
 40
1.0
 40
1.0
 40
1.0
 40
2.0
 40
2.0
 40
2.0
 40
3.0
 40
3.0
 40
3.0
 40
4.0
 40
4.0
 40
4.0
 40
5.0
 40
5.0
 40
5.0
 40
6.0
 40
6.0
 40
6.0
 40
7.0
 40
7.0
 40
7.0
 40
8.0
 40
8.0
 40
8.0
 40
9.0
 40
9.0
 40
9.0
 40
10.0
 40
10.0
 40
10.0
 40
11.0
 40
11.0
 40
11.0
 40
12.0
 40
12.0
 40
12.0
 40
12.0
 10
109.9682876311993
 20
-154.0370447409504
 30
0.0
 10
109.9682876311993
 20
-154.0370447409504
 30
0.0
 10
101.9672686851744
 20
-154.0370447409504
 30
0.0
 10
101.9672686851744
 20
-154.0370447409504
 30
0.0
 10
101.9672686851744
 20
-154.0370447409504
 30
0.0
 10
101.9672686851744
 20
-145.538295624694
 30
0.0
 10
101.9672686851744
 20
-145.538295624694
 30
0.0
 10
101.9672686851744
 20
-145.538295624694
 30
0.0
 10
104.4451966766339
 20
-145.538295624694
 30
0.0
 10
104.4451966766339
 20
-145.538295624694
 30
0.0
 10
104.4451966766339
 20
-145.0888398549496
 30
0.0
 10
103.8930985932762
 20
-144.0379134771741
 30
0.0
 10
103.3134828097294
 20
-144.0379134771741
 30
0.0
 10
103.3134828097294
 20
-144.0379134771741
 30
0.0
 10
99.6220199335906
 20
-144.0379134771741
 30
0.0
 10
99.6220199335906
 20
-144.0379134771741
 30
0.0
 10
99.04203810864878
 20
-144.0379134771741
 30
0.0
 10
98.49066134215794
 20
-144.8584921580671
 30
0.0
 10
98.49066134215794
 20
-145.538295624694
 30
0.0
 10
98.49066134215794
 20
-145.538295624694
 30
0.0
 10
100.9671574658064
 20
-145.538295624694
 30
0.0
 10
100.9671574658064
 20
-145.538295624694
 30
0.0
 10
100.9671574658064
 20
-145.538295624694
 30
0.0
 10
100.9671574658064
 20
-154.0370447409504
 30
0.0
 10
100.9671574658064
 20
-154.0370447409504
 30
0.0
 10
100.9671574658064
 20
-154.0370447409504
 30
0.0
 10
92.96721511212061
 20
-154.0370447409504
 30
0.0
 10
92.96721511212061
 20
-154.0370447409504
 30
0.0
 10
91.87784362191444
 20
-154.0370447409504
 30
0.0
 10
91.46755428146797
 20
-155.0371774921652
 30
0.0
 10
91.46755428146797
 20
-155.0371774921652
 30
0.0
 10
91.46755428146797
 20
-155.0371774921652
 30
0.0
 10
111.4679376959286
 20
-155.0371774921652
 30
0.0
 10
111.4679376959286
 20
-155.0371774921652
 30
0.0
 10
111.4679376959286
 20
-155.0371774921652
 30
0.0
 10
110.9313640741009
 20
-154.0370447409504
 30
0.0
 10
109.9682876311993
 20
-154.0370447409504
 30
0.0
  0
INSERT
  5
B1
330
1F
100
AcDbEntity
  8
_U+30EC_U+30A4_U+30E4_U+30FC 1
100
AcDbBlockReference
  2
block 7
 10
0.0
 20
0.0
 30
0.0
  0
POLYLINE
  5
C3
330
1F
100
AcDbEntity
  8
_U+30EC_U+30A4_U+30E4_U+30FC 1
 62
   179
420
  2234388
370
     9
100
AcDb2dPolyline
 66
     1
 10
0.0
 20
0.0
 30
0.0
  0
VERTEX
  5
C4
330
C3
100
AcDbEntity
  8
_U+30EC_U+30A4_U+30E4_U+30FC 1
 62
   179
420
  2234388
370
     9
100
AcDbVertex
100
AcDb2dVertex
 10
97.69718049044148
 20
-143.9706264559778
 30
0.0
  0
VERTEX
  5
C5
330
C3
100
AcDbEntity
  8
_U+30EC_U+30A4_U+30E4_U+30FC 1
 62
   179
420
  2234388
370
     9
100
AcDbVertex
100
AcDb2dVertex
 10
95.7251432391438
 20
-142.6777036522104
 30
0.0
  0
SEQEND
  5
C6
330
C3
100
AcDbEntity
  8
_U+30EC_U+30A4_U+30E4_U+30FC 1
 62
   179
420
  2234388
370
     9
  0
POLYLINE
  5
C7
330
1F
100
AcDbEntity
  8
_U+30EC_U+30A4_U+30E4_U+30FC 1
370
     0
100
AcDb2dPolyline
 66
     1
 10
0.0
 20
0.0
 30
0.0
  0
VERTEX
  5
C8
330
C7
100
AcDbEntity
  8
_U+30EC_U+30A4_U+30E4_U+30FC 1
370
     0
100
AcDbVertex
100
AcDb2dVertex
 10
97.37439657532003
 20
-144.1019061258126
 30
0.0
  0
VERTEX
  5
C9
330
C7
100
AcDbEntity
  8
_U+30EC_U+30A4_U+30E4_U+30FC 1
370
     0
100
AcDbVertex
100
AcDb2dVertex
 10
98.44013686368207
 20
-144.4536288430099
 30
0.0
  0
VERTEX
  5
CA
330
C7
100
AcDbEntity
  8
_U+30EC_U+30A4_U+30E4_U+30FC 1
370
     0
100
AcDbVertex
100
AcDb2dVertex
 10
97.69259420707643
 20
-143.6161476623924
 30
0.0
  0
VERTEX
  5
CB
330
C7
100
AcDbEntity
  8
_U+30EC_U+30A4_U+30E4_U+30FC 1
370
     0
100
AcDbVertex
100
AcDb2dVertex
 10
97.37439657532003
 20
-144.1019061258126
 30
0.0
  0
SEQEND
  5
CD
330
C7
100
AcDbEntity
  8
_U+30EC_U+30A4_U+30E4_U+30FC 1
370
     0
  0
HATCH
  5
CC
330
1F
100
AcDbEntity
  8
_U+30EC_U+30A4_U+30E4_U+30FC 1
 62
   179
420
  2234388
100
AcDbHatch
 10
0.0
 20
0.0
 30
0.0
210
0.0
220
0.0
230
1.0
  2
SOLID
 70
     1
 71
     0
 91
        1
 92
        1
 93
        3
 72
     1
 10
97.37439657532003
 20
-144.1019061258126
 11
98.44013686368207
 21
-144.4536288430099
 72
     1
 10
98.44013686368207
 20
-144.4536288430099
 11
97.69259420707643
 21
-143.6161476623924
 72
     1
 10
97.69259420707643
 20
-143.6161476623924
 11
97.37439657532003
 21
-144.1019061258126
 97
        0
 75
     2
 76
     1
 98
        0
  0
ENDSEC
  0
SECTION
  2
OBJECTS
  0
DICTIONARY
  5
C
330
0
100
AcDbDictionary
281
     1
  3
ACAD_GROUP
350
D
  3
ACAD_LAYOUT
350
1A
  3
ACAD_MATERIAL
350
3B
  3
ACAD_MLEADERSTYLE
350
CF
  3
ACAD_MLINESTYLE
350
17
  3
ACAD_PLOTSETTINGS
350
19
  3
ACAD_PLOTSTYLENAME
350
E
  3
ACAD_TABLESTYLE
350
CE
  3
ACAD_VISUALSTYLE
350
2A
  0
SUN
  5
3F
330
29
100
AcDbSun
 90
        1
290
     0
 63
     7
421
 16777215
 40
1.0
291
     1
 91
  2455826
 92
 54000000
292
     0
 70
     2
 71
   256
280
     1
  0
DICTIONARY
  5
D
102
{ACAD_REACTORS
330
C
102
}
330
C
100
AcDbDictionary
281
     1
  0
DICTIONARY
  5
1A
102
{ACAD_REACTORS
330
C
102
}
330
C
100
AcDbDictionary
281
     1
  3
Layout1
350
1E
  3
Layout2
350
26
  3
Model
350
22
  0
DICTIONARY
  5
3B
102
{ACAD_REACTORS
330
C
102
}
330
C
100
AcDbDictionary
281
     1
  3
ByBlock
350
3D
  3
ByLayer
350
3C
  3
Global
350
3E
  0
DICTIONARY
  5
CF
102
{ACAD_REACTORS
330
C
102
}
330
C
100
AcDbDictionary
281
     1
  0
DICTIONARY
  5
17
102
{ACAD_REACTORS
330
C
102
}
330
C
100
AcDbDictionary
281
     1
  3
Standard
350
18
  0
DICTIONARY
  5
19
102
{ACAD_REACTORS
330
C
102
}
330
C
100
AcDbDictionary
281
     1
  0
ACDBDICTIONARYWDFLT
  5
E
102
{ACAD_REACTORS
330
C
102
}
330
C
100
AcDbDictionary
281
     1
  3
Normal
350
F
100
AcDbDictionaryWithDefault
340
F
  0
DICTIONARY
  5
CE
102
{ACAD_REACTORS
330
C
102
}
330
C
100
AcDbDictionary
281
     1
  0
DICTIONARY
  5
2A
102
{ACAD_REACTORS
330
C
102
}
330
C
100
AcDbDictionary
281
     1
  3
2dWireframe
350
2F
  3
3D Hidden
350
31
  3
3dWireframe
350
30
  3
Basic
350
32
  3
Brighten
350
36
  3
ColorChange
350
3A
  3
Conceptual
350
34
  3
Dim
350
35
  3
Facepattern
350
39
  3
Flat
350
2B
  3
FlatWithEdges
350
2C
  3
Gouraud
350
2D
  3
GouraudWithEdges
350
2E
  3
Linepattern
350
38
  3
Realistic
350
33
  3
Thicken
350
37
  0
LAYOUT
  5
1E
102
{ACAD_REACTORS
330
1A
102
}
330
1A
100
AcDbPlotSettings
  1

  2
none_device
  4

  6

 40
0.0
 41
0.0
 42
0.0
 43
0.0
 44
0.0
 45
0.0
 46
0.0
 47
0.0
 48
0.0
 49
0.0
140
0.0
141
0.0
142
1.0
143
1.0
 70
   688
 72
     0
 73
     0
 74
     5
  7

 75
    16
 76
     0
 77
     2
 78
   300
147
1.0
148
0.0
149
0.0
100
AcDbLayout
  1
Layout1
 70
     1
 71
     1
 10
0.0
 20
0.0
 11
12.0
 21
9.0
 12
0.0
 22
0.0
 32
0.0
 14
1.000000000000000E+20
 24
1.000000000000000E+20
 34
1.000000000000000E+20
 15
-1.000000000000000E+20
 25
-1.000000000000000E+20
 35
-1.000000000000000E+20
146
0.0
 13
0.0
 23
0.0
 33
0.0
 16
1.0
 26
0.0
 36
0.0
 17
0.0
 27
1.0
 37
0.0
 76
     0
330
1B
  0
LAYOUT
  5
26
102
{ACAD_REACTORS
330
1A
102
}
330
1A
100
AcDbPlotSettings
  1

  2
none_device
  4

  6

 40
0.0
 41
0.0
 42
0.0
 43
0.0
 44
0.0
 45
0.0
 46
0.0
 47
0.0
 48
0.0
 49
0.0
140
0.0
141
0.0
142
1.0
143
1.0
 70
   688
 72
     0
 73
     0
 74
     5
  7

 75
    16
 76
     0
 77
     2
 78
   300
147
1.0
148
0.0
149
0.0
100
AcDbLayout
  1
Layout2
 70
     1
 71
     2
 10
0.0
 20
0.0
 11
0.0
 21
0.0
 12
0.0
 22
0.0
 32
0.0
 14
0.0
 24
0.0
 34
0.0
 15
0.0
 25
0.0
 35
0.0
146
0.0
 13
0.0
 23
0.0
 33
0.0
 16
1.0
 26
0.0
 36
0.0
 17
0.0
 27
1.0
 37
0.0
 76
     0
330
23
  0
LAYOUT
  5
22
102
{ACAD_REACTORS
330
1A
102
}
330
1A
100
AcDbPlotSettings
  1

  2
none_device
  4

  6

 40
0.0
 41
0.0
 42
0.0
 43
0.0
 44
0.0
 45
0.0
 46
0.0
 47
0.0
 48
0.0
 49
0.0
140
0.0
141
0.0
142
1.0
143
1.0
 70
  1712
 72
     0
 73
     0
 74
     0
  7

 75
     0
 76
     0
 77
     2
 78
   300
147
1.0
148
0.0
149
0.0
100
AcDbLayout
  1
Model
 70
     1
 71
     0
 10
0.0
 20
0.0
 11
12.0
 21
9.0
 12
0.0
 22
0.0
 32
0.0
 14
1.000000000000000E+20
 24
1.000000000000000E+20
 34
1.000000000000000E+20
 15
-1.000000000000000E+20
 25
-1.000000000000000E+20
 35
-1.000000000000000E+20
146
0.0
 13
0.0
 23
0.0
 33
0.0
 16
1.0
 26
0.0
 36
0.0
 17
0.0
 27
1.0
 37
0.0
 76
     0
330
1F
331
29
  0
MATERIAL
  5
3D
102
{ACAD_REACTORS
330
3B
102
}
330
3B
100
AcDbMaterial
  1
ByBlock
 72
     1
 94
      127
  0
MATERIAL
  5
3C
102
{ACAD_REACTORS
330
3B
102
}
330
3B
100
AcDbMaterial
  1
ByLayer
 72
     1
 94
      127
  0
MATERIAL
  5
3E
102
{ACAD_REACTORS
330
3B
102
}
330
3B
100
AcDbMaterial
  1
Global
 72
     1
 94
      127
  0
MLINESTYLE
  5
18
102
{ACAD_REACTORS
330
17
102
}
330
17
100
AcDbMlineStyle
  2
Standard
 70
     0
  3

 62
   256
 51
90.0
 52
90.0
 71
     2
 49
0.5
 62
   256
  6
BYLAYER
 49
-0.5
 62
   256
  6
BYLAYER
  0
ACDBPLACEHOLDER
  5
F
102
{ACAD_REACTORS
330
E
102
}
330
E
  0
VISUALSTYLE
  5
2F
102
{ACAD_REACTORS
330
2A
102
}
330
2A
100
AcDbVisualStyle
  2
2dWireframe
 70
     4
177
     2
291
     0
 71
     0
176
     1
 72
     2
176
     1
 73
     0
176
     1
 90
        0
176
     1
 40
-0.6
176
     1
 41
-30.0
176
     1
 62
     5
 63
     7
421
 16777215
176
     1
 74
     1
176
     1
 91
        4
176
     1
 64
     7
176
     1
 65
   257
176
     1
 75
     1
176
     1
175
     1
176
     1
 42
1.0
176
     1
 92
        0
176
     1
 66
   257
176
     1
 43
1.0
176
     1
 76
     1
176
     1
 77
     6
176
     1
 78
     2
176
     1
 67
     7
176
     1
 79
     5
176
     1
170
     0
176
     1
171
     0
176
     1
290
     0
176
     1
 93
        1
176
     1
 44
0.0
176
     1
173
     0
176
     1
  0
VISUALSTYLE
  5
31
102
{ACAD_REACTORS
330
2A
102
}
330
2A
100
AcDbVisualStyle
  2
3D Hidden
 70
     6
177
     2
291
     0
 71
     1
176
     1
 72
     2
176
     1
 73
     2
176
     1
 90
        0
176
     1
 40
-0.6
176
     1
 41
-30.0
176
     1
 62
     5
 63
     7
421
 16777215
176
     1
 74
     2
176
     1
 91
        2
176
     1
 64
     7
176
     1
 65
   257
176
     1
 75
     2
176
     1
175
     1
176
     1
 42
40.0
176
     1
 92
        0
176
     1
 66
   257
176
     1
 43
1.0
176
     1
 76
     1
176
     1
 77
     6
176
     1
 78
     2
176
     1
 67
     7
176
     1
 79
     3
176
     1
170
     0
176
     1
171
     0
176
     1
290
     0
176
     1
 93
        1
176
     1
 44
0.0
176
     1
173
     0
176
     1
  0
VISUALSTYLE
  5
30
102
{ACAD_REACTORS
330
2A
102
}
330
2A
100
AcDbVisualStyle
  2
3dWireframe
 70
     5
177
     2
291
     0
 71
     0
176
     1
 72
     2
176
     1
 73
     0
176
     1
 90
        0
176
     1
 40
-0.6
176
     1
 41
-30.0
176
     1
 62
     5
 63
     7
421
 16777215
176
     1
 74
     1
176
     1
 91
        4
176
     1
 64
     7
176
     1
 65
   257
176
     1
 75
     1
176
     1
175
     1
176
     1
 42
1.0
176
     1
 92
        0
176
     1
 66
   257
176
     1
 43
1.0
176
     1
 76
     1
176
     1
 77
     6
176
     1
 78
     2
176
     1
 67
     7
176
     1
 79
     5
176
     1
170
     0
176
     1
171
     0
176
     1
290
     0
176
     1
 93
        1
176
     1
 44
0.0
176
     1
173
     0
176
     1
  0
VISUALSTYLE
  5
32
102
{ACAD_REACTORS
330
2A
102
}
330
2A
100
AcDbVisualStyle
  2
Basic
 70
     7
177
     2
291
     1
 71
     1
176
     1
 72
     0
176
     1
 73
     1
176
     1
 90
        0
176
     1
 40
-0.6
176
     1
 41
-30.0
176
     1
 62
     5
 63
     7
421
 16777215
176
     1
 74
     0
176
     1
 91
        4
176
     1
 64
     7
176
     1
 65
   257
176
     1
 75
     1
176
     1
175
     1
176
     1
 42
1.0
176
     1
 92
        8
176
     1
 66
     7
176
     1
 43
1.0
176
     1
 76
     1
176
     1
 77
     6
176
     1
 78
     2
176
     1
 67
     7
176
     1
 79
     5
176
     1
170
     0
176
     1
171
     0
176
     1
290
     0
176
     1
 93
        1
176
     1
 44
0.0
176
     1
173
     0
176
     1
  0
VISUALSTYLE
  5
36
102
{ACAD_REACTORS
330
2A
102
}
330
2A
100
AcDbVisualStyle
  2
Brighten
 70
    12
177
     2
291
     1
 71
     2
176
     1
 72
     2
176
     1
 73
     0
176
     1
 90
        0
176
     1
 40
-0.6
176
     1
 41
-30.0
176
     1
 62
     5
 63
     7
421
 16777215
176
     1
 74
     1
176
     1
 91
        4
176
     1
 64
     7
176
     1
 65
   257
176
     1
 75
     1
176
     1
175
     1
176
     1
 42
1.0
176
     1
 92
        8
176
     1
 66
     7
176
     1
 43
1.0
176
     1
 76
     1
176
     1
 77
     6
176
     1
 78
     2
176
     1
 67
     7
176
     1
 79
     5
176
     1
170
     0
176
     1
171
     0
176
     1
290
     0
176
     1
 93
        1
176
     1
 44
50.0
176
     1
173
     0
176
     1
  0
VISUALSTYLE
  5
3A
102
{ACAD_REACTORS
330
2A
102
}
330
2A
100
AcDbVisualStyle
  2
ColorChange
 70
    16
177
     2
291
     1
 71
     2
176
     1
 72
     2
176
     1
 73
     3
176
     1
 90
        0
176
     1
 40
-0.6
176
     1
 41
-30.0
176
     1
 62
     5
 63
     8
421
  8421504
176
     1
 74
     1
176
     1
 91
        4
176
     1
 64
     7
176
     1
 65
   257
176
     1
 75
     1
176
     1
175
     1
176
     1
 42
1.0
176
     1
 92
        8
176
     1
 66
     8
424
  8421504
176
     1
 43
1.0
176
     1
 76
     1
176
     1
 77
     6
176
     1
 78
     2
176
     1
 67
     7
176
     1
 79
     5
176
     1
170
     0
176
     1
171
     0
176
     1
290
     0
176
     1
 93
        1
176
     1
 44
0.0
176
     1
173
     0
176
     1
  0
VISUALSTYLE
  5
34
102
{ACAD_REACTORS
330
2A
102
}
330
2A
100
AcDbVisualStyle
  2
Conceptual
 70
     9
177
     2
291
     0
 71
     3
176
     1
 72
     2
176
     1
 73
     0
176
     1
 90
        0
176
     1
 40
-0.6
176
     1
 41
-30.0
176
     1
 62
     5
 63
     7
421
 16777215
176
     1
 74
     2
176
     1
 91
        2
176
     1
 64
     7
176
     1
 65
   257
176
     1
 75
     1
176
     1
175
     1
176
     1
 42
40.0
176
     1
 92
        8
176
     1
 66
     7
176
     1
 43
1.0
176
     1
 76
     1
176
     1
 77
     6
176
     1
 78
     2
176
     1
 67
     7
176
     1
 79
     3
176
     1
170
     0
176
     1
171
     0
176
     1
290
     0
176
     1
 93
        1
176
     1
 44
0.0
176
     1
173
     0
176
     1
  0
VISUALSTYLE
  5
35
102
{ACAD_REACTORS
330
2A
102
}
330
2A
100
AcDbVisualStyle
  2
Dim
 70
    11
177
     2
291
     1
 71
     2
176
     1
 72
     2
176
     1
 73
     0
176
     1
 90
        0
176
     1
 40
-0.6
176
     1
 41
-30.0
176
     1
 62
     5
 63
     7
421
 16777215
176
     1
 74
     1
176
     1
 91
        4
176
     1
 64
     7
176
     1
 65
   257
176
     1
 75
     1
176
     1
175
     1
176
     1
 42
1.0
176
     1
 92
        8
176
     1
 66
     7
176
     1
 43
1.0
176
     1
 76
     1
176
     1
 77
     6
176
     1
 78
     2
176
     1
 67
     7
176
     1
 79
     5
176
     1
170
     0
176
     1
171
     0
176
     1
290
     0
176
     1
 93
        1
176
     1
 44
-50.0
176
     1
173
     0
176
     1
  0
VISUALSTYLE
  5
39
102
{ACAD_REACTORS
330
2A
102
}
330
2A
100
AcDbVisualStyle
  2
Facepattern
 70
    15
177
     2
291
     1
 71
     2
176
     1
 72
     2
176
     1
 73
     0
176
     1
 90
        0
176
     1
 40
-0.6
176
     1
 41
-30.0
176
     1
 62
     5
 63
     7
421
 16777215
176
     1
 74
     1
176
     1
 91
        4
176
     1
 64
     7
176
     1
 65
   257
176
     1
 75
     1
176
     1
175
     1
176
     1
 42
1.0
176
     1
 92
        8
176
     1
 66
     7
176
     1
 43
1.0
176
     1
 76
     1
176
     1
 77
     6
176
     1
 78
     2
176
     1
 67
     7
176
     1
 79
     5
176
     1
170
     0
176
     1
171
     0
176
     1
290
     0
176
     1
 93
        1
176
     1
 44
0.0
176
     1
173
     0
176
     1
  0
VISUALSTYLE
  5
2B
102
{ACAD_REACTORS
330
2A
102
}
330
2A
100
AcDbVisualStyle
  2
Flat
 70
     0
177
     2
291
     1
 71
     2
176
     1
 72
     1
176
     1
 73
     1
176
     1
 90
        2
176
     1
 40
-0.6
176
     1
 41
30.0
176
     1
 62
     5
 63
     7
421
 16777215
176
     1
 74
     0
176
     1
 91
        4
176
     1
 64
     7
176
     1
 65
   257
176
     1
 75
     1
176
     1
175
     1
176
     1
 42
1.0
176
     1
 92
        8
176
     1
 66
     7
176
     1
 43
1.0
176
     1
 76
     1
176
     1
 77
     6
176
     1
 78
     2
176
     1
 67
     7
176
     1
 79
     5
176
     1
170
     0
176
     1
171
     0
176
     1
290
     0
176
     1
 93
       13
176
     1
 44
0.0
176
     1
173
     0
176
     1
  0
VISUALSTYLE
  5
2C
102
{ACAD_REACTORS
330
2A
102
}
330
2A
100
AcDbVisualStyle
  2
FlatWithEdges
 70
     1
177
     2
291
     1
 71
     2
176
     1
 72
     1
176
     1
 73
     1
176
     1
 90
        2
176
     1
 40
-0.6
176
     1
 41
30.0
176
     1
 62
     5
 63
     7
421
 16777215
176
     1
 74
     1
176
     1
 91
        4
176
     1
 64
     7
176
     1
 65
   257
176
     1
 75
     1
176
     1
175
     1
176
     1
 42
1.0
176
     1
 92
        0
176
     1
 66
   257
176
     1
 43
1.0
176
     1
 76
     1
176
     1
 77
     6
176
     1
 78
     2
176
     1
 67
     7
176
     1
 79
     5
176
     1
170
     0
176
     1
171
     0
176
     1
290
     0
176
     1
 93
       13
176
     1
 44
0.0
176
     1
173
     0
176
     1
  0
VISUALSTYLE
  5
2D
102
{ACAD_REACTORS
330
2A
102
}
330
2A
100
AcDbVisualStyle
  2
Gouraud
 70
     2
177
     2
291
     1
 71
     2
176
     1
 72
     2
176
     1
 73
     1
176
     1
 90
        2
176
     1
 40
-0.6
176
     1
 41
30.0
176
     1
 62
     5
 63
     7
421
 16777215
176
     1
 74
     0
176
     1
 91
        4
176
     1
 64
     7
176
     1
 65
   257
176
     1
 75
     1
176
     1
175
     1
176
     1
 42
1.0
176
     1
 92
        0
176
     1
 66
     7
176
     1
 43
1.0
176
     1
 76
     1
176
     1
 77
     6
176
     1
 78
     2
176
     1
 67
     7
176
     1
 79
     5
176
     1
170
     0
176
     1
171
     0
176
     1
290
     0
176
     1
 93
       13
176
     1
 44
0.0
176
     1
173
     0
176
     1
  0
VISUALSTYLE
  5
2E
102
{ACAD_REACTORS
330
2A
102
}
330
2A
100
AcDbVisualStyle
  2
GouraudWithEdges
 70
     3
177
     2
291
     1
 71
     2
176
     1
 72
     2
176
     1
 73
     1
176
     1
 90
        2
176
     1
 40
-0.6
176
     1
 41
30.0
176
     1
 62
     5
 63
     7
421
 16777215
176
     1
 74
     1
176
     1
 91
        4
176
     1
 64
     7
176
     1
 65
   257
176
     1
 75
     1
176
     1
175
     1
176
     1
 42
1.0
176
     1
 92
        0
176
     1
 66
   257
176
     1
 43
1.0
176
     1
 76
     1
176
     1
 77
     6
176
     1
 78
     2
176
     1
 67
     7
176
     1
 79
     5
176
     1
170
     0
176
     1
171
     0
176
     1
290
     0
176
     1
 93
       13
176
     1
 44
0.0
176
     1
173
     0
176
     1
  0
VISUALSTYLE
  5
38
102
{ACAD_REACTORS
330
2A
102
}
330
2A
100
AcDbVisualStyle
  2
Linepattern
 70
    14
177
     2
291
     1
 71
     2
176
     1
 72
     2
176
     1
 73
     0
176
     1
 90
        0
176
     1
 40
-0.6
176
     1
 41
-30.0
176
     1
 62
     5
 63
     7
421
 16777215
176
     1
 74
     1
176
     1
 91
        4
176
     1
 64
     7
176
     1
 65
   257
176
     1
 75
     7
176
     1
175
     7
176
     1
 42
1.0
176
     1
 92
        8
176
     1
 66
     7
176
     1
 43
1.0
176
     1
 76
     1
176
     1
 77
     6
176
     1
 78
     2
176
     1
 67
     7
176
     1
 79
     5
176
     1
170
     0
176
     1
171
     0
176
     1
290
     0
176
     1
 93
        1
176
     1
 44
0.0
176
     1
173
     0
176
     1
  0
VISUALSTYLE
  5
33
102
{ACAD_REACTORS
330
2A
102
}
330
2A
100
AcDbVisualStyle
  2
Realistic
 70
     8
177
     2
291
     0
 71
     2
176
     1
 72
     2
176
     1
 73
     0
176
     1
 90
        0
176
     1
 40
-0.6
176
     1
 41
-30.0
176
     1
 62
     5
 63
     7
421
 16777215
176
     1
 74
     1
176
     1
 91
        0
176
     1
 64
     7
176
     1
 65
   257
176
     1
 75
     1
176
     1
175
     1
176
     1
 42
1.0
176
     1
 92
        8
176
     1
 66
     8
424
  7895160
176
     1
 43
1.0
176
     1
 76
     1
176
     1
 77
     6
176
     1
 78
     2
176
     1
 67
     7
176
     1
 79
     5
176
     1
170
     0
176
     1
171
     0
176
     1
290
     0
176
     1
 93
       13
176
     1
 44
0.0
176
     1
173
     0
176
     1
  0
VISUALSTYLE
  5
37
102
{ACAD_REACTORS
330
2A
102
}
330
2A
100
AcDbVisualStyle
  2
Thicken
 70
    13
177
     2
291
     1
 71
     2
176
     1
 72
     2
176
     1
 73
     0
176
     1
 90
        0
176
     1
 40
-0.6
176
     1
 41
-30.0
176
     1
 62
     5
 63
     7
421
 16777215
176
     1
 74
     1
176
     1
 91
        4
176
     1
 64
     7
176
     1
 65
   257
176
     1
 75
     1
176
     1
175
     1
176
     1
 42
1.0
176
     1
 92
       12
176
     1
 66
     7
176
     1
 43
1.0
176
     1
 76
     1
176
     1
 77
     6
176
     1
 78
     2
176
     1
 67
     7
176
     1
 79
     5
176
     1
170
     0
176
     1
171
     0
176
     1
290
     0
176
     1
 93
        1
176
     1
 44
0.0
176
     1
173
     0
176
     1
  0
ENDSEC
  0
EOF
