  0
SECTION
  2
HEADER
  9
$ACADVER
  1
AC1024
  9
$ACADMAINTVER
 70
     6
  9
$DWGCODEPAGE
  3
UNDEFINED
  9
$INSBASE
 10
0.0
 20
0.0
 30
0.0
  9
$EXTMIN
 10
1.000000000000000E+20
 20
1.000000000000000E+20
 30
1.000000000000000E+20
  9
$EXTMAX
 10
-1.000000000000000E+20
 20
-1.000000000000000E+20
 30
-1.000000000000000E+20
  9
$LIMMIN
 10
0.0
 20
0.0
  9
$LIMMAX
 10
12.0
 20
9.0
  9
$ORTHOMODE
 70
     0
  9
$REGENMODE
 70
     1
  9
$FILLMODE
 70
     1
  9
$QTEXTMODE
 70
     0
  9
$MIRRTEXT
 70
     1
  9
$LTSCALE
 40
1.0
  9
$ATTMODE
 70
     1
  9
$TEXTSIZE
 40
0.2
  9
$TRACEWID
 40
0.05
  9
$TEXTSTYLE
  7
Standard
  9
$CLAYER
  8
0
  9
$CELTYPE
  6
ByLayer
  9
$CECOLOR
 62
   256
  9
$CELTSCALE
 40
1.0
  9
$DISPSILH
 70
     0
  9
$DIMSCALE
 40
1.0
  9
$DIMASZ
 40
0.18
  9
$DIMEXO
 40
0.0625
  9
$DIMDLI
 40
0.38
  9
$DIMRND
 40
0.0
  9
$DIMDLE
 40
0.0
  9
$DIMEXE
 40
0.18
  9
$DIMTP
 40
0.0
  9
$DIMTM
 40
0.0
  9
$DIMTXT
 40
0.18
  9
$DIMCEN
 40
0.09
  9
$DIMTSZ
 40
0.0
  9
$DIMTOL
 70
     0
  9
$DIMLIM
 70
     0
  9
$DIMTIH
 70
     1
  9
$DIMTOH
 70
     1
  9
$DIMSE1
 70
     0
  9
$DIMSE2
 70
     0
  9
$DIMTAD
 70
     0
  9
$DIMZIN
 70
     0
  9
$DIMBLK
  1

  9
$DIMASO
 70
     1
  9
$DIMSHO
 70
     1
  9
$DIMPOST
  1

  9
$DIMAPOST
  1

  9
$DIMALT
 70
     0
  9
$DIMALTD
 70
     2
  9
$DIMALTF
 40
25.4
  9
$DIMLFAC
 40
1.0
  9
$DIMTOFL
 70
     0
  9
$DIMTVP
 40
0.0
  9
$DIMTIX
 70
     0
  9
$DIMSOXD
 70
     0
  9
$DIMSAH
 70
     0
  9
$DIMBLK1
  1

  9
$DIMBLK2
  1

  9
$DIMSTYLE
  2
Standard
  9
$DIMCLRD
 70
     0
  9
$DIMCLRE
 70
     0
  9
$DIMCLRT
 70
     0
  9
$DIMTFAC
 40
1.0
  9
$DIMGAP
 40
0.09
  9
$DIMJUST
 70
     0
  9
$DIMSD1
 70
     0
  9
$DIMSD2
 70
     0
  9
$DIMTOLJ
 70
     1
  9
$DIMTZIN
 70
     0
  9
$DIMALTZ
 70
     0
  9
$DIMALTTZ
 70
     0
  9
$DIMUPT
 70
     0
  9
$DIMDEC
 70
     4
  9
$DIMTDEC
 70
     4
  9
$DIMALTU
 70
     2
  9
$DIMALTTD
 70
     2
  9
$DIMTXSTY
  7
Standard
  9
$DIMAUNIT
 70
     0
  9
$DIMADEC
 70
     0
  9
$DIMALTRND
 40
0.0
  9
$DIMAZIN
 70
     0
  9
$DIMDSEP
 70
    46
  9
$DIMATFIT
 70
     3
  9
$DIMFRAC
 70
     0
  9
$DIMLDRBLK
  1

  9
$DIMLUNIT
 70
     2
  9
$DIMLWD
 70
    -2
  9
$DIMLWE
 70
    -2
  9
$DIMTMOVE
 70
     0
  9
$DIMFXL
 40
1.0
  9
$DIMFXLON
 70
     0
  9
$DIMJOGANG
 40
0.7853981633974483
  9
$DIMTFILL
 70
     0
  9
$DIMTFILLCLR
 70
     0
  9
$DIMARCSYM
 70
     0
  9
$DIMLTYPE
  6

  9
$DIMLTEX1
  6

  9
$DIMLTEX2
  6

  9
$DIMTXTDIRECTION
 70
     0
  9
$LUNITS
 70
     2
  9
$LUPREC
 70
     4
  9
$SKETCHINC
 40
0.1
  9
$FILLETRAD
 40
0.5
  9
$AUNITS
 70
     0
  9
$AUPREC
 70
     0
  9
$MENU
  1
.
  9
$ELEVATION
 40
0.0
  9
$PELEVATION
 40
0.0
  9
$THICKNESS
 40
0.0
  9
$LIMCHECK
 70
     0
  9
$CHAMFERA
 40
0.5
  9
$CHAMFERB
 40
0.5
  9
$CHAMFERC
 40
1.0
  9
$CHAMFERD
 40
0.0
  9
$SKPOLY
 70
     0
  9
$TDCREATE
 40
2458263.582939803
  9
$TDUCREATE
 40
2458263.207939815
  9
$TDUPDATE
 40
2458263.582939803
  9
$TDUUPDATE
 40
2458263.207939815
  9
$TDINDWG
 40
0.0000000116
  9
$TDUSRTIMER
 40
0.0000000116
  9
$USRTIMER
 70
     1
  9
$ANGBASE
 50
0.0
  9
$ANGDIR
 70
     0
  9
$PDMODE
 70
     0
  9
$PDSIZE
 40
0.0
  9
$PLINEWID
 40
0.0
  9
$SPLFRAME
 70
     0
  9
$SPLINETYPE
 70
     6
  9
$SPLINESEGS
 70
     8
  9
$HANDSEED
  5
CF
  9
$SURFTAB1
 70
     6
  9
$SURFTAB2
 70
     6
  9
$SURFTYPE
 70
     6
  9
$SURFU
 70
     6
  9
$SURFV
 70
     6
  9
$UCSBASE
  2

  9
$UCSNAME
  2

  9
$UCSORG
 10
0.0
 20
0.0
 30
0.0
  9
$UCSXDIR
 10
1.0
 20
0.0
 30
0.0
  9
$UCSYDIR
 10
0.0
 20
1.0
 30
0.0
  9
$UCSORTHOREF
  2

  9
$UCSORTHOVIEW
 70
     0
  9
$UCSORGTOP
 10
0.0
 20
0.0
 30
0.0
  9
$UCSORGBOTTOM
 10
0.0
 20
0.0
 30
0.0
  9
$UCSORGLEFT
 10
0.0
 20
0.0
 30
0.0
  9
$UCSORGRIGHT
 10
0.0
 20
0.0
 30
0.0
  9
$UCSORGFRONT
 10
0.0
 20
0.0
 30
0.0
  9
$UCSORGBACK
 10
0.0
 20
0.0
 30
0.0
  9
$PUCSBASE
  2

  9
$PUCSNAME
  2

  9
$PUCSORG
 10
0.0
 20
0.0
 30
0.0
  9
$PUCSXDIR
 10
1.0
 20
0.0
 30
0.0
  9
$PUCSYDIR
 10
0.0
 20
1.0
 30
0.0
  9
$PUCSORTHOREF
  2

  9
$PUCSORTHOVIEW
 70
     0
  9
$PUCSORGTOP
 10
0.0
 20
0.0
 30
0.0
  9
$PUCSORGBOTTOM
 10
0.0
 20
0.0
 30
0.0
  9
$PUCSORGLEFT
 10
0.0
 20
0.0
 30
0.0
  9
$PUCSORGRIGHT
 10
0.0
 20
0.0
 30
0.0
  9
$PUCSORGFRONT
 10
0.0
 20
0.0
 30
0.0
  9
$PUCSORGBACK
 10
0.0
 20
0.0
 30
0.0
  9
$USERI1
 70
     0
  9
$USERI2
 70
     0
  9
$USERI3
 70
     0
  9
$USERI4
 70
     0
  9
$USERI5
 70
     0
  9
$USERR1
 40
0.0
  9
$USERR2
 40
0.0
  9
$USERR3
 40
0.0
  9
$USERR4
 40
0.0
  9
$USERR5
 40
0.0
  9
$WORLDVIEW
 70
     1
  9
$SHADEDGE
 70
     3
  9
$SHADEDIF
 70
    70
  9
$TILEMODE
 70
     1
  9
$MAXACTVP
 70
    64
  9
$PINSBASE
 10
0.0
 20
0.0
 30
0.0
  9
$PLIMCHECK
 70
     0
  9
$PEXTMIN
 10
1.000000000000000E+20
 20
1.000000000000000E+20
 30
1.000000000000000E+20
  9
$PEXTMAX
 10
-1.000000000000000E+20
 20
-1.000000000000000E+20
 30
-1.000000000000000E+20
  9
$PLIMMIN
 10
0.0
 20
0.0
  9
$PLIMMAX
 10
12.0
 20
9.0
  9
$UNITMODE
 70
     0
  9
$VISRETAIN
 70
     1
  9
$PLINEGEN
 70
     0
  9
$PSLTSCALE
 70
     1
  9
$TREEDEPTH
 70
  3020
  9
$CMLSTYLE
  2
Standard
  9
$CMLJUST
 70
     0
  9
$CMLSCALE
 40
1.0
  9
$PROXYGRAPHICS
 70
     1
  9
$MEASUREMENT
 70
     0
  9
$CELWEIGHT
370
    -1
  9
$ENDCAPS
280
     0
  9
$JOINSTYLE
280
     0
  9
$LWDISPLAY
290
     1
  9
$INSUNITS
 70
     1
  9
$HYPERLINKBASE
  1

  9
$STYLESHEET
  1

  9
$XEDIT
290
     1
  9
$CEPSNTYPE
380
     0
  9
$PSTYLEMODE
290
     1
  9
$FINGERPRINTGUID
  2
{A3E8626F-0DF5-A9FF-E5DE-FE841A03832C}
  9
$VERSIONGUID
  2
{FAEB1C32-E019-11D5-929B-00C0DF256EC4}
  9
$EXTNAMES
290
     1
  9
$PSVPSCALE
 40
0.0
  9
$OLESTARTUP
290
     0
  9
$SORTENTS
280
   127
  9
$INDEXCTL
280
     0
  9
$HIDETEXT
280
     1
  9
$XCLIPFRAME
280
     2
  9
$HALOGAP
280
     0
  9
$OBSCOLOR
 70
   257
  9
$OBSLTYPE
280
     0
  9
$INTERSECTIONDISPLAY
280
     0
  9
$INTERSECTIONCOLOR
 70
   257
  9
$DIMASSOC
280
     2
  9
$PROJECTNAME
  1

  9
$CAMERADISPLAY
290
     0
  9
$LENSLENGTH
 40
50.0
  9
$CAMERAHEIGHT
 40
0.0
  9
$STEPSPERSEC
 40
2.0
  9
$STEPSIZE
 40
6.0
  9
$3DDWFPREC
 40
2.0
  9
$PSOLWIDTH
 40
0.25
  9
$PSOLHEIGHT
 40
4.0
  9
$LOFTANG1
 40
1.570796326794897
  9
$LOFTANG2
 40
1.570796326794897
  9
$LOFTMAG1
 40
0.0
  9
$LOFTMAG2
 40
0.0
  9
$LOFTPARAM
 70
     7
  9
$LOFTNORMALS
280
     1
  9
$LATITUDE
 40
37.795
  9
$LONGITUDE
 40
-122.394
  9
$NORTHDIRECTION
 40
0.0
  9
$TIMEZONE
 70
 -8000
  9
$LIGHTGLYPHDISPLAY
280
     1
  9
$TILEMODELIGHTSYNCH
280
     1
  9
$CMATERIAL
347
3C
  9
$SOLIDHIST
280
     1
  9
$SHOWHIST
280
     1
  9
$DWFFRAME
280
     2
  9
$DGNFRAME
280
     2
  9
$REALWORLDSCALE
290
     1
  9
$INTERFERECOLOR
 62
   256
  9
$CSHADOW
280
     0
  9
$SHADOWPLANELOCATION
 40
0.0
  0
ENDSEC
  0
SECTION
  2
CLASSES
  0
CLASS
  1
ACDBDICTIONARYWDFLT
  2
AcDbDictionaryWithDefault
  3
ObjectDBX Classes
 90
        0
 91
        4
280
     0
281
     0
  0
CLASS
  1
VISUALSTYLE
  2
AcDbVisualStyle
  3
ObjectDBX Classes
 90
     4095
 91
        4
280
     0
281
     0
  0
CLASS
  1
MATERIAL
  2
AcDbMaterial
  3
ObjectDBX Classes
 90
     1153
 91
        4
280
     0
281
     0
  0
CLASS
  1
SUN
  2
AcDbSun
  3
SCENEOE
 90
     1024
 91
        4
280
     0
281
     0
  0
ENDSEC
  0
SECTION
  2
TABLES
  0
TABLE
  2
VPORT
  5
8
330
0
100
AcDbSymbolTable
 70
     1
  0
VPORT
  5
29
330
8
100
AcDbSymbolTableRecord
100
AcDbViewportTableRecord
  2
*Active
 70
     0
 10
0.0
 20
0.0
 11
1.0
 21
1.0
 12
0.0
 22
0.0
 13
0.0
 23
0.0
 14
0.5
 24
0.5
 15
0.5
 25
0.5
 16
0.0
 26
0.0
 36
1.0
 17
105.0007777515277
 27
-148.5000416295416
 37
0.0
 40
297.0000832590831
 41
0.7070757462376333
 42
50.0
 43
0.0
 44
0.0
 50
0.0
 51
0.0
 71
     0
 72
   100
 73
     1
 74
     3
 75
     0
 76
     0
 77
     0
 78
     0
281
     0
 65
     1
110
0.0
120
0.0
130
0.0
111
1.0
121
0.0
131
0.0
112
0.0
122
1.0
132
0.0
 79
     0
146
0.0
 60
     3
 61
     5
292
     1
282
     1
141
0.0
142
0.0
 63
   250
361
3F
  0
ENDTAB
  0
TABLE
  2
LTYPE
  5
5
330
0
100
AcDbSymbolTable
 70
     1
  0
LTYPE
  5
14
330
5
100
AcDbSymbolTableRecord
100
AcDbLinetypeTableRecord
  2
ByBlock
 70
     0
  3

 72
    65
 73
     0
 40
0.0
  0
LTYPE
  5
15
330
5
100
AcDbSymbolTableRecord
100
AcDbLinetypeTableRecord
  2
ByLayer
 70
     0
  3

 72
    65
 73
     0
 40
0.0
  0
LTYPE
  5
16
330
5
100
AcDbSymbolTableRecord
100
AcDbLinetypeTableRecord
  2
Continuous
 70
     0
  3
Solid line
 72
    65
 73
     0
 40
0.0
  0
ENDTAB
  0
TABLE
  2
LAYER
  5
2
330
0
100
AcDbSymbolTable
 70
     2
  0
LAYER
  5
10
330
2
100
AcDbSymbolTableRecord
100
AcDbLayerTableRecord
  2
0
 70
     0
 62
     7
  6
Continuous
370
    -3
390
F
347
3E
  0
LAYER
  5
40
330
2
100
AcDbSymbolTableRecord
100
AcDbLayerTableRecord
  2
_U+30EC_U+30A4_U+30E4_U+30FC 1
 70
     0
 62
     7
  6
Continuous
370
    -3
390
F
347
3E
  0
ENDTAB
  0
TABLE
  2
STYLE
  5
3
330
0
100
AcDbSymbolTable
 70
     1
  0
STYLE
  5
11
330
3
100
AcDbSymbolTableRecord
100
AcDbTextStyleTableRecord
  2
Standard
 70
     0
 40
0.0
 41
1.0
 50
0.0
 71
     0
 42
0.2
  3
txt
  4

  0
ENDTAB
  0
TABLE
  2
VIEW
  5
6
330
0
100
AcDbSymbolTable
 70
     0
  0
ENDTAB
  0
TABLE
  2
UCS
  5
7
330
0
100
AcDbSymbolTable
 70
     0
  0
ENDTAB
  0
TABLE
  2
APPID
  5
9
330
0
100
AcDbSymbolTable
 70
     1
  0
APPID
  5
12
330
9
100
AcDbSymbolTableRecord
100
AcDbRegAppTableRecord
  2
ACAD
 70
     0
  0
ENDTAB
  0
TABLE
  2
DIMSTYLE
  5
A
330
0
100
AcDbSymbolTable
 70
     1
100
AcDbDimStyleTable
  0
DIMSTYLE
105
27
330
A
100
AcDbSymbolTableRecord
100
AcDbDimStyleTableRecord
  2
Standard
 70
     0
178
     0
340
11
  0
ENDTAB
  0
TABLE
  2
BLOCK_RECORD
  5
1
330
0
100
AcDbSymbolTable
 70
     7
  0
BLOCK_RECORD
  5
1F
330
1
100
AcDbSymbolTableRecord
100
AcDbBlockTableRecord
  2
*Model_Space
340
22
 70
     0
280
     1
281
     0
  0
BLOCK_RECORD
  5
1B
330
1
100
AcDbSymbolTableRecord
100
AcDbBlockTableRecord
  2
*Paper_Space
340
1E
 70
     0
280
     1
281
     0
  0
BLOCK_RECORD
  5
23
330
1
100
AcDbSymbolTableRecord
100
AcDbBlockTableRecord
  2
*Paper_Space0
340
26
 70
     0
280
     1
281
     0
  0
BLOCK_RECORD
  5
52
330
1
100
AcDbSymbolTableRecord
100
AcDbBlockTableRecord
  2
block 2
340
0
102
{BLKREFS
331
53
102
}
 70
     0
280
     1
281
     0
  0
BLOCK_RECORD
  5
70
330
1
100
AcDbSymbolTableRecord
100
AcDbBlockTableRecord
  2
block 3
340
0
102
{BLKREFS
331
71
102
}
 70
     0
280
     1
281
     0
  0
BLOCK_RECORD
  5
81
330
1
100
AcDbSymbolTableRecord
100
AcDbBlockTableRecord
  2
block 4
340
0
102
{BLKREFS
331
82
102
}
 70
     0
280
     1
281
     0
  0
BLOCK_RECORD
  5
91
330
1
100
AcDbSymbolTableRecord
100
AcDbBlockTableRecord
  2
block 5
340
0
102
{BLKREFS
331
92
102
}
 70
     0
280
     1
281
     0
  0
BLOCK_RECORD
  5
A1
330
1
100
AcDbSymbolTableRecord
100
AcDbBlockTableRecord
  2
block 6
340
0
102
{BLKREFS
331
A2
102
}
 70
     0
280
     1
281
     0
  0
BLOCK_RECORD
  5
AF
330
1
100
AcDbSymbolTableRecord
100
AcDbBlockTableRecord
  2
block 7
340
0
102
{BLKREFS
331
B0
102
}
 70
     0
280
     1
281
     0
  0
ENDTAB
  0
ENDSEC
  0
SECTION
  2
BLOCKS
  0
BLOCK
  5
20
330
1F
100
AcDbEntity
  8
0
100
AcDbBlockBegin
  2
*Model_Space
 70
     0
 10
0.0
 20
0.0
 30
0.0
  3
*Model_Space
  1

  0
ENDBLK
  5
21
330
1F
100
AcDbEntity
  8
0
100
AcDbBlockEnd
  0
BLOCK
  5
1C
330
1B
100
AcDbEntity
 67
     1
  8
0
100
AcDbBlockBegin
  2
*Paper_Space
 70
     0
 10
0.0
 20
0.0
 30
0.0
  3
*Paper_Space
  1

  0
ENDBLK
  5
1D
330
1B
100
AcDbEntity
 67
     1
  8
0
100
AcDbBlockEnd
  0
BLOCK
  5
24
330
23
100
AcDbEntity
  8
0
100
AcDbBlockBegin
  2
*Paper_Space0
 70
     0
 10
0.0
 20
0.0
 30
0.0
  3
*Paper_Space0
  1

  0
ENDBLK
  5
25
330
23
100
AcDbEntity
  8
0
100
AcDbBlockEnd
  0
BLOCK
  5
54
330
52
100
AcDbEntity
  8
0
100
AcDbBlockBegin
  2
block 2
 70
     0
 10
0.0
 20
0.0
 30
0.0
  3
block 2
  1

  0
SPLINE
  5
56
330
52
100
AcDbEntity
  8
_U+30EC_U+30A4_U+30E4_U+30FC 1
370
     0
100
AcDbSpline
210
0.0
220
0.0
230
1.0
 70
    11
 71
     3
 72
    44
 73
    40
 74
     0
 42
0.0000000001
 43
0.0000000001
 12
1.0
 22
0.0
 32
0.0
 13
1.0
 23
0.0
 33
0.0
 40
0.0
 40
0.0
 40
0.0
 40
0.0
 40
1.0
 40
1.0
 40
1.0
 40
2.0
 40
2.0
 40
2.0
 40
3.0
 40
3.0
 40
3.0
 40
4.0
 40
4.0
 40
4.0
 40
5.0
 40
5.0
 40
5.0
 40
6.0
 40
6.0
 40
6.0
 40
7.0
 40
7.0
 40
7.0
 40
8.0
 40
8.0
 40
8.0
 40
9.0
 40
9.0
 40
9.0
 40
10.0
 40
10.0
 40
10.0
 40
11.0
 40
11.0
 40
11.0
 40
12.0
 40
12.0
 40
12.0
 40
13.0
 40
13.0
 40
13.0
 40
13.0
 10
101.1593722620366
 20
-156.8048990493405
 30
0.0
 10
100.9264838072337
 20
-156.9633734416619
 30
0.0
 10
100.8269205477099
 20
-157.0374429945948
 30
0.0
 10
100.7752441154312
 20
-157.1814479858783
 30
0.0
 10
100.7752441154312
 20
-157.1814479858783
 30
0.0
 10
101.6068901655705
 20
-157.1814479858783
 30
0.0
 10
101.6068901655705
 20
-157.1814479858783
 30
0.0
 10
101.6068901655705
 20
-157.1814479858783
 30
0.0
 10
101.6068901655705
 20
-157.3864311672506
 30
0.0
 10
101.6068901655705
 20
-157.3864311672506
 30
0.0
 10
101.6068901655705
 20
-157.3864311672506
 30
0.0
 10
100.5082492153243
 20
-157.3864311672506
 30
0.0
 10
100.5082492153243
 20
-157.3864311672506
 30
0.0
 10
100.5423556606283
 20
-157.0288302558817
 30
0.0
 10
100.6122910989789
 20
-156.9506265883665
 30
0.0
 10
101.0236354999177
 20
-156.6522813193439
 30
0.0
 10
101.2971760814465
 20
-156.453499309845
 30
0.0
 10
101.3674560293456
 20
-156.3859754383341
 30
0.0
 10
101.3674560293456
 20
-156.2485161284726
 30
0.0
 10
101.3674560293456
 20
-156.13000484378
 30
0.0
 10
101.2906304000246
 20
-155.998746705792
 30
0.0
 10
101.0801350658758
 20
-155.998746705792
 30
0.0
 10
100.8021158602161
 20
-155.998746705792
 30
0.0
 10
100.7931586119545
 20
-156.2292235937552
 30
0.0
 10
100.7886799878237
 20
-156.3456678211566
 30
0.0
 10
100.7886799878237
 20
-156.3456678211566
 30
0.0
 10
100.5489013420503
 20
-156.3456678211566
 30
0.0
 10
100.5489013420503
 20
-156.3456678211566
 30
0.0
 10
100.5582030998604
 20
-156.2188883072995
 30
0.0
 10
100.5692274054133
 20
-156.1065781944803
 30
0.0
 10
100.6553547925445
 20
-155.9880669097877
 30
0.0
 10
100.7728325485915
 20
-155.8275254601751
 30
0.0
 10
100.9716145580904
 20
-155.7934190148711
 30
0.0
 10
101.095982505108
 20
-155.7934190148711
 30
0.0
 10
101.3922607168394
 20
-155.7934190148711
 30
0.0
 10
101.613780356541
 20
-155.977731623332
 30
0.0
 10
101.613780356541
 20
-156.2505831857638
 30
0.0
 10
101.613780356541
 20
-156.4789930164358
 30
0.0
 10
101.4894124095235
 20
-156.5785562759595
 30
0.0
 10
101.1593722620366
 20
-156.8048990493405
 30
0.0
  0
HATCH
  5
57
330
52
100
AcDbEntity
  8
_U+30EC_U+30A4_U+30E4_U+30FC 1
 62
   179
420
  2234388
100
AcDbHatch
 10
0.0
 20
0.0
 30
0.0
210
0.0
220
0.0
230
1.0
  2
SOLID
 70
     1
 71
     0
 91
        1
 92
        1
 93
        1
 72
     4
 94
        3
 73
     0
 74
     1
 95
       44
 96
       40
 40
0.0
 40
0.0
 40
0.0
 40
0.0
 40
1.0
 40
1.0
 40
1.0
 40
2.0
 40
2.0
 40
2.0
 40
3.0
 40
3.0
 40
3.0
 40
4.0
 40
4.0
 40
4.0
 40
5.0
 40
5.0
 40
5.0
 40
6.0
 40
6.0
 40
6.0
 40
7.0
 40
7.0
 40
7.0
 40
8.0
 40
8.0
 40
8.0
 40
9.0
 40
9.0
 40
9.0
 40
10.0
 40
10.0
 40
10.0
 40
11.0
 40
11.0
 40
11.0
 40
12.0
 40
12.0
 40
12.0
 40
13.0
 40
13.0
 40
13.0
 40
13.0
 10
101.1593722620366
 20
-156.8048990493405
 10
100.9264838072337
 20
-156.9633734416619
 10
100.8269205477099
 20
-157.0374429945948
 10
100.7752441154312
 20
-157.1814479858783
 10
100.7752441154312
 20
-157.1814479858783
 10
101.6068901655705
 20
-157.1814479858783
 10
101.6068901655705
 20
-157.1814479858783
 10
101.6068901655705
 20
-157.1814479858783
 10
101.6068901655705
 20
-157.3864311672506
 10
101.6068901655705
 20
-157.3864311672506
 10
101.6068901655705
 20
-157.3864311672506
 10
100.5082492153243
 20
-157.3864311672506
 10
100.5082492153243
 20
-157.3864311672506
 10
100.5423556606283
 20
-157.0288302558817
 10
100.6122910989789
 20
-156.9506265883665
 10
101.0236354999177
 20
-156.6522813193439
 10
101.2971760814465
 20
-156.453499309845
 10
101.3674560293456
 20
-156.3859754383341
 10
101.3674560293456
 20
-156.2485161284726
 10
101.3674560293456
 20
-156.13000484378
 10
101.2906304000246
 20
-155.998746705792
 10
101.0801350658758
 20
-155.998746705792
 10
100.8021158602161
 20
-155.998746705792
 10
100.7931586119545
 20
-156.2292235937552
 10
100.7886799878237
 20
-156.3456678211566
 10
100.7886799878237
 20
-156.3456678211566
 10
100.5489013420503
 20
-156.3456678211566
 10
100.5489013420503
 20
-156.3456678211566
 10
100.5582030998604
 20
-156.2188883072995
 10
100.5692274054133
 20
-156.1065781944803
 10
100.6553547925445
 20
-155.9880669097877
 10
100.7728325485915
 20
-155.8275254601751
 10
100.9716145580904
 20
-155.7934190148711
 10
101.095982505108
 20
-155.7934190148711
 10
101.3922607168394
 20
-155.7934190148711
 10
101.613780356541
 20
-155.977731623332
 10
101.613780356541
 20
-156.2505831857638
 10
101.613780356541
 20
-156.4789930164358
 10
101.4894124095235
 20
-156.5785562759595
 10
101.1593722620366
 20
-156.8048990493405
 97
        0
 97
        0
 75
     2
 76
     1
 98
        0
  0
SPLINE
  5
58
330
52
100
AcDbEntity
  8
_U+30EC_U+30A4_U+30E4_U+30FC 1
370
     0
100
AcDbSpline
210
0.0
220
0.0
230
1.0
 70
    11
 71
     3
 72
    29
 73
    25
 74
     0
 42
0.0000000001
 43
0.0000000001
 12
1.0
 22
0.0
 32
0.0
 13
1.0
 23
0.0
 33
0.0
 40
0.0
 40
0.0
 40
0.0
 40
0.0
 40
1.0
 40
1.0
 40
1.0
 40
2.0
 40
2.0
 40
2.0
 40
3.0
 40
3.0
 40
3.0
 40
4.0
 40
4.0
 40
4.0
 40
5.0
 40
5.0
 40
5.0
 40
6.0
 40
6.0
 40
6.0
 40
7.0
 40
7.0
 40
7.0
 40
8.0
 40
8.0
 40
8.0
 40
8.0
 10
102.7427381470574
 20
-157.2086642402117
 30
0.0
 10
102.6273274483015
 20
-157.4181260457149
 30
0.0
 10
102.4419813111951
 20
-157.4374185804323
 30
0.0
 10
102.3176133641775
 20
-157.4374185804323
 30
0.0
 10
102.1460476090121
 20
-157.4374185804323
 30
0.0
 10
101.9944634076611
 20
-157.3909097913815
 30
0.0
 10
101.8928330908462
 20
-157.2086642402117
 30
0.0
 10
101.7819010162212
 20
-157.0140163452951
 30
0.0
 10
101.7615749528582
 20
-156.7773382854585
 30
0.0
 10
101.7615749528582
 20
-156.6143852690061
 30
0.0
 10
101.7615749528582
 20
-156.4703802777227
 30
0.0
 10
101.77983395893
 20
-156.2188883072995
 30
0.0
 10
101.8928330908462
 20
-156.019761788252
 30
0.0
 10
102.0078992800536
 20
-155.8168456641708
 30
0.0
 10
102.1798095447676
 20
-155.7934190148711
 30
0.0
 10
102.3176133641775
 20
-155.7934190148711
 30
0.0
 10
102.4874565716004
 20
-155.7934190148711
 30
0.0
 10
102.6411078302425
 20
-155.8378607466308
 30
0.0
 10
102.7427381470574
 20
-156.019761788252
 30
0.0
 10
102.8491915975516
 20
-156.2123426258775
 30
0.0
 10
102.8739962850454
 20
-156.4407524565495
 30
0.0
 10
102.8739962850454
 20
-156.6143852690061
 30
0.0
 10
102.8739962850454
 20
-156.7856065146231
 30
0.0
 10
102.8512586548428
 20
-157.0164279121348
 30
0.0
 10
102.7427381470574
 20
-157.2086642402117
 30
0.0
  0
SPLINE
  5
59
330
52
100
AcDbEntity
  8
_U+30EC_U+30A4_U+30E4_U+30FC 1
370
     0
100
AcDbSpline
210
0.0
220
0.0
230
1.0
 70
    11
 71
     3
 72
    17
 73
    13
 74
     0
 42
0.0000000001
 43
0.0000000001
 12
1.0
 22
0.0
 32
0.0
 13
1.0
 23
0.0
 33
0.0
 40
0.0
 40
0.0
 40
0.0
 40
0.0
 40
1.0
 40
1.0
 40
1.0
 40
2.0
 40
2.0
 40
2.0
 40
3.0
 40
3.0
 40
3.0
 40
4.0
 40
4.0
 40
4.0
 40
4.0
 10
102.3176133641775
 20
-155.9859998524966
 30
0.0
 10
102.0509629736192
 20
-155.9859998524966
 30
0.0
 10
102.0013535986316
 20
-156.2695312109326
 30
0.0
 10
102.0013535986316
 20
-156.6143852690061
 30
0.0
 10
102.0013535986316
 20
-156.9337456204888
 30
0.0
 10
102.0395941585179
 20
-157.2427706855157
 30
0.0
 10
102.3176133641775
 20
-157.2427706855157
 30
0.0
 10
102.5821966974447
 20
-157.2427706855157
 30
0.0
 10
102.634217639272
 20
-156.9613063843708
 30
0.0
 10
102.634217639272
 20
-156.6143852690061
 30
0.0
 10
102.634217639272
 20
-156.2950249175235
 30
0.0
 10
102.5935655125461
 20
-155.9859998524966
 30
0.0
 10
102.3176133641775
 20
-155.9859998524966
 30
0.0
  0
HATCH
  5
5A
330
52
100
AcDbEntity
  8
_U+30EC_U+30A4_U+30E4_U+30FC 1
 62
   179
420
  2234388
100
AcDbHatch
 10
0.0
 20
0.0
 30
0.0
210
0.0
220
0.0
230
1.0
  2
SOLID
 70
     1
 71
     0
 91
        2
 92
        1
 93
        1
 72
     4
 94
        3
 73
     0
 74
     1
 95
       29
 96
       25
 40
0.0
 40
0.0
 40
0.0
 40
0.0
 40
1.0
 40
1.0
 40
1.0
 40
2.0
 40
2.0
 40
2.0
 40
3.0
 40
3.0
 40
3.0
 40
4.0
 40
4.0
 40
4.0
 40
5.0
 40
5.0
 40
5.0
 40
6.0
 40
6.0
 40
6.0
 40
7.0
 40
7.0
 40
7.0
 40
8.0
 40
8.0
 40
8.0
 40
8.0
 10
102.7427381470574
 20
-157.2086642402117
 10
102.6273274483015
 20
-157.4181260457149
 10
102.4419813111951
 20
-157.4374185804323
 10
102.3176133641775
 20
-157.4374185804323
 10
102.1460476090121
 20
-157.4374185804323
 10
101.9944634076611
 20
-157.3909097913815
 10
101.8928330908462
 20
-157.2086642402117
 10
101.7819010162212
 20
-157.0140163452951
 10
101.7615749528582
 20
-156.7773382854585
 10
101.7615749528582
 20
-156.6143852690061
 10
101.7615749528582
 20
-156.4703802777227
 10
101.77983395893
 20
-156.2188883072995
 10
101.8928330908462
 20
-156.019761788252
 10
102.0078992800536
 20
-155.8168456641708
 10
102.1798095447676
 20
-155.7934190148711
 10
102.3176133641775
 20
-155.7934190148711
 10
102.4874565716004
 20
-155.7934190148711
 10
102.6411078302425
 20
-155.8378607466308
 10
102.7427381470574
 20
-156.019761788252
 10
102.8491915975516
 20
-156.2123426258775
 10
102.8739962850454
 20
-156.4407524565495
 10
102.8739962850454
 20
-156.6143852690061
 10
102.8739962850454
 20
-156.7856065146231
 10
102.8512586548428
 20
-157.0164279121348
 10
102.7427381470574
 20
-157.2086642402117
 97
        0
 97
        0
 92
        1
 93
        1
 72
     4
 94
        3
 73
     0
 74
     1
 95
       17
 96
       13
 40
0.0
 40
0.0
 40
0.0
 40
0.0
 40
1.0
 40
1.0
 40
1.0
 40
2.0
 40
2.0
 40
2.0
 40
3.0
 40
3.0
 40
3.0
 40
4.0
 40
4.0
 40
4.0
 40
4.0
 10
102.3176133641775
 20
-155.9859998524966
 10
102.0509629736192
 20
-155.9859998524966
 10
102.0013535986316
 20
-156.2695312109326
 10
102.0013535986316
 20
-156.6143852690061
 10
102.0013535986316
 20
-156.9337456204888
 10
102.0395941585179
 20
-157.2427706855157
 10
102.3176133641775
 20
-157.2427706855157
 10
102.5821966974447
 20
-157.2427706855157
 10
102.634217639272
 20
-156.9613063843708
 10
102.634217639272
 20
-156.6143852690061
 10
102.634217639272
 20
-156.2950249175235
 10
102.5935655125461
 20
-155.9859998524966
 10
102.3176133641775
 20
-155.9859998524966
 97
        0
 97
        0
 75
     2
 76
     1
 98
        0
  0
ENDBLK
  5
55
330
52
100
AcDbEntity
  8
0
100
AcDbBlockEnd
  0
BLOCK
  5
72
330
70
100
AcDbEntity
  8
0
100
AcDbBlockBegin
  2
block 3
 70
     0
 10
0.0
 20
0.0
 30
0.0
  3
block 3
  1

  0
SPLINE
  5
74
330
70
100
AcDbEntity
  8
_U+30EC_U+30A4_U+30E4_U+30FC 1
370
     0
100
AcDbSpline
210
0.0
220
0.0
230
1.0
 70
    11
 71
     3
 72
    32
 73
    28
 74
     0
 42
0.0000000001
 43
0.0000000001
 12
1.0
 22
0.0
 32
0.0
 13
1.0
 23
0.0
 33
0.0
 40
0.0
 40
0.0
 40
0.0
 40
0.0
 40
1.0
 40
1.0
 40
1.0
 40
2.0
 40
2.0
 40
2.0
 40
3.0
 40
3.0
 40
3.0
 40
4.0
 40
4.0
 40
4.0
 40
5.0
 40
5.0
 40
5.0
 40
6.0
 40
6.0
 40
6.0
 40
7.0
 40
7.0
 40
7.0
 40
8.0
 40
8.0
 40
8.0
 40
9.0
 40
9.0
 40
9.0
 40
9.0
 10
118.6036132515991
 20
-150.5417154571562
 30
0.0
 10
118.6036132515991
 20
-151.0932752443447
 30
0.0
 10
118.0496418975709
 20
-151.1022324926064
 30
0.0
 10
117.8360459774854
 20
-151.1022324926064
 30
0.0
 10
117.6052245799737
 20
-151.1022324926064
 30
0.0
 10
116.9578911382953
 20
-151.0819064292434
 30
0.0
 10
116.9578911382953
 20
-150.5007188208818
 30
0.0
 10
116.9578911382953
 20
-150.3153726837753
 30
0.0
 10
117.0278265766458
 20
-150.0532009173478
 30
0.0
 10
117.3599337814239
 20
-150.0125487906219
 30
0.0
 10
117.3599337814239
 20
-150.0125487906219
 30
0.0
 10
117.3599337814239
 20
-150.2409586212939
 30
0.0
 10
117.3599337814239
 20
-150.2409586212939
 30
0.0
 10
117.3027451963688
 20
-150.2523274363953
 30
0.0
 10
117.154606090503
 20
-150.2860893721507
 30
0.0
 10
117.154606090503
 20
-150.5031303877215
 30
0.0
 10
117.154606090503
 20
-150.8152560386851
 30
0.0
 10
117.4825791806988
 20
-150.8579752227022
 30
0.0
 10
117.6879068716197
 20
-150.8717556046432
 30
0.0
 10
117.609358694556
 20
-150.7721923451195
 30
0.0
 10
117.5501030522097
 20
-150.6998453399292
 30
0.0
 10
117.5501030522097
 20
-150.5051974450126
 30
0.0
 10
117.5501030522097
 20
-150.3133056264842
 30
0.0
 10
117.6582790504466
 20
-149.9898111604192
 30
0.0
 10
118.064111298609
 20
-149.9898111604192
 30
0.0
 10
118.3838161596402
 20
-149.9898111604192
 30
0.0
 10
118.6036132515991
 20
-150.2023735518591
 30
0.0
 10
118.6036132515991
 20
-150.5417154571562
 30
0.0
  0
SPLINE
  5
75
330
70
100
AcDbEntity
  8
_U+30EC_U+30A4_U+30E4_U+30FC 1
370
     0
100
AcDbSpline
210
0.0
220
0.0
230
1.0
 70
    11
 71
     3
 72
    17
 73
    13
 74
     0
 42
0.0000000001
 43
0.0000000001
 12
1.0
 22
0.0
 32
0.0
 13
1.0
 23
0.0
 33
0.0
 40
0.0
 40
0.0
 40
0.0
 40
0.0
 40
1.0
 40
1.0
 40
1.0
 40
2.0
 40
2.0
 40
2.0
 40
3.0
 40
3.0
 40
3.0
 40
4.0
 40
4.0
 40
4.0
 40
4.0
 10
117.7450954566748
 20
-150.5234564510844
 30
0.0
 10
117.7450954566748
 20
-150.8038872235838
 30
0.0
 10
117.9566243194692
 20
-150.8445393503097
 30
0.0
 10
118.0727240373221
 20
-150.8445393503097
 30
0.0
 10
118.2484239070698
 20
-150.8445393503097
 30
0.0
 10
118.4113769235222
 20
-150.7429090334948
 30
0.0
 10
118.4113769235222
 20
-150.5461940812871
 30
0.0
 10
118.4113769235222
 20
-150.4173475101387
 30
0.0
 10
118.3521212811759
 20
-150.2295898061926
 30
0.0
 10
118.0661783559001
 20
-150.2295898061926
 30
0.0
 10
117.8422471493589
 20
-150.2295898061926
 30
0.0
 10
117.7450954566748
 20
-150.3787624407039
 30
0.0
 10
117.7450954566748
 20
-150.5234564510844
 30
0.0
  0
HATCH
  5
76
330
70
100
AcDbEntity
  8
_U+30EC_U+30A4_U+30E4_U+30FC 1
 62
   179
420
  2234388
100
AcDbHatch
 10
0.0
 20
0.0
 30
0.0
210
0.0
220
0.0
230
1.0
  2
SOLID
 70
     1
 71
     0
 91
        2
 92
        1
 93
        1
 72
     4
 94
        3
 73
     0
 74
     1
 95
       32
 96
       28
 40
0.0
 40
0.0
 40
0.0
 40
0.0
 40
1.0
 40
1.0
 40
1.0
 40
2.0
 40
2.0
 40
2.0
 40
3.0
 40
3.0
 40
3.0
 40
4.0
 40
4.0
 40
4.0
 40
5.0
 40
5.0
 40
5.0
 40
6.0
 40
6.0
 40
6.0
 40
7.0
 40
7.0
 40
7.0
 40
8.0
 40
8.0
 40
8.0
 40
9.0
 40
9.0
 40
9.0
 40
9.0
 10
118.6036132515991
 20
-150.5417154571562
 10
118.6036132515991
 20
-151.0932752443447
 10
118.0496418975709
 20
-151.1022324926064
 10
117.8360459774854
 20
-151.1022324926064
 10
117.6052245799737
 20
-151.1022324926064
 10
116.9578911382953
 20
-151.0819064292434
 10
116.9578911382953
 20
-150.5007188208818
 10
116.9578911382953
 20
-150.3153726837753
 10
117.0278265766458
 20
-150.0532009173478
 10
117.3599337814239
 20
-150.0125487906219
 10
117.3599337814239
 20
-150.0125487906219
 10
117.3599337814239
 20
-150.2409586212939
 10
117.3599337814239
 20
-150.2409586212939
 10
117.3027451963688
 20
-150.2523274363953
 10
117.154606090503
 20
-150.2860893721507
 10
117.154606090503
 20
-150.5031303877215
 10
117.154606090503
 20
-150.8152560386851
 10
117.4825791806988
 20
-150.8579752227022
 10
117.6879068716197
 20
-150.8717556046432
 10
117.609358694556
 20
-150.7721923451195
 10
117.5501030522097
 20
-150.6998453399292
 10
117.5501030522097
 20
-150.5051974450126
 10
117.5501030522097
 20
-150.3133056264842
 10
117.6582790504466
 20
-149.9898111604192
 10
118.064111298609
 20
-149.9898111604192
 10
118.3838161596402
 20
-149.9898111604192
 10
118.6036132515991
 20
-150.2023735518591
 10
118.6036132515991
 20
-150.5417154571562
 97
        0
 97
        0
 92
        1
 93
        1
 72
     4
 94
        3
 73
     0
 74
     1
 95
       17
 96
       13
 40
0.0
 40
0.0
 40
0.0
 40
0.0
 40
1.0
 40
1.0
 40
1.0
 40
2.0
 40
2.0
 40
2.0
 40
3.0
 40
3.0
 40
3.0
 40
4.0
 40
4.0
 40
4.0
 40
4.0
 10
117.7450954566748
 20
-150.5234564510844
 10
117.7450954566748
 20
-150.8038872235838
 10
117.9566243194692
 20
-150.8445393503097
 10
118.0727240373221
 20
-150.8445393503097
 10
118.2484239070698
 20
-150.8445393503097
 10
118.4113769235222
 20
-150.7429090334948
 10
118.4113769235222
 20
-150.5461940812871
 10
118.4113769235222
 20
-150.4173475101387
 10
118.3521212811759
 20
-150.2295898061926
 10
118.0661783559001
 20
-150.2295898061926
 10
117.8422471493589
 20
-150.2295898061926
 10
117.7450954566748
 20
-150.3787624407039
 10
117.7450954566748
 20
-150.5234564510844
 97
        0
 97
        0
 75
     2
 76
     1
 98
        0
  0
POLYLINE
  5
77
330
70
100
AcDbEntity
  8
_U+30EC_U+30A4_U+30E4_U+30FC 1
370
     0
100
AcDb2dPolyline
 66
     1
 10
0.0
 20
0.0
 30
0.0
  0
VERTEX
  5
78
330
77
100
AcDbEntity
  8
_U+30EC_U+30A4_U+30E4_U+30FC 1
370
     0
100
AcDbVertex
100
AcDb2dVertex
 10
118.5529703479659
 20
-149.758645253359
 30
0.0
  0
VERTEX
  5
79
330
77
100
AcDbEntity
  8
_U+30EC_U+30A4_U+30E4_U+30FC 1
370
     0
100
AcDbVertex
100
AcDb2dVertex
 10
118.3011338679942
 20
-149.758645253359
 30
0.0
  0
VERTEX
  5
7A
330
77
100
AcDbEntity
  8
_U+30EC_U+30A4_U+30E4_U+30FC 1
370
     0
100
AcDbVertex
100
AcDb2dVertex
 10
118.3011338679942
 20
-149.489583295961
 30
0.0
  0
VERTEX
  5
7B
330
77
100
AcDbEntity
  8
_U+30EC_U+30A4_U+30E4_U+30FC 1
370
     0
100
AcDbVertex
100
AcDb2dVertex
 10
118.5529703479659
 20
-149.489583295961
 30
0.0
  0
VERTEX
  5
7C
330
77
100
AcDbEntity
  8
_U+30EC_U+30A4_U+30E4_U+30FC 1
370
     0
100
AcDbVertex
100
AcDb2dVertex
 10
118.5529703479659
 20
-149.758645253359
 30
0.0
  0
SEQEND
  5
7D
330
77
100
AcDbEntity
  8
_U+30EC_U+30A4_U+30E4_U+30FC 1
370
     0
  0
HATCH
  5
7E
330
70
100
AcDbEntity
  8
_U+30EC_U+30A4_U+30E4_U+30FC 1
 62
   179
420
  2234388
100
AcDbHatch
 10
0.0
 20
0.0
 30
0.0
210
0.0
220
0.0
230
1.0
  2
SOLID
 70
     1
 71
     0
 91
        1
 92
        1
 93
        4
 72
     1
 10
118.5529703479659
 20
-149.758645253359
 11
118.3011338679942
 21
-149.758645253359
 72
     1
 10
118.3011338679942
 20
-149.758645253359
 11
118.3011338679942
 21
-149.489583295961
 72
     1
 10
118.3011338679942
 20
-149.489583295961
 11
118.5529703479659
 21
-149.489583295961
 72
     1
 10
118.5529703479659
 20
-149.489583295961
 11
118.5529703479659
 21
-149.758645253359
 97
        0
 75
     2
 76
     1
 98
        0
  0
SPLINE
  5
7F
330
70
100
AcDbEntity
  8
_U+30EC_U+30A4_U+30E4_U+30FC 1
370
     0
100
AcDbSpline
210
0.0
220
0.0
230
1.0
 70
    11
 71
     3
 72
    53
 73
    49
 74
     0
 42
0.0000000001
 43
0.0000000001
 12
1.0
 22
0.0
 32
0.0
 13
1.0
 23
0.0
 33
0.0
 40
0.0
 40
0.0
 40
0.0
 40
0.0
 40
1.0
 40
1.0
 40
1.0
 40
2.0
 40
2.0
 40
2.0
 40
3.0
 40
3.0
 40
3.0
 40
4.0
 40
4.0
 40
4.0
 40
5.0
 40
5.0
 40
5.0
 40
6.0
 40
6.0
 40
6.0
 40
7.0
 40
7.0
 40
7.0
 40
8.0
 40
8.0
 40
8.0
 40
9.0
 40
9.0
 40
9.0
 40
10.0
 40
10.0
 40
10.0
 40
11.0
 40
11.0
 40
11.0
 40
12.0
 40
12.0
 40
12.0
 40
13.0
 40
13.0
 40
13.0
 40
14.0
 40
14.0
 40
14.0
 40
15.0
 40
15.0
 40
15.0
 40
16.0
 40
16.0
 40
16.0
 40
16.0
 10
118.6036132515991
 20
-148.7227050409443
 30
0.0
 10
118.6036132515991
 20
-148.8060763516874
 30
0.0
 10
118.5867322837214
 20
-148.9149413690213
 30
0.0
 10
118.5233425267928
 20
-149.0231173672581
 30
0.0
 10
118.4134439808133
 20
-149.2088080139131
 30
0.0
 10
118.2821858428253
 20
-149.2312011345672
 30
0.0
 10
118.174354354137
 20
-149.2515271979302
 30
0.0
 10
118.174354354137
 20
-149.2515271979302
 30
0.0
 10
118.174354354137
 20
-149.0141601189965
 30
0.0
 10
118.174354354137
 20
-149.0141601189965
 30
0.0
 10
118.3731363636359
 20
-148.9555934957472
 30
0.0
 10
118.402764184809
 20
-148.8198567336284
 30
0.0
 10
118.402764184809
 20
-148.7202934741047
 30
0.0
 10
118.402764184809
 20
-148.5711208395933
 30
0.0
 10
118.3032009252853
 20
-148.4085123326896
 30
0.0
 10
118.0706569800309
 20
-148.4085123326896
 30
0.0
 10
117.8146863854769
 20
-148.4085123326896
 30
0.0
 10
117.7450954566748
 20
-148.600404151218
 30
0.0
 10
117.7450954566748
 20
-148.7292507223663
 30
0.0
 10
117.7450954566748
 20
-148.7633571676703
 30
0.0
 10
117.7450954566748
 20
-148.9149413690213
 30
0.0
 10
117.8739420278232
 20
-149.0096814948656
 30
0.0
 10
117.8739420278232
 20
-149.0096814948656
 30
0.0
 10
117.8546494931058
 20
-149.1974391988118
 30
0.0
 10
117.8546494931058
 20
-149.1974391988118
 30
0.0
 10
117.8546494931058
 20
-149.1974391988118
 30
0.0
 10
117.0085340419284
 20
-149.0685926276634
 30
0.0
 10
117.0085340419284
 20
-149.0685926276634
 30
0.0
 10
117.0085340419284
 20
-149.0685926276634
 30
0.0
 10
117.0085340419284
 20
-148.2366020679756
 30
0.0
 10
117.0085340419284
 20
-148.2366020679756
 30
0.0
 10
117.0085340419284
 20
-148.2366020679756
 30
0.0
 10
117.2035264463936
 20
-148.2366020679756
 30
0.0
 10
117.2035264463936
 20
-148.2366020679756
 30
0.0
 10
117.2035264463936
 20
-148.2366020679756
 30
0.0
 10
117.2035264463936
 20
-148.8942707961098
 30
0.0
 10
117.2035264463936
 20
-148.8942707961098
 30
0.0
 10
117.2035264463936
 20
-148.8942707961098
 30
0.0
 10
117.6265841719822
 20
-148.9645507440089
 30
0.0
 10
117.6265841719822
 20
-148.9645507440089
 30
0.0
 10
117.5924777266783
 20
-148.8990939297891
 30
0.0
 10
117.5521701095008
 20
-148.8108994853667
 30
0.0
 10
117.5521701095008
 20
-148.6841199715095
 30
0.0
 10
117.5521701095008
 20
-148.4129909568204
 30
0.0
 10
117.7385497752529
 20
-148.1597764386545
 30
0.0
 10
118.0517089548621
 20
-148.1597764386545
 30
0.0
 10
118.3690022490536
 20
-148.1597764386545
 30
0.0
 10
118.6036132515991
 20
-148.3992105748794
 30
0.0
 10
118.6036132515991
 20
-148.7227050409443
 30
0.0
  0
HATCH
  5
80
330
70
100
AcDbEntity
  8
_U+30EC_U+30A4_U+30E4_U+30FC 1
 62
   179
420
  2234388
100
AcDbHatch
 10
0.0
 20
0.0
 30
0.0
210
0.0
220
0.0
230
1.0
  2
SOLID
 70
     1
 71
     0
 91
        1
 92
        1
 93
        1
 72
     4
 94
        3
 73
     0
 74
     1
 95
       53
 96
       49
 40
0.0
 40
0.0
 40
0.0
 40
0.0
 40
1.0
 40
1.0
 40
1.0
 40
2.0
 40
2.0
 40
2.0
 40
3.0
 40
3.0
 40
3.0
 40
4.0
 40
4.0
 40
4.0
 40
5.0
 40
5.0
 40
5.0
 40
6.0
 40
6.0
 40
6.0
 40
7.0
 40
7.0
 40
7.0
 40
8.0
 40
8.0
 40
8.0
 40
9.0
 40
9.0
 40
9.0
 40
10.0
 40
10.0
 40
10.0
 40
11.0
 40
11.0
 40
11.0
 40
12.0
 40
12.0
 40
12.0
 40
13.0
 40
13.0
 40
13.0
 40
14.0
 40
14.0
 40
14.0
 40
15.0
 40
15.0
 40
15.0
 40
16.0
 40
16.0
 40
16.0
 40
16.0
 10
118.6036132515991
 20
-148.7227050409443
 10
118.6036132515991
 20
-148.8060763516874
 10
118.5867322837214
 20
-148.9149413690213
 10
118.5233425267928
 20
-149.0231173672581
 10
118.4134439808133
 20
-149.2088080139131
 10
118.2821858428253
 20
-149.2312011345672
 10
118.174354354137
 20
-149.2515271979302
 10
118.174354354137
 20
-149.2515271979302
 10
118.174354354137
 20
-149.0141601189965
 10
118.174354354137
 20
-149.0141601189965
 10
118.3731363636359
 20
-148.9555934957472
 10
118.402764184809
 20
-148.8198567336284
 10
118.402764184809
 20
-148.7202934741047
 10
118.402764184809
 20
-148.5711208395933
 10
118.3032009252853
 20
-148.4085123326896
 10
118.0706569800309
 20
-148.4085123326896
 10
117.8146863854769
 20
-148.4085123326896
 10
117.7450954566748
 20
-148.600404151218
 10
117.7450954566748
 20
-148.7292507223663
 10
117.7450954566748
 20
-148.7633571676703
 10
117.7450954566748
 20
-148.9149413690213
 10
117.8739420278232
 20
-149.0096814948656
 10
117.8739420278232
 20
-149.0096814948656
 10
117.8546494931058
 20
-149.1974391988118
 10
117.8546494931058
 20
-149.1974391988118
 10
117.8546494931058
 20
-149.1974391988118
 10
117.0085340419284
 20
-149.0685926276634
 10
117.0085340419284
 20
-149.0685926276634
 10
117.0085340419284
 20
-149.0685926276634
 10
117.0085340419284
 20
-148.2366020679756
 10
117.0085340419284
 20
-148.2366020679756
 10
117.0085340419284
 20
-148.2366020679756
 10
117.2035264463936
 20
-148.2366020679756
 10
117.2035264463936
 20
-148.2366020679756
 10
117.2035264463936
 20
-148.2366020679756
 10
117.2035264463936
 20
-148.8942707961098
 10
117.2035264463936
 20
-148.8942707961098
 10
117.2035264463936
 20
-148.8942707961098
 10
117.6265841719822
 20
-148.9645507440089
 10
117.6265841719822
 20
-148.9645507440089
 10
117.5924777266783
 20
-148.8990939297891
 10
117.5521701095008
 20
-148.8108994853667
 10
117.5521701095008
 20
-148.6841199715095
 10
117.5521701095008
 20
-148.4129909568204
 10
117.7385497752529
 20
-148.1597764386545
 10
118.0517089548621
 20
-148.1597764386545
 10
118.3690022490536
 20
-148.1597764386545
 10
118.6036132515991
 20
-148.3992105748794
 10
118.6036132515991
 20
-148.7227050409443
 97
        0
 97
        0
 75
     2
 76
     1
 98
        0
  0
ENDBLK
  5
73
330
70
100
AcDbEntity
  8
0
100
AcDbBlockEnd
  0
BLOCK
  5
83
330
81
100
AcDbEntity
  8
0
100
AcDbBlockBegin
  2
block 4
 70
     0
 10
0.0
 20
0.0
 30
0.0
  3
block 4
  1

  0
SPLINE
  5
85
330
81
100
AcDbEntity
  8
_U+30EC_U+30A4_U+30E4_U+30FC 1
370
     0
100
AcDbSpline
210
0.0
220
0.0
230
1.0
 70
    11
 71
     3
 72
    26
 73
    22
 74
     0
 42
0.0000000001
 43
0.0000000001
 12
1.0
 22
0.0
 32
0.0
 13
1.0
 23
0.0
 33
0.0
 40
0.0
 40
0.0
 40
0.0
 40
0.0
 40
1.0
 40
1.0
 40
1.0
 40
2.0
 40
2.0
 40
2.0
 40
3.0
 40
3.0
 40
3.0
 40
4.0
 40
4.0
 40
4.0
 40
5.0
 40
5.0
 40
5.0
 40
6.0
 40
6.0
 40
6.0
 40
7.0
 40
7.0
 40
7.0
 40
7.0
 10
114.3196370156909
 20
-146.7776041299723
 30
0.0
 10
114.3196370156909
 20
-146.7776041299723
 30
0.0
 10
113.2151394031198
 20
-146.7776041299723
 30
0.0
 10
113.2151394031198
 20
-146.7776041299723
 30
0.0
 10
113.2151394031198
 20
-146.7776041299723
 30
0.0
 10
113.2151394031198
 20
-147.1300373981133
 30
0.0
 10
113.2151394031198
 20
-147.1300373981133
 30
0.0
 10
113.2151394031198
 20
-147.1300373981133
 30
0.0
 10
113.0673448068026
 20
-147.1300373981133
 30
0.0
 10
113.0673448068026
 20
-147.1300373981133
 30
0.0
 10
113.052530896216
 20
-146.7751925631326
 30
0.0
 10
112.8895778797637
 20
-146.725583188145
 30
0.0
 10
112.7752007096534
 20
-146.6938883096807
 30
0.0
 10
112.7752007096534
 20
-146.6938883096807
 30
0.0
 10
112.7752007096534
 20
-146.5378254841989
 30
0.0
 10
112.7752007096534
 20
-146.5378254841989
 30
0.0
 10
112.7752007096534
 20
-146.5378254841989
 30
0.0
 10
114.3196370156909
 20
-146.5378254841989
 30
0.0
 10
114.3196370156909
 20
-146.5378254841989
 30
0.0
 10
114.3196370156909
 20
-146.5378254841989
 30
0.0
 10
114.3196370156909
 20
-146.7776041299723
 30
0.0
 10
114.3196370156909
 20
-146.7776041299723
 30
0.0
  0
HATCH
  5
86
330
81
100
AcDbEntity
  8
_U+30EC_U+30A4_U+30E4_U+30FC 1
 62
   179
420
  2234388
100
AcDbHatch
 10
0.0
 20
0.0
 30
0.0
210
0.0
220
0.0
230
1.0
  2
SOLID
 70
     1
 71
     0
 91
        1
 92
        1
 93
        1
 72
     4
 94
        3
 73
     0
 74
     1
 95
       26
 96
       22
 40
0.0
 40
0.0
 40
0.0
 40
0.0
 40
1.0
 40
1.0
 40
1.0
 40
2.0
 40
2.0
 40
2.0
 40
3.0
 40
3.0
 40
3.0
 40
4.0
 40
4.0
 40
4.0
 40
5.0
 40
5.0
 40
5.0
 40
6.0
 40
6.0
 40
6.0
 40
7.0
 40
7.0
 40
7.0
 40
7.0
 10
114.3196370156909
 20
-146.7776041299723
 10
114.3196370156909
 20
-146.7776041299723
 10
113.2151394031198
 20
-146.7776041299723
 10
113.2151394031198
 20
-146.7776041299723
 10
113.2151394031198
 20
-146.7776041299723
 10
113.2151394031198
 20
-147.1300373981133
 10
113.2151394031198
 20
-147.1300373981133
 10
113.2151394031198
 20
-147.1300373981133
 10
113.0673448068026
 20
-147.1300373981133
 10
113.0673448068026
 20
-147.1300373981133
 10
113.052530896216
 20
-146.7751925631326
 10
112.8895778797637
 20
-146.725583188145
 10
112.7752007096534
 20
-146.6938883096807
 10
112.7752007096534
 20
-146.6938883096807
 10
112.7752007096534
 20
-146.5378254841989
 10
112.7752007096534
 20
-146.5378254841989
 10
112.7752007096534
 20
-146.5378254841989
 10
114.3196370156909
 20
-146.5378254841989
 10
114.3196370156909
 20
-146.5378254841989
 10
114.3196370156909
 20
-146.5378254841989
 10
114.3196370156909
 20
-146.7776041299723
 10
114.3196370156909
 20
-146.7776041299723
 97
        0
 97
        0
 75
     2
 76
     1
 98
        0
  0
POLYLINE
  5
87
330
81
100
AcDbEntity
  8
_U+30EC_U+30A4_U+30E4_U+30FC 1
370
     0
100
AcDb2dPolyline
 66
     1
 10
0.0
 20
0.0
 30
0.0
  0
VERTEX
  5
88
330
87
100
AcDbEntity
  8
_U+30EC_U+30A4_U+30E4_U+30FC 1
370
     0
100
AcDbVertex
100
AcDb2dVertex
 10
114.3196370156909
 20
-145.9380343602169
 30
0.0
  0
VERTEX
  5
89
330
87
100
AcDbEntity
  8
_U+30EC_U+30A4_U+30E4_U+30FC 1
370
     0
100
AcDbVertex
100
AcDb2dVertex
 10
114.0678005357192
 20
-145.9380343602169
 30
0.0
  0
VERTEX
  5
8A
330
87
100
AcDbEntity
  8
_U+30EC_U+30A4_U+30E4_U+30FC 1
370
     0
100
AcDbVertex
100
AcDb2dVertex
 10
114.0678005357192
 20
-145.6689724028189
 30
0.0
  0
VERTEX
  5
8B
330
87
100
AcDbEntity
  8
_U+30EC_U+30A4_U+30E4_U+30FC 1
370
     0
100
AcDbVertex
100
AcDb2dVertex
 10
114.3196370156909
 20
-145.6689724028189
 30
0.0
  0
VERTEX
  5
8C
330
87
100
AcDbEntity
  8
_U+30EC_U+30A4_U+30E4_U+30FC 1
370
     0
100
AcDbVertex
100
AcDb2dVertex
 10
114.3196370156909
 20
-145.9380343602169
 30
0.0
  0
SEQEND
  5
8D
330
87
100
AcDbEntity
  8
_U+30EC_U+30A4_U+30E4_U+30FC 1
370
     0
  0
HATCH
  5
8E
330
81
100
AcDbEntity
  8
_U+30EC_U+30A4_U+30E4_U+30FC 1
 62
   179
420
  2234388
100
AcDbHatch
 10
0.0
 20
0.0
 30
0.0
210
0.0
220
0.0
230
1.0
  2
SOLID
 70
     1
 71
     0
 91
        1
 92
        1
 93
        4
 72
     1
 10
114.3196370156909
 20
-145.9380343602169
 11
114.0678005357192
 21
-145.9380343602169
 72
     1
 10
114.0678005357192
 20
-145.9380343602169
 11
114.0678005357192
 21
-145.6689724028189
 72
     1
 10
114.0678005357192
 20
-145.6689724028189
 11
114.3196370156909
 21
-145.6689724028189
 72
     1
 10
114.3196370156909
 20
-145.6689724028189
 11
114.3196370156909
 21
-145.9380343602169
 97
        0
 75
     2
 76
     1
 98
        0
  0
SPLINE
  5
8F
330
81
100
AcDbEntity
  8
_U+30EC_U+30A4_U+30E4_U+30FC 1
370
     0
100
AcDbSpline
210
0.0
220
0.0
230
1.0
 70
    11
 71
     3
 72
    53
 73
    49
 74
     0
 42
0.0000000001
 43
0.0000000001
 12
1.0
 22
0.0
 32
0.0
 13
1.0
 23
0.0
 33
0.0
 40
0.0
 40
0.0
 40
0.0
 40
0.0
 40
1.0
 40
1.0
 40
1.0
 40
2.0
 40
2.0
 40
2.0
 40
3.0
 40
3.0
 40
3.0
 40
4.0
 40
4.0
 40
4.0
 40
5.0
 40
5.0
 40
5.0
 40
6.0
 40
6.0
 40
6.0
 40
7.0
 40
7.0
 40
7.0
 40
8.0
 40
8.0
 40
8.0
 40
9.0
 40
9.0
 40
9.0
 40
10.0
 40
10.0
 40
10.0
 40
11.0
 40
11.0
 40
11.0
 40
12.0
 40
12.0
 40
12.0
 40
13.0
 40
13.0
 40
13.0
 40
14.0
 40
14.0
 40
14.0
 40
15.0
 40
15.0
 40
15.0
 40
16.0
 40
16.0
 40
16.0
 40
16.0
 10
114.3702799193241
 20
-144.9020941478023
 30
0.0
 10
114.3702799193241
 20
-144.9854654585453
 30
0.0
 10
114.3533989514464
 20
-145.0943304758792
 30
0.0
 10
114.2900091945178
 20
-145.202506474116
 30
0.0
 10
114.1797661389898
 20
-145.388197120771
 30
0.0
 10
114.0488525105503
 20
-145.4105902414251
 30
0.0
 10
113.941021021862
 20
-145.4309163047881
 30
0.0
 10
113.941021021862
 20
-145.4309163047881
 30
0.0
 10
113.941021021862
 20
-145.1935492258544
 30
0.0
 10
113.941021021862
 20
-145.1935492258544
 30
0.0
 10
114.1398030313609
 20
-145.1349826026052
 30
0.0
 10
114.169430852534
 20
-144.9992458404863
 30
0.0
 10
114.169430852534
 20
-144.8996825809626
 30
0.0
 10
114.169430852534
 20
-144.7505099464513
 30
0.0
 10
114.0698675930103
 20
-144.5879014395475
 30
0.0
 10
113.837323647756
 20
-144.5879014395475
 30
0.0
 10
113.5813530532019
 20
-144.5879014395475
 30
0.0
 10
113.5114176148513
 20
-144.7797932580759
 30
0.0
 10
113.5114176148513
 20
-144.9086398292242
 30
0.0
 10
113.5114176148513
 20
-144.9427462745282
 30
0.0
 10
113.5114176148513
 20
-145.0943304758792
 30
0.0
 10
113.6406086955482
 20
-145.1890706017236
 30
0.0
 10
113.6406086955482
 20
-145.1890706017236
 30
0.0
 10
113.6213161608308
 20
-145.3768283056697
 30
0.0
 10
113.6213161608308
 20
-145.3768283056697
 30
0.0
 10
113.6213161608308
 20
-145.3768283056697
 30
0.0
 10
112.7752007096534
 20
-145.2479817345213
 30
0.0
 10
112.7752007096534
 20
-145.2479817345213
 30
0.0
 10
112.7752007096534
 20
-145.2479817345213
 30
0.0
 10
112.7752007096534
 20
-144.4159911748335
 30
0.0
 10
112.7752007096534
 20
-144.4159911748335
 30
0.0
 10
112.7752007096534
 20
-144.4159911748335
 30
0.0
 10
112.96984860457
 20
-144.4159911748335
 30
0.0
 10
112.96984860457
 20
-144.4159911748335
 30
0.0
 10
112.96984860457
 20
-144.4159911748335
 30
0.0
 10
112.96984860457
 20
-145.0736599029677
 30
0.0
 10
112.96984860457
 20
-145.0736599029677
 30
0.0
 10
112.96984860457
 20
-145.0736599029677
 30
0.0
 10
113.3929063301587
 20
-145.1439398508668
 30
0.0
 10
113.3929063301587
 20
-145.1439398508668
 30
0.0
 10
113.3591443944033
 20
-145.078483036647
 30
0.0
 10
113.3188367772259
 20
-144.9902885922247
 30
0.0
 10
113.3188367772259
 20
-144.8635090783675
 30
0.0
 10
113.3188367772259
 20
-144.5923800636783
 30
0.0
 10
113.5052164429779
 20
-144.3391655455124
 30
0.0
 10
113.8180311130386
 20
-144.3391655455124
 30
0.0
 10
114.1356689167786
 20
-144.3391655455124
 30
0.0
 10
114.3702799193241
 20
-144.5785996817373
 30
0.0
 10
114.3702799193241
 20
-144.9020941478023
 30
0.0
  0
HATCH
  5
90
330
81
100
AcDbEntity
  8
_U+30EC_U+30A4_U+30E4_U+30FC 1
 62
   179
420
  2234388
100
AcDbHatch
 10
0.0
 20
0.0
 30
0.0
210
0.0
220
0.0
230
1.0
  2
SOLID
 70
     1
 71
     0
 91
        1
 92
        1
 93
        1
 72
     4
 94
        3
 73
     0
 74
     1
 95
       53
 96
       49
 40
0.0
 40
0.0
 40
0.0
 40
0.0
 40
1.0
 40
1.0
 40
1.0
 40
2.0
 40
2.0
 40
2.0
 40
3.0
 40
3.0
 40
3.0
 40
4.0
 40
4.0
 40
4.0
 40
5.0
 40
5.0
 40
5.0
 40
6.0
 40
6.0
 40
6.0
 40
7.0
 40
7.0
 40
7.0
 40
8.0
 40
8.0
 40
8.0
 40
9.0
 40
9.0
 40
9.0
 40
10.0
 40
10.0
 40
10.0
 40
11.0
 40
11.0
 40
11.0
 40
12.0
 40
12.0
 40
12.0
 40
13.0
 40
13.0
 40
13.0
 40
14.0
 40
14.0
 40
14.0
 40
15.0
 40
15.0
 40
15.0
 40
16.0
 40
16.0
 40
16.0
 40
16.0
 10
114.3702799193241
 20
-144.9020941478023
 10
114.3702799193241
 20
-144.9854654585453
 10
114.3533989514464
 20
-145.0943304758792
 10
114.2900091945178
 20
-145.202506474116
 10
114.1797661389898
 20
-145.388197120771
 10
114.0488525105503
 20
-145.4105902414251
 10
113.941021021862
 20
-145.4309163047881
 10
113.941021021862
 20
-145.4309163047881
 10
113.941021021862
 20
-145.1935492258544
 10
113.941021021862
 20
-145.1935492258544
 10
114.1398030313609
 20
-145.1349826026052
 10
114.169430852534
 20
-144.9992458404863
 10
114.169430852534
 20
-144.8996825809626
 10
114.169430852534
 20
-144.7505099464513
 10
114.0698675930103
 20
-144.5879014395475
 10
113.837323647756
 20
-144.5879014395475
 10
113.5813530532019
 20
-144.5879014395475
 10
113.5114176148513
 20
-144.7797932580759
 10
113.5114176148513
 20
-144.9086398292242
 10
113.5114176148513
 20
-144.9427462745282
 10
113.5114176148513
 20
-145.0943304758792
 10
113.6406086955482
 20
-145.1890706017236
 10
113.6406086955482
 20
-145.1890706017236
 10
113.6213161608308
 20
-145.3768283056697
 10
113.6213161608308
 20
-145.3768283056697
 10
113.6213161608308
 20
-145.3768283056697
 10
112.7752007096534
 20
-145.2479817345213
 10
112.7752007096534
 20
-145.2479817345213
 10
112.7752007096534
 20
-145.2479817345213
 10
112.7752007096534
 20
-144.4159911748335
 10
112.7752007096534
 20
-144.4159911748335
 10
112.7752007096534
 20
-144.4159911748335
 10
112.96984860457
 20
-144.4159911748335
 10
112.96984860457
 20
-144.4159911748335
 10
112.96984860457
 20
-144.4159911748335
 10
112.96984860457
 20
-145.0736599029677
 10
112.96984860457
 20
-145.0736599029677
 10
112.96984860457
 20
-145.0736599029677
 10
113.3929063301587
 20
-145.1439398508668
 10
113.3929063301587
 20
-145.1439398508668
 10
113.3591443944033
 20
-145.078483036647
 10
113.3188367772259
 20
-144.9902885922247
 10
113.3188367772259
 20
-144.8635090783675
 10
113.3188367772259
 20
-144.5923800636783
 10
113.5052164429779
 20
-144.3391655455124
 10
113.8180311130386
 20
-144.3391655455124
 10
114.1356689167786
 20
-144.3391655455124
 10
114.3702799193241
 20
-144.5785996817373
 10
114.3702799193241
 20
-144.9020941478023
 97
        0
 97
        0
 75
     2
 76
     1
 98
        0
  0
ENDBLK
  5
84
330
81
100
AcDbEntity
  8
0
100
AcDbBlockEnd
  0
BLOCK
  5
93
330
91
100
AcDbEntity
  8
0
100
AcDbBlockBegin
  2
block 5
 70
     0
 10
0.0
 20
0.0
 30
0.0
  3
block 5
  1

  0
SPLINE
  5
95
330
91
100
AcDbEntity
  8
_U+30EC_U+30A4_U+30E4_U+30FC 1
370
     0
100
AcDbSpline
210
0.0
220
0.0
230
1.0
 70
    11
 71
     3
 72
    26
 73
    22
 74
     0
 42
0.0000000001
 43
0.0000000001
 12
1.0
 22
0.0
 32
0.0
 13
1.0
 23
0.0
 33
0.0
 40
0.0
 40
0.0
 40
0.0
 40
0.0
 40
1.0
 40
1.0
 40
1.0
 40
2.0
 40
2.0
 40
2.0
 40
3.0
 40
3.0
 40
3.0
 40
4.0
 40
4.0
 40
4.0
 40
5.0
 40
5.0
 40
5.0
 40
6.0
 40
6.0
 40
6.0
 40
7.0
 40
7.0
 40
7.0
 40
7.0
 10
114.3196370156909
 20
-153.4059678435929
 30
0.0
 10
114.3196370156909
 20
-153.4059678435929
 30
0.0
 10
113.2154839126684
 20
-153.4059678435929
 30
0.0
 10
113.2154839126684
 20
-153.4059678435929
 30
0.0
 10
113.2154839126684
 20
-153.4059678435929
 30
0.0
 10
113.2154839126684
 20
-153.758401111734
 30
0.0
 10
113.2154839126684
 20
-153.758401111734
 30
0.0
 10
113.2154839126684
 20
-153.758401111734
 30
0.0
 10
113.0673448068026
 20
-153.758401111734
 30
0.0
 10
113.0673448068026
 20
-153.758401111734
 30
0.0
 10
113.052530896216
 20
-153.4035562767533
 30
0.0
 10
112.8895778797637
 20
-153.3539469017657
 30
0.0
 10
112.7752007096534
 20
-153.3222520233014
 30
0.0
 10
112.7752007096534
 20
-153.3222520233014
 30
0.0
 10
112.7752007096534
 20
-153.1661891978196
 30
0.0
 10
112.7752007096534
 20
-153.1661891978196
 30
0.0
 10
112.7752007096534
 20
-153.1661891978196
 30
0.0
 10
114.3196370156909
 20
-153.1661891978196
 30
0.0
 10
114.3196370156909
 20
-153.1661891978196
 30
0.0
 10
114.3196370156909
 20
-153.1661891978196
 30
0.0
 10
114.3196370156909
 20
-153.4059678435929
 30
0.0
 10
114.3196370156909
 20
-153.4059678435929
 30
0.0
  0
HATCH
  5
96
330
91
100
AcDbEntity
  8
_U+30EC_U+30A4_U+30E4_U+30FC 1
 62
   179
420
  2234388
100
AcDbHatch
 10
0.0
 20
0.0
 30
0.0
210
0.0
220
0.0
230
1.0
  2
SOLID
 70
     1
 71
     0
 91
        1
 92
        1
 93
        1
 72
     4
 94
        3
 73
     0
 74
     1
 95
       26
 96
       22
 40
0.0
 40
0.0
 40
0.0
 40
0.0
 40
1.0
 40
1.0
 40
1.0
 40
2.0
 40
2.0
 40
2.0
 40
3.0
 40
3.0
 40
3.0
 40
4.0
 40
4.0
 40
4.0
 40
5.0
 40
5.0
 40
5.0
 40
6.0
 40
6.0
 40
6.0
 40
7.0
 40
7.0
 40
7.0
 40
7.0
 10
114.3196370156909
 20
-153.4059678435929
 10
114.3196370156909
 20
-153.4059678435929
 10
113.2154839126684
 20
-153.4059678435929
 10
113.2154839126684
 20
-153.4059678435929
 10
113.2154839126684
 20
-153.4059678435929
 10
113.2154839126684
 20
-153.758401111734
 10
113.2154839126684
 20
-153.758401111734
 10
113.2154839126684
 20
-153.758401111734
 10
113.0673448068026
 20
-153.758401111734
 10
113.0673448068026
 20
-153.758401111734
 10
113.052530896216
 20
-153.4035562767533
 10
112.8895778797637
 20
-153.3539469017657
 10
112.7752007096534
 20
-153.3222520233014
 10
112.7752007096534
 20
-153.3222520233014
 10
112.7752007096534
 20
-153.1661891978196
 10
112.7752007096534
 20
-153.1661891978196
 10
112.7752007096534
 20
-153.1661891978196
 10
114.3196370156909
 20
-153.1661891978196
 10
114.3196370156909
 20
-153.1661891978196
 10
114.3196370156909
 20
-153.1661891978196
 10
114.3196370156909
 20
-153.4059678435929
 10
114.3196370156909
 20
-153.4059678435929
 97
        0
 97
        0
 75
     2
 76
     1
 98
        0
  0
ENDBLK
  5
94
330
91
100
AcDbEntity
  8
0
100
AcDbBlockEnd
  0
BLOCK
  5
A3
330
A1
100
AcDbEntity
  8
0
100
AcDbBlockBegin
  2
block 6
 70
     0
 10
0.0
 20
0.0
 30
0.0
  3
block 6
  1

  0
SPLINE
  5
A5
330
A1
100
AcDbEntity
  8
_U+30EC_U+30A4_U+30E4_U+30FC 1
370
     0
100
AcDbSpline
210
0.0
220
0.0
230
1.0
 70
    11
 71
     3
 72
    32
 73
    28
 74
     0
 42
0.0000000001
 43
0.0000000001
 12
1.0
 22
0.0
 32
0.0
 13
1.0
 23
0.0
 33
0.0
 40
0.0
 40
0.0
 40
0.0
 40
0.0
 40
1.0
 40
1.0
 40
1.0
 40
2.0
 40
2.0
 40
2.0
 40
3.0
 40
3.0
 40
3.0
 40
4.0
 40
4.0
 40
4.0
 40
5.0
 40
5.0
 40
5.0
 40
6.0
 40
6.0
 40
6.0
 40
7.0
 40
7.0
 40
7.0
 40
8.0
 40
8.0
 40
8.0
 40
9.0
 40
9.0
 40
9.0
 40
9.0
 10
101.6234266238997
 20
-140.927142976921
 30
0.0
 10
101.0718668367112
 20
-140.927142976921
 30
0.0
 10
101.0629095884496
 20
-140.3728271133443
 30
0.0
 10
101.0629095884496
 20
-140.1592311932588
 30
0.0
 10
101.0629095884496
 20
-139.9285820505213
 30
0.0
 10
101.0832356518125
 20
-139.2812486088429
 30
0.0
 10
101.6644232601742
 20
-139.2812486088429
 30
0.0
 10
101.8497693972806
 20
-139.2812486088429
 30
0.0
 10
102.1119411637081
 20
-139.3510117924192
 30
0.0
 10
102.1525932904341
 20
-139.6831189971973
 30
0.0
 10
102.1525932904341
 20
-139.6831189971973
 30
0.0
 10
101.924183459762
 20
-139.6831189971973
 30
0.0
 10
101.924183459762
 20
-139.6831189971973
 30
0.0
 10
101.9128146446607
 20
-139.6261026669164
 30
0.0
 10
101.8790527089052
 20
-139.4779635610506
 30
0.0
 10
101.6620116933345
 20
-139.4779635610506
 30
0.0
 10
101.3498860423709
 20
-139.4779635610506
 30
0.0
 10
101.3071668583538
 20
-139.8059366512464
 30
0.0
 10
101.2933864764128
 20
-140.0110920873931
 30
0.0
 10
101.3929497359365
 20
-139.9328884198779
 30
0.0
 10
101.4652967411267
 20
-139.8736327775316
 30
0.0
 10
101.6599446360433
 20
-139.8736327775316
 30
0.0
 10
101.8518364545718
 20
-139.8736327775316
 30
0.0
 10
102.1753309206367
 20
-139.9814642662199
 30
0.0
 10
102.1753309206367
 20
-140.3876410239309
 30
0.0
 10
102.1753309206367
 20
-140.7071736301878
 30
0.0
 10
101.9627685291968
 20
-140.927142976921
 30
0.0
 10
101.6234266238997
 20
-140.927142976921
 30
0.0
  0
SPLINE
  5
A6
330
A1
100
AcDbEntity
  8
_U+30EC_U+30A4_U+30E4_U+30FC 1
370
     0
100
AcDbSpline
210
0.0
220
0.0
230
1.0
 70
    11
 71
     3
 72
    17
 73
    13
 74
     0
 42
0.0000000001
 43
0.0000000001
 12
1.0
 22
0.0
 32
0.0
 13
1.0
 23
0.0
 33
0.0
 40
0.0
 40
0.0
 40
0.0
 40
0.0
 40
1.0
 40
1.0
 40
1.0
 40
2.0
 40
2.0
 40
2.0
 40
3.0
 40
3.0
 40
3.0
 40
4.0
 40
4.0
 40
4.0
 40
4.0
 10
101.6416856299715
 20
-140.0682806724482
 30
0.0
 10
101.3612548574722
 20
-140.0682806724482
 30
0.0
 10
101.3206027307462
 20
-140.2798095352425
 30
0.0
 10
101.3206027307462
 20
-140.3960815078697
 30
0.0
 10
101.3206027307462
 20
-140.5717813776175
 30
0.0
 10
101.4222330475611
 20
-140.7345621392955
 30
0.0
 10
101.6189479997689
 20
-140.7345621392955
 30
0.0
 10
101.7477945709172
 20
-140.7345621392955
 30
0.0
 10
101.9355522748633
 20
-140.6753064969492
 30
0.0
 10
101.9355522748633
 20
-140.389708081222
 30
0.0
 10
101.9355522748633
 20
-140.1656046199065
 30
0.0
 10
101.786379640352
 20
-140.0682806724482
 30
0.0
 10
101.6416856299715
 20
-140.0682806724482
 30
0.0
  0
HATCH
  5
A7
330
A1
100
AcDbEntity
  8
_U+30EC_U+30A4_U+30E4_U+30FC 1
 62
   179
420
  2234388
100
AcDbHatch
 10
0.0
 20
0.0
 30
0.0
210
0.0
220
0.0
230
1.0
  2
SOLID
 70
     1
 71
     0
 91
        2
 92
        1
 93
        1
 72
     4
 94
        3
 73
     0
 74
     1
 95
       32
 96
       28
 40
0.0
 40
0.0
 40
0.0
 40
0.0
 40
1.0
 40
1.0
 40
1.0
 40
2.0
 40
2.0
 40
2.0
 40
3.0
 40
3.0
 40
3.0
 40
4.0
 40
4.0
 40
4.0
 40
5.0
 40
5.0
 40
5.0
 40
6.0
 40
6.0
 40
6.0
 40
7.0
 40
7.0
 40
7.0
 40
8.0
 40
8.0
 40
8.0
 40
9.0
 40
9.0
 40
9.0
 40
9.0
 10
101.6234266238997
 20
-140.927142976921
 10
101.0718668367112
 20
-140.927142976921
 10
101.0629095884496
 20
-140.3728271133443
 10
101.0629095884496
 20
-140.1592311932588
 10
101.0629095884496
 20
-139.9285820505213
 10
101.0832356518125
 20
-139.2812486088429
 10
101.6644232601742
 20
-139.2812486088429
 10
101.8497693972806
 20
-139.2812486088429
 10
102.1119411637081
 20
-139.3510117924192
 10
102.1525932904341
 20
-139.6831189971973
 10
102.1525932904341
 20
-139.6831189971973
 10
101.924183459762
 20
-139.6831189971973
 10
101.924183459762
 20
-139.6831189971973
 10
101.9128146446607
 20
-139.6261026669164
 10
101.8790527089052
 20
-139.4779635610506
 10
101.6620116933345
 20
-139.4779635610506
 10
101.3498860423709
 20
-139.4779635610506
 10
101.3071668583538
 20
-139.8059366512464
 10
101.2933864764128
 20
-140.0110920873931
 10
101.3929497359365
 20
-139.9328884198779
 10
101.4652967411267
 20
-139.8736327775316
 10
101.6599446360433
 20
-139.8736327775316
 10
101.8518364545718
 20
-139.8736327775316
 10
102.1753309206367
 20
-139.9814642662199
 10
102.1753309206367
 20
-140.3876410239309
 10
102.1753309206367
 20
-140.7071736301878
 10
101.9627685291968
 20
-140.927142976921
 10
101.6234266238997
 20
-140.927142976921
 97
        0
 97
        0
 92
        1
 93
        1
 72
     4
 94
        3
 73
     0
 74
     1
 95
       17
 96
       13
 40
0.0
 40
0.0
 40
0.0
 40
0.0
 40
1.0
 40
1.0
 40
1.0
 40
2.0
 40
2.0
 40
2.0
 40
3.0
 40
3.0
 40
3.0
 40
4.0
 40
4.0
 40
4.0
 40
4.0
 10
101.6416856299715
 20
-140.0682806724482
 10
101.3612548574722
 20
-140.0682806724482
 10
101.3206027307462
 20
-140.2798095352425
 10
101.3206027307462
 20
-140.3960815078697
 10
101.3206027307462
 20
-140.5717813776175
 10
101.4222330475611
 20
-140.7345621392955
 10
101.6189479997689
 20
-140.7345621392955
 10
101.7477945709172
 20
-140.7345621392955
 10
101.9355522748633
 20
-140.6753064969492
 10
101.9355522748633
 20
-140.389708081222
 10
101.9355522748633
 20
-140.1656046199065
 10
101.786379640352
 20
-140.0682806724482
 10
101.6416856299715
 20
-140.0682806724482
 97
        0
 97
        0
 75
     2
 76
     1
 98
        0
  0
ENDBLK
  5
A4
330
A1
100
AcDbEntity
  8
0
100
AcDbBlockEnd
  0
BLOCK
  5
B1
330
AF
100
AcDbEntity
  8
0
100
AcDbBlockBegin
  2
block 7
 70
     0
 10
0.0
 20
0.0
 30
0.0
  3
block 7
  1

  0
SPLINE
  5
B3
330
AF
100
AcDbEntity
  8
_U+30EC_U+30A4_U+30E4_U+30FC 1
370
     0
100
AcDbSpline
210
0.0
220
0.0
230
1.0
 70
    11
 71
     3
 72
    26
 73
    22
 74
     0
 42
0.0000000001
 43
0.0000000001
 12
1.0
 22
0.0
 32
0.0
 13
1.0
 23
0.0
 33
0.0
 40
0.0
 40
0.0
 40
0.0
 40
0.0
 40
1.0
 40
1.0
 40
1.0
 40
2.0
 40
2.0
 40
2.0
 40
3.0
 40
3.0
 40
3.0
 40
4.0
 40
4.0
 40
4.0
 40
5.0
 40
5.0
 40
5.0
 40
6.0
 40
6.0
 40
6.0
 40
7.0
 40
7.0
 40
7.0
 40
7.0
 10
92.00782061501889
 20
-144.3360649595757
 30
0.0
 10
92.00782061501889
 20
-144.3360649595757
 30
0.0
 10
92.00782061501889
 20
-143.2317396017789
 30
0.0
 10
92.00782061501889
 20
-143.2317396017789
 30
0.0
 10
92.00782061501889
 20
-143.2317396017789
 30
0.0
 10
91.67778046753195
 20
-143.2317396017789
 30
0.0
 10
91.67778046753195
 20
-143.2317396017789
 30
0.0
 10
91.67778046753195
 20
-143.2317396017789
 30
0.0
 10
91.67778046753195
 20
-143.0836004959131
 30
0.0
 10
91.67778046753195
 20
-143.0836004959131
 30
0.0
 10
92.00988767231003
 20
-143.0689588401008
 30
0.0
 10
92.0563964613609
 20
-142.9060058236485
 30
0.0
 10
92.08602428253405
 20
-142.7918009083125
 30
0.0
 10
92.08602428253405
 20
-142.7918009083125
 30
0.0
 10
92.23209633110865
 20
-142.7918009083125
 30
0.0
 10
92.23209633110865
 20
-142.7918009083125
 30
0.0
 10
92.23209633110865
 20
-142.7918009083125
 30
0.0
 10
92.23209633110865
 20
-144.3360649595757
 30
0.0
 10
92.23209633110865
 20
-144.3360649595757
 30
0.0
 10
92.23209633110865
 20
-144.3360649595757
 30
0.0
 10
92.00782061501889
 20
-144.3360649595757
 30
0.0
 10
92.00782061501889
 20
-144.3360649595757
 30
0.0
  0
HATCH
  5
B4
330
AF
100
AcDbEntity
  8
_U+30EC_U+30A4_U+30E4_U+30FC 1
 62
   179
420
  2234388
100
AcDbHatch
 10
0.0
 20
0.0
 30
0.0
210
0.0
220
0.0
230
1.0
  2
SOLID
 70
     1
 71
     0
 91
        1
 92
        1
 93
        1
 72
     4
 94
        3
 73
     0
 74
     1
 95
       26
 96
       22
 40
0.0
 40
0.0
 40
0.0
 40
0.0
 40
1.0
 40
1.0
 40
1.0
 40
2.0
 40
2.0
 40
2.0
 40
3.0
 40
3.0
 40
3.0
 40
4.0
 40
4.0
 40
4.0
 40
5.0
 40
5.0
 40
5.0
 40
6.0
 40
6.0
 40
6.0
 40
7.0
 40
7.0
 40
7.0
 40
7.0
 10
92.00782061501889
 20
-144.3360649595757
 10
92.00782061501889
 20
-144.3360649595757
 10
92.00782061501889
 20
-143.2317396017789
 10
92.00782061501889
 20
-143.2317396017789
 10
92.00782061501889
 20
-143.2317396017789
 10
91.67778046753195
 20
-143.2317396017789
 10
91.67778046753195
 20
-143.2317396017789
 10
91.67778046753195
 20
-143.2317396017789
 10
91.67778046753195
 20
-143.0836004959131
 10
91.67778046753195
 20
-143.0836004959131
 10
92.00988767231003
 20
-143.0689588401008
 10
92.0563964613609
 20
-142.9060058236485
 10
92.08602428253405
 20
-142.7918009083125
 10
92.08602428253405
 20
-142.7918009083125
 10
92.23209633110865
 20
-142.7918009083125
 10
92.23209633110865
 20
-142.7918009083125
 10
92.23209633110865
 20
-142.7918009083125
 10
92.23209633110865
 20
-144.3360649595757
 10
92.23209633110865
 20
-144.3360649595757
 10
92.23209633110865
 20
-144.3360649595757
 10
92.00782061501889
 20
-144.3360649595757
 10
92.00782061501889
 20
-144.3360649595757
 97
        0
 97
        0
 75
     2
 76
     1
 98
        0
  0
POLYLINE
  5
B5
330
AF
100
AcDbEntity
  8
_U+30EC_U+30A4_U+30E4_U+30FC 1
370
     0
100
AcDb2dPolyline
 66
     1
 10
0.0
 20
0.0
 30
0.0
  0
VERTEX
  5
B6
330
B5
100
AcDbEntity
  8
_U+30EC_U+30A4_U+30E4_U+30FC 1
370
     0
100
AcDbVertex
100
AcDb2dVertex
 10
92.79330238565585
 20
-144.3360649595757
 30
0.0
  0
VERTEX
  5
B7
330
B5
100
AcDbEntity
  8
_U+30EC_U+30A4_U+30E4_U+30FC 1
370
     0
100
AcDbVertex
100
AcDb2dVertex
 10
92.79330238565585
 20
-144.0844007343782
 30
0.0
  0
VERTEX
  5
B8
330
B5
100
AcDbEntity
  8
_U+30EC_U+30A4_U+30E4_U+30FC 1
370
     0
100
AcDbVertex
100
AcDb2dVertex
 10
93.0451388656276
 20
-144.0844007343782
 30
0.0
  0
VERTEX
  5
B9
330
B5
100
AcDbEntity
  8
_U+30EC_U+30A4_U+30E4_U+30FC 1
370
     0
100
AcDbVertex
100
AcDb2dVertex
 10
93.0451388656276
 20
-144.3360649595757
 30
0.0
  0
VERTEX
  5
BA
330
B5
100
AcDbEntity
  8
_U+30EC_U+30A4_U+30E4_U+30FC 1
370
     0
100
AcDbVertex
100
AcDb2dVertex
 10
92.79330238565585
 20
-144.3360649595757
 30
0.0
  0
SEQEND
  5
BB
330
B5
100
AcDbEntity
  8
_U+30EC_U+30A4_U+30E4_U+30FC 1
370
     0
  0
HATCH
  5
BC
330
AF
100
AcDbEntity
  8
_U+30EC_U+30A4_U+30E4_U+30FC 1
 62
   179
420
  2234388
100
AcDbHatch
 10
0.0
 20
0.0
 30
0.0
210
0.0
220
0.0
230
1.0
  2
SOLID
 70
     1
 71
     0
 91
        1
 92
        1
 93
        4
 72
     1
 10
92.79330238565585
 20
-144.3360649595757
 11
92.79330238565585
 21
-144.0844007343782
 72
     1
 10
92.79330238565585
 20
-144.0844007343782
 11
93.0451388656276
 21
-144.0844007343782
 72
     1
 10
93.0451388656276
 20
-144.0844007343782
 11
93.0451388656276
 21
-144.3360649595757
 72
     1
 10
93.0451388656276
 20
-144.3360649595757
 11
92.79330238565585
 21
-144.3360649595757
 97
        0
 75
     2
 76
     1
 98
        0
  0
SPLINE
  5
BD
330
AF
100
AcDbEntity
  8
_U+30EC_U+30A4_U+30E4_U+30FC 1
370
     0
100
AcDbSpline
210
0.0
220
0.0
230
1.0
 70
    11
 71
     3
 72
    53
 73
    49
 74
     0
 42
0.0000000001
 43
0.0000000001
 12
1.0
 22
0.0
 32
0.0
 13
1.0
 23
0.0
 33
0.0
 40
0.0
 40
0.0
 40
0.0
 40
0.0
 40
1.0
 40
1.0
 40
1.0
 40
2.0
 40
2.0
 40
2.0
 40
3.0
 40
3.0
 40
3.0
 40
4.0
 40
4.0
 40
4.0
 40
5.0
 40
5.0
 40
5.0
 40
6.0
 40
6.0
 40
6.0
 40
7.0
 40
7.0
 40
7.0
 40
8.0
 40
8.0
 40
8.0
 40
9.0
 40
9.0
 40
9.0
 40
10.0
 40
10.0
 40
10.0
 40
11.0
 40
11.0
 40
11.0
 40
12.0
 40
12.0
 40
12.0
 40
13.0
 40
13.0
 40
13.0
 40
14.0
 40
14.0
 40
14.0
 40
15.0
 40
15.0
 40
15.0
 40
16.0
 40
16.0
 40
16.0
 40
16.0
 10
93.76240774565663
 20
-144.3868801179831
 30
0.0
 10
93.68420407814145
 20
-144.3868801179831
 30
0.0
 10
93.58257376132659
 20
-144.3699991501054
 30
0.0
 10
93.48094344451171
 20
-144.3064371384026
 30
0.0
 10
93.30765514160365
 20
-144.1963663376488
 30
0.0
 10
93.2862955495951
 20
-144.0652804544351
 30
0.0
 10
93.26734752442623
 20
-143.9574489657467
 30
0.0
 10
93.26734752442623
 20
-143.9574489657467
 30
0.0
 10
93.48955618322483
 20
-143.9574489657467
 30
0.0
 10
93.48955618322483
 20
-143.9574489657467
 30
0.0
 10
93.54433320144031
 20
-144.1562309752457
 30
0.0
 10
93.67145722484602
 20
-144.1858587964188
 30
0.0
 10
93.76447480294777
 20
-144.1858587964188
 30
0.0
 10
93.90400117010039
 20
-144.1858587964188
 30
0.0
 10
94.05627439054844
 20
-144.0864677916693
 30
0.0
 10
94.05627439054844
 20
-143.8537515916407
 30
0.0
 10
94.05627439054844
 20
-143.5977809970867
 30
0.0
 10
93.87644040621839
 20
-143.5280178135104
 30
0.0
 10
93.75586206423465
 20
-143.5280178135104
 30
0.0
 10
93.72416718577036
 20
-143.5280178135104
 30
0.0
 10
93.58257376132659
 20
-143.5280178135104
 30
0.0
 10
93.49369029780713
 20
-143.657036639433
 30
0.0
 10
93.49369029780713
 20
-143.657036639433
 30
0.0
 10
93.31799042805939
 20
-143.6379163594898
 30
0.0
 10
93.31799042805939
 20
-143.6379163594898
 30
0.0
 10
93.31799042805939
 20
-143.6379163594898
 30
0.0
 10
93.43856877004313
 20
-142.7918009083125
 30
0.0
 10
93.43856877004313
 20
-142.7918009083125
 30
0.0
 10
93.43856877004313
 20
-142.7918009083125
 30
0.0
 10
94.2171603497096
 20
-142.7918009083125
 30
0.0
 10
94.2171603497096
 20
-142.7918009083125
 30
0.0
 10
94.2171603497096
 20
-142.7918009083125
 30
0.0
 10
94.2171603497096
 20
-142.9864488032291
 30
0.0
 10
94.2171603497096
 20
-142.9864488032291
 30
0.0
 10
94.2171603497096
 20
-142.9864488032291
 30
0.0
 10
93.60152178649545
 20
-142.9864488032291
 30
0.0
 10
93.60152178649545
 20
-142.9864488032291
 30
0.0
 10
93.60152178649545
 20
-142.9864488032291
 30
0.0
 10
93.53606497227571
 20
-143.4095065288178
 30
0.0
 10
93.53606497227571
 20
-143.4095065288178
 30
0.0
 10
93.59738767191315
 20
-143.3755723382881
 30
0.0
 10
93.67972545401062
 20
-143.3354369758849
 30
0.0
 10
93.79823673870322
 20
-143.3354369758849
 30
0.0
 10
94.05214027596614
 20
-143.3354369758849
 30
0.0
 10
94.28916284535133
 20
-143.5216443868626
 30
0.0
 10
94.28916284535133
 20
-143.8346313116976
 30
0.0
 10
94.28916284535133
 20
-144.1520968606634
 30
0.0
 10
94.06488712926156
 20
-144.3868801179831
 30
0.0
 10
93.76240774565663
 20
-144.3868801179831
 30
0.0
  0
HATCH
  5
BE
330
AF
100
AcDbEntity
  8
_U+30EC_U+30A4_U+30E4_U+30FC 1
 62
   179
420
  2234388
100
AcDbHatch
 10
0.0
 20
0.0
 30
0.0
210
0.0
220
0.0
230
1.0
  2
SOLID
 70
     1
 71
     0
 91
        1
 92
        1
 93
        1
 72
     4
 94
        3
 73
     0
 74
     1
 95
       53
 96
       49
 40
0.0
 40
0.0
 40
0.0
 40
0.0
 40
1.0
 40
1.0
 40
1.0
 40
2.0
 40
2.0
 40
2.0
 40
3.0
 40
3.0
 40
3.0
 40
4.0
 40
4.0
 40
4.0
 40
5.0
 40
5.0
 40
5.0
 40
6.0
 40
6.0
 40
6.0
 40
7.0
 40
7.0
 40
7.0
 40
8.0
 40
8.0
 40
8.0
 40
9.0
 40
9.0
 40
9.0
 40
10.0
 40
10.0
 40
10.0
 40
11.0
 40
11.0
 40
11.0
 40
12.0
 40
12.0
 40
12.0
 40
13.0
 40
13.0
 40
13.0
 40
14.0
 40
14.0
 40
14.0
 40
15.0
 40
15.0
 40
15.0
 40
16.0
 40
16.0
 40
16.0
 40
16.0
 10
93.76240774565663
 20
-144.3868801179831
 10
93.68420407814145
 20
-144.3868801179831
 10
93.58257376132659
 20
-144.3699991501054
 10
93.48094344451171
 20
-144.3064371384026
 10
93.30765514160365
 20
-144.1963663376488
 10
93.2862955495951
 20
-144.0652804544351
 10
93.26734752442623
 20
-143.9574489657467
 10
93.26734752442623
 20
-143.9574489657467
 10
93.48955618322483
 20
-143.9574489657467
 10
93.48955618322483
 20
-143.9574489657467
 10
93.54433320144031
 20
-144.1562309752457
 10
93.67145722484602
 20
-144.1858587964188
 10
93.76447480294777
 20
-144.1858587964188
 10
93.90400117010039
 20
-144.1858587964188
 10
94.05627439054844
 20
-144.0864677916693
 10
94.05627439054844
 20
-143.8537515916407
 10
94.05627439054844
 20
-143.5977809970867
 10
93.87644040621839
 20
-143.5280178135104
 10
93.75586206423465
 20
-143.5280178135104
 10
93.72416718577036
 20
-143.5280178135104
 10
93.58257376132659
 20
-143.5280178135104
 10
93.49369029780713
 20
-143.657036639433
 10
93.49369029780713
 20
-143.657036639433
 10
93.31799042805939
 20
-143.6379163594898
 10
93.31799042805939
 20
-143.6379163594898
 10
93.31799042805939
 20
-143.6379163594898
 10
93.43856877004313
 20
-142.7918009083125
 10
93.43856877004313
 20
-142.7918009083125
 10
93.43856877004313
 20
-142.7918009083125
 10
94.2171603497096
 20
-142.7918009083125
 10
94.2171603497096
 20
-142.7918009083125
 10
94.2171603497096
 20
-142.7918009083125
 10
94.2171603497096
 20
-142.9864488032291
 10
94.2171603497096
 20
-142.9864488032291
 10
94.2171603497096
 20
-142.9864488032291
 10
93.60152178649545
 20
-142.9864488032291
 10
93.60152178649545
 20
-142.9864488032291
 10
93.60152178649545
 20
-142.9864488032291
 10
93.53606497227571
 20
-143.4095065288178
 10
93.53606497227571
 20
-143.4095065288178
 10
93.59738767191315
 20
-143.3755723382881
 10
93.67972545401062
 20
-143.3354369758849
 10
93.79823673870322
 20
-143.3354369758849
 10
94.05214027596614
 20
-143.3354369758849
 10
94.28916284535133
 20
-143.5216443868626
 10
94.28916284535133
 20
-143.8346313116976
 10
94.28916284535133
 20
-144.1520968606634
 10
94.06488712926156
 20
-144.3868801179831
 10
93.76240774565663
 20
-144.3868801179831
 97
        0
 97
        0
 75
     2
 76
     1
 98
        0
  0
SPLINE
  5
BF
330
AF
100
AcDbEntity
  8
_U+30EC_U+30A4_U+30E4_U+30FC 1
370
     0
100
AcDbSpline
210
0.0
220
0.0
230
1.0
 70
    11
 71
     3
 72
    44
 73
    40
 74
     0
 42
0.0000000001
 43
0.0000000001
 12
1.0
 22
0.0
 32
0.0
 13
1.0
 23
0.0
 33
0.0
 40
0.0
 40
0.0
 40
0.0
 40
0.0
 40
1.0
 40
1.0
 40
1.0
 40
2.0
 40
2.0
 40
2.0
 40
3.0
 40
3.0
 40
3.0
 40
4.0
 40
4.0
 40
4.0
 40
5.0
 40
5.0
 40
5.0
 40
6.0
 40
6.0
 40
6.0
 40
7.0
 40
7.0
 40
7.0
 40
8.0
 40
8.0
 40
8.0
 40
9.0
 40
9.0
 40
9.0
 40
10.0
 40
10.0
 40
10.0
 40
11.0
 40
11.0
 40
11.0
 40
12.0
 40
12.0
 40
12.0
 40
13.0
 40
13.0
 40
13.0
 40
13.0
 10
95.47220863498612
 20
-144.3360649595757
 30
0.0
 10
95.44912649523495
 20
-144.291623227816
 30
0.0
 10
95.4277669032264
 20
-144.2387410121174
 30
0.0
 10
95.42569984593524
 20
-144.0080918693799
 30
0.0
 10
95.42156573135294
 20
-143.7648681281213
 30
0.0
 10
95.36231008900666
 20
-143.695104944545
 30
0.0
 10
95.18454316196775
 20
-143.695104944545
 30
0.0
 10
95.18454316196775
 20
-143.695104944545
 30
0.0
 10
94.77629934696566
 20
-143.695104944545
 30
0.0
 10
94.77629934696566
 20
-143.695104944545
 30
0.0
 10
94.77629934696566
 20
-143.695104944545
 30
0.0
 10
94.77629934696566
 20
-144.3360649595757
 30
0.0
 10
94.77629934696566
 20
-144.3360649595757
 30
0.0
 10
94.77629934696566
 20
-144.3360649595757
 30
0.0
 10
94.54134383487161
 20
-144.3360649595757
 30
0.0
 10
94.54134383487161
 20
-144.3360649595757
 30
0.0
 10
94.54134383487161
 20
-144.3360649595757
 30
0.0
 10
94.54134383487161
 20
-142.7918009083125
 30
0.0
 10
94.54134383487161
 20
-142.7918009083125
 30
0.0
 10
94.54134383487161
 20
-142.7918009083125
 30
0.0
 10
95.21623804043206
 20
-142.7918009083125
 30
0.0
 10
95.21623804043206
 20
-142.7918009083125
 30
0.0
 10
95.52319604816782
 20
-142.7918009083125
 30
0.0
 10
95.69028317920244
 20
-142.9630221539294
 30
0.0
 10
95.69028317920244
 20
-143.2189927484835
 30
0.0
 10
95.69028317920244
 20
-143.2698079068909
 30
0.0
 10
95.68167044048931
 20
-143.3523179437626
 30
0.0
 10
95.63722870872958
 20
-143.4327609233432
 30
0.0
 10
95.5779730663833
 20
-143.5364582974492
 30
0.0
 10
95.51251625216354
 20
-143.5554063226181
 30
0.0
 10
95.45119355252609
 20
-143.5722872904958
 30
0.0
 10
95.58865286238756
 20
-143.6146619649644
 30
0.0
 10
95.65652124344699
 20
-143.6634100660807
 30
0.0
 10
95.66065535802929
 20
-143.9784640482068
 30
0.0
 10
95.66478947261159
 20
-144.2492485533474
 30
0.0
 10
95.70061846565818
 20
-144.281115686586
 30
0.0
 10
95.76848684671761
 20
-144.3360649595757
 30
0.0
 10
95.76848684671761
 20
-144.3360649595757
 30
0.0
 10
95.47220863498612
 20
-144.3360649595757
 30
0.0
 10
95.47220863498612
 20
-144.3360649595757
 30
0.0
  0
SPLINE
  5
C0
330
AF
100
AcDbEntity
  8
_U+30EC_U+30A4_U+30E4_U+30FC 1
370
     0
100
AcDbSpline
210
0.0
220
0.0
230
1.0
 70
    11
 71
     3
 72
    20
 73
    16
 74
     0
 42
0.0000000001
 43
0.0000000001
 12
1.0
 22
0.0
 32
0.0
 13
1.0
 23
0.0
 33
0.0
 40
0.0
 40
0.0
 40
0.0
 40
0.0
 40
1.0
 40
1.0
 40
1.0
 40
2.0
 40
2.0
 40
2.0
 40
3.0
 40
3.0
 40
3.0
 40
4.0
 40
4.0
 40
4.0
 40
5.0
 40
5.0
 40
5.0
 40
5.0
 10
95.22071666456289
 20
-143.0033297711068
 30
0.0
 10
95.22071666456289
 20
-143.0033297711068
 30
0.0
 10
94.77629934696566
 20
-143.0033297711068
 30
0.0
 10
94.77629934696566
 20
-143.0033297711068
 30
0.0
 10
94.77629934696566
 20
-143.0033297711068
 30
0.0
 10
94.77629934696566
 20
-143.4835760817506
 30
0.0
 10
94.77629934696566
 20
-143.4835760817506
 30
0.0
 10
94.77629934696566
 20
-143.4835760817506
 30
0.0
 10
95.2183050977232
 20
-143.4835760817506
 30
0.0
 10
95.2183050977232
 20
-143.4835760817506
 30
0.0
 10
95.31786835724692
 20
-143.4835760817506
 30
0.0
 10
95.45326060981725
 20
-143.4074394715266
 30
0.0
 10
95.45326060981725
 20
-143.2360459711354
 30
0.0
 10
95.45326060981725
 20
-143.157670048846
 30
0.0
 10
95.4194986740618
 20
-143.0033297711068
 30
0.0
 10
95.22071666456289
 20
-143.0033297711068
 30
0.0
  0
HATCH
  5
C1
330
AF
100
AcDbEntity
  8
_U+30EC_U+30A4_U+30E4_U+30FC 1
 62
   179
420
  2234388
100
AcDbHatch
 10
0.0
 20
0.0
 30
0.0
210
0.0
220
0.0
230
1.0
  2
SOLID
 70
     1
 71
     0
 91
        2
 92
        1
 93
        1
 72
     4
 94
        3
 73
     0
 74
     1
 95
       44
 96
       40
 40
0.0
 40
0.0
 40
0.0
 40
0.0
 40
1.0
 40
1.0
 40
1.0
 40
2.0
 40
2.0
 40
2.0
 40
3.0
 40
3.0
 40
3.0
 40
4.0
 40
4.0
 40
4.0
 40
5.0
 40
5.0
 40
5.0
 40
6.0
 40
6.0
 40
6.0
 40
7.0
 40
7.0
 40
7.0
 40
8.0
 40
8.0
 40
8.0
 40
9.0
 40
9.0
 40
9.0
 40
10.0
 40
10.0
 40
10.0
 40
11.0
 40
11.0
 40
11.0
 40
12.0
 40
12.0
 40
12.0
 40
13.0
 40
13.0
 40
13.0
 40
13.0
 10
95.47220863498612
 20
-144.3360649595757
 10
95.44912649523495
 20
-144.291623227816
 10
95.4277669032264
 20
-144.2387410121174
 10
95.42569984593524
 20
-144.0080918693799
 10
95.42156573135294
 20
-143.7648681281213
 10
95.36231008900666
 20
-143.695104944545
 10
95.18454316196775
 20
-143.695104944545
 10
95.18454316196775
 20
-143.695104944545
 10
94.77629934696566
 20
-143.695104944545
 10
94.77629934696566
 20
-143.695104944545
 10
94.77629934696566
 20
-143.695104944545
 10
94.77629934696566
 20
-144.3360649595757
 10
94.77629934696566
 20
-144.3360649595757
 10
94.77629934696566
 20
-144.3360649595757
 10
94.54134383487161
 20
-144.3360649595757
 10
94.54134383487161
 20
-144.3360649595757
 10
94.54134383487161
 20
-144.3360649595757
 10
94.54134383487161
 20
-142.7918009083125
 10
94.54134383487161
 20
-142.7918009083125
 10
94.54134383487161
 20
-142.7918009083125
 10
95.21623804043206
 20
-142.7918009083125
 10
95.21623804043206
 20
-142.7918009083125
 10
95.52319604816782
 20
-142.7918009083125
 10
95.69028317920244
 20
-142.9630221539294
 10
95.69028317920244
 20
-143.2189927484835
 10
95.69028317920244
 20
-143.2698079068909
 10
95.68167044048931
 20
-143.3523179437626
 10
95.63722870872958
 20
-143.4327609233432
 10
95.5779730663833
 20
-143.5364582974492
 10
95.51251625216354
 20
-143.5554063226181
 10
95.45119355252609
 20
-143.5722872904958
 10
95.58865286238756
 20
-143.6146619649644
 10
95.65652124344699
 20
-143.6634100660807
 10
95.66065535802929
 20
-143.9784640482068
 10
95.66478947261159
 20
-144.2492485533474
 10
95.70061846565818
 20
-144.281115686586
 10
95.76848684671761
 20
-144.3360649595757
 10
95.76848684671761
 20
-144.3360649595757
 10
95.47220863498612
 20
-144.3360649595757
 10
95.47220863498612
 20
-144.3360649595757
 97
        0
 97
        0
 92
        1
 93
        1
 72
     4
 94
        3
 73
     0
 74
     1
 95
       20
 96
       16
 40
0.0
 40
0.0
 40
0.0
 40
0.0
 40
1.0
 40
1.0
 40
1.0
 40
2.0
 40
2.0
 40
2.0
 40
3.0
 40
3.0
 40
3.0
 40
4.0
 40
4.0
 40
4.0
 40
5.0
 40
5.0
 40
5.0
 40
5.0
 10
95.22071666456289
 20
-143.0033297711068
 10
95.22071666456289
 20
-143.0033297711068
 10
94.77629934696566
 20
-143.0033297711068
 10
94.77629934696566
 20
-143.0033297711068
 10
94.77629934696566
 20
-143.0033297711068
 10
94.77629934696566
 20
-143.4835760817506
 10
94.77629934696566
 20
-143.4835760817506
 10
94.77629934696566
 20
-143.4835760817506
 10
95.2183050977232
 20
-143.4835760817506
 10
95.2183050977232
 20
-143.4835760817506
 10
95.31786835724692
 20
-143.4835760817506
 10
95.45326060981725
 20
-143.4074394715266
 10
95.45326060981725
 20
-143.2360459711354
 10
95.45326060981725
 20
-143.157670048846
 10
95.4194986740618
 20
-143.0033297711068
 10
95.22071666456289
 20
-143.0033297711068
 97
        0
 97
        0
 75
     2
 76
     1
 98
        0
  0
ENDBLK
  5
B2
330
AF
100
AcDbEntity
  8
0
100
AcDbBlockEnd
  0
ENDSEC
  0
SECTION
  2
ENTITIES
  0
SPLINE
  5
41
330
1F
100
AcDbEntity
  8
_U+30EC_U+30A4_U+30E4_U+30FC 1
 62
   179
420
  2234388
370
     9
100
AcDbSpline
210
0.0
220
0.0
230
1.0
 70
    11
 71
     3
 72
    17
 73
    13
 74
     0
 42
0.0000000001
 43
0.0000000001
 12
1.0
 22
0.0
 32
0.0
 13
1.0
 23
0.0
 33
0.0
 40
0.0
 40
0.0
 40
0.0
 40
0.0
 40
1.0
 40
1.0
 40
1.0
 40
2.0
 40
2.0
 40
2.0
 40
3.0
 40
3.0
 40
3.0
 40
4.0
 40
4.0
 40
4.0
 40
4.0
 10
115.7122738019096
 20
-146.3819995090317
 30
0.0
 10
115.7122738019096
 20
-146.3269856405016
 30
0.0
 10
115.6674660287546
 20
-146.2821778673466
 30
0.0
 10
115.6124306283777
 20
-146.2821778673466
 30
0.0
 10
115.5573952280008
 20
-146.2821778673466
 30
0.0
 10
115.5125982207692
 20
-146.3269856405016
 30
0.0
 10
115.5125982207692
 20
-146.3819995090317
 30
0.0
 10
115.5125982207692
 20
-146.4370349094085
 30
0.0
 10
115.5573952280008
 20
-146.4818426825636
 30
0.0
 10
115.6124306283777
 20
-146.4818426825636
 30
0.0
 10
115.6674660287546
 20
-146.4818426825636
 30
0.0
 10
115.7122738019096
 20
-146.4370349094085
 30
0.0
 10
115.7122738019096
 20
-146.3819995090317
 30
0.0
  0
SPLINE
  5
42
330
1F
100
AcDbEntity
  8
_U+30EC_U+30A4_U+30E4_U+30FC 1
 62
   179
420
  2234388
370
     9
100
AcDbSpline
210
0.0
220
0.0
230
1.0
 70
    11
 71
     3
 72
    17
 73
    13
 74
     0
 42
0.0000000001
 43
0.0000000001
 12
1.0
 22
0.0
 32
0.0
 13
1.0
 23
0.0
 33
0.0
 40
0.0
 40
0.0
 40
0.0
 40
0.0
 40
1.0
 40
1.0
 40
1.0
 40
2.0
 40
2.0
 40
2.0
 40
3.0
 40
3.0
 40
3.0
 40
4.0
 40
4.0
 40
4.0
 40
4.0
 10
115.7122738019096
 20
-152.8822487342946
 30
0.0
 10
115.7122738019096
 20
-152.8268688243693
 30
0.0
 10
115.6674660287546
 20
-152.7820610512142
 30
0.0
 10
115.6124306283777
 20
-152.7820610512142
 30
0.0
 10
115.5573952280008
 20
-152.7820610512142
 30
0.0
 10
115.5125982207692
 20
-152.8268688243693
 30
0.0
 10
115.5125982207692
 20
-152.8822487342946
 30
0.0
 10
115.5125982207692
 20
-152.9372841346715
 30
0.0
 10
115.5573952280008
 20
-152.9820919078265
 30
0.0
 10
115.6124306283777
 20
-152.9820919078265
 30
0.0
 10
115.6674660287546
 20
-152.9820919078265
 30
0.0
 10
115.7122738019096
 20
-152.9372841346715
 30
0.0
 10
115.7122738019096
 20
-152.8822487342946
 30
0.0
  0
SPLINE
  5
43
330
1F
100
AcDbEntity
  8
_U+30EC_U+30A4_U+30E4_U+30FC 1
 62
   179
420
  2234388
370
     9
100
AcDbSpline
210
0.0
220
0.0
230
1.0
 70
    11
 71
     3
 72
    17
 73
    13
 74
     0
 42
0.0000000001
 43
0.0000000001
 12
1.0
 22
0.0
 32
0.0
 13
1.0
 23
0.0
 33
0.0
 40
0.0
 40
0.0
 40
0.0
 40
0.0
 40
1.0
 40
1.0
 40
1.0
 40
2.0
 40
2.0
 40
2.0
 40
3.0
 40
3.0
 40
3.0
 40
4.0
 40
4.0
 40
4.0
 40
4.0
 10
115.7122738019096
 20
-153.8821231033481
 30
0.0
 10
115.7122738019096
 20
-153.8267431934227
 30
0.0
 10
115.6674660287546
 20
-153.7819354202676
 30
0.0
 10
115.6124306283777
 20
-153.7819354202676
 30
0.0
 10
115.5573952280008
 20
-153.7819354202676
 30
0.0
 10
115.5125982207692
 20
-153.8267431934227
 30
0.0
 10
115.5125982207692
 20
-153.8821231033481
 30
0.0
 10
115.5125982207692
 20
-153.9371585037249
 30
0.0
 10
115.5573952280008
 20
-153.9819662768799
 30
0.0
 10
115.6124306283777
 20
-153.9819662768799
 30
0.0
 10
115.6674660287546
 20
-153.9819662768799
 30
0.0
 10
115.7122738019096
 20
-153.9371585037249
 30
0.0
 10
115.7122738019096
 20
-153.8821231033481
 30
0.0
  0
SPLINE
  5
44
330
1F
100
AcDbEntity
  8
_U+30EC_U+30A4_U+30E4_U+30FC 1
 62
   179
420
  2234388
370
     9
100
AcDbSpline
210
0.0
220
0.0
230
1.0
 70
    11
 71
     3
 72
    17
 73
    13
 74
     0
 42
0.0000000001
 43
0.0000000001
 12
1.0
 22
0.0
 32
0.0
 13
1.0
 23
0.0
 33
0.0
 40
0.0
 40
0.0
 40
0.0
 40
0.0
 40
1.0
 40
1.0
 40
1.0
 40
2.0
 40
2.0
 40
2.0
 40
3.0
 40
3.0
 40
3.0
 40
4.0
 40
4.0
 40
4.0
 40
4.0
 10
91.784696852732
 20
-157.9820020492632
 30
0.0
 10
91.784696852732
 20
-157.9266221393378
 30
0.0
 10
91.73988907957697
 20
-157.8818143661828
 30
0.0
 10
91.6848536792001
 20
-157.8818143661828
 30
0.0
 10
91.62981827882324
 20
-157.8818143661828
 30
0.0
 10
91.5850212715916
 20
-157.9266221393378
 30
0.0
 10
91.5850212715916
 20
-157.9820020492632
 30
0.0
 10
91.5850212715916
 20
-158.0370374496401
 30
0.0
 10
91.62981827882324
 20
-158.0818452227951
 30
0.0
 10
91.6848536792001
 20
-158.0818452227951
 30
0.0
 10
91.73988907957697
 20
-158.0818452227951
 30
0.0
 10
91.784696852732
 20
-158.0370374496401
 30
0.0
 10
91.784696852732
 20
-157.9820020492632
 30
0.0
  0
SPLINE
  5
45
330
1F
100
AcDbEntity
  8
_U+30EC_U+30A4_U+30E4_U+30FC 1
 62
   179
420
  2234388
370
     9
100
AcDbSpline
210
0.0
220
0.0
230
1.0
 70
    11
 71
     3
 72
    17
 73
    13
 74
     0
 42
0.0000000001
 43
0.0000000001
 12
1.0
 22
0.0
 32
0.0
 13
1.0
 23
0.0
 33
0.0
 40
0.0
 40
0.0
 40
0.0
 40
0.0
 40
1.0
 40
1.0
 40
1.0
 40
2.0
 40
2.0
 40
2.0
 40
3.0
 40
3.0
 40
3.0
 40
4.0
 40
4.0
 40
4.0
 40
4.0
 10
111.7844773754827
 20
-157.9820020492632
 30
0.0
 10
111.7844773754827
 20
-157.9266221393378
 30
0.0
 10
111.7396696023277
 20
-157.8818143661828
 30
0.0
 10
111.6846342019508
 20
-157.8818143661828
 30
0.0
 10
111.6295988015739
 20
-157.8818143661828
 30
0.0
 10
111.5848017943423
 20
-157.9266221393378
 30
0.0
 10
111.5848017943423
 20
-157.9820020492632
 30
0.0
 10
111.5848017943423
 20
-158.0370374496401
 30
0.0
 10
111.6295988015739
 20
-158.0818452227951
 30
0.0
 10
111.6846342019508
 20
-158.0818452227951
 30
0.0
 10
111.7396696023277
 20
-158.0818452227951
 30
0.0
 10
111.7844773754827
 20
-158.0370374496401
 30
0.0
 10
111.7844773754827
 20
-157.9820020492632
 30
0.0
  0
POLYLINE
  5
46
330
1F
100
AcDbEntity
  8
_U+30EC_U+30A4_U+30E4_U+30FC 1
 62
   179
420
  2234388
370
     9
100
AcDb2dPolyline
 66
     1
 10
0.0
 20
0.0
 30
0.0
  0
VERTEX
  5
47
330
46
100
AcDbEntity
  8
_U+30EC_U+30A4_U+30E4_U+30FC 1
 62
   179
420
  2234388
370
     9
100
AcDbVertex
100
AcDb2dVertex
 10
91.68478908365975
 20
-157.9820020492632
 30
0.0
  0
VERTEX
  5
48
330
46
100
AcDbEntity
  8
_U+30EC_U+30A4_U+30E4_U+30FC 1
 62
   179
420
  2234388
370
     9
100
AcDbVertex
100
AcDb2dVertex
 10
111.6844619471765
 20
-157.9820020492632
 30
0.0
  0
SEQEND
  5
49
330
46
100
AcDbEntity
  8
_U+30EC_U+30A4_U+30E4_U+30FC 1
 62
   179
420
  2234388
370
     9
  0
POLYLINE
  5
4A
330
1F
100
AcDbEntity
  8
_U+30EC_U+30A4_U+30E4_U+30FC 1
 62
   179
420
  2234388
370
     9
100
AcDb2dPolyline
 66
     1
 10
0.0
 20
0.0
 30
0.0
  0
VERTEX
  5
4B
330
4A
100
AcDbEntity
  8
_U+30EC_U+30A4_U+30E4_U+30FC 1
 62
   179
420
  2234388
370
     9
100
AcDbVertex
100
AcDb2dVertex
 10
91.68478908365975
 20
-155.721653369544
 30
0.0
  0
VERTEX
  5
4C
330
4A
100
AcDbEntity
  8
_U+30EC_U+30A4_U+30E4_U+30FC 1
 62
   179
420
  2234388
370
     9
100
AcDbVertex
100
AcDb2dVertex
 10
91.68478908365975
 20
-158.9816826316955
 30
0.0
  0
SEQEND
  5
4D
330
4A
100
AcDbEntity
  8
_U+30EC_U+30A4_U+30E4_U+30FC 1
 62
   179
420
  2234388
370
     9
  0
POLYLINE
  5
4E
330
1F
100
AcDbEntity
  8
_U+30EC_U+30A4_U+30E4_U+30FC 1
 62
   179
420
  2234388
370
     9
100
AcDb2dPolyline
 66
     1
 10
0.0
 20
0.0
 30
0.0
  0
VERTEX
  5
4F
330
4E
100
AcDbEntity
  8
_U+30EC_U+30A4_U+30E4_U+30FC 1
 62
   179
420
  2234388
370
     9
100
AcDbVertex
100
AcDb2dVertex
 10
111.6845803723339
 20
-156.5219275189207
 30
0.0
  0
VERTEX
  5
50
330
4E
100
AcDbEntity
  8
_U+30EC_U+30A4_U+30E4_U+30FC 1
 62
   179
420
  2234388
370
     9
100
AcDbVertex
100
AcDb2dVertex
 10
111.6845803723339
 20
-158.9818548864698
 30
0.0
  0
SEQEND
  5
51
330
4E
100
AcDbEntity
  8
_U+30EC_U+30A4_U+30E4_U+30FC 1
 62
   179
420
  2234388
370
     9
  0
INSERT
  5
53
330
1F
100
AcDbEntity
  8
_U+30EC_U+30A4_U+30E4_U+30FC 1
100
AcDbBlockReference
  2
block 2
 10
0.0
 20
0.0
 30
0.0
  0
POLYLINE
  5
5B
330
1F
100
AcDbEntity
  8
_U+30EC_U+30A4_U+30E4_U+30FC 1
 62
   179
420
  2234388
370
     9
100
AcDb2dPolyline
 66
     1
 10
0.0
 20
0.0
 30
0.0
  0
VERTEX
  5
5C
330
5B
100
AcDbEntity
  8
_U+30EC_U+30A4_U+30E4_U+30FC 1
 62
   179
420
  2234388
370
     9
100
AcDbVertex
100
AcDb2dVertex
 10
115.6123660328374
 20
-144.8820264666007
 30
0.0
  0
VERTEX
  5
5D
330
5B
100
AcDbEntity
  8
_U+30EC_U+30A4_U+30E4_U+30FC 1
 62
   179
420
  2234388
370
     9
100
AcDbVertex
100
AcDb2dVertex
 10
115.6123660328374
 20
-153.8821015715013
 30
0.0
  0
SEQEND
  5
5E
330
5B
100
AcDbEntity
  8
_U+30EC_U+30A4_U+30E4_U+30FC 1
 62
   179
420
  2234388
370
     9
  0
POLYLINE
  5
5F
330
1F
100
AcDbEntity
  8
_U+30EC_U+30A4_U+30E4_U+30FC 1
 62
   179
420
  2234388
370
     9
100
AcDb2dPolyline
 66
     1
 10
0.0
 20
0.0
 30
0.0
  0
VERTEX
  5
60
330
5F
100
AcDbEntity
  8
_U+30EC_U+30A4_U+30E4_U+30FC 1
 62
   179
420
  2234388
370
     9
100
AcDbVertex
100
AcDb2dVertex
 10
114.608120698887
 20
-146.3819995090317
 30
0.0
  0
VERTEX
  5
61
330
5F
100
AcDbEntity
  8
_U+30EC_U+30A4_U+30E4_U+30FC 1
 62
   179
420
  2234388
370
     9
100
AcDbVertex
100
AcDb2dVertex
 10
116.6125956773627
 20
-146.3819995090317
 30
0.0
  0
SEQEND
  5
62
330
5F
100
AcDbEntity
  8
_U+30EC_U+30A4_U+30E4_U+30FC 1
 62
   179
420
  2234388
370
     9
  0
SPLINE
  5
63
330
1F
100
AcDbEntity
  8
_U+30EC_U+30A4_U+30E4_U+30FC 1
 62
   179
420
  2234388
370
     9
100
AcDbSpline
210
0.0
220
0.0
230
1.0
 70
    11
 71
     3
 72
    17
 73
    13
 74
     0
 42
0.0000000001
 43
0.0000000001
 12
1.0
 22
0.0
 32
0.0
 13
1.0
 23
0.0
 33
0.0
 40
0.0
 40
0.0
 40
0.0
 40
0.0
 40
1.0
 40
1.0
 40
1.0
 40
2.0
 40
2.0
 40
2.0
 40
3.0
 40
3.0
 40
3.0
 40
4.0
 40
4.0
 40
4.0
 40
4.0
 10
115.7122738019096
 20
-144.8820264666007
 30
0.0
 10
115.7122738019096
 20
-144.8270125980706
 30
0.0
 10
115.6674660287546
 20
-144.7822048249156
 30
0.0
 10
115.6124306283777
 20
-144.7822048249156
 30
0.0
 10
115.5573952280008
 20
-144.7822048249156
 30
0.0
 10
115.5125982207692
 20
-144.8270125980706
 30
0.0
 10
115.5125982207692
 20
-144.8820264666007
 30
0.0
 10
115.5125982207692
 20
-144.9370618669776
 30
0.0
 10
115.5573952280008
 20
-144.9818696401326
 30
0.0
 10
115.6124306283777
 20
-144.9818696401326
 30
0.0
 10
115.6674660287546
 20
-144.9818696401326
 30
0.0
 10
115.7122738019096
 20
-144.9370618669776
 30
0.0
 10
115.7122738019096
 20
-144.8820264666007
 30
0.0
  0
POLYLINE
  5
64
330
1F
100
AcDbEntity
  8
_U+30EC_U+30A4_U+30E4_U+30FC 1
 62
   179
420
  2234388
370
     9
100
AcDb2dPolyline
 66
     1
 10
0.0
 20
0.0
 30
0.0
  0
VERTEX
  5
65
330
64
100
AcDbEntity
  8
_U+30EC_U+30A4_U+30E4_U+30FC 1
 62
   179
420
  2234388
370
     9
100
AcDbVertex
100
AcDb2dVertex
 10
114.608120698887
 20
-144.8820264666007
 30
0.0
  0
VERTEX
  5
66
330
64
100
AcDbEntity
  8
_U+30EC_U+30A4_U+30E4_U+30FC 1
 62
   179
420
  2234388
370
     9
100
AcDbVertex
100
AcDb2dVertex
 10
116.6125956773627
 20
-144.8820264666007
 30
0.0
  0
SEQEND
  5
67
330
64
100
AcDbEntity
  8
_U+30EC_U+30A4_U+30E4_U+30FC 1
 62
   179
420
  2234388
370
     9
  0
POLYLINE
  5
68
330
1F
100
AcDbEntity
  8
_U+30EC_U+30A4_U+30E4_U+30FC 1
 62
   179
420
  2234388
370
     9
100
AcDb2dPolyline
 66
     1
 10
0.0
 20
0.0
 30
0.0
  0
VERTEX
  5
69
330
68
100
AcDbEntity
  8
_U+30EC_U+30A4_U+30E4_U+30FC 1
 62
   179
420
  2234388
370
     9
100
AcDbVertex
100
AcDb2dVertex
 10
114.6167226716768
 20
-152.8822487342946
 30
0.0
  0
VERTEX
  5
6A
330
68
100
AcDbEntity
  8
_U+30EC_U+30A4_U+30E4_U+30FC 1
 62
   179
420
  2234388
370
     9
100
AcDbVertex
100
AcDb2dVertex
 10
116.6123803588949
 20
-152.8822487342946
 30
0.0
  0
SEQEND
  5
6B
330
68
100
AcDbEntity
  8
_U+30EC_U+30A4_U+30E4_U+30FC 1
 62
   179
420
  2234388
370
     9
  0
POLYLINE
  5
6C
330
1F
100
AcDbEntity
  8
_U+30EC_U+30A4_U+30E4_U+30FC 1
 62
   179
420
  2234388
370
     9
100
AcDb2dPolyline
 66
     1
 10
0.0
 20
0.0
 30
0.0
  0
VERTEX
  5
6D
330
6C
100
AcDbEntity
  8
_U+30EC_U+30A4_U+30E4_U+30FC 1
 62
   179
420
  2234388
370
     9
100
AcDbVertex
100
AcDb2dVertex
 10
114.6167226716768
 20
-153.8819508485738
 30
0.0
  0
VERTEX
  5
6E
330
6C
100
AcDbEntity
  8
_U+30EC_U+30A4_U+30E4_U+30FC 1
 62
   179
420
  2234388
370
     9
100
AcDbVertex
100
AcDb2dVertex
 10
116.6123803588949
 20
-153.8819508485738
 30
0.0
  0
SEQEND
  5
6F
330
6C
100
AcDbEntity
  8
_U+30EC_U+30A4_U+30E4_U+30FC 1
 62
   179
420
  2234388
370
     9
  0
INSERT
  5
71
330
1F
100
AcDbEntity
  8
_U+30EC_U+30A4_U+30E4_U+30FC 1
100
AcDbBlockReference
  2
block 3
 10
0.0
 20
0.0
 30
0.0
  0
INSERT
  5
82
330
1F
100
AcDbEntity
  8
_U+30EC_U+30A4_U+30E4_U+30FC 1
100
AcDbBlockReference
  2
block 4
 10
0.0
 20
0.0
 30
0.0
  0
INSERT
  5
92
330
1F
100
AcDbEntity
  8
_U+30EC_U+30A4_U+30E4_U+30FC 1
100
AcDbBlockReference
  2
block 5
 10
0.0
 20
0.0
 30
0.0
  0
SPLINE
  5
97
330
1F
100
AcDbEntity
  8
_U+30EC_U+30A4_U+30E4_U+30FC 1
 62
   179
420
  2234388
370
     9
100
AcDbSpline
210
0.0
220
0.0
230
1.0
 70
    11
 71
     3
 72
    17
 73
    13
 74
     0
 42
0.0000000001
 43
0.0000000001
 12
1.0
 22
0.0
 32
0.0
 13
1.0
 23
0.0
 33
0.0
 40
0.0
 40
0.0
 40
0.0
 40
0.0
 40
1.0
 40
1.0
 40
1.0
 40
2.0
 40
2.0
 40
2.0
 40
3.0
 40
3.0
 40
3.0
 40
4.0
 40
4.0
 40
4.0
 40
4.0
 10
104.820259915744
 20
-142.1769590234293
 30
0.0
 10
104.820259915744
 20
-142.1219451548995
 30
0.0
 10
104.7754521425887
 20
-142.0771373817442
 30
0.0
 10
104.7204167422118
 20
-142.0771373817442
 30
0.0
 10
104.665381341835
 20
-142.0771373817442
 30
0.0
 10
104.6205843346033
 20
-142.1219451548995
 30
0.0
 10
104.6205843346033
 20
-142.1769590234293
 30
0.0
 10
104.6205843346033
 20
-142.2319944238062
 30
0.0
 10
104.665381341835
 20
-142.2768021969615
 30
0.0
 10
104.7204167422118
 20
-142.2768021969615
 30
0.0
 10
104.7754521425887
 20
-142.2768021969615
 30
0.0
 10
104.820259915744
 20
-142.2319944238062
 30
0.0
 10
104.820259915744
 20
-142.1769590234293
 30
0.0
  0
SPLINE
  5
98
330
1F
100
AcDbEntity
  8
_U+30EC_U+30A4_U+30E4_U+30FC 1
 62
   179
420
  2234388
370
     9
100
AcDbSpline
210
0.0
220
0.0
230
1.0
 70
    11
 71
     3
 72
    17
 73
    13
 74
     0
 42
0.0000000001
 43
0.0000000001
 12
1.0
 22
0.0
 32
0.0
 13
1.0
 23
0.0
 33
0.0
 40
0.0
 40
0.0
 40
0.0
 40
0.0
 40
1.0
 40
1.0
 40
1.0
 40
2.0
 40
2.0
 40
2.0
 40
3.0
 40
3.0
 40
3.0
 40
4.0
 40
4.0
 40
4.0
 40
4.0
 10
98.81954953584199
 20
-142.1769590234293
 30
0.0
 10
98.81954953584199
 20
-142.1219451548995
 30
0.0
 10
98.77474176268696
 20
-142.0771373817442
 30
0.0
 10
98.71970636231009
 20
-142.0771373817442
 30
0.0
 10
98.66467096193323
 20
-142.0771373817442
 30
0.0
 10
98.61987395470159
 20
-142.1219451548995
 30
0.0
 10
98.61987395470159
 20
-142.1769590234293
 30
0.0
 10
98.61987395470159
 20
-142.2319944238062
 30
0.0
 10
98.66467096193323
 20
-142.2768021969615
 30
0.0
 10
98.71970636231009
 20
-142.2768021969615
 30
0.0
 10
98.77474176268696
 20
-142.2768021969615
 30
0.0
 10
98.81954953584199
 20
-142.2319944238062
 30
0.0
 10
98.81954953584199
 20
-142.1769590234293
 30
0.0
  0
POLYLINE
  5
99
330
1F
100
AcDbEntity
  8
_U+30EC_U+30A4_U+30E4_U+30FC 1
 62
   179
420
  2234388
370
     9
100
AcDb2dPolyline
 66
     1
 10
0.0
 20
0.0
 30
0.0
  0
VERTEX
  5
9A
330
99
100
AcDbEntity
  8
_U+30EC_U+30A4_U+30E4_U+30FC 1
 62
   179
420
  2234388
370
     9
100
AcDbVertex
100
AcDb2dVertex
 10
98.71967406453992
 20
-140.7168844930868
 30
0.0
  0
VERTEX
  5
9B
330
99
100
AcDbEntity
  8
_U+30EC_U+30A4_U+30E4_U+30FC 1
 62
   179
420
  2234388
370
     9
100
AcDbVertex
100
AcDb2dVertex
 10
98.71967406453992
 20
-143.1775224115801
 30
0.0
  0
SEQEND
  5
9C
330
99
100
AcDbEntity
  8
_U+30EC_U+30A4_U+30E4_U+30FC 1
 62
   179
420
  2234388
370
     9
  0
POLYLINE
  5
9D
330
1F
100
AcDbEntity
  8
_U+30EC_U+30A4_U+30E4_U+30FC 1
 62
   179
420
  2234388
370
     9
100
AcDb2dPolyline
 66
     1
 10
0.0
 20
0.0
 30
0.0
  0
VERTEX
  5
9E
330
9D
100
AcDbEntity
  8
_U+30EC_U+30A4_U+30E4_U+30FC 1
 62
   179
420
  2234388
370
     9
100
AcDbVertex
100
AcDb2dVertex
 10
104.7203521466718
 20
-140.7168844930868
 30
0.0
  0
VERTEX
  5
9F
330
9D
100
AcDbEntity
  8
_U+30EC_U+30A4_U+30E4_U+30FC 1
 62
   179
420
  2234388
370
     9
100
AcDbVertex
100
AcDb2dVertex
 10
104.7203521466718
 20
-143.1775224115801
 30
0.0
  0
SEQEND
  5
A0
330
9D
100
AcDbEntity
  8
_U+30EC_U+30A4_U+30E4_U+30FC 1
 62
   179
420
  2234388
370
     9
  0
INSERT
  5
A2
330
1F
100
AcDbEntity
  8
_U+30EC_U+30A4_U+30E4_U+30FC 1
100
AcDbBlockReference
  2
block 6
 10
0.0
 20
0.0
 30
0.0
  0
POLYLINE
  5
A8
330
1F
100
AcDbEntity
  8
_U+30EC_U+30A4_U+30E4_U+30FC 1
 62
   179
420
  2234388
370
     9
100
AcDb2dPolyline
 66
     1
 10
0.0
 20
0.0
 30
0.0
  0
VERTEX
  5
A9
330
A8
100
AcDbEntity
  8
_U+30EC_U+30A4_U+30E4_U+30FC 1
 62
   179
420
  2234388
370
     9
100
AcDbVertex
100
AcDb2dVertex
 10
104.719652361651
 20
-142.1769590234293
 30
0.0
  0
VERTEX
  5
AA
330
A8
100
AcDbEntity
  8
_U+30EC_U+30A4_U+30E4_U+30FC 1
 62
   179
420
  2234388
370
     9
100
AcDbVertex
100
AcDb2dVertex
 10
98.7195987030765
 20
-142.1769590234293
 30
0.0
  0
SEQEND
  5
AB
330
A8
100
AcDbEntity
  8
_U+30EC_U+30A4_U+30E4_U+30FC 1
 62
   179
420
  2234388
370
     9
  0
SPLINE
  5
AC
330
1F
100
AcDbEntity
  8
_U+30EC_U+30A4_U+30E4_U+30FC 1
370
     0
100
AcDbSpline
210
0.0
220
0.0
230
1.0
 70
    11
 71
     3
 72
    41
 73
    37
 74
     0
 42
0.0000000001
 43
0.0000000001
 12
1.0
 22
0.0
 32
0.0
 13
1.0
 23
0.0
 33
0.0
 40
0.0
 40
0.0
 40
0.0
 40
0.0
 40
1.0
 40
1.0
 40
1.0
 40
2.0
 40
2.0
 40
2.0
 40
3.0
 40
3.0
 40
3.0
 40
4.0
 40
4.0
 40
4.0
 40
5.0
 40
5.0
 40
5.0
 40
6.0
 40
6.0
 40
6.0
 40
7.0
 40
7.0
 40
7.0
 40
8.0
 40
8.0
 40
8.0
 40
9.0
 40
9.0
 40
9.0
 40
10.0
 40
10.0
 40
10.0
 40
11.0
 40
11.0
 40
11.0
 40
12.0
 40
12.0
 40
12.0
 40
12.0
 10
110.2404501745341
 20
-152.9787114078816
 30
0.0
 10
110.2404501745341
 20
-152.9787114078816
 30
0.0
 10
102.2394419944326
 20
-152.9787114078816
 30
0.0
 10
102.2394419944326
 20
-152.9787114078816
 30
0.0
 10
102.2394419944326
 20
-152.9787114078816
 30
0.0
 10
102.2394419944326
 20
-146.4798402208128
 30
0.0
 10
102.2394419944326
 20
-146.4798402208128
 30
0.0
 10
102.2394419944326
 20
-146.4798402208128
 30
0.0
 10
104.7173592199687
 20
-146.4798402208128
 30
0.0
 10
104.7173592199687
 20
-146.4798402208128
 30
0.0
 10
104.7173592199687
 20
-146.0304059829155
 30
0.0
 10
104.1652611366109
 20
-144.97947960514
 30
0.0
 10
103.5856453530641
 20
-144.97947960514
 30
0.0
 10
103.5856453530641
 20
-144.97947960514
 30
0.0
 10
99.89418247692534
 20
-144.97947960514
 30
0.0
 10
99.89418247692534
 20
-144.97947960514
 30
0.0
 10
99.31421141790692
 20
-144.97947960514
 30
0.0
 10
98.76282388549268
 20
-145.8000367541858
 30
0.0
 10
98.76282388549268
 20
-146.4798402208128
 30
0.0
 10
98.76282388549268
 20
-146.4798402208128
 30
0.0
 10
101.2393200091411
 20
-146.4798402208128
 30
0.0
 10
101.2393200091411
 20
-146.4798402208128
 30
0.0
 10
101.2393200091411
 20
-146.4798402208128
 30
0.0
 10
101.2393200091411
 20
-152.9787114078816
 30
0.0
 10
101.2393200091411
 20
-152.9787114078816
 30
0.0
 10
101.2393200091411
 20
-152.9787114078816
 30
0.0
 10
93.23937765545536
 20
-152.9787114078816
 30
0.0
 10
93.23937765545536
 20
-152.9787114078816
 30
0.0
 10
92.15000616524918
 20
-152.9787114078816
 30
0.0
 10
91.7397168248027
 20
-153.9788441590964
 30
0.0
 10
91.7397168248027
 20
-153.9788441590964
 30
0.0
 10
91.7397168248027
 20
-153.9788441590964
 30
0.0
 10
111.7401002392633
 20
-153.9788441590964
 30
0.0
 10
111.7401002392633
 20
-153.9788441590964
 30
0.0
 10
111.7401002392633
 20
-153.9788441590964
 30
0.0
 10
111.2035266174357
 20
-152.9787114078816
 30
0.0
 10
110.2404501745341
 20
-152.9787114078816
 30
0.0
  0
HATCH
  5
AD
330
1F
100
AcDbEntity
  8
_U+30EC_U+30A4_U+30E4_U+30FC 1
 62
     9
420
 13224394
100
AcDbHatch
 10
0.0
 20
0.0
 30
0.0
210
0.0
220
0.0
230
1.0
  2
SOLID
 70
     1
 71
     0
 91
        1
 92
        1
 93
        2
 72
     4
 94
        3
 73
     0
 74
     0
 95
       41
 96
       37
 40
0.0
 40
0.0
 40
0.0
 40
0.0
 40
0.3527777776895833
 40
0.3527777776895833
 40
0.3527777776895833
 40
0.7055555553791667
 40
0.7055555553791667
 40
0.7055555553791667
 40
1.05833333306875
 40
1.05833333306875
 40
1.05833333306875
 40
1.411111110758333
 40
1.411111110758333
 40
1.411111110758333
 40
1.763888888447917
 40
1.763888888447917
 40
1.763888888447917
 40
2.1166666661375
 40
2.1166666661375
 40
2.1166666661375
 40
2.469444443827083
 40
2.469444443827083
 40
2.469444443827083
 40
2.822222221516667
 40
2.822222221516667
 40
2.822222221516667
 40
3.17499999920625
 40
3.17499999920625
 40
3.17499999920625
 40
3.527777776895833
 40
3.527777776895833
 40
3.527777776895833
 40
3.880555554585417
 40
3.880555554585417
 40
3.880555554585417
 40
4.233333332275
 40
4.233333332275
 40
4.233333332275
 40
4.233333332275
 10
110.2404501745341
 20
-152.9787114078816
 10
110.2404501745341
 20
-152.9787114078816
 10
102.2394419944326
 20
-152.9787114078816
 10
102.2394419944326
 20
-152.9787114078816
 10
102.2394419944326
 20
-152.9787114078816
 10
102.2394419944326
 20
-146.4798402208128
 10
102.2394419944326
 20
-146.4798402208128
 10
102.2394419944326
 20
-146.4798402208128
 10
104.7173592199687
 20
-146.4798402208128
 10
104.7173592199687
 20
-146.4798402208128
 10
104.7173592199687
 20
-146.0304059829155
 10
104.1652611366109
 20
-144.97947960514
 10
103.5856453530641
 20
-144.97947960514
 10
103.5856453530641
 20
-144.97947960514
 10
99.89418247692534
 20
-144.97947960514
 10
99.89418247692534
 20
-144.97947960514
 10
99.31421141790692
 20
-144.97947960514
 10
98.76282388549268
 20
-145.8000367541858
 10
98.76282388549268
 20
-146.4798402208128
 10
98.76282388549268
 20
-146.4798402208128
 10
101.2393200091411
 20
-146.4798402208128
 10
101.2393200091411
 20
-146.4798402208128
 10
101.2393200091411
 20
-146.4798402208128
 10
101.2393200091411
 20
-152.9787114078816
 10
101.2393200091411
 20
-152.9787114078816
 10
101.2393200091411
 20
-152.9787114078816
 10
93.23937765545536
 20
-152.9787114078816
 10
93.23937765545536
 20
-152.9787114078816
 10
92.15000616524918
 20
-152.9787114078816
 10
91.7397168248027
 20
-153.9788441590964
 10
91.7397168248027
 20
-153.9788441590964
 10
91.7397168248027
 20
-153.9788441590964
 10
111.7401002392633
 20
-153.9788441590964
 10
111.7401002392633
 20
-153.9788441590964
 10
111.7401002392633
 20
-153.9788441590964
 10
111.2035266174357
 20
-152.9787114078816
 10
110.2404501745341
 20
-152.9787114078816
 97
        0
 72
     1
 10
110.2404501745341
 20
-152.9787114078816
 11
110.2404501745341
 21
-152.9787114078816
 97
        0
 75
     2
 76
     1
 98
        0
  0
SPLINE
  5
AE
330
1F
100
AcDbEntity
  8
_U+30EC_U+30A4_U+30E4_U+30FC 1
 62
   179
420
  2234388
370
    25
100
AcDbSpline
210
0.0
220
0.0
230
1.0
 70
    11
 71
     3
 72
    41
 73
    37
 74
     0
 42
0.0000000001
 43
0.0000000001
 12
1.0
 22
0.0
 32
0.0
 13
1.0
 23
0.0
 33
0.0
 40
0.0
 40
0.0
 40
0.0
 40
0.0
 40
1.0
 40
1.0
 40
1.0
 40
2.0
 40
2.0
 40
2.0
 40
3.0
 40
3.0
 40
3.0
 40
4.0
 40
4.0
 40
4.0
 40
5.0
 40
5.0
 40
5.0
 40
6.0
 40
6.0
 40
6.0
 40
7.0
 40
7.0
 40
7.0
 40
8.0
 40
8.0
 40
8.0
 40
9.0
 40
9.0
 40
9.0
 40
10.0
 40
10.0
 40
10.0
 40
11.0
 40
11.0
 40
11.0
 40
12.0
 40
12.0
 40
12.0
 40
12.0
 10
110.2404501745341
 20
-152.9787114078816
 30
0.0
 10
110.2404501745341
 20
-152.9787114078816
 30
0.0
 10
102.2394419944326
 20
-152.9787114078816
 30
0.0
 10
102.2394419944326
 20
-152.9787114078816
 30
0.0
 10
102.2394419944326
 20
-152.9787114078816
 30
0.0
 10
102.2394419944326
 20
-146.4798402208128
 30
0.0
 10
102.2394419944326
 20
-146.4798402208128
 30
0.0
 10
102.2394419944326
 20
-146.4798402208128
 30
0.0
 10
104.7173592199687
 20
-146.4798402208128
 30
0.0
 10
104.7173592199687
 20
-146.4798402208128
 30
0.0
 10
104.7173592199687
 20
-146.0304059829155
 30
0.0
 10
104.1652611366109
 20
-144.97947960514
 30
0.0
 10
103.5856453530641
 20
-144.97947960514
 30
0.0
 10
103.5856453530641
 20
-144.97947960514
 30
0.0
 10
99.89418247692534
 20
-144.97947960514
 30
0.0
 10
99.89418247692534
 20
-144.97947960514
 30
0.0
 10
99.31421141790692
 20
-144.97947960514
 30
0.0
 10
98.76282388549268
 20
-145.8000367541858
 30
0.0
 10
98.76282388549268
 20
-146.4798402208128
 30
0.0
 10
98.76282388549268
 20
-146.4798402208128
 30
0.0
 10
101.2393200091411
 20
-146.4798402208128
 30
0.0
 10
101.2393200091411
 20
-146.4798402208128
 30
0.0
 10
101.2393200091411
 20
-146.4798402208128
 30
0.0
 10
101.2393200091411
 20
-152.9787114078816
 30
0.0
 10
101.2393200091411
 20
-152.9787114078816
 30
0.0
 10
101.2393200091411
 20
-152.9787114078816
 30
0.0
 10
93.23937765545536
 20
-152.9787114078816
 30
0.0
 10
93.23937765545536
 20
-152.9787114078816
 30
0.0
 10
92.15000616524918
 20
-152.9787114078816
 30
0.0
 10
91.7397168248027
 20
-153.9788441590964
 30
0.0
 10
91.7397168248027
 20
-153.9788441590964
 30
0.0
 10
91.7397168248027
 20
-153.9788441590964
 30
0.0
 10
111.7401002392633
 20
-153.9788441590964
 30
0.0
 10
111.7401002392633
 20
-153.9788441590964
 30
0.0
 10
111.7401002392633
 20
-153.9788441590964
 30
0.0
 10
111.2035266174357
 20
-152.9787114078816
 30
0.0
 10
110.2404501745341
 20
-152.9787114078816
 30
0.0
  0
INSERT
  5
B0
330
1F
100
AcDbEntity
  8
_U+30EC_U+30A4_U+30E4_U+30FC 1
100
AcDbBlockReference
  2
block 7
 10
0.0
 20
0.0
 30
0.0
  0
POLYLINE
  5
C2
330
1F
100
AcDbEntity
  8
_U+30EC_U+30A4_U+30E4_U+30FC 1
 62
   179
420
  2234388
370
     9
100
AcDb2dPolyline
 66
     1
 10
0.0
 20
0.0
 30
0.0
  0
VERTEX
  5
C3
330
C2
100
AcDbEntity
  8
_U+30EC_U+30A4_U+30E4_U+30FC 1
 62
   179
420
  2234388
370
     9
100
AcDbVertex
100
AcDb2dVertex
 10
97.96932150192912
 20
-144.9121495202498
 30
0.0
  0
VERTEX
  5
C4
330
C2
100
AcDbEntity
  8
_U+30EC_U+30A4_U+30E4_U+30FC 1
 62
   179
420
  2234388
370
     9
100
AcDbVertex
100
AcDb2dVertex
 10
95.99728425063208
 20
-143.6192267164824
 30
0.0
  0
SEQEND
  5
C5
330
C2
100
AcDbEntity
  8
_U+30EC_U+30A4_U+30E4_U+30FC 1
 62
   179
420
  2234388
370
     9
  0
POLYLINE
  5
C6
330
1F
100
AcDbEntity
  8
_U+30EC_U+30A4_U+30E4_U+30FC 1
370
     0
100
AcDb2dPolyline
 66
     1
 10
0.0
 20
0.0
 30
0.0
  0
VERTEX
  5
C7
330
C6
100
AcDbEntity
  8
_U+30EC_U+30A4_U+30E4_U+30FC 1
370
     0
100
AcDbVertex
100
AcDb2dVertex
 10
97.64655911865476
 20
-145.0433861263914
 30
0.0
  0
VERTEX
  5
C8
330
C6
100
AcDbEntity
  8
_U+30EC_U+30A4_U+30E4_U+30FC 1
370
     0
100
AcDbVertex
100
AcDb2dVertex
 10
98.71229940701681
 20
-145.3951088435883
 30
0.0
  0
VERTEX
  5
C9
330
C6
100
AcDbEntity
  8
_U+30EC_U+30A4_U+30E4_U+30FC 1
370
     0
100
AcDbVertex
100
AcDb2dVertex
 10
97.96475675041115
 20
-144.5576276629712
 30
0.0
  0
VERTEX
  5
CA
330
C6
100
AcDbEntity
  8
_U+30EC_U+30A4_U+30E4_U+30FC 1
370
     0
100
AcDbVertex
100
AcDb2dVertex
 10
97.64655911865476
 20
-145.0433861263914
 30
0.0
  0
SEQEND
  5
CC
330
C6
100
AcDbEntity
  8
_U+30EC_U+30A4_U+30E4_U+30FC 1
370
     0
  0
HATCH
  5
CB
330
1F
100
AcDbEntity
  8
_U+30EC_U+30A4_U+30E4_U+30FC 1
 62
   179
420
  2234388
100
AcDbHatch
 10
0.0
 20
0.0
 30
0.0
210
0.0
220
0.0
230
1.0
  2
SOLID
 70
     1
 71
     0
 91
        1
 92
        1
 93
        3
 72
     1
 10
97.64655911865476
 20
-145.0433861263914
 11
98.71229940701681
 21
-145.3951088435883
 72
     1
 10
98.71229940701681
 20
-145.3951088435883
 11
97.96475675041115
 21
-144.5576276629712
 72
     1
 10
97.96475675041115
 20
-144.5576276629712
 11
97.64655911865476
 21
-145.0433861263914
 97
        0
 75
     2
 76
     1
 98
        0
  0
ENDSEC
  0
SECTION
  2
OBJECTS
  0
DICTIONARY
  5
C
330
0
100
AcDbDictionary
281
     1
  3
ACAD_GROUP
350
D
  3
ACAD_LAYOUT
350
1A
  3
ACAD_MATERIAL
350
3B
  3
ACAD_MLEADERSTYLE
350
CE
  3
ACAD_MLINESTYLE
350
17
  3
ACAD_PLOTSETTINGS
350
19
  3
ACAD_PLOTSTYLENAME
350
E
  3
ACAD_TABLESTYLE
350
CD
  3
ACAD_VISUALSTYLE
350
2A
  0
SUN
  5
3F
330
29
100
AcDbSun
 90
        1
290
     0
 63
     7
421
 16777215
 40
1.0
291
     1
 91
  2455826
 92
 54000000
292
     0
 70
     2
 71
   256
280
     1
  0
DICTIONARY
  5
D
102
{ACAD_REACTORS
330
C
102
}
330
C
100
AcDbDictionary
281
     1
  0
DICTIONARY
  5
1A
102
{ACAD_REACTORS
330
C
102
}
330
C
100
AcDbDictionary
281
     1
  3
Layout1
350
1E
  3
Layout2
350
26
  3
Model
350
22
  0
DICTIONARY
  5
3B
102
{ACAD_REACTORS
330
C
102
}
330
C
100
AcDbDictionary
281
     1
  3
ByBlock
350
3D
  3
ByLayer
350
3C
  3
Global
350
3E
  0
DICTIONARY
  5
CE
102
{ACAD_REACTORS
330
C
102
}
330
C
100
AcDbDictionary
281
     1
  0
DICTIONARY
  5
17
102
{ACAD_REACTORS
330
C
102
}
330
C
100
AcDbDictionary
281
     1
  3
Standard
350
18
  0
DICTIONARY
  5
19
102
{ACAD_REACTORS
330
C
102
}
330
C
100
AcDbDictionary
281
     1
  0
ACDBDICTIONARYWDFLT
  5
E
102
{ACAD_REACTORS
330
C
102
}
330
C
100
AcDbDictionary
281
     1
  3
Normal
350
F
100
AcDbDictionaryWithDefault
340
F
  0
DICTIONARY
  5
CD
102
{ACAD_REACTORS
330
C
102
}
330
C
100
AcDbDictionary
281
     1
  0
DICTIONARY
  5
2A
102
{ACAD_REACTORS
330
C
102
}
330
C
100
AcDbDictionary
281
     1
  3
2dWireframe
350
2F
  3
3D Hidden
350
31
  3
3dWireframe
350
30
  3
Basic
350
32
  3
Brighten
350
36
  3
ColorChange
350
3A
  3
Conceptual
350
34
  3
Dim
350
35
  3
Facepattern
350
39
  3
Flat
350
2B
  3
FlatWithEdges
350
2C
  3
Gouraud
350
2D
  3
GouraudWithEdges
350
2E
  3
Linepattern
350
38
  3
Realistic
350
33
  3
Thicken
350
37
  0
LAYOUT
  5
1E
102
{ACAD_REACTORS
330
1A
102
}
330
1A
100
AcDbPlotSettings
  1

  2
none_device
  4

  6

 40
0.0
 41
0.0
 42
0.0
 43
0.0
 44
0.0
 45
0.0
 46
0.0
 47
0.0
 48
0.0
 49
0.0
140
0.0
141
0.0
142
1.0
143
1.0
 70
   688
 72
     0
 73
     0
 74
     5
  7

 75
    16
 76
     0
 77
     2
 78
   300
147
1.0
148
0.0
149
0.0
100
AcDbLayout
  1
Layout1
 70
     1
 71
     1
 10
0.0
 20
0.0
 11
12.0
 21
9.0
 12
0.0
 22
0.0
 32
0.0
 14
1.000000000000000E+20
 24
1.000000000000000E+20
 34
1.000000000000000E+20
 15
-1.000000000000000E+20
 25
-1.000000000000000E+20
 35
-1.000000000000000E+20
146
0.0
 13
0.0
 23
0.0
 33
0.0
 16
1.0
 26
0.0
 36
0.0
 17
0.0
 27
1.0
 37
0.0
 76
     0
330
1B
  0
LAYOUT
  5
26
102
{ACAD_REACTORS
330
1A
102
}
330
1A
100
AcDbPlotSettings
  1

  2
none_device
  4

  6

 40
0.0
 41
0.0
 42
0.0
 43
0.0
 44
0.0
 45
0.0
 46
0.0
 47
0.0
 48
0.0
 49
0.0
140
0.0
141
0.0
142
1.0
143
1.0
 70
   688
 72
     0
 73
     0
 74
     5
  7

 75
    16
 76
     0
 77
     2
 78
   300
147
1.0
148
0.0
149
0.0
100
AcDbLayout
  1
Layout2
 70
     1
 71
     2
 10
0.0
 20
0.0
 11
0.0
 21
0.0
 12
0.0
 22
0.0
 32
0.0
 14
0.0
 24
0.0
 34
0.0
 15
0.0
 25
0.0
 35
0.0
146
0.0
 13
0.0
 23
0.0
 33
0.0
 16
1.0
 26
0.0
 36
0.0
 17
0.0
 27
1.0
 37
0.0
 76
     0
330
23
  0
LAYOUT
  5
22
102
{ACAD_REACTORS
330
1A
102
}
330
1A
100
AcDbPlotSettings
  1

  2
none_device
  4

  6

 40
0.0
 41
0.0
 42
0.0
 43
0.0
 44
0.0
 45
0.0
 46
0.0
 47
0.0
 48
0.0
 49
0.0
140
0.0
141
0.0
142
1.0
143
1.0
 70
  1712
 72
     0
 73
     0
 74
     0
  7

 75
     0
 76
     0
 77
     2
 78
   300
147
1.0
148
0.0
149
0.0
100
AcDbLayout
  1
Model
 70
     1
 71
     0
 10
0.0
 20
0.0
 11
12.0
 21
9.0
 12
0.0
 22
0.0
 32
0.0
 14
1.000000000000000E+20
 24
1.000000000000000E+20
 34
1.000000000000000E+20
 15
-1.000000000000000E+20
 25
-1.000000000000000E+20
 35
-1.000000000000000E+20
146
0.0
 13
0.0
 23
0.0
 33
0.0
 16
1.0
 26
0.0
 36
0.0
 17
0.0
 27
1.0
 37
0.0
 76
     0
330
1F
331
29
  0
MATERIAL
  5
3D
102
{ACAD_REACTORS
330
3B
102
}
330
3B
100
AcDbMaterial
  1
ByBlock
 72
     1
 94
      127
  0
MATERIAL
  5
3C
102
{ACAD_REACTORS
330
3B
102
}
330
3B
100
AcDbMaterial
  1
ByLayer
 72
     1
 94
      127
  0
MATERIAL
  5
3E
102
{ACAD_REACTORS
330
3B
102
}
330
3B
100
AcDbMaterial
  1
Global
 72
     1
 94
      127
  0
MLINESTYLE
  5
18
102
{ACAD_REACTORS
330
17
102
}
330
17
100
AcDbMlineStyle
  2
Standard
 70
     0
  3

 62
   256
 51
90.0
 52
90.0
 71
     2
 49
0.5
 62
   256
  6
BYLAYER
 49
-0.5
 62
   256
  6
BYLAYER
  0
ACDBPLACEHOLDER
  5
F
102
{ACAD_REACTORS
330
E
102
}
330
E
  0
VISUALSTYLE
  5
2F
102
{ACAD_REACTORS
330
2A
102
}
330
2A
100
AcDbVisualStyle
  2
2dWireframe
 70
     4
177
     2
291
     0
 71
     0
176
     1
 72
     2
176
     1
 73
     0
176
     1
 90
        0
176
     1
 40
-0.6
176
     1
 41
-30.0
176
     1
 62
     5
 63
     7
421
 16777215
176
     1
 74
     1
176
     1
 91
        4
176
     1
 64
     7
176
     1
 65
   257
176
     1
 75
     1
176
     1
175
     1
176
     1
 42
1.0
176
     1
 92
        0
176
     1
 66
   257
176
     1
 43
1.0
176
     1
 76
     1
176
     1
 77
     6
176
     1
 78
     2
176
     1
 67
     7
176
     1
 79
     5
176
     1
170
     0
176
     1
171
     0
176
     1
290
     0
176
     1
 93
        1
176
     1
 44
0.0
176
     1
173
     0
176
     1
  0
VISUALSTYLE
  5
31
102
{ACAD_REACTORS
330
2A
102
}
330
2A
100
AcDbVisualStyle
  2
3D Hidden
 70
     6
177
     2
291
     0
 71
     1
176
     1
 72
     2
176
     1
 73
     2
176
     1
 90
        0
176
     1
 40
-0.6
176
     1
 41
-30.0
176
     1
 62
     5
 63
     7
421
 16777215
176
     1
 74
     2
176
     1
 91
        2
176
     1
 64
     7
176
     1
 65
   257
176
     1
 75
     2
176
     1
175
     1
176
     1
 42
40.0
176
     1
 92
        0
176
     1
 66
   257
176
     1
 43
1.0
176
     1
 76
     1
176
     1
 77
     6
176
     1
 78
     2
176
     1
 67
     7
176
     1
 79
     3
176
     1
170
     0
176
     1
171
     0
176
     1
290
     0
176
     1
 93
        1
176
     1
 44
0.0
176
     1
173
     0
176
     1
  0
VISUALSTYLE
  5
30
102
{ACAD_REACTORS
330
2A
102
}
330
2A
100
AcDbVisualStyle
  2
3dWireframe
 70
     5
177
     2
291
     0
 71
     0
176
     1
 72
     2
176
     1
 73
     0
176
     1
 90
        0
176
     1
 40
-0.6
176
     1
 41
-30.0
176
     1
 62
     5
 63
     7
421
 16777215
176
     1
 74
     1
176
     1
 91
        4
176
     1
 64
     7
176
     1
 65
   257
176
     1
 75
     1
176
     1
175
     1
176
     1
 42
1.0
176
     1
 92
        0
176
     1
 66
   257
176
     1
 43
1.0
176
     1
 76
     1
176
     1
 77
     6
176
     1
 78
     2
176
     1
 67
     7
176
     1
 79
     5
176
     1
170
     0
176
     1
171
     0
176
     1
290
     0
176
     1
 93
        1
176
     1
 44
0.0
176
     1
173
     0
176
     1
  0
VISUALSTYLE
  5
32
102
{ACAD_REACTORS
330
2A
102
}
330
2A
100
AcDbVisualStyle
  2
Basic
 70
     7
177
     2
291
     1
 71
     1
176
     1
 72
     0
176
     1
 73
     1
176
     1
 90
        0
176
     1
 40
-0.6
176
     1
 41
-30.0
176
     1
 62
     5
 63
     7
421
 16777215
176
     1
 74
     0
176
     1
 91
        4
176
     1
 64
     7
176
     1
 65
   257
176
     1
 75
     1
176
     1
175
     1
176
     1
 42
1.0
176
     1
 92
        8
176
     1
 66
     7
176
     1
 43
1.0
176
     1
 76
     1
176
     1
 77
     6
176
     1
 78
     2
176
     1
 67
     7
176
     1
 79
     5
176
     1
170
     0
176
     1
171
     0
176
     1
290
     0
176
     1
 93
        1
176
     1
 44
0.0
176
     1
173
     0
176
     1
  0
VISUALSTYLE
  5
36
102
{ACAD_REACTORS
330
2A
102
}
330
2A
100
AcDbVisualStyle
  2
Brighten
 70
    12
177
     2
291
     1
 71
     2
176
     1
 72
     2
176
     1
 73
     0
176
     1
 90
        0
176
     1
 40
-0.6
176
     1
 41
-30.0
176
     1
 62
     5
 63
     7
421
 16777215
176
     1
 74
     1
176
     1
 91
        4
176
     1
 64
     7
176
     1
 65
   257
176
     1
 75
     1
176
     1
175
     1
176
     1
 42
1.0
176
     1
 92
        8
176
     1
 66
     7
176
     1
 43
1.0
176
     1
 76
     1
176
     1
 77
     6
176
     1
 78
     2
176
     1
 67
     7
176
     1
 79
     5
176
     1
170
     0
176
     1
171
     0
176
     1
290
     0
176
     1
 93
        1
176
     1
 44
50.0
176
     1
173
     0
176
     1
  0
VISUALSTYLE
  5
3A
102
{ACAD_REACTORS
330
2A
102
}
330
2A
100
AcDbVisualStyle
  2
ColorChange
 70
    16
177
     2
291
     1
 71
     2
176
     1
 72
     2
176
     1
 73
     3
176
     1
 90
        0
176
     1
 40
-0.6
176
     1
 41
-30.0
176
     1
 62
     5
 63
     8
421
  8421504
176
     1
 74
     1
176
     1
 91
        4
176
     1
 64
     7
176
     1
 65
   257
176
     1
 75
     1
176
     1
175
     1
176
     1
 42
1.0
176
     1
 92
        8
176
     1
 66
     8
424
  8421504
176
     1
 43
1.0
176
     1
 76
     1
176
     1
 77
     6
176
     1
 78
     2
176
     1
 67
     7
176
     1
 79
     5
176
     1
170
     0
176
     1
171
     0
176
     1
290
     0
176
     1
 93
        1
176
     1
 44
0.0
176
     1
173
     0
176
     1
  0
VISUALSTYLE
  5
34
102
{ACAD_REACTORS
330
2A
102
}
330
2A
100
AcDbVisualStyle
  2
Conceptual
 70
     9
177
     2
291
     0
 71
     3
176
     1
 72
     2
176
     1
 73
     0
176
     1
 90
        0
176
     1
 40
-0.6
176
     1
 41
-30.0
176
     1
 62
     5
 63
     7
421
 16777215
176
     1
 74
     2
176
     1
 91
        2
176
     1
 64
     7
176
     1
 65
   257
176
     1
 75
     1
176
     1
175
     1
176
     1
 42
40.0
176
     1
 92
        8
176
     1
 66
     7
176
     1
 43
1.0
176
     1
 76
     1
176
     1
 77
     6
176
     1
 78
     2
176
     1
 67
     7
176
     1
 79
     3
176
     1
170
     0
176
     1
171
     0
176
     1
290
     0
176
     1
 93
        1
176
     1
 44
0.0
176
     1
173
     0
176
     1
  0
VISUALSTYLE
  5
35
102
{ACAD_REACTORS
330
2A
102
}
330
2A
100
AcDbVisualStyle
  2
Dim
 70
    11
177
     2
291
     1
 71
     2
176
     1
 72
     2
176
     1
 73
     0
176
     1
 90
        0
176
     1
 40
-0.6
176
     1
 41
-30.0
176
     1
 62
     5
 63
     7
421
 16777215
176
     1
 74
     1
176
     1
 91
        4
176
     1
 64
     7
176
     1
 65
   257
176
     1
 75
     1
176
     1
175
     1
176
     1
 42
1.0
176
     1
 92
        8
176
     1
 66
     7
176
     1
 43
1.0
176
     1
 76
     1
176
     1
 77
     6
176
     1
 78
     2
176
     1
 67
     7
176
     1
 79
     5
176
     1
170
     0
176
     1
171
     0
176
     1
290
     0
176
     1
 93
        1
176
     1
 44
-50.0
176
     1
173
     0
176
     1
  0
VISUALSTYLE
  5
39
102
{ACAD_REACTORS
330
2A
102
}
330
2A
100
AcDbVisualStyle
  2
Facepattern
 70
    15
177
     2
291
     1
 71
     2
176
     1
 72
     2
176
     1
 73
     0
176
     1
 90
        0
176
     1
 40
-0.6
176
     1
 41
-30.0
176
     1
 62
     5
 63
     7
421
 16777215
176
     1
 74
     1
176
     1
 91
        4
176
     1
 64
     7
176
     1
 65
   257
176
     1
 75
     1
176
     1
175
     1
176
     1
 42
1.0
176
     1
 92
        8
176
     1
 66
     7
176
     1
 43
1.0
176
     1
 76
     1
176
     1
 77
     6
176
     1
 78
     2
176
     1
 67
     7
176
     1
 79
     5
176
     1
170
     0
176
     1
171
     0
176
     1
290
     0
176
     1
 93
        1
176
     1
 44
0.0
176
     1
173
     0
176
     1
  0
VISUALSTYLE
  5
2B
102
{ACAD_REACTORS
330
2A
102
}
330
2A
100
AcDbVisualStyle
  2
Flat
 70
     0
177
     2
291
     1
 71
     2
176
     1
 72
     1
176
     1
 73
     1
176
     1
 90
        2
176
     1
 40
-0.6
176
     1
 41
30.0
176
     1
 62
     5
 63
     7
421
 16777215
176
     1
 74
     0
176
     1
 91
        4
176
     1
 64
     7
176
     1
 65
   257
176
     1
 75
     1
176
     1
175
     1
176
     1
 42
1.0
176
     1
 92
        8
176
     1
 66
     7
176
     1
 43
1.0
176
     1
 76
     1
176
     1
 77
     6
176
     1
 78
     2
176
     1
 67
     7
176
     1
 79
     5
176
     1
170
     0
176
     1
171
     0
176
     1
290
     0
176
     1
 93
       13
176
     1
 44
0.0
176
     1
173
     0
176
     1
  0
VISUALSTYLE
  5
2C
102
{ACAD_REACTORS
330
2A
102
}
330
2A
100
AcDbVisualStyle
  2
FlatWithEdges
 70
     1
177
     2
291
     1
 71
     2
176
     1
 72
     1
176
     1
 73
     1
176
     1
 90
        2
176
     1
 40
-0.6
176
     1
 41
30.0
176
     1
 62
     5
 63
     7
421
 16777215
176
     1
 74
     1
176
     1
 91
        4
176
     1
 64
     7
176
     1
 65
   257
176
     1
 75
     1
176
     1
175
     1
176
     1
 42
1.0
176
     1
 92
        0
176
     1
 66
   257
176
     1
 43
1.0
176
     1
 76
     1
176
     1
 77
     6
176
     1
 78
     2
176
     1
 67
     7
176
     1
 79
     5
176
     1
170
     0
176
     1
171
     0
176
     1
290
     0
176
     1
 93
       13
176
     1
 44
0.0
176
     1
173
     0
176
     1
  0
VISUALSTYLE
  5
2D
102
{ACAD_REACTORS
330
2A
102
}
330
2A
100
AcDbVisualStyle
  2
Gouraud
 70
     2
177
     2
291
     1
 71
     2
176
     1
 72
     2
176
     1
 73
     1
176
     1
 90
        2
176
     1
 40
-0.6
176
     1
 41
30.0
176
     1
 62
     5
 63
     7
421
 16777215
176
     1
 74
     0
176
     1
 91
        4
176
     1
 64
     7
176
     1
 65
   257
176
     1
 75
     1
176
     1
175
     1
176
     1
 42
1.0
176
     1
 92
        0
176
     1
 66
     7
176
     1
 43
1.0
176
     1
 76
     1
176
     1
 77
     6
176
     1
 78
     2
176
     1
 67
     7
176
     1
 79
     5
176
     1
170
     0
176
     1
171
     0
176
     1
290
     0
176
     1
 93
       13
176
     1
 44
0.0
176
     1
173
     0
176
     1
  0
VISUALSTYLE
  5
2E
102
{ACAD_REACTORS
330
2A
102
}
330
2A
100
AcDbVisualStyle
  2
GouraudWithEdges
 70
     3
177
     2
291
     1
 71
     2
176
     1
 72
     2
176
     1
 73
     1
176
     1
 90
        2
176
     1
 40
-0.6
176
     1
 41
30.0
176
     1
 62
     5
 63
     7
421
 16777215
176
     1
 74
     1
176
     1
 91
        4
176
     1
 64
     7
176
     1
 65
   257
176
     1
 75
     1
176
     1
175
     1
176
     1
 42
1.0
176
     1
 92
        0
176
     1
 66
   257
176
     1
 43
1.0
176
     1
 76
     1
176
     1
 77
     6
176
     1
 78
     2
176
     1
 67
     7
176
     1
 79
     5
176
     1
170
     0
176
     1
171
     0
176
     1
290
     0
176
     1
 93
       13
176
     1
 44
0.0
176
     1
173
     0
176
     1
  0
VISUALSTYLE
  5
38
102
{ACAD_REACTORS
330
2A
102
}
330
2A
100
AcDbVisualStyle
  2
Linepattern
 70
    14
177
     2
291
     1
 71
     2
176
     1
 72
     2
176
     1
 73
     0
176
     1
 90
        0
176
     1
 40
-0.6
176
     1
 41
-30.0
176
     1
 62
     5
 63
     7
421
 16777215
176
     1
 74
     1
176
     1
 91
        4
176
     1
 64
     7
176
     1
 65
   257
176
     1
 75
     7
176
     1
175
     7
176
     1
 42
1.0
176
     1
 92
        8
176
     1
 66
     7
176
     1
 43
1.0
176
     1
 76
     1
176
     1
 77
     6
176
     1
 78
     2
176
     1
 67
     7
176
     1
 79
     5
176
     1
170
     0
176
     1
171
     0
176
     1
290
     0
176
     1
 93
        1
176
     1
 44
0.0
176
     1
173
     0
176
     1
  0
VISUALSTYLE
  5
33
102
{ACAD_REACTORS
330
2A
102
}
330
2A
100
AcDbVisualStyle
  2
Realistic
 70
     8
177
     2
291
     0
 71
     2
176
     1
 72
     2
176
     1
 73
     0
176
     1
 90
        0
176
     1
 40
-0.6
176
     1
 41
-30.0
176
     1
 62
     5
 63
     7
421
 16777215
176
     1
 74
     1
176
     1
 91
        0
176
     1
 64
     7
176
     1
 65
   257
176
     1
 75
     1
176
     1
175
     1
176
     1
 42
1.0
176
     1
 92
        8
176
     1
 66
     8
424
  7895160
176
     1
 43
1.0
176
     1
 76
     1
176
     1
 77
     6
176
     1
 78
     2
176
     1
 67
     7
176
     1
 79
     5
176
     1
170
     0
176
     1
171
     0
176
     1
290
     0
176
     1
 93
       13
176
     1
 44
0.0
176
     1
173
     0
176
     1
  0
VISUALSTYLE
  5
37
102
{ACAD_REACTORS
330
2A
102
}
330
2A
100
AcDbVisualStyle
  2
Thicken
 70
    13
177
     2
291
     1
 71
     2
176
     1
 72
     2
176
     1
 73
     0
176
     1
 90
        0
176
     1
 40
-0.6
176
     1
 41
-30.0
176
     1
 62
     5
 63
     7
421
 16777215
176
     1
 74
     1
176
     1
 91
        4
176
     1
 64
     7
176
     1
 65
   257
176
     1
 75
     1
176
     1
175
     1
176
     1
 42
1.0
176
     1
 92
       12
176
     1
 66
     7
176
     1
 43
1.0
176
     1
 76
     1
176
     1
 77
     6
176
     1
 78
     2
176
     1
 67
     7
176
     1
 79
     5
176
     1
170
     0
176
     1
171
     0
176
     1
290
     0
176
     1
 93
        1
176
     1
 44
0.0
176
     1
173
     0
176
     1
  0
ENDSEC
  0
EOF
