  0
SECTION
  2
HEADER
  9
$ACADVER
  1
AC1024
  9
$ACADMAINTVER
 70
     6
  9
$DWGCODEPAGE
  3
UNDEFINED
  9
$INSBASE
 10
0.0
 20
0.0
 30
0.0
  9
$EXTMIN
 10
1.000000000000000E+20
 20
1.000000000000000E+20
 30
1.000000000000000E+20
  9
$EXTMAX
 10
-1.000000000000000E+20
 20
-1.000000000000000E+20
 30
-1.000000000000000E+20
  9
$LIMMIN
 10
0.0
 20
0.0
  9
$LIMMAX
 10
12.0
 20
9.0
  9
$ORTHOMODE
 70
     0
  9
$REGENMODE
 70
     1
  9
$FILLMODE
 70
     1
  9
$QTEXTMODE
 70
     0
  9
$MIRRTEXT
 70
     1
  9
$LTSCALE
 40
1.0
  9
$ATTMODE
 70
     1
  9
$TEXTSIZE
 40
0.2
  9
$TRACEWID
 40
0.05
  9
$TEXTSTYLE
  7
Standard
  9
$CLAYER
  8
0
  9
$CELTYPE
  6
ByLayer
  9
$CECOLOR
 62
   256
  9
$CELTSCALE
 40
1.0
  9
$DISPSILH
 70
     0
  9
$DIMSCALE
 40
1.0
  9
$DIMASZ
 40
0.18
  9
$DIMEXO
 40
0.0625
  9
$DIMDLI
 40
0.38
  9
$DIMRND
 40
0.0
  9
$DIMDLE
 40
0.0
  9
$DIMEXE
 40
0.18
  9
$DIMTP
 40
0.0
  9
$DIMTM
 40
0.0
  9
$DIMTXT
 40
0.18
  9
$DIMCEN
 40
0.09
  9
$DIMTSZ
 40
0.0
  9
$DIMTOL
 70
     0
  9
$DIMLIM
 70
     0
  9
$DIMTIH
 70
     1
  9
$DIMTOH
 70
     1
  9
$DIMSE1
 70
     0
  9
$DIMSE2
 70
     0
  9
$DIMTAD
 70
     0
  9
$DIMZIN
 70
     0
  9
$DIMBLK
  1

  9
$DIMASO
 70
     1
  9
$DIMSHO
 70
     1
  9
$DIMPOST
  1

  9
$DIMAPOST
  1

  9
$DIMALT
 70
     0
  9
$DIMALTD
 70
     2
  9
$DIMALTF
 40
25.4
  9
$DIMLFAC
 40
1.0
  9
$DIMTOFL
 70
     0
  9
$DIMTVP
 40
0.0
  9
$DIMTIX
 70
     0
  9
$DIMSOXD
 70
     0
  9
$DIMSAH
 70
     0
  9
$DIMBLK1
  1

  9
$DIMBLK2
  1

  9
$DIMSTYLE
  2
Standard
  9
$DIMCLRD
 70
     0
  9
$DIMCLRE
 70
     0
  9
$DIMCLRT
 70
     0
  9
$DIMTFAC
 40
1.0
  9
$DIMGAP
 40
0.09
  9
$DIMJUST
 70
     0
  9
$DIMSD1
 70
     0
  9
$DIMSD2
 70
     0
  9
$DIMTOLJ
 70
     1
  9
$DIMTZIN
 70
     0
  9
$DIMALTZ
 70
     0
  9
$DIMALTTZ
 70
     0
  9
$DIMUPT
 70
     0
  9
$DIMDEC
 70
     4
  9
$DIMTDEC
 70
     4
  9
$DIMALTU
 70
     2
  9
$DIMALTTD
 70
     2
  9
$DIMTXSTY
  7
Standard
  9
$DIMAUNIT
 70
     0
  9
$DIMADEC
 70
     0
  9
$DIMALTRND
 40
0.0
  9
$DIMAZIN
 70
     0
  9
$DIMDSEP
 70
    46
  9
$DIMATFIT
 70
     3
  9
$DIMFRAC
 70
     0
  9
$DIMLDRBLK
  1

  9
$DIMLUNIT
 70
     2
  9
$DIMLWD
 70
    -2
  9
$DIMLWE
 70
    -2
  9
$DIMTMOVE
 70
     0
  9
$DIMFXL
 40
1.0
  9
$DIMFXLON
 70
     0
  9
$DIMJOGANG
 40
0.7853981633974483
  9
$DIMTFILL
 70
     0
  9
$DIMTFILLCLR
 70
     0
  9
$DIMARCSYM
 70
     0
  9
$DIMLTYPE
  6

  9
$DIMLTEX1
  6

  9
$DIMLTEX2
  6

  9
$DIMTXTDIRECTION
 70
     0
  9
$LUNITS
 70
     2
  9
$LUPREC
 70
     4
  9
$SKETCHINC
 40
0.1
  9
$FILLETRAD
 40
0.5
  9
$AUNITS
 70
     0
  9
$AUPREC
 70
     0
  9
$MENU
  1
.
  9
$ELEVATION
 40
0.0
  9
$PELEVATION
 40
0.0
  9
$THICKNESS
 40
0.0
  9
$LIMCHECK
 70
     0
  9
$CHAMFERA
 40
0.5
  9
$CHAMFERB
 40
0.5
  9
$CHAMFERC
 40
1.0
  9
$CHAMFERD
 40
0.0
  9
$SKPOLY
 70
     0
  9
$TDCREATE
 40
2458263.582893519
  9
$TDUCREATE
 40
2458263.207893519
  9
$TDUPDATE
 40
2458263.582893519
  9
$TDUUPDATE
 40
2458263.207893519
  9
$TDINDWG
 40
0.0000000116
  9
$TDUSRTIMER
 40
0.0000000116
  9
$USRTIMER
 70
     1
  9
$ANGBASE
 50
0.0
  9
$ANGDIR
 70
     0
  9
$PDMODE
 70
     0
  9
$PDSIZE
 40
0.0
  9
$PLINEWID
 40
0.0
  9
$SPLFRAME
 70
     0
  9
$SPLINETYPE
 70
     6
  9
$SPLINESEGS
 70
     8
  9
$HANDSEED
  5
E1
  9
$SURFTAB1
 70
     6
  9
$SURFTAB2
 70
     6
  9
$SURFTYPE
 70
     6
  9
$SURFU
 70
     6
  9
$SURFV
 70
     6
  9
$UCSBASE
  2

  9
$UCSNAME
  2

  9
$UCSORG
 10
0.0
 20
0.0
 30
0.0
  9
$UCSXDIR
 10
1.0
 20
0.0
 30
0.0
  9
$UCSYDIR
 10
0.0
 20
1.0
 30
0.0
  9
$UCSORTHOREF
  2

  9
$UCSORTHOVIEW
 70
     0
  9
$UCSORGTOP
 10
0.0
 20
0.0
 30
0.0
  9
$UCSORGBOTTOM
 10
0.0
 20
0.0
 30
0.0
  9
$UCSORGLEFT
 10
0.0
 20
0.0
 30
0.0
  9
$UCSORGRIGHT
 10
0.0
 20
0.0
 30
0.0
  9
$UCSORGFRONT
 10
0.0
 20
0.0
 30
0.0
  9
$UCSORGBACK
 10
0.0
 20
0.0
 30
0.0
  9
$PUCSBASE
  2

  9
$PUCSNAME
  2

  9
$PUCSORG
 10
0.0
 20
0.0
 30
0.0
  9
$PUCSXDIR
 10
1.0
 20
0.0
 30
0.0
  9
$PUCSYDIR
 10
0.0
 20
1.0
 30
0.0
  9
$PUCSORTHOREF
  2

  9
$PUCSORTHOVIEW
 70
     0
  9
$PUCSORGTOP
 10
0.0
 20
0.0
 30
0.0
  9
$PUCSORGBOTTOM
 10
0.0
 20
0.0
 30
0.0
  9
$PUCSORGLEFT
 10
0.0
 20
0.0
 30
0.0
  9
$PUCSORGRIGHT
 10
0.0
 20
0.0
 30
0.0
  9
$PUCSORGFRONT
 10
0.0
 20
0.0
 30
0.0
  9
$PUCSORGBACK
 10
0.0
 20
0.0
 30
0.0
  9
$USERI1
 70
     0
  9
$USERI2
 70
     0
  9
$USERI3
 70
     0
  9
$USERI4
 70
     0
  9
$USERI5
 70
     0
  9
$USERR1
 40
0.0
  9
$USERR2
 40
0.0
  9
$USERR3
 40
0.0
  9
$USERR4
 40
0.0
  9
$USERR5
 40
0.0
  9
$WORLDVIEW
 70
     1
  9
$SHADEDGE
 70
     3
  9
$SHADEDIF
 70
    70
  9
$TILEMODE
 70
     1
  9
$MAXACTVP
 70
    64
  9
$PINSBASE
 10
0.0
 20
0.0
 30
0.0
  9
$PLIMCHECK
 70
     0
  9
$PEXTMIN
 10
1.000000000000000E+20
 20
1.000000000000000E+20
 30
1.000000000000000E+20
  9
$PEXTMAX
 10
-1.000000000000000E+20
 20
-1.000000000000000E+20
 30
-1.000000000000000E+20
  9
$PLIMMIN
 10
0.0
 20
0.0
  9
$PLIMMAX
 10
12.0
 20
9.0
  9
$UNITMODE
 70
     0
  9
$VISRETAIN
 70
     1
  9
$PLINEGEN
 70
     0
  9
$PSLTSCALE
 70
     1
  9
$TREEDEPTH
 70
  3020
  9
$CMLSTYLE
  2
Standard
  9
$CMLJUST
 70
     0
  9
$CMLSCALE
 40
1.0
  9
$PROXYGRAPHICS
 70
     1
  9
$MEASUREMENT
 70
     0
  9
$CELWEIGHT
370
    -1
  9
$ENDCAPS
280
     0
  9
$JOINSTYLE
280
     0
  9
$LWDISPLAY
290
     1
  9
$INSUNITS
 70
     1
  9
$HYPERLINKBASE
  1

  9
$STYLESHEET
  1

  9
$XEDIT
290
     1
  9
$CEPSNTYPE
380
     0
  9
$PSTYLEMODE
290
     1
  9
$FINGERPRINTGUID
  2
{F85B0ADF-2F7E-B9E7-AD31-9B20577FE29A}
  9
$VERSIONGUID
  2
{FAEB1C32-E019-11D5-929B-00C0DF256EC4}
  9
$EXTNAMES
290
     1
  9
$PSVPSCALE
 40
0.0
  9
$OLESTARTUP
290
     0
  9
$SORTENTS
280
   127
  9
$INDEXCTL
280
     0
  9
$HIDETEXT
280
     1
  9
$XCLIPFRAME
280
     2
  9
$HALOGAP
280
     0
  9
$OBSCOLOR
 70
   257
  9
$OBSLTYPE
280
     0
  9
$INTERSECTIONDISPLAY
280
     0
  9
$INTERSECTIONCOLOR
 70
   257
  9
$DIMASSOC
280
     2
  9
$PROJECTNAME
  1

  9
$CAMERADISPLAY
290
     0
  9
$LENSLENGTH
 40
50.0
  9
$CAMERAHEIGHT
 40
0.0
  9
$STEPSPERSEC
 40
2.0
  9
$STEPSIZE
 40
6.0
  9
$3DDWFPREC
 40
2.0
  9
$PSOLWIDTH
 40
0.25
  9
$PSOLHEIGHT
 40
4.0
  9
$LOFTANG1
 40
1.570796326794897
  9
$LOFTANG2
 40
1.570796326794897
  9
$LOFTMAG1
 40
0.0
  9
$LOFTMAG2
 40
0.0
  9
$LOFTPARAM
 70
     7
  9
$LOFTNORMALS
280
     1
  9
$LATITUDE
 40
37.795
  9
$LONGITUDE
 40
-122.394
  9
$NORTHDIRECTION
 40
0.0
  9
$TIMEZONE
 70
 -8000
  9
$LIGHTGLYPHDISPLAY
280
     1
  9
$TILEMODELIGHTSYNCH
280
     1
  9
$CMATERIAL
347
3C
  9
$SOLIDHIST
280
     1
  9
$SHOWHIST
280
     1
  9
$DWFFRAME
280
     2
  9
$DGNFRAME
280
     2
  9
$REALWORLDSCALE
290
     1
  9
$INTERFERECOLOR
 62
   256
  9
$CSHADOW
280
     0
  9
$SHADOWPLANELOCATION
 40
0.0
  0
ENDSEC
  0
SECTION
  2
CLASSES
  0
CLASS
  1
ACDBDICTIONARYWDFLT
  2
AcDbDictionaryWithDefault
  3
ObjectDBX Classes
 90
        0
 91
        4
280
     0
281
     0
  0
CLASS
  1
VISUALSTYLE
  2
AcDbVisualStyle
  3
ObjectDBX Classes
 90
     4095
 91
        4
280
     0
281
     0
  0
CLASS
  1
MATERIAL
  2
AcDbMaterial
  3
ObjectDBX Classes
 90
     1153
 91
        4
280
     0
281
     0
  0
CLASS
  1
SUN
  2
AcDbSun
  3
SCENEOE
 90
     1024
 91
        4
280
     0
281
     0
  0
ENDSEC
  0
SECTION
  2
TABLES
  0
TABLE
  2
VPORT
  5
8
330
0
100
AcDbSymbolTable
 70
     1
  0
VPORT
  5
29
330
8
100
AcDbSymbolTableRecord
100
AcDbViewportTableRecord
  2
*Active
 70
     0
 10
0.0
 20
0.0
 11
1.0
 21
1.0
 12
0.0
 22
0.0
 13
0.0
 23
0.0
 14
0.5
 24
0.5
 15
0.5
 25
0.5
 16
0.0
 26
0.0
 36
1.0
 17
105.0007777515277
 27
-148.5000416295416
 37
0.0
 40
297.0000832590831
 41
0.7070757462376333
 42
50.0
 43
0.0
 44
0.0
 50
0.0
 51
0.0
 71
     0
 72
   100
 73
     1
 74
     3
 75
     0
 76
     0
 77
     0
 78
     0
281
     0
 65
     1
110
0.0
120
0.0
130
0.0
111
1.0
121
0.0
131
0.0
112
0.0
122
1.0
132
0.0
 79
     0
146
0.0
 60
     3
 61
     5
292
     1
282
     1
141
0.0
142
0.0
 63
   250
361
3F
  0
ENDTAB
  0
TABLE
  2
LTYPE
  5
5
330
0
100
AcDbSymbolTable
 70
     1
  0
LTYPE
  5
14
330
5
100
AcDbSymbolTableRecord
100
AcDbLinetypeTableRecord
  2
ByBlock
 70
     0
  3

 72
    65
 73
     0
 40
0.0
  0
LTYPE
  5
15
330
5
100
AcDbSymbolTableRecord
100
AcDbLinetypeTableRecord
  2
ByLayer
 70
     0
  3

 72
    65
 73
     0
 40
0.0
  0
LTYPE
  5
16
330
5
100
AcDbSymbolTableRecord
100
AcDbLinetypeTableRecord
  2
Continuous
 70
     0
  3
Solid line
 72
    65
 73
     0
 40
0.0
  0
ENDTAB
  0
TABLE
  2
LAYER
  5
2
330
0
100
AcDbSymbolTable
 70
     2
  0
LAYER
  5
10
330
2
100
AcDbSymbolTableRecord
100
AcDbLayerTableRecord
  2
0
 70
     0
 62
     7
  6
Continuous
370
    -3
390
F
347
3E
  0
LAYER
  5
40
330
2
100
AcDbSymbolTableRecord
100
AcDbLayerTableRecord
  2
_U+30EC_U+30A4_U+30E4_U+30FC 1
 70
     0
 62
     7
  6
Continuous
370
    -3
390
F
347
3E
  0
ENDTAB
  0
TABLE
  2
STYLE
  5
3
330
0
100
AcDbSymbolTable
 70
     1
  0
STYLE
  5
11
330
3
100
AcDbSymbolTableRecord
100
AcDbTextStyleTableRecord
  2
Standard
 70
     0
 40
0.0
 41
1.0
 50
0.0
 71
     0
 42
0.2
  3
txt
  4

  0
ENDTAB
  0
TABLE
  2
VIEW
  5
6
330
0
100
AcDbSymbolTable
 70
     0
  0
ENDTAB
  0
TABLE
  2
UCS
  5
7
330
0
100
AcDbSymbolTable
 70
     0
  0
ENDTAB
  0
TABLE
  2
APPID
  5
9
330
0
100
AcDbSymbolTable
 70
     1
  0
APPID
  5
12
330
9
100
AcDbSymbolTableRecord
100
AcDbRegAppTableRecord
  2
ACAD
 70
     0
  0
ENDTAB
  0
TABLE
  2
DIMSTYLE
  5
A
330
0
100
AcDbSymbolTable
 70
     1
100
AcDbDimStyleTable
  0
DIMSTYLE
105
27
330
A
100
AcDbSymbolTableRecord
100
AcDbDimStyleTableRecord
  2
Standard
 70
     0
178
     0
340
11
  0
ENDTAB
  0
TABLE
  2
BLOCK_RECORD
  5
1
330
0
100
AcDbSymbolTable
 70
     7
  0
BLOCK_RECORD
  5
1F
330
1
100
AcDbSymbolTableRecord
100
AcDbBlockTableRecord
  2
*Model_Space
340
22
 70
     0
280
     1
281
     0
  0
BLOCK_RECORD
  5
1B
330
1
100
AcDbSymbolTableRecord
100
AcDbBlockTableRecord
  2
*Paper_Space
340
1E
 70
     0
280
     1
281
     0
  0
BLOCK_RECORD
  5
23
330
1
100
AcDbSymbolTableRecord
100
AcDbBlockTableRecord
  2
*Paper_Space0
340
26
 70
     0
280
     1
281
     0
  0
BLOCK_RECORD
  5
52
330
1
100
AcDbSymbolTableRecord
100
AcDbBlockTableRecord
  2
block 2
340
0
102
{BLKREFS
331
53
102
}
 70
     0
280
     1
281
     0
  0
BLOCK_RECORD
  5
70
330
1
100
AcDbSymbolTableRecord
100
AcDbBlockTableRecord
  2
block 3
340
0
102
{BLKREFS
331
71
102
}
 70
     0
280
     1
281
     0
  0
BLOCK_RECORD
  5
93
330
1
100
AcDbSymbolTableRecord
100
AcDbBlockTableRecord
  2
block 4
340
0
102
{BLKREFS
331
94
102
}
 70
     0
280
     1
281
     0
  0
BLOCK_RECORD
  5
A3
330
1
100
AcDbSymbolTableRecord
100
AcDbBlockTableRecord
  2
block 5
340
0
102
{BLKREFS
331
A4
102
}
 70
     0
280
     1
281
     0
  0
BLOCK_RECORD
  5
B3
330
1
100
AcDbSymbolTableRecord
100
AcDbBlockTableRecord
  2
block 6
340
0
102
{BLKREFS
331
B4
102
}
 70
     0
280
     1
281
     0
  0
BLOCK_RECORD
  5
C1
330
1
100
AcDbSymbolTableRecord
100
AcDbBlockTableRecord
  2
block 7
340
0
102
{BLKREFS
331
C2
102
}
 70
     0
280
     1
281
     0
  0
ENDTAB
  0
ENDSEC
  0
SECTION
  2
BLOCKS
  0
BLOCK
  5
20
330
1F
100
AcDbEntity
  8
0
100
AcDbBlockBegin
  2
*Model_Space
 70
     0
 10
0.0
 20
0.0
 30
0.0
  3
*Model_Space
  1

  0
ENDBLK
  5
21
330
1F
100
AcDbEntity
  8
0
100
AcDbBlockEnd
  0
BLOCK
  5
1C
330
1B
100
AcDbEntity
 67
     1
  8
0
100
AcDbBlockBegin
  2
*Paper_Space
 70
     0
 10
0.0
 20
0.0
 30
0.0
  3
*Paper_Space
  1

  0
ENDBLK
  5
1D
330
1B
100
AcDbEntity
 67
     1
  8
0
100
AcDbBlockEnd
  0
BLOCK
  5
24
330
23
100
AcDbEntity
  8
0
100
AcDbBlockBegin
  2
*Paper_Space0
 70
     0
 10
0.0
 20
0.0
 30
0.0
  3
*Paper_Space0
  1

  0
ENDBLK
  5
25
330
23
100
AcDbEntity
  8
0
100
AcDbBlockEnd
  0
BLOCK
  5
54
330
52
100
AcDbEntity
  8
0
100
AcDbBlockBegin
  2
block 2
 70
     0
 10
0.0
 20
0.0
 30
0.0
  3
block 2
  1

  0
SPLINE
  5
56
330
52
100
AcDbEntity
  8
_U+30EC_U+30A4_U+30E4_U+30FC 1
370
     0
100
AcDbSpline
210
0.0
220
0.0
230
1.0
 70
    11
 71
     3
 72
    44
 73
    40
 74
     0
 42
0.0000000001
 43
0.0000000001
 12
1.0
 22
0.0
 32
0.0
 13
1.0
 23
0.0
 33
0.0
 40
0.0
 40
0.0
 40
0.0
 40
0.0
 40
1.0
 40
1.0
 40
1.0
 40
2.0
 40
2.0
 40
2.0
 40
3.0
 40
3.0
 40
3.0
 40
4.0
 40
4.0
 40
4.0
 40
5.0
 40
5.0
 40
5.0
 40
6.0
 40
6.0
 40
6.0
 40
7.0
 40
7.0
 40
7.0
 40
8.0
 40
8.0
 40
8.0
 40
9.0
 40
9.0
 40
9.0
 40
10.0
 40
10.0
 40
10.0
 40
11.0
 40
11.0
 40
11.0
 40
12.0
 40
12.0
 40
12.0
 40
13.0
 40
13.0
 40
13.0
 40
13.0
 10
101.0791015372302
 20
-155.7465657162717
 30
0.0
 10
100.8462130824273
 20
-155.9050401085932
 30
0.0
 10
100.7468220776779
 20
-155.9791096615261
 30
0.0
 10
100.6948011358506
 20
-156.1231146528095
 30
0.0
 10
100.6948011358506
 20
-156.1231146528095
 30
0.0
 10
101.5267916955384
 20
-156.1231146528095
 30
0.0
 10
101.5267916955384
 20
-156.1231146528095
 30
0.0
 10
101.5267916955384
 20
-156.1231146528095
 30
0.0
 10
101.5267916955384
 20
-156.3280978341819
 30
0.0
 10
101.5267916955384
 20
-156.3280978341819
 30
0.0
 10
101.5267916955384
 20
-156.3280978341819
 30
0.0
 10
100.427978490518
 20
-156.3280978341819
 30
0.0
 10
100.427978490518
 20
-156.3280978341819
 30
0.0
 10
100.4619126810477
 20
-155.9704969228129
 30
0.0
 10
100.5320203741726
 20
-155.8922932552978
 30
0.0
 10
100.9435370298856
 20
-155.5939479862751
 30
0.0
 10
101.2170776114145
 20
-155.3951659767762
 30
0.0
 10
101.2871853045393
 20
-155.3276421052653
 30
0.0
 10
101.2871853045393
 20
-155.1901827954038
 30
0.0
 10
101.2871853045393
 20
-155.0716715107113
 30
0.0
 10
101.2103596752182
 20
-154.9404133727232
 30
0.0
 10
101.0000365958437
 20
-154.9404133727232
 30
0.0
 10
100.7218451354098
 20
-154.9404133727232
 30
0.0
 10
100.7128878871482
 20
-155.1708902606865
 30
0.0
 10
100.7084092630173
 20
-155.2873344880879
 30
0.0
 10
100.7084092630173
 20
-155.2873344880879
 30
0.0
 10
100.468630617244
 20
-155.2873344880879
 30
0.0
 10
100.468630617244
 20
-155.2873344880879
 30
0.0
 10
100.4777601202799
 20
-155.1605549742307
 30
0.0
 10
100.4891289353812
 20
-155.0482448614115
 30
0.0
 10
100.5749118129639
 20
-154.929733576719
 30
0.0
 10
100.6925618237852
 20
-154.7691921271063
 30
0.0
 10
100.8915160880584
 20
-154.7350856818024
 30
0.0
 10
101.0158840350759
 20
-154.7350856818024
 30
0.0
 10
101.3119899920331
 20
-154.7350856818024
 30
0.0
 10
101.5335096317347
 20
-154.9193982902632
 30
0.0
 10
101.5335096317347
 20
-155.192249852695
 30
0.0
 10
101.5335096317347
 20
-155.4206596833671
 30
0.0
 10
101.4091416847172
 20
-155.5202229428908
 30
0.0
 10
101.0791015372302
 20
-155.7465657162717
 30
0.0
  0
HATCH
  5
57
330
52
100
AcDbEntity
  8
_U+30EC_U+30A4_U+30E4_U+30FC 1
 62
   179
420
  2234388
100
AcDbHatch
 10
0.0
 20
0.0
 30
0.0
210
0.0
220
0.0
230
1.0
  2
SOLID
 70
     1
 71
     0
 91
        1
 92
        1
 93
        1
 72
     4
 94
        3
 73
     0
 74
     1
 95
       44
 96
       40
 40
0.0
 40
0.0
 40
0.0
 40
0.0
 40
1.0
 40
1.0
 40
1.0
 40
2.0
 40
2.0
 40
2.0
 40
3.0
 40
3.0
 40
3.0
 40
4.0
 40
4.0
 40
4.0
 40
5.0
 40
5.0
 40
5.0
 40
6.0
 40
6.0
 40
6.0
 40
7.0
 40
7.0
 40
7.0
 40
8.0
 40
8.0
 40
8.0
 40
9.0
 40
9.0
 40
9.0
 40
10.0
 40
10.0
 40
10.0
 40
11.0
 40
11.0
 40
11.0
 40
12.0
 40
12.0
 40
12.0
 40
13.0
 40
13.0
 40
13.0
 40
13.0
 10
101.0791015372302
 20
-155.7465657162717
 10
100.8462130824273
 20
-155.9050401085932
 10
100.7468220776779
 20
-155.9791096615261
 10
100.6948011358506
 20
-156.1231146528095
 10
100.6948011358506
 20
-156.1231146528095
 10
101.5267916955384
 20
-156.1231146528095
 10
101.5267916955384
 20
-156.1231146528095
 10
101.5267916955384
 20
-156.1231146528095
 10
101.5267916955384
 20
-156.3280978341819
 10
101.5267916955384
 20
-156.3280978341819
 10
101.5267916955384
 20
-156.3280978341819
 10
100.427978490518
 20
-156.3280978341819
 10
100.427978490518
 20
-156.3280978341819
 10
100.4619126810477
 20
-155.9704969228129
 10
100.5320203741726
 20
-155.8922932552978
 10
100.9435370298856
 20
-155.5939479862751
 10
101.2170776114145
 20
-155.3951659767762
 10
101.2871853045393
 20
-155.3276421052653
 10
101.2871853045393
 20
-155.1901827954038
 10
101.2871853045393
 20
-155.0716715107113
 10
101.2103596752182
 20
-154.9404133727232
 10
101.0000365958437
 20
-154.9404133727232
 10
100.7218451354098
 20
-154.9404133727232
 10
100.7128878871482
 20
-155.1708902606865
 10
100.7084092630173
 20
-155.2873344880879
 10
100.7084092630173
 20
-155.2873344880879
 10
100.468630617244
 20
-155.2873344880879
 10
100.468630617244
 20
-155.2873344880879
 10
100.4777601202799
 20
-155.1605549742307
 10
100.4891289353812
 20
-155.0482448614115
 10
100.5749118129639
 20
-154.929733576719
 10
100.6925618237852
 20
-154.7691921271063
 10
100.8915160880584
 20
-154.7350856818024
 10
101.0158840350759
 20
-154.7350856818024
 10
101.3119899920331
 20
-154.7350856818024
 10
101.5335096317347
 20
-154.9193982902632
 10
101.5335096317347
 20
-155.192249852695
 10
101.5335096317347
 20
-155.4206596833671
 10
101.4091416847172
 20
-155.5202229428908
 10
101.0791015372302
 20
-155.7465657162717
 97
        0
 97
        0
 75
     2
 76
     1
 98
        0
  0
SPLINE
  5
58
330
52
100
AcDbEntity
  8
_U+30EC_U+30A4_U+30E4_U+30FC 1
370
     0
100
AcDbSpline
210
0.0
220
0.0
230
1.0
 70
    11
 71
     3
 72
    29
 73
    25
 74
     0
 42
0.0000000001
 43
0.0000000001
 12
1.0
 22
0.0
 32
0.0
 13
1.0
 23
0.0
 33
0.0
 40
0.0
 40
0.0
 40
0.0
 40
0.0
 40
1.0
 40
1.0
 40
1.0
 40
2.0
 40
2.0
 40
2.0
 40
3.0
 40
3.0
 40
3.0
 40
4.0
 40
4.0
 40
4.0
 40
5.0
 40
5.0
 40
5.0
 40
6.0
 40
6.0
 40
6.0
 40
7.0
 40
7.0
 40
7.0
 40
8.0
 40
8.0
 40
8.0
 40
8.0
 10
102.6624674222511
 20
-156.150330907143
 30
0.0
 10
102.5472289782694
 20
-156.3597927126462
 30
0.0
 10
102.361882841163
 20
-156.3790852473636
 30
0.0
 10
102.2375148941455
 20
-156.3790852473636
 30
0.0
 10
102.0656046294315
 20
-156.3790852473636
 30
0.0
 10
101.9141926828548
 20
-156.3325764583127
 30
0.0
 10
101.8123901112657
 20
-156.150330907143
 30
0.0
 10
101.7016302914149
 20
-155.9556830122264
 30
0.0
 10
101.6813042280519
 20
-155.7190049523897
 30
0.0
 10
101.6813042280519
 20
-155.5560519359374
 30
0.0
 10
101.6813042280519
 20
-155.412046944654
 30
0.0
 10
101.6993909793495
 20
-155.1605549742307
 30
0.0
 10
101.8123901112657
 20
-154.9614284551833
 30
0.0
 10
101.9278008100215
 20
-154.7585123311021
 30
0.0
 10
102.0995388199612
 20
-154.7350856818024
 30
0.0
 10
102.2375148941455
 20
-154.7350856818024
 30
0.0
 10
102.4070135920198
 20
-154.7350856818024
 30
0.0
 10
102.5608371054362
 20
-154.7795274135621
 30
0.0
 10
102.6624674222511
 20
-154.9614284551833
 30
0.0
 10
102.768748617971
 20
-155.1540092928087
 30
0.0
 10
102.7937255602391
 20
-155.3824191234808
 30
0.0
 10
102.7937255602391
 20
-155.5560519359374
 30
0.0
 10
102.7937255602391
 20
-155.7272731815543
 30
0.0
 10
102.7709879300364
 20
-155.958094579066
 30
0.0
 10
102.6624674222511
 20
-156.150330907143
 30
0.0
  0
SPLINE
  5
59
330
52
100
AcDbEntity
  8
_U+30EC_U+30A4_U+30E4_U+30FC 1
370
     0
100
AcDbSpline
210
0.0
220
0.0
230
1.0
 70
    11
 71
     3
 72
    17
 73
    13
 74
     0
 42
0.0000000001
 43
0.0000000001
 12
1.0
 22
0.0
 32
0.0
 13
1.0
 23
0.0
 33
0.0
 40
0.0
 40
0.0
 40
0.0
 40
0.0
 40
1.0
 40
1.0
 40
1.0
 40
2.0
 40
2.0
 40
2.0
 40
3.0
 40
3.0
 40
3.0
 40
4.0
 40
4.0
 40
4.0
 40
4.0
 10
102.2375148941455
 20
-154.9276665194278
 30
0.0
 10
101.9706922488129
 20
-154.9276665194278
 30
0.0
 10
101.920910619051
 20
-155.2111978778639
 30
0.0
 10
101.920910619051
 20
-155.5560519359374
 30
0.0
 10
101.920910619051
 20
-155.87541228742
 30
0.0
 10
101.9593234337116
 20
-156.184437352447
 30
0.0
 10
102.2375148941455
 20
-156.184437352447
 30
0.0
 10
102.5019259726384
 20
-156.184437352447
 30
0.0
 10
102.5539469144657
 20
-155.902973051302
 30
0.0
 10
102.5539469144657
 20
-155.5560519359374
 30
0.0
 10
102.5539469144657
 20
-155.2366915844547
 30
0.0
 10
102.5132947877397
 20
-154.9276665194278
 30
0.0
 10
102.2375148941455
 20
-154.9276665194278
 30
0.0
  0
HATCH
  5
5A
330
52
100
AcDbEntity
  8
_U+30EC_U+30A4_U+30E4_U+30FC 1
 62
   179
420
  2234388
100
AcDbHatch
 10
0.0
 20
0.0
 30
0.0
210
0.0
220
0.0
230
1.0
  2
SOLID
 70
     1
 71
     0
 91
        2
 92
        1
 93
        1
 72
     4
 94
        3
 73
     0
 74
     1
 95
       29
 96
       25
 40
0.0
 40
0.0
 40
0.0
 40
0.0
 40
1.0
 40
1.0
 40
1.0
 40
2.0
 40
2.0
 40
2.0
 40
3.0
 40
3.0
 40
3.0
 40
4.0
 40
4.0
 40
4.0
 40
5.0
 40
5.0
 40
5.0
 40
6.0
 40
6.0
 40
6.0
 40
7.0
 40
7.0
 40
7.0
 40
8.0
 40
8.0
 40
8.0
 40
8.0
 10
102.6624674222511
 20
-156.150330907143
 10
102.5472289782694
 20
-156.3597927126462
 10
102.361882841163
 20
-156.3790852473636
 10
102.2375148941455
 20
-156.3790852473636
 10
102.0656046294315
 20
-156.3790852473636
 10
101.9141926828548
 20
-156.3325764583127
 10
101.8123901112657
 20
-156.150330907143
 10
101.7016302914149
 20
-155.9556830122264
 10
101.6813042280519
 20
-155.7190049523897
 10
101.6813042280519
 20
-155.5560519359374
 10
101.6813042280519
 20
-155.412046944654
 10
101.6993909793495
 20
-155.1605549742307
 10
101.8123901112657
 20
-154.9614284551833
 10
101.9278008100215
 20
-154.7585123311021
 10
102.0995388199612
 20
-154.7350856818024
 10
102.2375148941455
 20
-154.7350856818024
 10
102.4070135920198
 20
-154.7350856818024
 10
102.5608371054362
 20
-154.7795274135621
 10
102.6624674222511
 20
-154.9614284551833
 10
102.768748617971
 20
-155.1540092928087
 10
102.7937255602391
 20
-155.3824191234808
 10
102.7937255602391
 20
-155.5560519359374
 10
102.7937255602391
 20
-155.7272731815543
 10
102.7709879300364
 20
-155.958094579066
 10
102.6624674222511
 20
-156.150330907143
 97
        0
 97
        0
 92
        1
 93
        1
 72
     4
 94
        3
 73
     0
 74
     1
 95
       17
 96
       13
 40
0.0
 40
0.0
 40
0.0
 40
0.0
 40
1.0
 40
1.0
 40
1.0
 40
2.0
 40
2.0
 40
2.0
 40
3.0
 40
3.0
 40
3.0
 40
4.0
 40
4.0
 40
4.0
 40
4.0
 10
102.2375148941455
 20
-154.9276665194278
 10
101.9706922488129
 20
-154.9276665194278
 10
101.920910619051
 20
-155.2111978778639
 10
101.920910619051
 20
-155.5560519359374
 10
101.920910619051
 20
-155.87541228742
 10
101.9593234337116
 20
-156.184437352447
 10
102.2375148941455
 20
-156.184437352447
 10
102.5019259726384
 20
-156.184437352447
 10
102.5539469144657
 20
-155.902973051302
 10
102.5539469144657
 20
-155.5560519359374
 10
102.5539469144657
 20
-155.2366915844547
 10
102.5132947877397
 20
-154.9276665194278
 10
102.2375148941455
 20
-154.9276665194278
 97
        0
 97
        0
 75
     2
 76
     1
 98
        0
  0
ENDBLK
  5
55
330
52
100
AcDbEntity
  8
0
100
AcDbBlockEnd
  0
BLOCK
  5
72
330
70
100
AcDbEntity
  8
0
100
AcDbBlockBegin
  2
block 3
 70
     0
 10
0.0
 20
0.0
 30
0.0
  3
block 3
  1

  0
POLYLINE
  5
74
330
70
100
AcDbEntity
  8
_U+30EC_U+30A4_U+30E4_U+30FC 1
370
     0
100
AcDb2dPolyline
 66
     1
 10
0.0
 20
0.0
 30
0.0
  0
VERTEX
  5
75
330
74
100
AcDbEntity
  8
_U+30EC_U+30A4_U+30E4_U+30FC 1
370
     0
100
AcDbVertex
100
AcDb2dVertex
 10
118.1254339982464
 20
-150.1331271326056
 30
0.0
  0
VERTEX
  5
76
330
74
100
AcDbEntity
  8
_U+30EC_U+30A4_U+30E4_U+30FC 1
370
     0
100
AcDbVertex
100
AcDb2dVertex
 10
118.4723551136111
 20
-150.1331271326056
 30
0.0
  0
VERTEX
  5
77
330
74
100
AcDbEntity
  8
_U+30EC_U+30A4_U+30E4_U+30FC 1
370
     0
100
AcDbVertex
100
AcDb2dVertex
 10
118.4723551136111
 20
-150.36567107786
 30
0.0
  0
VERTEX
  5
78
330
74
100
AcDbEntity
  8
_U+30EC_U+30A4_U+30E4_U+30FC 1
370
     0
100
AcDbVertex
100
AcDb2dVertex
 10
118.1254339982464
 20
-150.36567107786
 30
0.0
  0
VERTEX
  5
79
330
74
100
AcDbEntity
  8
_U+30EC_U+30A4_U+30E4_U+30FC 1
370
     0
100
AcDbVertex
100
AcDb2dVertex
 10
118.1254339982464
 20
-151.0667480091083
 30
0.0
  0
VERTEX
  5
7A
330
74
100
AcDbEntity
  8
_U+30EC_U+30A4_U+30E4_U+30FC 1
370
     0
100
AcDbVertex
100
AcDb2dVertex
 10
117.9011582821567
 20
-151.0667480091083
 30
0.0
  0
VERTEX
  5
7B
330
74
100
AcDbEntity
  8
_U+30EC_U+30A4_U+30E4_U+30FC 1
370
     0
100
AcDbVertex
100
AcDb2dVertex
 10
116.9279188075736
 20
-150.3408663903662
 30
0.0
  0
VERTEX
  5
7C
330
74
100
AcDbEntity
  8
_U+30EC_U+30A4_U+30E4_U+30FC 1
370
     0
100
AcDbVertex
100
AcDb2dVertex
 10
116.9279188075736
 20
-150.1331271326056
 30
0.0
  0
VERTEX
  5
7D
330
74
100
AcDbEntity
  8
_U+30EC_U+30A4_U+30E4_U+30FC 1
370
     0
100
AcDbVertex
100
AcDb2dVertex
 10
117.926307479199
 20
-150.1331271326056
 30
0.0
  0
VERTEX
  5
7E
330
74
100
AcDbEntity
  8
_U+30EC_U+30A4_U+30E4_U+30FC 1
370
     0
100
AcDbVertex
100
AcDb2dVertex
 10
117.926307479199
 20
-149.9112629833555
 30
0.0
  0
VERTEX
  5
7F
330
74
100
AcDbEntity
  8
_U+30EC_U+30A4_U+30E4_U+30FC 1
370
     0
100
AcDbVertex
100
AcDb2dVertex
 10
118.1254339982464
 20
-149.9112629833555
 30
0.0
  0
VERTEX
  5
80
330
74
100
AcDbEntity
  8
_U+30EC_U+30A4_U+30E4_U+30FC 1
370
     0
100
AcDbVertex
100
AcDb2dVertex
 10
118.1254339982464
 20
-150.1331271326056
 30
0.0
  0
SEQEND
  5
81
330
74
100
AcDbEntity
  8
_U+30EC_U+30A4_U+30E4_U+30FC 1
370
     0
  0
POLYLINE
  5
82
330
70
100
AcDbEntity
  8
_U+30EC_U+30A4_U+30E4_U+30FC 1
370
     0
100
AcDb2dPolyline
 66
     1
 10
0.0
 20
0.0
 30
0.0
  0
VERTEX
  5
83
330
82
100
AcDbEntity
  8
_U+30EC_U+30A4_U+30E4_U+30FC 1
370
     0
100
AcDbVertex
100
AcDb2dVertex
 10
117.2707058083559
 20
-150.36567107786
 30
0.0
  0
VERTEX
  5
84
330
82
100
AcDbEntity
  8
_U+30EC_U+30A4_U+30E4_U+30FC 1
370
     0
100
AcDbVertex
100
AcDb2dVertex
 10
117.926307479199
 20
-150.8541856176684
 30
0.0
  0
VERTEX
  5
85
330
82
100
AcDbEntity
  8
_U+30EC_U+30A4_U+30E4_U+30FC 1
370
     0
100
AcDbVertex
100
AcDb2dVertex
 10
117.926307479199
 20
-150.36567107786
 30
0.0
  0
VERTEX
  5
86
330
82
100
AcDbEntity
  8
_U+30EC_U+30A4_U+30E4_U+30FC 1
370
     0
100
AcDbVertex
100
AcDb2dVertex
 10
117.2707058083559
 20
-150.36567107786
 30
0.0
  0
SEQEND
  5
87
330
82
100
AcDbEntity
  8
_U+30EC_U+30A4_U+30E4_U+30FC 1
370
     0
  0
HATCH
  5
88
330
70
100
AcDbEntity
  8
_U+30EC_U+30A4_U+30E4_U+30FC 1
 62
   179
420
  2234388
100
AcDbHatch
 10
0.0
 20
0.0
 30
0.0
210
0.0
220
0.0
230
1.0
  2
SOLID
 70
     1
 71
     0
 91
        2
 92
        1
 93
       11
 72
     1
 10
118.1254339982464
 20
-150.1331271326056
 11
118.4723551136111
 21
-150.1331271326056
 72
     1
 10
118.4723551136111
 20
-150.1331271326056
 11
118.4723551136111
 21
-150.36567107786
 72
     1
 10
118.4723551136111
 20
-150.36567107786
 11
118.1254339982464
 21
-150.36567107786
 72
     1
 10
118.1254339982464
 20
-150.36567107786
 11
118.1254339982464
 21
-151.0667480091083
 72
     1
 10
118.1254339982464
 20
-151.0667480091083
 11
117.9011582821567
 21
-151.0667480091083
 72
     1
 10
117.9011582821567
 20
-151.0667480091083
 11
116.9279188075736
 21
-150.3408663903662
 72
     1
 10
116.9279188075736
 20
-150.3408663903662
 11
116.9279188075736
 21
-150.1331271326056
 72
     1
 10
116.9279188075736
 20
-150.1331271326056
 11
117.926307479199
 21
-150.1331271326056
 72
     1
 10
117.926307479199
 20
-150.1331271326056
 11
117.926307479199
 21
-149.9112629833555
 72
     1
 10
117.926307479199
 20
-149.9112629833555
 11
118.1254339982464
 21
-149.9112629833555
 72
     1
 10
118.1254339982464
 20
-149.9112629833555
 11
118.1254339982464
 21
-150.1331271326056
 97
        0
 92
        1
 93
        3
 72
     1
 10
117.2707058083559
 20
-150.36567107786
 11
117.926307479199
 21
-150.8541856176684
 72
     1
 10
117.926307479199
 20
-150.8541856176684
 11
117.926307479199
 21
-150.36567107786
 72
     1
 10
117.926307479199
 20
-150.36567107786
 11
117.2707058083559
 21
-150.36567107786
 97
        0
 75
     2
 76
     1
 98
        0
  0
POLYLINE
  5
89
330
70
100
AcDbEntity
  8
_U+30EC_U+30A4_U+30E4_U+30FC 1
370
     0
100
AcDb2dPolyline
 66
     1
 10
0.0
 20
0.0
 30
0.0
  0
VERTEX
  5
8A
330
89
100
AcDbEntity
  8
_U+30EC_U+30A4_U+30E4_U+30FC 1
370
     0
100
AcDbVertex
100
AcDb2dVertex
 10
118.4723551136111
 20
-149.7004231396582
 30
0.0
  0
VERTEX
  5
8B
330
89
100
AcDbEntity
  8
_U+30EC_U+30A4_U+30E4_U+30FC 1
370
     0
100
AcDbVertex
100
AcDb2dVertex
 10
118.2205186336393
 20
-149.7004231396582
 30
0.0
  0
VERTEX
  5
8C
330
89
100
AcDbEntity
  8
_U+30EC_U+30A4_U+30E4_U+30FC 1
370
     0
100
AcDbVertex
100
AcDb2dVertex
 10
118.2205186336393
 20
-149.4310166727117
 30
0.0
  0
VERTEX
  5
8D
330
89
100
AcDbEntity
  8
_U+30EC_U+30A4_U+30E4_U+30FC 1
370
     0
100
AcDbVertex
100
AcDb2dVertex
 10
118.4723551136111
 20
-149.4310166727117
 30
0.0
  0
VERTEX
  5
8E
330
89
100
AcDbEntity
  8
_U+30EC_U+30A4_U+30E4_U+30FC 1
370
     0
100
AcDbVertex
100
AcDb2dVertex
 10
118.4723551136111
 20
-149.7004231396582
 30
0.0
  0
SEQEND
  5
8F
330
89
100
AcDbEntity
  8
_U+30EC_U+30A4_U+30E4_U+30FC 1
370
     0
  0
HATCH
  5
90
330
70
100
AcDbEntity
  8
_U+30EC_U+30A4_U+30E4_U+30FC 1
 62
   179
420
  2234388
100
AcDbHatch
 10
0.0
 20
0.0
 30
0.0
210
0.0
220
0.0
230
1.0
  2
SOLID
 70
     1
 71
     0
 91
        1
 92
        1
 93
        4
 72
     1
 10
118.4723551136111
 20
-149.7004231396582
 11
118.2205186336393
 21
-149.7004231396582
 72
     1
 10
118.2205186336393
 20
-149.7004231396582
 11
118.2205186336393
 21
-149.4310166727117
 72
     1
 10
118.2205186336393
 20
-149.4310166727117
 11
118.4723551136111
 21
-149.4310166727117
 72
     1
 10
118.4723551136111
 20
-149.4310166727117
 11
118.4723551136111
 21
-149.7004231396582
 97
        0
 75
     2
 76
     1
 98
        0
  0
SPLINE
  5
91
330
70
100
AcDbEntity
  8
_U+30EC_U+30A4_U+30E4_U+30FC 1
370
     0
100
AcDbSpline
210
0.0
220
0.0
230
1.0
 70
    11
 71
     3
 72
    53
 73
    49
 74
     0
 42
0.0000000001
 43
0.0000000001
 12
1.0
 22
0.0
 32
0.0
 13
1.0
 23
0.0
 33
0.0
 40
0.0
 40
0.0
 40
0.0
 40
0.0
 40
1.0
 40
1.0
 40
1.0
 40
2.0
 40
2.0
 40
2.0
 40
3.0
 40
3.0
 40
3.0
 40
4.0
 40
4.0
 40
4.0
 40
5.0
 40
5.0
 40
5.0
 40
6.0
 40
6.0
 40
6.0
 40
7.0
 40
7.0
 40
7.0
 40
8.0
 40
8.0
 40
8.0
 40
9.0
 40
9.0
 40
9.0
 40
10.0
 40
10.0
 40
10.0
 40
11.0
 40
11.0
 40
11.0
 40
12.0
 40
12.0
 40
12.0
 40
13.0
 40
13.0
 40
13.0
 40
14.0
 40
14.0
 40
14.0
 40
15.0
 40
15.0
 40
15.0
 40
16.0
 40
16.0
 40
16.0
 40
16.0
 10
118.5229980172443
 20
-148.6644829272436
 30
0.0
 10
118.5229980172443
 20
-148.7481987475352
 30
0.0
 10
118.5061170493665
 20
-148.8567192553205
 30
0.0
 10
118.4427272924379
 20
-148.9652397631059
 30
0.0
 10
118.3328287464585
 20
-149.1505859002123
 30
0.0
 10
118.2015706084704
 20
-149.173323530415
 30
0.0
 10
118.0937391197821
 20
-149.193649593778
 30
0.0
 10
118.0937391197821
 20
-149.193649593778
 30
0.0
 10
118.0937391197821
 20
-148.9562825148443
 30
0.0
 10
118.0937391197821
 20
-148.9562825148443
 30
0.0
 10
118.292521129281
 20
-148.8973713820465
 30
0.0
 10
118.3221489504542
 20
-148.7618068747019
 30
0.0
 10
118.3221489504542
 20
-148.6622436151782
 30
0.0
 10
118.3221489504542
 20
-148.5130709806669
 30
0.0
 10
118.2225856909305
 20
-148.3502902189888
 30
0.0
 10
117.9900417456761
 20
-148.3502902189888
 30
0.0
 10
117.734071151122
 20
-148.3502902189888
 30
0.0
 10
117.66448022232
 20
-148.5425265470658
 30
0.0
 10
117.66448022232
 20
-148.6713731182141
 30
0.0
 10
117.66448022232
 20
-148.7053073087438
 30
0.0
 10
117.66448022232
 20
-148.8567192553205
 30
0.0
 10
117.7933267934683
 20
-148.9514593811649
 30
0.0
 10
117.7933267934683
 20
-148.9514593811649
 30
0.0
 10
117.7740342587509
 20
-149.1395615946596
 30
0.0
 10
117.7740342587509
 20
-149.1395615946596
 30
0.0
 10
117.7740342587509
 20
-149.1395615946596
 30
0.0
 10
116.9279188075736
 20
-149.0103705139627
 30
0.0
 10
116.9279188075736
 20
-149.0103705139627
 30
0.0
 10
116.9279188075736
 20
-149.0103705139627
 30
0.0
 10
116.9279188075736
 20
-148.1783799542748
 30
0.0
 10
116.9279188075736
 20
-148.1783799542748
 30
0.0
 10
116.9279188075736
 20
-148.1783799542748
 30
0.0
 10
117.1229112120387
 20
-148.1783799542748
 30
0.0
 10
117.1229112120387
 20
-148.1783799542748
 30
0.0
 10
117.1229112120387
 20
-148.1783799542748
 30
0.0
 10
117.1229112120387
 20
-148.8363931919576
 30
0.0
 10
117.1229112120387
 20
-148.8363931919576
 30
0.0
 10
117.1229112120387
 20
-148.8363931919576
 30
0.0
 10
117.5459689376274
 20
-148.9066731398567
 30
0.0
 10
117.5459689376274
 20
-148.9066731398567
 30
0.0
 10
117.5118624923234
 20
-148.8408718160884
 30
0.0
 10
117.471554875146
 20
-148.752677371666
 30
0.0
 10
117.471554875146
 20
-148.6260701125831
 30
0.0
 10
117.471554875146
 20
-148.3547688431196
 30
0.0
 10
117.657934540898
 20
-148.1015543249538
 30
0.0
 10
117.9710937205072
 20
-148.1015543249538
 30
0.0
 10
118.2883870146987
 20
-148.1015543249538
 30
0.0
 10
118.5229980172443
 20
-148.3413329707272
 30
0.0
 10
118.5229980172443
 20
-148.6644829272436
 30
0.0
  0
HATCH
  5
92
330
70
100
AcDbEntity
  8
_U+30EC_U+30A4_U+30E4_U+30FC 1
 62
   179
420
  2234388
100
AcDbHatch
 10
0.0
 20
0.0
 30
0.0
210
0.0
220
0.0
230
1.0
  2
SOLID
 70
     1
 71
     0
 91
        1
 92
        1
 93
        1
 72
     4
 94
        3
 73
     0
 74
     1
 95
       53
 96
       49
 40
0.0
 40
0.0
 40
0.0
 40
0.0
 40
1.0
 40
1.0
 40
1.0
 40
2.0
 40
2.0
 40
2.0
 40
3.0
 40
3.0
 40
3.0
 40
4.0
 40
4.0
 40
4.0
 40
5.0
 40
5.0
 40
5.0
 40
6.0
 40
6.0
 40
6.0
 40
7.0
 40
7.0
 40
7.0
 40
8.0
 40
8.0
 40
8.0
 40
9.0
 40
9.0
 40
9.0
 40
10.0
 40
10.0
 40
10.0
 40
11.0
 40
11.0
 40
11.0
 40
12.0
 40
12.0
 40
12.0
 40
13.0
 40
13.0
 40
13.0
 40
14.0
 40
14.0
 40
14.0
 40
15.0
 40
15.0
 40
15.0
 40
16.0
 40
16.0
 40
16.0
 40
16.0
 10
118.5229980172443
 20
-148.6644829272436
 10
118.5229980172443
 20
-148.7481987475352
 10
118.5061170493665
 20
-148.8567192553205
 10
118.4427272924379
 20
-148.9652397631059
 10
118.3328287464585
 20
-149.1505859002123
 10
118.2015706084704
 20
-149.173323530415
 10
118.0937391197821
 20
-149.193649593778
 10
118.0937391197821
 20
-149.193649593778
 10
118.0937391197821
 20
-148.9562825148443
 10
118.0937391197821
 20
-148.9562825148443
 10
118.292521129281
 20
-148.8973713820465
 10
118.3221489504542
 20
-148.7618068747019
 10
118.3221489504542
 20
-148.6622436151782
 10
118.3221489504542
 20
-148.5130709806669
 10
118.2225856909305
 20
-148.3502902189888
 10
117.9900417456761
 20
-148.3502902189888
 10
117.734071151122
 20
-148.3502902189888
 10
117.66448022232
 20
-148.5425265470658
 10
117.66448022232
 20
-148.6713731182141
 10
117.66448022232
 20
-148.7053073087438
 10
117.66448022232
 20
-148.8567192553205
 10
117.7933267934683
 20
-148.9514593811649
 10
117.7933267934683
 20
-148.9514593811649
 10
117.7740342587509
 20
-149.1395615946596
 10
117.7740342587509
 20
-149.1395615946596
 10
117.7740342587509
 20
-149.1395615946596
 10
116.9279188075736
 20
-149.0103705139627
 10
116.9279188075736
 20
-149.0103705139627
 10
116.9279188075736
 20
-149.0103705139627
 10
116.9279188075736
 20
-148.1783799542748
 10
116.9279188075736
 20
-148.1783799542748
 10
116.9279188075736
 20
-148.1783799542748
 10
117.1229112120387
 20
-148.1783799542748
 10
117.1229112120387
 20
-148.1783799542748
 10
117.1229112120387
 20
-148.1783799542748
 10
117.1229112120387
 20
-148.8363931919576
 10
117.1229112120387
 20
-148.8363931919576
 10
117.1229112120387
 20
-148.8363931919576
 10
117.5459689376274
 20
-148.9066731398567
 10
117.5459689376274
 20
-148.9066731398567
 10
117.5118624923234
 20
-148.8408718160884
 10
117.471554875146
 20
-148.752677371666
 10
117.471554875146
 20
-148.6260701125831
 10
117.471554875146
 20
-148.3547688431196
 10
117.657934540898
 20
-148.1015543249538
 10
117.9710937205072
 20
-148.1015543249538
 10
118.2883870146987
 20
-148.1015543249538
 10
118.5229980172443
 20
-148.3413329707272
 10
118.5229980172443
 20
-148.6644829272436
 97
        0
 97
        0
 75
     2
 76
     1
 98
        0
  0
ENDBLK
  5
73
330
70
100
AcDbEntity
  8
0
100
AcDbBlockEnd
  0
BLOCK
  5
95
330
93
100
AcDbEntity
  8
0
100
AcDbBlockBegin
  2
block 4
 70
     0
 10
0.0
 20
0.0
 30
0.0
  3
block 4
  1

  0
SPLINE
  5
97
330
93
100
AcDbEntity
  8
_U+30EC_U+30A4_U+30E4_U+30FC 1
370
     0
100
AcDbSpline
210
0.0
220
0.0
230
1.0
 70
    11
 71
     3
 72
    26
 73
    22
 74
     0
 42
0.0000000001
 43
0.0000000001
 12
1.0
 22
0.0
 32
0.0
 13
1.0
 23
0.0
 33
0.0
 40
0.0
 40
0.0
 40
0.0
 40
0.0
 40
1.0
 40
1.0
 40
1.0
 40
2.0
 40
2.0
 40
2.0
 40
3.0
 40
3.0
 40
3.0
 40
4.0
 40
4.0
 40
4.0
 40
5.0
 40
5.0
 40
5.0
 40
6.0
 40
6.0
 40
6.0
 40
7.0
 40
7.0
 40
7.0
 40
7.0
 10
114.2390217813361
 20
-147.7186319617683
 30
0.0
 10
114.2390217813361
 20
-147.7186319617683
 30
0.0
 10
113.134524168765
 20
-147.7186319617683
 30
0.0
 10
113.134524168765
 20
-147.7186319617683
 30
0.0
 10
113.134524168765
 20
-147.7186319617683
 30
0.0
 10
113.134524168765
 20
-148.0714097394578
 30
0.0
 10
113.134524168765
 20
-148.0714097394578
 30
0.0
 10
113.134524168765
 20
-148.0714097394578
 30
0.0
 10
112.9863850628992
 20
-148.0714097394578
 30
0.0
 10
112.9863850628992
 20
-148.0714097394578
 30
0.0
 10
112.9719156618612
 20
-147.7163926497028
 30
0.0
 10
112.8089626454089
 20
-147.666611019941
 30
0.0
 10
112.6945854752986
 20
-147.6350883962509
 30
0.0
 10
112.6945854752986
 20
-147.6350883962509
 30
0.0
 10
112.6945854752986
 20
-147.4790255707692
 30
0.0
 10
112.6945854752986
 20
-147.4790255707692
 30
0.0
 10
112.6945854752986
 20
-147.4790255707692
 30
0.0
 10
114.2390217813361
 20
-147.4790255707692
 30
0.0
 10
114.2390217813361
 20
-147.4790255707692
 30
0.0
 10
114.2390217813361
 20
-147.4790255707692
 30
0.0
 10
114.2390217813361
 20
-147.7186319617683
 30
0.0
 10
114.2390217813361
 20
-147.7186319617683
 30
0.0
  0
HATCH
  5
98
330
93
100
AcDbEntity
  8
_U+30EC_U+30A4_U+30E4_U+30FC 1
 62
   179
420
  2234388
100
AcDbHatch
 10
0.0
 20
0.0
 30
0.0
210
0.0
220
0.0
230
1.0
  2
SOLID
 70
     1
 71
     0
 91
        1
 92
        1
 93
        1
 72
     4
 94
        3
 73
     0
 74
     1
 95
       26
 96
       22
 40
0.0
 40
0.0
 40
0.0
 40
0.0
 40
1.0
 40
1.0
 40
1.0
 40
2.0
 40
2.0
 40
2.0
 40
3.0
 40
3.0
 40
3.0
 40
4.0
 40
4.0
 40
4.0
 40
5.0
 40
5.0
 40
5.0
 40
6.0
 40
6.0
 40
6.0
 40
7.0
 40
7.0
 40
7.0
 40
7.0
 10
114.2390217813361
 20
-147.7186319617683
 10
114.2390217813361
 20
-147.7186319617683
 10
113.134524168765
 20
-147.7186319617683
 10
113.134524168765
 20
-147.7186319617683
 10
113.134524168765
 20
-147.7186319617683
 10
113.134524168765
 20
-148.0714097394578
 10
113.134524168765
 20
-148.0714097394578
 10
113.134524168765
 20
-148.0714097394578
 10
112.9863850628992
 20
-148.0714097394578
 10
112.9863850628992
 20
-148.0714097394578
 10
112.9719156618612
 20
-147.7163926497028
 10
112.8089626454089
 20
-147.666611019941
 10
112.6945854752986
 20
-147.6350883962509
 10
112.6945854752986
 20
-147.6350883962509
 10
112.6945854752986
 20
-147.4790255707692
 10
112.6945854752986
 20
-147.4790255707692
 10
112.6945854752986
 20
-147.4790255707692
 10
114.2390217813361
 20
-147.4790255707692
 10
114.2390217813361
 20
-147.4790255707692
 10
114.2390217813361
 20
-147.4790255707692
 10
114.2390217813361
 20
-147.7186319617683
 10
114.2390217813361
 20
-147.7186319617683
 97
        0
 97
        0
 75
     2
 76
     1
 98
        0
  0
POLYLINE
  5
99
330
93
100
AcDbEntity
  8
_U+30EC_U+30A4_U+30E4_U+30FC 1
370
     0
100
AcDb2dPolyline
 66
     1
 10
0.0
 20
0.0
 30
0.0
  0
VERTEX
  5
9A
330
99
100
AcDbEntity
  8
_U+30EC_U+30A4_U+30E4_U+30FC 1
370
     0
100
AcDbVertex
100
AcDb2dVertex
 10
114.2390217813361
 20
-146.8790621920129
 30
0.0
  0
VERTEX
  5
9B
330
99
100
AcDbEntity
  8
_U+30EC_U+30A4_U+30E4_U+30FC 1
370
     0
100
AcDbVertex
100
AcDb2dVertex
 10
113.9871853013643
 20
-146.8790621920129
 30
0.0
  0
VERTEX
  5
9C
330
99
100
AcDbEntity
  8
_U+30EC_U+30A4_U+30E4_U+30FC 1
370
     0
100
AcDbVertex
100
AcDb2dVertex
 10
113.9871853013643
 20
-146.6100002346149
 30
0.0
  0
VERTEX
  5
9D
330
99
100
AcDbEntity
  8
_U+30EC_U+30A4_U+30E4_U+30FC 1
370
     0
100
AcDbVertex
100
AcDb2dVertex
 10
114.2390217813361
 20
-146.6100002346149
 30
0.0
  0
VERTEX
  5
9E
330
99
100
AcDbEntity
  8
_U+30EC_U+30A4_U+30E4_U+30FC 1
370
     0
100
AcDbVertex
100
AcDb2dVertex
 10
114.2390217813361
 20
-146.8790621920129
 30
0.0
  0
SEQEND
  5
9F
330
99
100
AcDbEntity
  8
_U+30EC_U+30A4_U+30E4_U+30FC 1
370
     0
  0
HATCH
  5
A0
330
93
100
AcDbEntity
  8
_U+30EC_U+30A4_U+30E4_U+30FC 1
 62
   179
420
  2234388
100
AcDbHatch
 10
0.0
 20
0.0
 30
0.0
210
0.0
220
0.0
230
1.0
  2
SOLID
 70
     1
 71
     0
 91
        1
 92
        1
 93
        4
 72
     1
 10
114.2390217813361
 20
-146.8790621920129
 11
113.9871853013643
 21
-146.8790621920129
 72
     1
 10
113.9871853013643
 20
-146.8790621920129
 11
113.9871853013643
 21
-146.6100002346149
 72
     1
 10
113.9871853013643
 20
-146.6100002346149
 11
114.2390217813361
 21
-146.6100002346149
 72
     1
 10
114.2390217813361
 20
-146.6100002346149
 11
114.2390217813361
 21
-146.8790621920129
 97
        0
 75
     2
 76
     1
 98
        0
  0
SPLINE
  5
A1
330
93
100
AcDbEntity
  8
_U+30EC_U+30A4_U+30E4_U+30FC 1
370
     0
100
AcDbSpline
210
0.0
220
0.0
230
1.0
 70
    11
 71
     3
 72
    53
 73
    49
 74
     0
 42
0.0000000001
 43
0.0000000001
 12
1.0
 22
0.0
 32
0.0
 13
1.0
 23
0.0
 33
0.0
 40
0.0
 40
0.0
 40
0.0
 40
0.0
 40
1.0
 40
1.0
 40
1.0
 40
2.0
 40
2.0
 40
2.0
 40
3.0
 40
3.0
 40
3.0
 40
4.0
 40
4.0
 40
4.0
 40
5.0
 40
5.0
 40
5.0
 40
6.0
 40
6.0
 40
6.0
 40
7.0
 40
7.0
 40
7.0
 40
8.0
 40
8.0
 40
8.0
 40
9.0
 40
9.0
 40
9.0
 40
10.0
 40
10.0
 40
10.0
 40
11.0
 40
11.0
 40
11.0
 40
12.0
 40
12.0
 40
12.0
 40
13.0
 40
13.0
 40
13.0
 40
14.0
 40
14.0
 40
14.0
 40
15.0
 40
15.0
 40
15.0
 40
16.0
 40
16.0
 40
16.0
 40
16.0
 10
114.2896646849693
 20
-145.8432942343725
 30
0.0
 10
114.2896646849693
 20
-145.9270100546641
 30
0.0
 10
114.2727837170915
 20
-146.0355305624495
 30
0.0
 10
114.2093939601629
 20
-146.1440510702348
 30
0.0
 10
114.0991509046349
 20
-146.3293972073413
 30
0.0
 10
113.9682372761955
 20
-146.3521348375439
 30
0.0
 10
113.8604057875071
 20
-146.3724609009069
 30
0.0
 10
113.8604057875071
 20
-146.3724609009069
 30
0.0
 10
113.8604057875071
 20
-146.1350938219732
 30
0.0
 10
113.8604057875071
 20
-146.1350938219732
 30
0.0
 10
114.059187797006
 20
-146.0761826891754
 30
0.0
 10
114.0888156181792
 20
-145.9406181818308
 30
0.0
 10
114.0888156181792
 20
-145.8410549223071
 30
0.0
 10
114.0888156181792
 20
-145.6918822877958
 30
0.0
 10
113.9892523586555
 20
-145.5291015261177
 30
0.0
 10
113.7567084134011
 20
-145.5291015261177
 30
0.0
 10
113.500737818847
 20
-145.5291015261177
 30
0.0
 10
113.4308023804965
 20
-145.7213378541947
 30
0.0
 10
113.4308023804965
 20
-145.850184425343
 30
0.0
 10
113.4308023804965
 20
-145.8841186158727
 30
0.0
 10
113.4308023804965
 20
-146.0355305624495
 30
0.0
 10
113.5599934611933
 20
-146.1304429430681
 30
0.0
 10
113.5599934611933
 20
-146.1304429430681
 30
0.0
 10
113.5407009264759
 20
-146.3182006470142
 30
0.0
 10
113.5407009264759
 20
-146.3182006470142
 30
0.0
 10
113.5407009264759
 20
-146.3182006470142
 30
0.0
 10
112.6945854752986
 20
-146.1891818210916
 30
0.0
 10
112.6945854752986
 20
-146.1891818210916
 30
0.0
 10
112.6945854752986
 20
-146.1891818210916
 30
0.0
 10
112.6945854752986
 20
-145.3571912614038
 30
0.0
 10
112.6945854752986
 20
-145.3571912614038
 30
0.0
 10
112.6945854752986
 20
-145.3571912614038
 30
0.0
 10
112.8892333702152
 20
-145.3571912614038
 30
0.0
 10
112.8892333702152
 20
-145.3571912614038
 30
0.0
 10
112.8892333702152
 20
-145.3571912614038
 30
0.0
 10
112.8892333702152
 20
-146.0152044990865
 30
0.0
 10
112.8892333702152
 20
-146.0152044990865
 30
0.0
 10
112.8892333702152
 20
-146.0152044990865
 30
0.0
 10
113.3122910958039
 20
-146.0853121922113
 30
0.0
 10
113.3122910958039
 20
-146.0853121922113
 30
0.0
 10
113.2785291600484
 20
-146.0196831232173
 30
0.0
 10
113.238221542871
 20
-145.9314886787949
 30
0.0
 10
113.238221542871
 20
-145.804881419712
 30
0.0
 10
113.238221542871
 20
-145.5335801502486
 30
0.0
 10
113.424601208623
 20
-145.2803656320827
 30
0.0
 10
113.7374158786837
 20
-145.2803656320827
 30
0.0
 10
114.0550536824237
 20
-145.2803656320827
 30
0.0
 10
114.2896646849693
 20
-145.5201442778561
 30
0.0
 10
114.2896646849693
 20
-145.8432942343725
 30
0.0
  0
HATCH
  5
A2
330
93
100
AcDbEntity
  8
_U+30EC_U+30A4_U+30E4_U+30FC 1
 62
   179
420
  2234388
100
AcDbHatch
 10
0.0
 20
0.0
 30
0.0
210
0.0
220
0.0
230
1.0
  2
SOLID
 70
     1
 71
     0
 91
        1
 92
        1
 93
        1
 72
     4
 94
        3
 73
     0
 74
     1
 95
       53
 96
       49
 40
0.0
 40
0.0
 40
0.0
 40
0.0
 40
1.0
 40
1.0
 40
1.0
 40
2.0
 40
2.0
 40
2.0
 40
3.0
 40
3.0
 40
3.0
 40
4.0
 40
4.0
 40
4.0
 40
5.0
 40
5.0
 40
5.0
 40
6.0
 40
6.0
 40
6.0
 40
7.0
 40
7.0
 40
7.0
 40
8.0
 40
8.0
 40
8.0
 40
9.0
 40
9.0
 40
9.0
 40
10.0
 40
10.0
 40
10.0
 40
11.0
 40
11.0
 40
11.0
 40
12.0
 40
12.0
 40
12.0
 40
13.0
 40
13.0
 40
13.0
 40
14.0
 40
14.0
 40
14.0
 40
15.0
 40
15.0
 40
15.0
 40
16.0
 40
16.0
 40
16.0
 40
16.0
 10
114.2896646849693
 20
-145.8432942343725
 10
114.2896646849693
 20
-145.9270100546641
 10
114.2727837170915
 20
-146.0355305624495
 10
114.2093939601629
 20
-146.1440510702348
 10
114.0991509046349
 20
-146.3293972073413
 10
113.9682372761955
 20
-146.3521348375439
 10
113.8604057875071
 20
-146.3724609009069
 10
113.8604057875071
 20
-146.3724609009069
 10
113.8604057875071
 20
-146.1350938219732
 10
113.8604057875071
 20
-146.1350938219732
 10
114.059187797006
 20
-146.0761826891754
 10
114.0888156181792
 20
-145.9406181818308
 10
114.0888156181792
 20
-145.8410549223071
 10
114.0888156181792
 20
-145.6918822877958
 10
113.9892523586555
 20
-145.5291015261177
 10
113.7567084134011
 20
-145.5291015261177
 10
113.500737818847
 20
-145.5291015261177
 10
113.4308023804965
 20
-145.7213378541947
 10
113.4308023804965
 20
-145.850184425343
 10
113.4308023804965
 20
-145.8841186158727
 10
113.4308023804965
 20
-146.0355305624495
 10
113.5599934611933
 20
-146.1304429430681
 10
113.5599934611933
 20
-146.1304429430681
 10
113.5407009264759
 20
-146.3182006470142
 10
113.5407009264759
 20
-146.3182006470142
 10
113.5407009264759
 20
-146.3182006470142
 10
112.6945854752986
 20
-146.1891818210916
 10
112.6945854752986
 20
-146.1891818210916
 10
112.6945854752986
 20
-146.1891818210916
 10
112.6945854752986
 20
-145.3571912614038
 10
112.6945854752986
 20
-145.3571912614038
 10
112.6945854752986
 20
-145.3571912614038
 10
112.8892333702152
 20
-145.3571912614038
 10
112.8892333702152
 20
-145.3571912614038
 10
112.8892333702152
 20
-145.3571912614038
 10
112.8892333702152
 20
-146.0152044990865
 10
112.8892333702152
 20
-146.0152044990865
 10
112.8892333702152
 20
-146.0152044990865
 10
113.3122910958039
 20
-146.0853121922113
 10
113.3122910958039
 20
-146.0853121922113
 10
113.2785291600484
 20
-146.0196831232173
 10
113.238221542871
 20
-145.9314886787949
 10
113.238221542871
 20
-145.804881419712
 10
113.238221542871
 20
-145.5335801502486
 10
113.424601208623
 20
-145.2803656320827
 10
113.7374158786837
 20
-145.2803656320827
 10
114.0550536824237
 20
-145.2803656320827
 10
114.2896646849693
 20
-145.5201442778561
 10
114.2896646849693
 20
-145.8432942343725
 97
        0
 97
        0
 75
     2
 76
     1
 98
        0
  0
ENDBLK
  5
96
330
93
100
AcDbEntity
  8
0
100
AcDbBlockEnd
  0
BLOCK
  5
A5
330
A3
100
AcDbEntity
  8
0
100
AcDbBlockBegin
  2
block 5
 70
     0
 10
0.0
 20
0.0
 30
0.0
  3
block 5
  1

  0
SPLINE
  5
A7
330
A3
100
AcDbEntity
  8
_U+30EC_U+30A4_U+30E4_U+30FC 1
370
     0
100
AcDbSpline
210
0.0
220
0.0
230
1.0
 70
    11
 71
     3
 72
    26
 73
    22
 74
     0
 42
0.0000000001
 43
0.0000000001
 12
1.0
 22
0.0
 32
0.0
 13
1.0
 23
0.0
 33
0.0
 40
0.0
 40
0.0
 40
0.0
 40
0.0
 40
1.0
 40
1.0
 40
1.0
 40
2.0
 40
2.0
 40
2.0
 40
3.0
 40
3.0
 40
3.0
 40
4.0
 40
4.0
 40
4.0
 40
5.0
 40
5.0
 40
5.0
 40
6.0
 40
6.0
 40
6.0
 40
7.0
 40
7.0
 40
7.0
 40
7.0
 10
114.2390217813361
 20
-152.3469454914272
 30
0.0
 10
114.2390217813361
 20
-152.3469454914272
 30
0.0
 10
113.1348686783135
 20
-152.3469454914272
 30
0.0
 10
113.1348686783135
 20
-152.3469454914272
 30
0.0
 10
113.1348686783135
 20
-152.3469454914272
 30
0.0
 10
113.1348686783135
 20
-152.6997232691167
 30
0.0
 10
113.1348686783135
 20
-152.6997232691167
 30
0.0
 10
113.1348686783135
 20
-152.6997232691167
 30
0.0
 10
112.9867295724478
 20
-152.6997232691167
 30
0.0
 10
112.9867295724478
 20
-152.6997232691167
 30
0.0
 10
112.9719156618612
 20
-152.344878434136
 30
0.0
 10
112.8089626454089
 20
-152.2952690591484
 30
0.0
 10
112.6945854752986
 20
-152.2635741806841
 30
0.0
 10
112.6945854752986
 20
-152.2635741806841
 30
0.0
 10
112.6945854752986
 20
-152.1075113552023
 30
0.0
 10
112.6945854752986
 20
-152.1075113552023
 30
0.0
 10
112.6945854752986
 20
-152.1075113552023
 30
0.0
 10
114.2390217813361
 20
-152.1075113552023
 30
0.0
 10
114.2390217813361
 20
-152.1075113552023
 30
0.0
 10
114.2390217813361
 20
-152.1075113552023
 30
0.0
 10
114.2390217813361
 20
-152.3469454914272
 30
0.0
 10
114.2390217813361
 20
-152.3469454914272
 30
0.0
  0
HATCH
  5
A8
330
A3
100
AcDbEntity
  8
_U+30EC_U+30A4_U+30E4_U+30FC 1
 62
   179
420
  2234388
100
AcDbHatch
 10
0.0
 20
0.0
 30
0.0
210
0.0
220
0.0
230
1.0
  2
SOLID
 70
     1
 71
     0
 91
        1
 92
        1
 93
        1
 72
     4
 94
        3
 73
     0
 74
     1
 95
       26
 96
       22
 40
0.0
 40
0.0
 40
0.0
 40
0.0
 40
1.0
 40
1.0
 40
1.0
 40
2.0
 40
2.0
 40
2.0
 40
3.0
 40
3.0
 40
3.0
 40
4.0
 40
4.0
 40
4.0
 40
5.0
 40
5.0
 40
5.0
 40
6.0
 40
6.0
 40
6.0
 40
7.0
 40
7.0
 40
7.0
 40
7.0
 10
114.2390217813361
 20
-152.3469454914272
 10
114.2390217813361
 20
-152.3469454914272
 10
113.1348686783135
 20
-152.3469454914272
 10
113.1348686783135
 20
-152.3469454914272
 10
113.1348686783135
 20
-152.3469454914272
 10
113.1348686783135
 20
-152.6997232691167
 10
113.1348686783135
 20
-152.6997232691167
 10
113.1348686783135
 20
-152.6997232691167
 10
112.9867295724478
 20
-152.6997232691167
 10
112.9867295724478
 20
-152.6997232691167
 10
112.9719156618612
 20
-152.344878434136
 10
112.8089626454089
 20
-152.2952690591484
 10
112.6945854752986
 20
-152.2635741806841
 10
112.6945854752986
 20
-152.2635741806841
 10
112.6945854752986
 20
-152.1075113552023
 10
112.6945854752986
 20
-152.1075113552023
 10
112.6945854752986
 20
-152.1075113552023
 10
114.2390217813361
 20
-152.1075113552023
 10
114.2390217813361
 20
-152.1075113552023
 10
114.2390217813361
 20
-152.1075113552023
 10
114.2390217813361
 20
-152.3469454914272
 10
114.2390217813361
 20
-152.3469454914272
 97
        0
 97
        0
 75
     2
 76
     1
 98
        0
  0
ENDBLK
  5
A6
330
A3
100
AcDbEntity
  8
0
100
AcDbBlockEnd
  0
BLOCK
  5
B5
330
B3
100
AcDbEntity
  8
0
100
AcDbBlockBegin
  2
block 6
 70
     0
 10
0.0
 20
0.0
 30
0.0
  3
block 6
  1

  0
SPLINE
  5
B7
330
B3
100
AcDbEntity
  8
_U+30EC_U+30A4_U+30E4_U+30FC 1
370
     0
100
AcDbSpline
210
0.0
220
0.0
230
1.0
 70
    11
 71
     3
 72
    32
 73
    28
 74
     0
 42
0.0000000001
 43
0.0000000001
 12
1.0
 22
0.0
 32
0.0
 13
1.0
 23
0.0
 33
0.0
 40
0.0
 40
0.0
 40
0.0
 40
0.0
 40
1.0
 40
1.0
 40
1.0
 40
2.0
 40
2.0
 40
2.0
 40
3.0
 40
3.0
 40
3.0
 40
4.0
 40
4.0
 40
4.0
 40
5.0
 40
5.0
 40
5.0
 40
6.0
 40
6.0
 40
6.0
 40
7.0
 40
7.0
 40
7.0
 40
8.0
 40
8.0
 40
8.0
 40
9.0
 40
9.0
 40
9.0
 40
9.0
 10
101.5433281538676
 20
-141.8686875730398
 30
0.0
 10
100.9915961119049
 20
-141.8686875730398
 30
0.0
 10
100.9826388636432
 20
-141.3143717094631
 30
0.0
 10
100.9826388636432
 20
-141.1007757893776
 30
0.0
 10
100.9826388636432
 20
-140.8701266466401
 30
0.0
 10
101.0029649270062
 20
-140.2227932049617
 30
0.0
 10
101.5839802805936
 20
-140.2227932049617
 30
0.0
 10
101.7694986724743
 20
-140.2227932049617
 30
0.0
 10
102.0316704389018
 20
-140.292556388538
 30
0.0
 10
102.0723225656278
 20
-140.6246635933161
 30
0.0
 10
102.0723225656278
 20
-140.6246635933161
 30
0.0
 10
101.84408498973
 20
-140.6246635933161
 30
0.0
 10
101.84408498973
 20
-140.6246635933161
 30
0.0
 10
101.8327161746286
 20
-140.5676472630352
 30
0.0
 10
101.7987819840989
 20
-140.4195081571694
 30
0.0
 10
101.5817409685282
 20
-140.4195081571694
 30
0.0
 10
101.2697875723388
 20
-140.4195081571694
 30
0.0
 10
101.2268961335474
 20
-140.7474812473652
 30
0.0
 10
101.2132880063807
 20
-140.9526366835119
 30
0.0
 10
101.3126790111302
 20
-140.8744330159967
 30
0.0
 10
101.3850260163204
 20
-140.8151773736504
 30
0.0
 10
101.5795016564628
 20
-140.8151773736504
 30
0.0
 10
101.7717379845397
 20
-140.8151773736504
 30
0.0
 10
102.0950601958304
 20
-140.9230088623387
 30
0.0
 10
102.0950601958304
 20
-141.3291856200497
 30
0.0
 10
102.0950601958304
 20
-141.6487182263066
 30
0.0
 10
101.8824978043905
 20
-141.8686875730398
 30
0.0
 10
101.5433281538676
 20
-141.8686875730398
 30
0.0
  0
SPLINE
  5
B8
330
B3
100
AcDbEntity
  8
_U+30EC_U+30A4_U+30E4_U+30FC 1
370
     0
100
AcDbSpline
210
0.0
220
0.0
230
1.0
 70
    11
 71
     3
 72
    17
 73
    13
 74
     0
 42
0.0000000001
 43
0.0000000001
 12
1.0
 22
0.0
 32
0.0
 13
1.0
 23
0.0
 33
0.0
 40
0.0
 40
0.0
 40
0.0
 40
0.0
 40
1.0
 40
1.0
 40
1.0
 40
2.0
 40
2.0
 40
2.0
 40
3.0
 40
3.0
 40
3.0
 40
4.0
 40
4.0
 40
4.0
 40
4.0
 10
101.5614149051652
 20
-141.009825268567
 30
0.0
 10
101.2809841326659
 20
-141.009825268567
 30
0.0
 10
101.2403320059399
 20
-141.2213541313613
 30
0.0
 10
101.2403320059399
 20
-141.3376261039885
 30
0.0
 10
101.2403320059399
 20
-141.5133259737363
 30
0.0
 10
101.3421345775291
 20
-141.6761067354143
 30
0.0
 10
101.5388495297368
 20
-141.6761067354143
 30
0.0
 10
101.6676961008852
 20
-141.6761067354143
 30
0.0
 10
101.855281550057
 20
-141.616851093068
 30
0.0
 10
101.855281550057
 20
-141.3312526773408
 30
0.0
 10
101.855281550057
 20
-141.1071492160253
 30
0.0
 10
101.7061089155457
 20
-141.009825268567
 30
0.0
 10
101.5614149051652
 20
-141.009825268567
 30
0.0
  0
HATCH
  5
B9
330
B3
100
AcDbEntity
  8
_U+30EC_U+30A4_U+30E4_U+30FC 1
 62
   179
420
  2234388
100
AcDbHatch
 10
0.0
 20
0.0
 30
0.0
210
0.0
220
0.0
230
1.0
  2
SOLID
 70
     1
 71
     0
 91
        2
 92
        1
 93
        1
 72
     4
 94
        3
 73
     0
 74
     1
 95
       32
 96
       28
 40
0.0
 40
0.0
 40
0.0
 40
0.0
 40
1.0
 40
1.0
 40
1.0
 40
2.0
 40
2.0
 40
2.0
 40
3.0
 40
3.0
 40
3.0
 40
4.0
 40
4.0
 40
4.0
 40
5.0
 40
5.0
 40
5.0
 40
6.0
 40
6.0
 40
6.0
 40
7.0
 40
7.0
 40
7.0
 40
8.0
 40
8.0
 40
8.0
 40
9.0
 40
9.0
 40
9.0
 40
9.0
 10
101.5433281538676
 20
-141.8686875730398
 10
100.9915961119049
 20
-141.8686875730398
 10
100.9826388636432
 20
-141.3143717094631
 10
100.9826388636432
 20
-141.1007757893776
 10
100.9826388636432
 20
-140.8701266466401
 10
101.0029649270062
 20
-140.2227932049617
 10
101.5839802805936
 20
-140.2227932049617
 10
101.7694986724743
 20
-140.2227932049617
 10
102.0316704389018
 20
-140.292556388538
 10
102.0723225656278
 20
-140.6246635933161
 10
102.0723225656278
 20
-140.6246635933161
 10
101.84408498973
 20
-140.6246635933161
 10
101.84408498973
 20
-140.6246635933161
 10
101.8327161746286
 20
-140.5676472630352
 10
101.7987819840989
 20
-140.4195081571694
 10
101.5817409685282
 20
-140.4195081571694
 10
101.2697875723388
 20
-140.4195081571694
 10
101.2268961335474
 20
-140.7474812473652
 10
101.2132880063807
 20
-140.9526366835119
 10
101.3126790111302
 20
-140.8744330159967
 10
101.3850260163204
 20
-140.8151773736504
 10
101.5795016564628
 20
-140.8151773736504
 10
101.7717379845397
 20
-140.8151773736504
 10
102.0950601958304
 20
-140.9230088623387
 10
102.0950601958304
 20
-141.3291856200497
 10
102.0950601958304
 20
-141.6487182263066
 10
101.8824978043905
 20
-141.8686875730398
 10
101.5433281538676
 20
-141.8686875730398
 97
        0
 97
        0
 92
        1
 93
        1
 72
     4
 94
        3
 73
     0
 74
     1
 95
       17
 96
       13
 40
0.0
 40
0.0
 40
0.0
 40
0.0
 40
1.0
 40
1.0
 40
1.0
 40
2.0
 40
2.0
 40
2.0
 40
3.0
 40
3.0
 40
3.0
 40
4.0
 40
4.0
 40
4.0
 40
4.0
 10
101.5614149051652
 20
-141.009825268567
 10
101.2809841326659
 20
-141.009825268567
 10
101.2403320059399
 20
-141.2213541313613
 10
101.2403320059399
 20
-141.3376261039885
 10
101.2403320059399
 20
-141.5133259737363
 10
101.3421345775291
 20
-141.6761067354143
 10
101.5388495297368
 20
-141.6761067354143
 10
101.6676961008852
 20
-141.6761067354143
 10
101.855281550057
 20
-141.616851093068
 10
101.855281550057
 20
-141.3312526773408
 10
101.855281550057
 20
-141.1071492160253
 10
101.7061089155457
 20
-141.009825268567
 10
101.5614149051652
 20
-141.009825268567
 97
        0
 97
        0
 75
     2
 76
     1
 98
        0
  0
ENDBLK
  5
B6
330
B3
100
AcDbEntity
  8
0
100
AcDbBlockEnd
  0
BLOCK
  5
C3
330
C1
100
AcDbEntity
  8
0
100
AcDbBlockBegin
  2
block 7
 70
     0
 10
0.0
 20
0.0
 30
0.0
  3
block 7
  1

  0
SPLINE
  5
C5
330
C1
100
AcDbEntity
  8
_U+30EC_U+30A4_U+30E4_U+30FC 1
370
     0
100
AcDbSpline
210
0.0
220
0.0
230
1.0
 70
    11
 71
     3
 72
    26
 73
    22
 74
     0
 42
0.0000000001
 43
0.0000000001
 12
1.0
 22
0.0
 32
0.0
 13
1.0
 23
0.0
 33
0.0
 40
0.0
 40
0.0
 40
0.0
 40
0.0
 40
1.0
 40
1.0
 40
1.0
 40
2.0
 40
2.0
 40
2.0
 40
3.0
 40
3.0
 40
3.0
 40
4.0
 40
4.0
 40
4.0
 40
5.0
 40
5.0
 40
5.0
 40
6.0
 40
6.0
 40
6.0
 40
7.0
 40
7.0
 40
7.0
 40
7.0
 10
91.92720538066403
 20
-145.2776095556945
 30
0.0
 10
91.92720538066403
 20
-145.2776095556945
 30
0.0
 10
91.92720538066403
 20
-144.1732841978977
 30
0.0
 10
91.92720538066403
 20
-144.1732841978977
 30
0.0
 10
91.92720538066403
 20
-144.1732841978977
 30
0.0
 10
91.59716523317711
 20
-144.1732841978977
 30
0.0
 10
91.59716523317711
 20
-144.1732841978977
 30
0.0
 10
91.59716523317711
 20
-144.1732841978977
 30
0.0
 10
91.59716523317711
 20
-144.0251450920319
 30
0.0
 10
91.59716523317711
 20
-144.0251450920319
 30
0.0
 10
91.92927243795519
 20
-144.0105034362196
 30
0.0
 10
91.97578122700605
 20
-143.8475504197673
 30
0.0
 10
92.0054090481792
 20
-143.7333455044312
 30
0.0
 10
92.0054090481792
 20
-143.7333455044312
 30
0.0
 10
92.1514810967538
 20
-143.7333455044312
 30
0.0
 10
92.1514810967538
 20
-143.7333455044312
 30
0.0
 10
92.1514810967538
 20
-143.7333455044312
 30
0.0
 10
92.1514810967538
 20
-145.2776095556945
 30
0.0
 10
92.1514810967538
 20
-145.2776095556945
 30
0.0
 10
92.1514810967538
 20
-145.2776095556945
 30
0.0
 10
91.92720538066403
 20
-145.2776095556945
 30
0.0
 10
91.92720538066403
 20
-145.2776095556945
 30
0.0
  0
HATCH
  5
C6
330
C1
100
AcDbEntity
  8
_U+30EC_U+30A4_U+30E4_U+30FC 1
 62
   179
420
  2234388
100
AcDbHatch
 10
0.0
 20
0.0
 30
0.0
210
0.0
220
0.0
230
1.0
  2
SOLID
 70
     1
 71
     0
 91
        1
 92
        1
 93
        1
 72
     4
 94
        3
 73
     0
 74
     1
 95
       26
 96
       22
 40
0.0
 40
0.0
 40
0.0
 40
0.0
 40
1.0
 40
1.0
 40
1.0
 40
2.0
 40
2.0
 40
2.0
 40
3.0
 40
3.0
 40
3.0
 40
4.0
 40
4.0
 40
4.0
 40
5.0
 40
5.0
 40
5.0
 40
6.0
 40
6.0
 40
6.0
 40
7.0
 40
7.0
 40
7.0
 40
7.0
 10
91.92720538066403
 20
-145.2776095556945
 10
91.92720538066403
 20
-145.2776095556945
 10
91.92720538066403
 20
-144.1732841978977
 10
91.92720538066403
 20
-144.1732841978977
 10
91.92720538066403
 20
-144.1732841978977
 10
91.59716523317711
 20
-144.1732841978977
 10
91.59716523317711
 20
-144.1732841978977
 10
91.59716523317711
 20
-144.1732841978977
 10
91.59716523317711
 20
-144.0251450920319
 10
91.59716523317711
 20
-144.0251450920319
 10
91.92927243795519
 20
-144.0105034362196
 10
91.97578122700605
 20
-143.8475504197673
 10
92.0054090481792
 20
-143.7333455044312
 10
92.0054090481792
 20
-143.7333455044312
 10
92.1514810967538
 20
-143.7333455044312
 10
92.1514810967538
 20
-143.7333455044312
 10
92.1514810967538
 20
-143.7333455044312
 10
92.1514810967538
 20
-145.2776095556945
 10
92.1514810967538
 20
-145.2776095556945
 10
92.1514810967538
 20
-145.2776095556945
 10
91.92720538066403
 20
-145.2776095556945
 10
91.92720538066403
 20
-145.2776095556945
 97
        0
 97
        0
 75
     2
 76
     1
 98
        0
  0
POLYLINE
  5
C7
330
C1
100
AcDbEntity
  8
_U+30EC_U+30A4_U+30E4_U+30FC 1
370
     0
100
AcDb2dPolyline
 66
     1
 10
0.0
 20
0.0
 30
0.0
  0
VERTEX
  5
C8
330
C7
100
AcDbEntity
  8
_U+30EC_U+30A4_U+30E4_U+30FC 1
370
     0
100
AcDbVertex
100
AcDb2dVertex
 10
92.712687151301
 20
-145.2776095556945
 30
0.0
  0
VERTEX
  5
C9
330
C7
100
AcDbEntity
  8
_U+30EC_U+30A4_U+30E4_U+30FC 1
370
     0
100
AcDbVertex
100
AcDb2dVertex
 10
92.712687151301
 20
-145.025945330497
 30
0.0
  0
VERTEX
  5
CA
330
C7
100
AcDbEntity
  8
_U+30EC_U+30A4_U+30E4_U+30FC 1
370
     0
100
AcDbVertex
100
AcDb2dVertex
 10
92.9643513764985
 20
-145.025945330497
 30
0.0
  0
VERTEX
  5
CB
330
C7
100
AcDbEntity
  8
_U+30EC_U+30A4_U+30E4_U+30FC 1
370
     0
100
AcDbVertex
100
AcDb2dVertex
 10
92.9643513764985
 20
-145.2776095556945
 30
0.0
  0
VERTEX
  5
CC
330
C7
100
AcDbEntity
  8
_U+30EC_U+30A4_U+30E4_U+30FC 1
370
     0
100
AcDbVertex
100
AcDb2dVertex
 10
92.712687151301
 20
-145.2776095556945
 30
0.0
  0
SEQEND
  5
CD
330
C7
100
AcDbEntity
  8
_U+30EC_U+30A4_U+30E4_U+30FC 1
370
     0
  0
HATCH
  5
CE
330
C1
100
AcDbEntity
  8
_U+30EC_U+30A4_U+30E4_U+30FC 1
 62
   179
420
  2234388
100
AcDbHatch
 10
0.0
 20
0.0
 30
0.0
210
0.0
220
0.0
230
1.0
  2
SOLID
 70
     1
 71
     0
 91
        1
 92
        1
 93
        4
 72
     1
 10
92.712687151301
 20
-145.2776095556945
 11
92.712687151301
 21
-145.025945330497
 72
     1
 10
92.712687151301
 20
-145.025945330497
 11
92.9643513764985
 21
-145.025945330497
 72
     1
 10
92.9643513764985
 20
-145.025945330497
 11
92.9643513764985
 21
-145.2776095556945
 72
     1
 10
92.9643513764985
 20
-145.2776095556945
 11
92.712687151301
 21
-145.2776095556945
 97
        0
 75
     2
 76
     1
 98
        0
  0
SPLINE
  5
CF
330
C1
100
AcDbEntity
  8
_U+30EC_U+30A4_U+30E4_U+30FC 1
370
     0
100
AcDbSpline
210
0.0
220
0.0
230
1.0
 70
    11
 71
     3
 72
    53
 73
    49
 74
     0
 42
0.0000000001
 43
0.0000000001
 12
1.0
 22
0.0
 32
0.0
 13
1.0
 23
0.0
 33
0.0
 40
0.0
 40
0.0
 40
0.0
 40
0.0
 40
1.0
 40
1.0
 40
1.0
 40
2.0
 40
2.0
 40
2.0
 40
3.0
 40
3.0
 40
3.0
 40
4.0
 40
4.0
 40
4.0
 40
5.0
 40
5.0
 40
5.0
 40
6.0
 40
6.0
 40
6.0
 40
7.0
 40
7.0
 40
7.0
 40
8.0
 40
8.0
 40
8.0
 40
9.0
 40
9.0
 40
9.0
 40
10.0
 40
10.0
 40
10.0
 40
11.0
 40
11.0
 40
11.0
 40
12.0
 40
12.0
 40
12.0
 40
13.0
 40
13.0
 40
13.0
 40
14.0
 40
14.0
 40
14.0
 40
15.0
 40
15.0
 40
15.0
 40
16.0
 40
16.0
 40
16.0
 40
16.0
 10
93.68196476607604
 20
-145.3284247141019
 30
0.0
 10
93.60358884378661
 20
-145.3284247141019
 30
0.0
 10
93.502130781746
 20
-145.3115437462242
 30
0.0
 10
93.40050046493113
 20
-145.2479817345213
 30
0.0
 10
93.2270399072488
 20
-145.1379109337676
 30
0.0
 10
93.20585257001451
 20
-145.0068250505539
 30
0.0
 10
93.18690454484565
 20
-144.8989935618655
 30
0.0
 10
93.18690454484565
 20
-144.8989935618655
 30
0.0
 10
93.40894094887
 20
-144.8989935618655
 30
0.0
 10
93.40894094887
 20
-144.8989935618655
 30
0.0
 10
93.46406247663398
 20
-145.0977755713645
 30
0.0
 10
93.59101424526544
 20
-145.1274033925376
 30
0.0
 10
93.68403182336719
 20
-145.1274033925376
 30
0.0
 10
93.82373044529407
 20
-145.1274033925376
 30
0.0
 10
93.97600366574211
 20
-145.0280123877882
 30
0.0
 10
93.97600366574211
 20
-144.7952961877595
 30
0.0
 10
93.97600366574211
 20
-144.5393255932055
 30
0.0
 10
93.79616968141207
 20
-144.4695624096291
 30
0.0
 10
93.67559133942832
 20
-144.4695624096291
 30
0.0
 10
93.64389646096403
 20
-144.4695624096291
 30
0.0
 10
93.502130781746
 20
-144.4695624096291
 30
0.0
 10
93.41324731822655
 20
-144.5985812355518
 30
0.0
 10
93.41324731822655
 20
-144.5985812355518
 30
0.0
 10
93.23771970325308
 20
-144.5794609556086
 30
0.0
 10
93.23771970325308
 20
-144.5794609556086
 30
0.0
 10
93.23771970325308
 20
-144.5794609556086
 30
0.0
 10
93.35829804523682
 20
-143.7333455044312
 30
0.0
 10
93.35829804523682
 20
-143.7333455044312
 30
0.0
 10
93.35829804523682
 20
-143.7333455044312
 30
0.0
 10
94.13671737012902
 20
-143.7333455044312
 30
0.0
 10
94.13671737012902
 20
-143.7333455044312
 30
0.0
 10
94.13671737012902
 20
-143.7333455044312
 30
0.0
 10
94.13671737012902
 20
-143.9279933993479
 30
0.0
 10
94.13671737012902
 20
-143.9279933993479
 30
0.0
 10
94.13671737012902
 20
-143.9279933993479
 30
0.0
 10
93.52107880691487
 20
-143.9279933993479
 30
0.0
 10
93.52107880691487
 20
-143.9279933993479
 30
0.0
 10
93.52107880691487
 20
-143.9279933993479
 30
0.0
 10
93.45562199269513
 20
-144.3510511249366
 30
0.0
 10
93.45562199269513
 20
-144.3510511249366
 30
0.0
 10
93.51694469233257
 20
-144.3171169344068
 30
0.0
 10
93.59945472920431
 20
-144.2769815720037
 30
0.0
 10
93.71779375912264
 20
-144.2769815720037
 30
0.0
 10
93.97169729638556
 20
-144.2769815720037
 30
0.0
 10
94.20871986577075
 20
-144.4631889829814
 30
0.0
 10
94.20871986577075
 20
-144.7761759078164
 30
0.0
 10
94.20871986577075
 20
-145.0936414567822
 30
0.0
 10
93.98444414968098
 20
-145.3284247141019
 30
0.0
 10
93.68196476607604
 20
-145.3284247141019
 30
0.0
  0
HATCH
  5
D0
330
C1
100
AcDbEntity
  8
_U+30EC_U+30A4_U+30E4_U+30FC 1
 62
   179
420
  2234388
100
AcDbHatch
 10
0.0
 20
0.0
 30
0.0
210
0.0
220
0.0
230
1.0
  2
SOLID
 70
     1
 71
     0
 91
        1
 92
        1
 93
        1
 72
     4
 94
        3
 73
     0
 74
     1
 95
       53
 96
       49
 40
0.0
 40
0.0
 40
0.0
 40
0.0
 40
1.0
 40
1.0
 40
1.0
 40
2.0
 40
2.0
 40
2.0
 40
3.0
 40
3.0
 40
3.0
 40
4.0
 40
4.0
 40
4.0
 40
5.0
 40
5.0
 40
5.0
 40
6.0
 40
6.0
 40
6.0
 40
7.0
 40
7.0
 40
7.0
 40
8.0
 40
8.0
 40
8.0
 40
9.0
 40
9.0
 40
9.0
 40
10.0
 40
10.0
 40
10.0
 40
11.0
 40
11.0
 40
11.0
 40
12.0
 40
12.0
 40
12.0
 40
13.0
 40
13.0
 40
13.0
 40
14.0
 40
14.0
 40
14.0
 40
15.0
 40
15.0
 40
15.0
 40
16.0
 40
16.0
 40
16.0
 40
16.0
 10
93.68196476607604
 20
-145.3284247141019
 10
93.60358884378661
 20
-145.3284247141019
 10
93.502130781746
 20
-145.3115437462242
 10
93.40050046493113
 20
-145.2479817345213
 10
93.2270399072488
 20
-145.1379109337676
 10
93.20585257001451
 20
-145.0068250505539
 10
93.18690454484565
 20
-144.8989935618655
 10
93.18690454484565
 20
-144.8989935618655
 10
93.40894094887
 20
-144.8989935618655
 10
93.40894094887
 20
-144.8989935618655
 10
93.46406247663398
 20
-145.0977755713645
 10
93.59101424526544
 20
-145.1274033925376
 10
93.68403182336719
 20
-145.1274033925376
 10
93.82373044529407
 20
-145.1274033925376
 10
93.97600366574211
 20
-145.0280123877882
 10
93.97600366574211
 20
-144.7952961877595
 10
93.97600366574211
 20
-144.5393255932055
 10
93.79616968141207
 20
-144.4695624096291
 10
93.67559133942832
 20
-144.4695624096291
 10
93.64389646096403
 20
-144.4695624096291
 10
93.502130781746
 20
-144.4695624096291
 10
93.41324731822655
 20
-144.5985812355518
 10
93.41324731822655
 20
-144.5985812355518
 10
93.23771970325308
 20
-144.5794609556086
 10
93.23771970325308
 20
-144.5794609556086
 10
93.23771970325308
 20
-144.5794609556086
 10
93.35829804523682
 20
-143.7333455044312
 10
93.35829804523682
 20
-143.7333455044312
 10
93.35829804523682
 20
-143.7333455044312
 10
94.13671737012902
 20
-143.7333455044312
 10
94.13671737012902
 20
-143.7333455044312
 10
94.13671737012902
 20
-143.7333455044312
 10
94.13671737012902
 20
-143.9279933993479
 10
94.13671737012902
 20
-143.9279933993479
 10
94.13671737012902
 20
-143.9279933993479
 10
93.52107880691487
 20
-143.9279933993479
 10
93.52107880691487
 20
-143.9279933993479
 10
93.52107880691487
 20
-143.9279933993479
 10
93.45562199269513
 20
-144.3510511249366
 10
93.45562199269513
 20
-144.3510511249366
 10
93.51694469233257
 20
-144.3171169344068
 10
93.59945472920431
 20
-144.2769815720037
 10
93.71779375912264
 20
-144.2769815720037
 10
93.97169729638556
 20
-144.2769815720037
 10
94.20871986577075
 20
-144.4631889829814
 10
94.20871986577075
 20
-144.7761759078164
 10
94.20871986577075
 20
-145.0936414567822
 10
93.98444414968098
 20
-145.3284247141019
 10
93.68196476607604
 20
-145.3284247141019
 97
        0
 97
        0
 75
     2
 76
     1
 98
        0
  0
SPLINE
  5
D1
330
C1
100
AcDbEntity
  8
_U+30EC_U+30A4_U+30E4_U+30FC 1
370
     0
100
AcDbSpline
210
0.0
220
0.0
230
1.0
 70
    11
 71
     3
 72
    44
 73
    40
 74
     0
 42
0.0000000001
 43
0.0000000001
 12
1.0
 22
0.0
 32
0.0
 13
1.0
 23
0.0
 33
0.0
 40
0.0
 40
0.0
 40
0.0
 40
0.0
 40
1.0
 40
1.0
 40
1.0
 40
2.0
 40
2.0
 40
2.0
 40
3.0
 40
3.0
 40
3.0
 40
4.0
 40
4.0
 40
4.0
 40
5.0
 40
5.0
 40
5.0
 40
6.0
 40
6.0
 40
6.0
 40
7.0
 40
7.0
 40
7.0
 40
8.0
 40
8.0
 40
8.0
 40
9.0
 40
9.0
 40
9.0
 40
10.0
 40
10.0
 40
10.0
 40
11.0
 40
11.0
 40
11.0
 40
12.0
 40
12.0
 40
12.0
 40
13.0
 40
13.0
 40
13.0
 40
13.0
 10
95.39193791017979
 20
-145.2776095556945
 30
0.0
 10
95.3685112608801
 20
-145.2331678239348
 30
0.0
 10
95.34749617842007
 20
-145.1802856082362
 30
0.0
 10
95.34525686635466
 20
-144.9496364654987
 30
0.0
 10
95.34112275177236
 20
-144.7064127242401
 30
0.0
 10
95.28186710942606
 20
-144.6366495406638
 30
0.0
 10
95.10410018238717
 20
-144.6366495406638
 30
0.0
 10
95.10410018238717
 20
-144.6366495406638
 30
0.0
 10
94.69585636738506
 20
-144.6366495406638
 30
0.0
 10
94.69585636738506
 20
-144.6366495406638
 30
0.0
 10
94.69585636738506
 20
-144.6366495406638
 30
0.0
 10
94.69585636738506
 20
-145.2776095556945
 30
0.0
 10
94.69585636738506
 20
-145.2776095556945
 30
0.0
 10
94.69585636738506
 20
-145.2776095556945
 30
0.0
 10
94.46107311006529
 20
-145.2776095556945
 30
0.0
 10
94.46107311006529
 20
-145.2776095556945
 30
0.0
 10
94.46107311006529
 20
-145.2776095556945
 30
0.0
 10
94.46107311006529
 20
-143.7333455044312
 30
0.0
 10
94.46107311006529
 20
-143.7333455044312
 30
0.0
 10
94.46107311006529
 20
-143.7333455044312
 30
0.0
 10
95.13596731562573
 20
-143.7333455044312
 30
0.0
 10
95.13596731562573
 20
-143.7333455044312
 30
0.0
 10
95.44258081381297
 20
-143.7333455044312
 30
0.0
 10
95.60966794484759
 20
-143.9045667500482
 30
0.0
 10
95.60966794484759
 20
-144.1605373446022
 30
0.0
 10
95.60966794484759
 20
-144.2113525030097
 30
0.0
 10
95.60122746090873
 20
-144.2938625398814
 30
0.0
 10
95.556785729149
 20
-144.374305519462
 30
0.0
 10
95.49770234157697
 20
-144.478002893568
 30
0.0
 10
95.43207327258295
 20
-144.4969509187369
 30
0.0
 10
95.37075057294551
 20
-144.5138318866146
 30
0.0
 10
95.50820988280698
 20
-144.5562065610832
 30
0.0
 10
95.57590600909214
 20
-144.6049546621995
 30
0.0
 10
95.5802123784487
 20
-144.9200086443255
 30
0.0
 10
95.584346493031
 20
-145.1907931494662
 30
0.0
 10
95.62034774085186
 20
-145.2226602827048
 30
0.0
 10
95.68804386713703
 20
-145.2776095556945
 30
0.0
 10
95.68804386713703
 20
-145.2776095556945
 30
0.0
 10
95.39193791017979
 20
-145.2776095556945
 30
0.0
 10
95.39193791017979
 20
-145.2776095556945
 30
0.0
  0
SPLINE
  5
D2
330
C1
100
AcDbEntity
  8
_U+30EC_U+30A4_U+30E4_U+30FC 1
370
     0
100
AcDbSpline
210
0.0
220
0.0
230
1.0
 70
    11
 71
     3
 72
    20
 73
    16
 74
     0
 42
0.0000000001
 43
0.0000000001
 12
1.0
 22
0.0
 32
0.0
 13
1.0
 23
0.0
 33
0.0
 40
0.0
 40
0.0
 40
0.0
 40
0.0
 40
1.0
 40
1.0
 40
1.0
 40
2.0
 40
2.0
 40
2.0
 40
3.0
 40
3.0
 40
3.0
 40
4.0
 40
4.0
 40
4.0
 40
5.0
 40
5.0
 40
5.0
 40
5.0
 10
95.14010143020803
 20
-143.9448743672256
 30
0.0
 10
95.14010143020803
 20
-143.9448743672256
 30
0.0
 10
94.69585636738506
 20
-143.9448743672256
 30
0.0
 10
94.69585636738506
 20
-143.9448743672256
 30
0.0
 10
94.69585636738506
 20
-143.9448743672256
 30
0.0
 10
94.69585636738506
 20
-144.4251206778694
 30
0.0
 10
94.69585636738506
 20
-144.4251206778694
 30
0.0
 10
94.69585636738506
 20
-144.4251206778694
 30
0.0
 10
95.13803437291689
 20
-144.4251206778694
 30
0.0
 10
95.13803437291689
 20
-144.4251206778694
 30
0.0
 10
95.23742537766634
 20
-144.4251206778694
 30
0.0
 10
95.37281763023667
 20
-144.3489840676454
 30
0.0
 10
95.37281763023667
 20
-144.1775905672542
 30
0.0
 10
95.37281763023667
 20
-144.0992146449648
 30
0.0
 10
95.33888343970695
 20
-143.9448743672256
 30
0.0
 10
95.14010143020803
 20
-143.9448743672256
 30
0.0
  0
HATCH
  5
D3
330
C1
100
AcDbEntity
  8
_U+30EC_U+30A4_U+30E4_U+30FC 1
 62
   179
420
  2234388
100
AcDbHatch
 10
0.0
 20
0.0
 30
0.0
210
0.0
220
0.0
230
1.0
  2
SOLID
 70
     1
 71
     0
 91
        2
 92
        1
 93
        1
 72
     4
 94
        3
 73
     0
 74
     1
 95
       44
 96
       40
 40
0.0
 40
0.0
 40
0.0
 40
0.0
 40
1.0
 40
1.0
 40
1.0
 40
2.0
 40
2.0
 40
2.0
 40
3.0
 40
3.0
 40
3.0
 40
4.0
 40
4.0
 40
4.0
 40
5.0
 40
5.0
 40
5.0
 40
6.0
 40
6.0
 40
6.0
 40
7.0
 40
7.0
 40
7.0
 40
8.0
 40
8.0
 40
8.0
 40
9.0
 40
9.0
 40
9.0
 40
10.0
 40
10.0
 40
10.0
 40
11.0
 40
11.0
 40
11.0
 40
12.0
 40
12.0
 40
12.0
 40
13.0
 40
13.0
 40
13.0
 40
13.0
 10
95.39193791017979
 20
-145.2776095556945
 10
95.3685112608801
 20
-145.2331678239348
 10
95.34749617842007
 20
-145.1802856082362
 10
95.34525686635466
 20
-144.9496364654987
 10
95.34112275177236
 20
-144.7064127242401
 10
95.28186710942606
 20
-144.6366495406638
 10
95.10410018238717
 20
-144.6366495406638
 10
95.10410018238717
 20
-144.6366495406638
 10
94.69585636738506
 20
-144.6366495406638
 10
94.69585636738506
 20
-144.6366495406638
 10
94.69585636738506
 20
-144.6366495406638
 10
94.69585636738506
 20
-145.2776095556945
 10
94.69585636738506
 20
-145.2776095556945
 10
94.69585636738506
 20
-145.2776095556945
 10
94.46107311006529
 20
-145.2776095556945
 10
94.46107311006529
 20
-145.2776095556945
 10
94.46107311006529
 20
-145.2776095556945
 10
94.46107311006529
 20
-143.7333455044312
 10
94.46107311006529
 20
-143.7333455044312
 10
94.46107311006529
 20
-143.7333455044312
 10
95.13596731562573
 20
-143.7333455044312
 10
95.13596731562573
 20
-143.7333455044312
 10
95.44258081381297
 20
-143.7333455044312
 10
95.60966794484759
 20
-143.9045667500482
 10
95.60966794484759
 20
-144.1605373446022
 10
95.60966794484759
 20
-144.2113525030097
 10
95.60122746090873
 20
-144.2938625398814
 10
95.556785729149
 20
-144.374305519462
 10
95.49770234157697
 20
-144.478002893568
 10
95.43207327258295
 20
-144.4969509187369
 10
95.37075057294551
 20
-144.5138318866146
 10
95.50820988280698
 20
-144.5562065610832
 10
95.57590600909214
 20
-144.6049546621995
 10
95.5802123784487
 20
-144.9200086443255
 10
95.584346493031
 20
-145.1907931494662
 10
95.62034774085186
 20
-145.2226602827048
 10
95.68804386713703
 20
-145.2776095556945
 10
95.68804386713703
 20
-145.2776095556945
 10
95.39193791017979
 20
-145.2776095556945
 10
95.39193791017979
 20
-145.2776095556945
 97
        0
 97
        0
 92
        1
 93
        1
 72
     4
 94
        3
 73
     0
 74
     1
 95
       20
 96
       16
 40
0.0
 40
0.0
 40
0.0
 40
0.0
 40
1.0
 40
1.0
 40
1.0
 40
2.0
 40
2.0
 40
2.0
 40
3.0
 40
3.0
 40
3.0
 40
4.0
 40
4.0
 40
4.0
 40
5.0
 40
5.0
 40
5.0
 40
5.0
 10
95.14010143020803
 20
-143.9448743672256
 10
95.14010143020803
 20
-143.9448743672256
 10
94.69585636738506
 20
-143.9448743672256
 10
94.69585636738506
 20
-143.9448743672256
 10
94.69585636738506
 20
-143.9448743672256
 10
94.69585636738506
 20
-144.4251206778694
 10
94.69585636738506
 20
-144.4251206778694
 10
94.69585636738506
 20
-144.4251206778694
 10
95.13803437291689
 20
-144.4251206778694
 10
95.13803437291689
 20
-144.4251206778694
 10
95.23742537766634
 20
-144.4251206778694
 10
95.37281763023667
 20
-144.3489840676454
 10
95.37281763023667
 20
-144.1775905672542
 10
95.37281763023667
 20
-144.0992146449648
 10
95.33888343970695
 20
-143.9448743672256
 10
95.14010143020803
 20
-143.9448743672256
 97
        0
 97
        0
 75
     2
 76
     1
 98
        0
  0
ENDBLK
  5
C4
330
C1
100
AcDbEntity
  8
0
100
AcDbBlockEnd
  0
ENDSEC
  0
SECTION
  2
ENTITIES
  0
SPLINE
  5
41
330
1F
100
AcDbEntity
  8
_U+30EC_U+30A4_U+30E4_U+30FC 1
 62
   179
420
  2234388
370
     9
100
AcDbSpline
210
0.0
220
0.0
230
1.0
 70
    11
 71
     3
 72
    17
 73
    13
 74
     0
 42
0.0000000001
 43
0.0000000001
 12
1.0
 22
0.0
 32
0.0
 13
1.0
 23
0.0
 33
0.0
 40
0.0
 40
0.0
 40
0.0
 40
0.0
 40
1.0
 40
1.0
 40
1.0
 40
2.0
 40
2.0
 40
2.0
 40
3.0
 40
3.0
 40
3.0
 40
4.0
 40
4.0
 40
4.0
 40
4.0
 10
115.6318415882524
 20
-147.3235656369972
 30
0.0
 10
115.6318415882524
 20
-147.2685517684671
 30
0.0
 10
115.5870338150974
 20
-147.2237439953121
 30
0.0
 10
115.5319984147205
 20
-147.2237439953121
 30
0.0
 10
115.4769630143437
 20
-147.2237439953121
 30
0.0
 10
115.432166007112
 20
-147.2685517684671
 30
0.0
 10
115.432166007112
 20
-147.3235656369972
 30
0.0
 10
115.432166007112
 20
-147.3786010373741
 30
0.0
 10
115.4769630143437
 20
-147.4234088105291
 30
0.0
 10
115.5319984147205
 20
-147.4234088105291
 30
0.0
 10
115.5870338150974
 20
-147.4234088105291
 30
0.0
 10
115.6318415882524
 20
-147.3786010373741
 30
0.0
 10
115.6318415882524
 20
-147.3235656369972
 30
0.0
  0
SPLINE
  5
42
330
1F
100
AcDbEntity
  8
_U+30EC_U+30A4_U+30E4_U+30FC 1
 62
   179
420
  2234388
370
     9
100
AcDbSpline
210
0.0
220
0.0
230
1.0
 70
    11
 71
     3
 72
    17
 73
    13
 74
     0
 42
0.0000000001
 43
0.0000000001
 12
1.0
 22
0.0
 32
0.0
 13
1.0
 23
0.0
 33
0.0
 40
0.0
 40
0.0
 40
0.0
 40
0.0
 40
1.0
 40
1.0
 40
1.0
 40
2.0
 40
2.0
 40
2.0
 40
3.0
 40
3.0
 40
3.0
 40
4.0
 40
4.0
 40
4.0
 40
4.0
 10
115.6318415882524
 20
-151.8239154012259
 30
0.0
 10
115.6318415882524
 20
-151.7685354913005
 30
0.0
 10
115.5870338150974
 20
-151.7237277181455
 30
0.0
 10
115.5319984147205
 20
-151.7237277181455
 30
0.0
 10
115.4769630143437
 20
-151.7237277181455
 30
0.0
 10
115.432166007112
 20
-151.7685354913005
 30
0.0
 10
115.432166007112
 20
-151.8239154012259
 30
0.0
 10
115.432166007112
 20
-151.8789508016027
 30
0.0
 10
115.4769630143437
 20
-151.9237585747578
 30
0.0
 10
115.5319984147205
 20
-151.9237585747578
 30
0.0
 10
115.5870338150974
 20
-151.9237585747578
 30
0.0
 10
115.6318415882524
 20
-151.8789508016027
 30
0.0
 10
115.6318415882524
 20
-151.8239154012259
 30
0.0
  0
SPLINE
  5
43
330
1F
100
AcDbEntity
  8
_U+30EC_U+30A4_U+30E4_U+30FC 1
 62
   179
420
  2234388
370
     9
100
AcDbSpline
210
0.0
220
0.0
230
1.0
 70
    11
 71
     3
 72
    17
 73
    13
 74
     0
 42
0.0000000001
 43
0.0000000001
 12
1.0
 22
0.0
 32
0.0
 13
1.0
 23
0.0
 33
0.0
 40
0.0
 40
0.0
 40
0.0
 40
0.0
 40
1.0
 40
1.0
 40
1.0
 40
2.0
 40
2.0
 40
2.0
 40
3.0
 40
3.0
 40
3.0
 40
4.0
 40
4.0
 40
4.0
 40
4.0
 10
115.6318415882524
 20
-152.8237897702793
 30
0.0
 10
115.6318415882524
 20
-152.7684098603539
 30
0.0
 10
115.5870338150974
 20
-152.7236020871989
 30
0.0
 10
115.5319984147205
 20
-152.7236020871989
 30
0.0
 10
115.4769630143437
 20
-152.7236020871989
 30
0.0
 10
115.432166007112
 20
-152.7684098603539
 30
0.0
 10
115.432166007112
 20
-152.8237897702793
 30
0.0
 10
115.432166007112
 20
-152.8788251706562
 30
0.0
 10
115.4769630143437
 20
-152.9236329438112
 30
0.0
 10
115.5319984147205
 20
-152.9236329438112
 30
0.0
 10
115.5870338150974
 20
-152.9236329438112
 30
0.0
 10
115.6318415882524
 20
-152.8788251706562
 30
0.0
 10
115.6318415882524
 20
-152.8237897702793
 30
0.0
  0
SPLINE
  5
44
330
1F
100
AcDbEntity
  8
_U+30EC_U+30A4_U+30E4_U+30FC 1
 62
   179
420
  2234388
370
     9
100
AcDbSpline
210
0.0
220
0.0
230
1.0
 70
    11
 71
     3
 72
    17
 73
    13
 74
     0
 42
0.0000000001
 43
0.0000000001
 12
1.0
 22
0.0
 32
0.0
 13
1.0
 23
0.0
 33
0.0
 40
0.0
 40
0.0
 40
0.0
 40
0.0
 40
1.0
 40
1.0
 40
1.0
 40
2.0
 40
2.0
 40
2.0
 40
3.0
 40
3.0
 40
3.0
 40
4.0
 40
4.0
 40
4.0
 40
4.0
 10
91.70426463907512
 20
-156.9236687161944
 30
0.0
 10
91.70426463907512
 20
-156.868288806269
 30
0.0
 10
91.65945686591978
 20
-156.823481033114
 30
0.0
 10
91.6044268485046
 20
-156.823481033114
 30
0.0
 10
91.54939144812774
 20
-156.823481033114
 30
0.0
 10
91.50458905793441
 20
-156.868288806269
 30
0.0
 10
91.50458905793441
 20
-156.9236687161944
 30
0.0
 10
91.50458905793441
 20
-156.9787041165713
 30
0.0
 10
91.54939144812774
 20
-157.0235118897263
 30
0.0
 10
91.6044268485046
 20
-157.0235118897263
 30
0.0
 10
91.65945686591978
 20
-157.0235118897263
 30
0.0
 10
91.70426463907512
 20
-156.9787041165713
 30
0.0
 10
91.70426463907512
 20
-156.9236687161944
 30
0.0
  0
SPLINE
  5
45
330
1F
100
AcDbEntity
  8
_U+30EC_U+30A4_U+30E4_U+30FC 1
 62
   179
420
  2234388
370
     9
100
AcDbSpline
210
0.0
220
0.0
230
1.0
 70
    11
 71
     3
 72
    17
 73
    13
 74
     0
 42
0.0000000001
 43
0.0000000001
 12
1.0
 22
0.0
 32
0.0
 13
1.0
 23
0.0
 33
0.0
 40
0.0
 40
0.0
 40
0.0
 40
0.0
 40
1.0
 40
1.0
 40
1.0
 40
2.0
 40
2.0
 40
2.0
 40
3.0
 40
3.0
 40
3.0
 40
4.0
 40
4.0
 40
4.0
 40
4.0
 10
111.7040451618255
 20
-156.9236687161944
 30
0.0
 10
111.7040451618255
 20
-156.868288806269
 30
0.0
 10
111.6592373886705
 20
-156.823481033114
 30
0.0
 10
111.6042019882936
 20
-156.823481033114
 30
0.0
 10
111.5491665879167
 20
-156.823481033114
 30
0.0
 10
111.5043695806851
 20
-156.868288806269
 30
0.0
 10
111.5043695806851
 20
-156.9236687161944
 30
0.0
 10
111.5043695806851
 20
-156.9787041165713
 30
0.0
 10
111.5491665879167
 20
-157.0235118897263
 30
0.0
 10
111.6042019882936
 20
-157.0235118897263
 30
0.0
 10
111.6592373886705
 20
-157.0235118897263
 30
0.0
 10
111.7040451618255
 20
-156.9787041165713
 30
0.0
 10
111.7040451618255
 20
-156.9236687161944
 30
0.0
  0
POLYLINE
  5
46
330
1F
100
AcDbEntity
  8
_U+30EC_U+30A4_U+30E4_U+30FC 1
 62
   179
420
  2234388
370
     9
100
AcDb2dPolyline
 66
     1
 10
0.0
 20
0.0
 30
0.0
  0
VERTEX
  5
47
330
46
100
AcDbEntity
  8
_U+30EC_U+30A4_U+30E4_U+30FC 1
 62
   179
420
  2234388
370
     9
100
AcDbVertex
100
AcDb2dVertex
 10
91.60432457223239
 20
-156.9236687161944
 30
0.0
  0
VERTEX
  5
48
330
46
100
AcDbEntity
  8
_U+30EC_U+30A4_U+30E4_U+30FC 1
 62
   179
420
  2234388
370
     9
100
AcDbVertex
100
AcDb2dVertex
 10
111.6039974357492
 20
-156.9236687161944
 30
0.0
  0
SEQEND
  5
49
330
46
100
AcDbEntity
  8
_U+30EC_U+30A4_U+30E4_U+30FC 1
 62
   179
420
  2234388
370
     9
  0
POLYLINE
  5
4A
330
1F
100
AcDbEntity
  8
_U+30EC_U+30A4_U+30E4_U+30FC 1
 62
   179
420
  2234388
370
     9
100
AcDb2dPolyline
 66
     1
 10
0.0
 20
0.0
 30
0.0
  0
VERTEX
  5
4B
330
4A
100
AcDbEntity
  8
_U+30EC_U+30A4_U+30E4_U+30FC 1
 62
   179
420
  2234388
370
     9
100
AcDbVertex
100
AcDb2dVertex
 10
91.60432457223239
 20
-154.6633200364752
 30
0.0
  0
VERTEX
  5
4C
330
4A
100
AcDbEntity
  8
_U+30EC_U+30A4_U+30E4_U+30FC 1
 62
   179
420
  2234388
370
     9
100
AcDbVertex
100
AcDb2dVertex
 10
91.60432457223239
 20
-157.9233492986268
 30
0.0
  0
SEQEND
  5
4D
330
4A
100
AcDbEntity
  8
_U+30EC_U+30A4_U+30E4_U+30FC 1
 62
   179
420
  2234388
370
     9
  0
POLYLINE
  5
4E
330
1F
100
AcDbEntity
  8
_U+30EC_U+30A4_U+30E4_U+30FC 1
 62
   179
420
  2234388
370
     9
100
AcDb2dPolyline
 66
     1
 10
0.0
 20
0.0
 30
0.0
  0
VERTEX
  5
4F
330
4E
100
AcDbEntity
  8
_U+30EC_U+30A4_U+30E4_U+30FC 1
 62
   179
420
  2234388
370
     9
100
AcDbVertex
100
AcDb2dVertex
 10
111.6041373927533
 20
-155.463594185852
 30
0.0
  0
VERTEX
  5
50
330
4E
100
AcDbEntity
  8
_U+30EC_U+30A4_U+30E4_U+30FC 1
 62
   179
420
  2234388
370
     9
100
AcDbVertex
100
AcDb2dVertex
 10
111.6041373927533
 20
-157.9235215534011
 30
0.0
  0
SEQEND
  5
51
330
4E
100
AcDbEntity
  8
_U+30EC_U+30A4_U+30E4_U+30FC 1
 62
   179
420
  2234388
370
     9
  0
INSERT
  5
53
330
1F
100
AcDbEntity
  8
_U+30EC_U+30A4_U+30E4_U+30FC 1
100
AcDbBlockReference
  2
block 2
 10
0.0
 20
0.0
 30
0.0
  0
POLYLINE
  5
5B
330
1F
100
AcDbEntity
  8
_U+30EC_U+30A4_U+30E4_U+30FC 1
 62
   179
420
  2234388
370
     9
100
AcDb2dPolyline
 66
     1
 10
0.0
 20
0.0
 30
0.0
  0
VERTEX
  5
5C
330
5B
100
AcDbEntity
  8
_U+30EC_U+30A4_U+30E4_U+30FC 1
 62
   179
420
  2234388
370
     9
100
AcDbVertex
100
AcDb2dVertex
 10
115.5319338191802
 20
-145.8235495308727
 30
0.0
  0
VERTEX
  5
5D
330
5B
100
AcDbEntity
  8
_U+30EC_U+30A4_U+30E4_U+30FC 1
 62
   179
420
  2234388
370
     9
100
AcDbVertex
100
AcDb2dVertex
 10
115.5319338191802
 20
-152.823725174739
 30
0.0
  0
SEQEND
  5
5E
330
5B
100
AcDbEntity
  8
_U+30EC_U+30A4_U+30E4_U+30FC 1
 62
   179
420
  2234388
370
     9
  0
POLYLINE
  5
5F
330
1F
100
AcDbEntity
  8
_U+30EC_U+30A4_U+30E4_U+30FC 1
 62
   179
420
  2234388
370
     9
100
AcDb2dPolyline
 66
     1
 10
0.0
 20
0.0
 30
0.0
  0
VERTEX
  5
60
330
5F
100
AcDbEntity
  8
_U+30EC_U+30A4_U+30E4_U+30FC 1
 62
   179
420
  2234388
370
     9
100
AcDbVertex
100
AcDb2dVertex
 10
114.5276777193065
 20
-147.3235656369972
 30
0.0
  0
VERTEX
  5
61
330
5F
100
AcDbEntity
  8
_U+30EC_U+30A4_U+30E4_U+30FC 1
 62
   179
420
  2234388
370
     9
100
AcDbVertex
100
AcDb2dVertex
 10
116.5321526977821
 20
-147.3235656369972
 30
0.0
  0
SEQEND
  5
62
330
5F
100
AcDbEntity
  8
_U+30EC_U+30A4_U+30E4_U+30FC 1
 62
   179
420
  2234388
370
     9
  0
SPLINE
  5
63
330
1F
100
AcDbEntity
  8
_U+30EC_U+30A4_U+30E4_U+30FC 1
 62
   179
420
  2234388
370
     9
100
AcDbSpline
210
0.0
220
0.0
230
1.0
 70
    11
 71
     3
 72
    17
 73
    13
 74
     0
 42
0.0000000001
 43
0.0000000001
 12
1.0
 22
0.0
 32
0.0
 13
1.0
 23
0.0
 33
0.0
 40
0.0
 40
0.0
 40
0.0
 40
0.0
 40
1.0
 40
1.0
 40
1.0
 40
2.0
 40
2.0
 40
2.0
 40
3.0
 40
3.0
 40
3.0
 40
4.0
 40
4.0
 40
4.0
 40
4.0
 10
115.6318415882524
 20
-145.8235495308727
 30
0.0
 10
115.6318415882524
 20
-145.7685356623426
 30
0.0
 10
115.5870338150974
 20
-145.7237278891876
 30
0.0
 10
115.5319984147205
 20
-145.7237278891876
 30
0.0
 10
115.4769630143437
 20
-145.7237278891876
 30
0.0
 10
115.432166007112
 20
-145.7685356623426
 30
0.0
 10
115.432166007112
 20
-145.8235495308727
 30
0.0
 10
115.432166007112
 20
-145.8785849312495
 30
0.0
 10
115.4769630143437
 20
-145.9233927044046
 30
0.0
 10
115.5319984147205
 20
-145.9233927044046
 30
0.0
 10
115.5870338150974
 20
-145.9233927044046
 30
0.0
 10
115.6318415882524
 20
-145.8785849312495
 30
0.0
 10
115.6318415882524
 20
-145.8235495308727
 30
0.0
  0
POLYLINE
  5
64
330
1F
100
AcDbEntity
  8
_U+30EC_U+30A4_U+30E4_U+30FC 1
 62
   179
420
  2234388
370
     9
100
AcDb2dPolyline
 66
     1
 10
0.0
 20
0.0
 30
0.0
  0
VERTEX
  5
65
330
64
100
AcDbEntity
  8
_U+30EC_U+30A4_U+30E4_U+30FC 1
 62
   179
420
  2234388
370
     9
100
AcDbVertex
100
AcDb2dVertex
 10
114.5276777193065
 20
-145.8235495308727
 30
0.0
  0
VERTEX
  5
66
330
64
100
AcDbEntity
  8
_U+30EC_U+30A4_U+30E4_U+30FC 1
 62
   179
420
  2234388
370
     9
100
AcDbVertex
100
AcDb2dVertex
 10
116.5321526977821
 20
-145.8235495308727
 30
0.0
  0
SEQEND
  5
67
330
64
100
AcDbEntity
  8
_U+30EC_U+30A4_U+30E4_U+30FC 1
 62
   179
420
  2234388
370
     9
  0
POLYLINE
  5
68
330
1F
100
AcDbEntity
  8
_U+30EC_U+30A4_U+30E4_U+30FC 1
 62
   179
420
  2234388
370
     9
100
AcDb2dPolyline
 66
     1
 10
0.0
 20
0.0
 30
0.0
  0
VERTEX
  5
69
330
68
100
AcDbEntity
  8
_U+30EC_U+30A4_U+30E4_U+30FC 1
 62
   179
420
  2234388
370
     9
100
AcDbVertex
100
AcDb2dVertex
 10
114.5362581602494
 20
-151.8239154012259
 30
0.0
  0
VERTEX
  5
6A
330
68
100
AcDbEntity
  8
_U+30EC_U+30A4_U+30E4_U+30FC 1
 62
   179
420
  2234388
370
     9
100
AcDbVertex
100
AcDb2dVertex
 10
116.5319158474675
 20
-151.8239154012259
 30
0.0
  0
SEQEND
  5
6B
330
68
100
AcDbEntity
  8
_U+30EC_U+30A4_U+30E4_U+30FC 1
 62
   179
420
  2234388
370
     9
  0
POLYLINE
  5
6C
330
1F
100
AcDbEntity
  8
_U+30EC_U+30A4_U+30E4_U+30FC 1
 62
   179
420
  2234388
370
     9
100
AcDb2dPolyline
 66
     1
 10
0.0
 20
0.0
 30
0.0
  0
VERTEX
  5
6D
330
6C
100
AcDbEntity
  8
_U+30EC_U+30A4_U+30E4_U+30FC 1
 62
   179
420
  2234388
370
     9
100
AcDbVertex
100
AcDb2dVertex
 10
114.5362581602494
 20
-152.823617515505
 30
0.0
  0
VERTEX
  5
6E
330
6C
100
AcDbEntity
  8
_U+30EC_U+30A4_U+30E4_U+30FC 1
 62
   179
420
  2234388
370
     9
100
AcDbVertex
100
AcDb2dVertex
 10
116.5319158474675
 20
-152.823617515505
 30
0.0
  0
SEQEND
  5
6F
330
6C
100
AcDbEntity
  8
_U+30EC_U+30A4_U+30E4_U+30FC 1
 62
   179
420
  2234388
370
     9
  0
INSERT
  5
71
330
1F
100
AcDbEntity
  8
_U+30EC_U+30A4_U+30E4_U+30FC 1
100
AcDbBlockReference
  2
block 3
 10
0.0
 20
0.0
 30
0.0
  0
INSERT
  5
94
330
1F
100
AcDbEntity
  8
_U+30EC_U+30A4_U+30E4_U+30FC 1
100
AcDbBlockReference
  2
block 4
 10
0.0
 20
0.0
 30
0.0
  0
INSERT
  5
A4
330
1F
100
AcDbEntity
  8
_U+30EC_U+30A4_U+30E4_U+30FC 1
100
AcDbBlockReference
  2
block 5
 10
0.0
 20
0.0
 30
0.0
  0
SPLINE
  5
A9
330
1F
100
AcDbEntity
  8
_U+30EC_U+30A4_U+30E4_U+30FC 1
 62
   179
420
  2234388
370
     9
100
AcDbSpline
210
0.0
220
0.0
230
1.0
 70
    11
 71
     3
 72
    17
 73
    13
 74
     0
 42
0.0000000001
 43
0.0000000001
 12
1.0
 22
0.0
 32
0.0
 13
1.0
 23
0.0
 33
0.0
 40
0.0
 40
0.0
 40
0.0
 40
0.0
 40
1.0
 40
1.0
 40
1.0
 40
2.0
 40
2.0
 40
2.0
 40
3.0
 40
3.0
 40
3.0
 40
4.0
 40
4.0
 40
4.0
 40
4.0
 10
104.7398277020865
 20
-143.1185036195481
 30
0.0
 10
104.7398277020865
 20
-143.0634897510183
 30
0.0
 10
104.6950199289315
 20
-143.018681977863
 30
0.0
 10
104.6399845285546
 20
-143.018681977863
 30
0.0
 10
104.5849491281778
 20
-143.018681977863
 30
0.0
 10
104.5401521209461
 20
-143.0634897510183
 30
0.0
 10
104.5401521209461
 20
-143.1185036195481
 30
0.0
 10
104.5401521209461
 20
-143.1735390199249
 30
0.0
 10
104.5849491281778
 20
-143.2183467930803
 30
0.0
 10
104.6399845285546
 20
-143.2183467930803
 30
0.0
 10
104.6950199289315
 20
-143.2183467930803
 30
0.0
 10
104.7398277020865
 20
-143.1735390199249
 30
0.0
 10
104.7398277020865
 20
-143.1185036195481
 30
0.0
  0
SPLINE
  5
AA
330
1F
100
AcDbEntity
  8
_U+30EC_U+30A4_U+30E4_U+30FC 1
 62
   179
420
  2234388
370
     9
100
AcDbSpline
210
0.0
220
0.0
230
1.0
 70
    11
 71
     3
 72
    17
 73
    13
 74
     0
 42
0.0000000001
 43
0.0000000001
 12
1.0
 22
0.0
 32
0.0
 13
1.0
 23
0.0
 33
0.0
 40
0.0
 40
0.0
 40
0.0
 40
0.0
 40
1.0
 40
1.0
 40
1.0
 40
2.0
 40
2.0
 40
2.0
 40
3.0
 40
3.0
 40
3.0
 40
4.0
 40
4.0
 40
4.0
 40
4.0
 10
98.7391496199553
 20
-143.1185036195481
 30
0.0
 10
98.7391496199553
 20
-143.0634897510183
 30
0.0
 10
98.69434184679994
 20
-143.018681977863
 30
0.0
 10
98.63931182938477
 20
-143.018681977863
 30
0.0
 10
98.5842764290079
 20
-143.018681977863
 30
0.0
 10
98.53947403881457
 20
-143.0634897510183
 30
0.0
 10
98.53947403881457
 20
-143.1185036195481
 30
0.0
 10
98.53947403881457
 20
-143.1735390199249
 30
0.0
 10
98.5842764290079
 20
-143.2183467930803
 30
0.0
 10
98.63931182938477
 20
-143.2183467930803
 30
0.0
 10
98.69434184679994
 20
-143.2183467930803
 30
0.0
 10
98.7391496199553
 20
-143.1735390199249
 30
0.0
 10
98.7391496199553
 20
-143.1185036195481
 30
0.0
  0
POLYLINE
  5
AB
330
1F
100
AcDbEntity
  8
_U+30EC_U+30A4_U+30E4_U+30FC 1
 62
   179
420
  2234388
370
     9
100
AcDb2dPolyline
 66
     1
 10
0.0
 20
0.0
 30
0.0
  0
VERTEX
  5
AC
330
AB
100
AcDbEntity
  8
_U+30EC_U+30A4_U+30E4_U+30FC 1
 62
   179
420
  2234388
370
     9
100
AcDbVertex
100
AcDb2dVertex
 10
98.63924185088305
 20
-141.6584506210524
 30
0.0
  0
VERTEX
  5
AD
330
AB
100
AcDbEntity
  8
_U+30EC_U+30A4_U+30E4_U+30FC 1
 62
   179
420
  2234388
370
     9
100
AcDbVertex
100
AcDb2dVertex
 10
98.63924185088305
 20
-144.1190885395453
 30
0.0
  0
SEQEND
  5
AE
330
AB
100
AcDbEntity
  8
_U+30EC_U+30A4_U+30E4_U+30FC 1
 62
   179
420
  2234388
370
     9
  0
POLYLINE
  5
AF
330
1F
100
AcDbEntity
  8
_U+30EC_U+30A4_U+30E4_U+30FC 1
 62
   179
420
  2234388
370
     9
100
AcDb2dPolyline
 66
     1
 10
0.0
 20
0.0
 30
0.0
  0
VERTEX
  5
B0
330
AF
100
AcDbEntity
  8
_U+30EC_U+30A4_U+30E4_U+30FC 1
 62
   179
420
  2234388
370
     9
100
AcDbVertex
100
AcDb2dVertex
 10
104.6399199330143
 20
-141.6584506210524
 30
0.0
  0
VERTEX
  5
B1
330
AF
100
AcDbEntity
  8
_U+30EC_U+30A4_U+30E4_U+30FC 1
 62
   179
420
  2234388
370
     9
100
AcDbVertex
100
AcDb2dVertex
 10
104.6399199330143
 20
-144.1190885395453
 30
0.0
  0
SEQEND
  5
B2
330
AF
100
AcDbEntity
  8
_U+30EC_U+30A4_U+30E4_U+30FC 1
 62
   179
420
  2234388
370
     9
  0
INSERT
  5
B4
330
1F
100
AcDbEntity
  8
_U+30EC_U+30A4_U+30E4_U+30FC 1
100
AcDbBlockReference
  2
block 6
 10
0.0
 20
0.0
 30
0.0
  0
POLYLINE
  5
BA
330
1F
100
AcDbEntity
  8
_U+30EC_U+30A4_U+30E4_U+30FC 1
 62
   179
420
  2234388
370
     9
100
AcDb2dPolyline
 66
     1
 10
0.0
 20
0.0
 30
0.0
  0
VERTEX
  5
BB
330
BA
100
AcDbEntity
  8
_U+30EC_U+30A4_U+30E4_U+30FC 1
 62
   179
420
  2234388
370
     9
100
AcDbVertex
100
AcDb2dVertex
 10
104.6392201479942
 20
-143.1185036195481
 30
0.0
  0
VERTEX
  5
BC
330
BA
100
AcDbEntity
  8
_U+30EC_U+30A4_U+30E4_U+30FC 1
 62
   179
420
  2234388
370
     9
100
AcDbVertex
100
AcDb2dVertex
 10
98.63917187238069
 20
-143.1185036195481
 30
0.0
  0
SEQEND
  5
BD
330
BA
100
AcDbEntity
  8
_U+30EC_U+30A4_U+30E4_U+30FC 1
 62
   179
420
  2234388
370
     9
  0
SPLINE
  5
BE
330
1F
100
AcDbEntity
  8
_U+30EC_U+30A4_U+30E4_U+30FC 1
370
     0
100
AcDbSpline
210
0.0
220
0.0
230
1.0
 70
    11
 71
     3
 72
    41
 73
    37
 74
     0
 42
0.0000000001
 43
0.0000000001
 12
1.0
 22
0.0
 32
0.0
 13
1.0
 23
0.0
 33
0.0
 40
0.0
 40
0.0
 40
0.0
 40
0.0
 40
1.0
 40
1.0
 40
1.0
 40
2.0
 40
2.0
 40
2.0
 40
3.0
 40
3.0
 40
3.0
 40
4.0
 40
4.0
 40
4.0
 40
5.0
 40
5.0
 40
5.0
 40
6.0
 40
6.0
 40
6.0
 40
7.0
 40
7.0
 40
7.0
 40
8.0
 40
8.0
 40
8.0
 40
9.0
 40
9.0
 40
9.0
 40
10.0
 40
10.0
 40
10.0
 40
11.0
 40
11.0
 40
11.0
 40
12.0
 40
12.0
 40
12.0
 40
12.0
 10
110.1599748971833
 20
-151.9203780748129
 30
0.0
 10
110.1599748971833
 20
-151.9203780748129
 30
0.0
 10
102.1589721000435
 20
-151.9203780748129
 30
0.0
 10
102.1589721000435
 20
-151.9203780748129
 30
0.0
 10
102.1589721000435
 20
-151.9203780748129
 30
0.0
 10
102.1589721000435
 20
-147.4214063487783
 30
0.0
 10
102.1589721000435
 20
-147.4214063487783
 30
0.0
 10
102.1589721000435
 20
-147.4214063487783
 30
0.0
 10
104.636528667146
 20
-147.4214063487783
 30
0.0
 10
104.636528667146
 20
-147.4214063487783
 30
0.0
 10
104.636528667146
 20
-146.9719721108807
 30
0.0
 10
104.0847858592598
 20
-145.9210457331052
 30
0.0
 10
103.5051700757133
 20
-145.9210457331052
 30
0.0
 10
103.5051700757133
 20
-145.9210457331052
 30
0.0
 10
99.81370719957457
 20
-145.9210457331052
 30
0.0
 10
99.81370719957457
 20
-145.9210457331052
 30
0.0
 10
99.23374152351785
 20
-145.9210457331052
 30
0.0
 10
98.68199333267
 20
-146.7416028821514
 30
0.0
 10
98.68199333267
 20
-147.4214063487783
 30
0.0
 10
98.68199333267
 20
-147.4214063487783
 30
0.0
 10
101.1588501147521
 20
-147.4214063487783
 30
0.0
 10
101.1588501147521
 20
-147.4214063487783
 30
0.0
 10
101.1588501147521
 20
-147.4214063487783
 30
0.0
 10
101.1588501147521
 20
-151.9203780748129
 30
0.0
 10
101.1588501147521
 20
-151.9203780748129
 30
0.0
 10
101.1588501147521
 20
-151.9203780748129
 30
0.0
 10
93.15890776106629
 20
-151.9203780748129
 30
0.0
 10
93.15890776106629
 20
-151.9203780748129
 30
0.0
 10
92.0691756124265
 20
-151.9203780748129
 30
0.0
 10
91.65924693041364
 20
-152.9205108260277
 30
0.0
 10
91.65924693041364
 20
-152.9205108260277
 30
0.0
 10
91.65924693041364
 20
-152.9205108260277
 30
0.0
 10
111.6596249619126
 20
-152.9205108260277
 30
0.0
 10
111.6596249619126
 20
-152.9205108260277
 30
0.0
 10
111.6596249619126
 20
-152.9205108260277
 30
0.0
 10
111.1230513400849
 20
-151.9203780748129
 30
0.0
 10
110.1599748971833
 20
-151.9203780748129
 30
0.0
  0
HATCH
  5
BF
330
1F
100
AcDbEntity
  8
_U+30EC_U+30A4_U+30E4_U+30FC 1
 62
     9
420
 13224394
100
AcDbHatch
 10
0.0
 20
0.0
 30
0.0
210
0.0
220
0.0
230
1.0
  2
SOLID
 70
     1
 71
     0
 91
        1
 92
        1
 93
        2
 72
     4
 94
        3
 73
     0
 74
     0
 95
       41
 96
       37
 40
0.0
 40
0.0
 40
0.0
 40
0.0
 40
0.3527777776895833
 40
0.3527777776895833
 40
0.3527777776895833
 40
0.7055555553791667
 40
0.7055555553791667
 40
0.7055555553791667
 40
1.05833333306875
 40
1.05833333306875
 40
1.05833333306875
 40
1.411111110758333
 40
1.411111110758333
 40
1.411111110758333
 40
1.763888888447917
 40
1.763888888447917
 40
1.763888888447917
 40
2.1166666661375
 40
2.1166666661375
 40
2.1166666661375
 40
2.469444443827083
 40
2.469444443827083
 40
2.469444443827083
 40
2.822222221516667
 40
2.822222221516667
 40
2.822222221516667
 40
3.17499999920625
 40
3.17499999920625
 40
3.17499999920625
 40
3.527777776895833
 40
3.527777776895833
 40
3.527777776895833
 40
3.880555554585417
 40
3.880555554585417
 40
3.880555554585417
 40
4.233333332275
 40
4.233333332275
 40
4.233333332275
 40
4.233333332275
 10
110.1599748971833
 20
-151.9203780748129
 10
110.1599748971833
 20
-151.9203780748129
 10
102.1589721000435
 20
-151.9203780748129
 10
102.1589721000435
 20
-151.9203780748129
 10
102.1589721000435
 20
-151.9203780748129
 10
102.1589721000435
 20
-147.4214063487783
 10
102.1589721000435
 20
-147.4214063487783
 10
102.1589721000435
 20
-147.4214063487783
 10
104.636528667146
 20
-147.4214063487783
 10
104.636528667146
 20
-147.4214063487783
 10
104.636528667146
 20
-146.9719721108807
 10
104.0847858592598
 20
-145.9210457331052
 10
103.5051700757133
 20
-145.9210457331052
 10
103.5051700757133
 20
-145.9210457331052
 10
99.81370719957457
 20
-145.9210457331052
 10
99.81370719957457
 20
-145.9210457331052
 10
99.23374152351785
 20
-145.9210457331052
 10
98.68199333267
 20
-146.7416028821514
 10
98.68199333267
 20
-147.4214063487783
 10
98.68199333267
 20
-147.4214063487783
 10
101.1588501147521
 20
-147.4214063487783
 10
101.1588501147521
 20
-147.4214063487783
 10
101.1588501147521
 20
-147.4214063487783
 10
101.1588501147521
 20
-151.9203780748129
 10
101.1588501147521
 20
-151.9203780748129
 10
101.1588501147521
 20
-151.9203780748129
 10
93.15890776106629
 20
-151.9203780748129
 10
93.15890776106629
 20
-151.9203780748129
 10
92.0691756124265
 20
-151.9203780748129
 10
91.65924693041364
 20
-152.9205108260277
 10
91.65924693041364
 20
-152.9205108260277
 10
91.65924693041364
 20
-152.9205108260277
 10
111.6596249619126
 20
-152.9205108260277
 10
111.6596249619126
 20
-152.9205108260277
 10
111.6596249619126
 20
-152.9205108260277
 10
111.1230513400849
 20
-151.9203780748129
 10
110.1599748971833
 20
-151.9203780748129
 97
        0
 72
     1
 10
110.1599748971833
 20
-151.9203780748129
 11
110.1599748971833
 21
-151.9203780748129
 97
        0
 75
     2
 76
     1
 98
        0
  0
SPLINE
  5
C0
330
1F
100
AcDbEntity
  8
_U+30EC_U+30A4_U+30E4_U+30FC 1
 62
   179
420
  2234388
370
    25
100
AcDbSpline
210
0.0
220
0.0
230
1.0
 70
    11
 71
     3
 72
    41
 73
    37
 74
     0
 42
0.0000000001
 43
0.0000000001
 12
1.0
 22
0.0
 32
0.0
 13
1.0
 23
0.0
 33
0.0
 40
0.0
 40
0.0
 40
0.0
 40
0.0
 40
1.0
 40
1.0
 40
1.0
 40
2.0
 40
2.0
 40
2.0
 40
3.0
 40
3.0
 40
3.0
 40
4.0
 40
4.0
 40
4.0
 40
5.0
 40
5.0
 40
5.0
 40
6.0
 40
6.0
 40
6.0
 40
7.0
 40
7.0
 40
7.0
 40
8.0
 40
8.0
 40
8.0
 40
9.0
 40
9.0
 40
9.0
 40
10.0
 40
10.0
 40
10.0
 40
11.0
 40
11.0
 40
11.0
 40
12.0
 40
12.0
 40
12.0
 40
12.0
 10
110.1599748971833
 20
-151.9203780748129
 30
0.0
 10
110.1599748971833
 20
-151.9203780748129
 30
0.0
 10
102.1589721000435
 20
-151.9203780748129
 30
0.0
 10
102.1589721000435
 20
-151.9203780748129
 30
0.0
 10
102.1589721000435
 20
-151.9203780748129
 30
0.0
 10
102.1589721000435
 20
-147.4214063487783
 30
0.0
 10
102.1589721000435
 20
-147.4214063487783
 30
0.0
 10
102.1589721000435
 20
-147.4214063487783
 30
0.0
 10
104.636528667146
 20
-147.4214063487783
 30
0.0
 10
104.636528667146
 20
-147.4214063487783
 30
0.0
 10
104.636528667146
 20
-146.9719721108807
 30
0.0
 10
104.0847858592598
 20
-145.9210457331052
 30
0.0
 10
103.5051700757133
 20
-145.9210457331052
 30
0.0
 10
103.5051700757133
 20
-145.9210457331052
 30
0.0
 10
99.81370719957457
 20
-145.9210457331052
 30
0.0
 10
99.81370719957457
 20
-145.9210457331052
 30
0.0
 10
99.23374152351785
 20
-145.9210457331052
 30
0.0
 10
98.68199333267
 20
-146.7416028821514
 30
0.0
 10
98.68199333267
 20
-147.4214063487783
 30
0.0
 10
98.68199333267
 20
-147.4214063487783
 30
0.0
 10
101.1588501147521
 20
-147.4214063487783
 30
0.0
 10
101.1588501147521
 20
-147.4214063487783
 30
0.0
 10
101.1588501147521
 20
-147.4214063487783
 30
0.0
 10
101.1588501147521
 20
-151.9203780748129
 30
0.0
 10
101.1588501147521
 20
-151.9203780748129
 30
0.0
 10
101.1588501147521
 20
-151.9203780748129
 30
0.0
 10
93.15890776106629
 20
-151.9203780748129
 30
0.0
 10
93.15890776106629
 20
-151.9203780748129
 30
0.0
 10
92.0691756124265
 20
-151.9203780748129
 30
0.0
 10
91.65924693041364
 20
-152.9205108260277
 30
0.0
 10
91.65924693041364
 20
-152.9205108260277
 30
0.0
 10
91.65924693041364
 20
-152.9205108260277
 30
0.0
 10
111.6596249619126
 20
-152.9205108260277
 30
0.0
 10
111.6596249619126
 20
-152.9205108260277
 30
0.0
 10
111.6596249619126
 20
-152.9205108260277
 30
0.0
 10
111.1230513400849
 20
-151.9203780748129
 30
0.0
 10
110.1599748971833
 20
-151.9203780748129
 30
0.0
  0
INSERT
  5
C2
330
1F
100
AcDbEntity
  8
_U+30EC_U+30A4_U+30E4_U+30FC 1
100
AcDbBlockReference
  2
block 7
 10
0.0
 20
0.0
 30
0.0
  0
POLYLINE
  5
D4
330
1F
100
AcDbEntity
  8
_U+30EC_U+30A4_U+30E4_U+30FC 1
 62
   179
420
  2234388
370
     9
100
AcDb2dPolyline
 66
     1
 10
0.0
 20
0.0
 30
0.0
  0
VERTEX
  5
D5
330
D4
100
AcDbEntity
  8
_U+30EC_U+30A4_U+30E4_U+30FC 1
 62
   179
420
  2234388
370
     9
100
AcDbVertex
100
AcDb2dVertex
 10
97.88888390531022
 20
-145.8537156482154
 30
0.0
  0
VERTEX
  5
D6
330
D4
100
AcDbEntity
  8
_U+30EC_U+30A4_U+30E4_U+30FC 1
 62
   179
420
  2234388
370
     9
100
AcDbVertex
100
AcDb2dVertex
 10
95.91685203697456
 20
-144.5607928444479
 30
0.0
  0
SEQEND
  5
D7
330
D4
100
AcDbEntity
  8
_U+30EC_U+30A4_U+30E4_U+30FC 1
 62
   179
420
  2234388
370
     9
  0
POLYLINE
  5
D8
330
1F
100
AcDbEntity
  8
_U+30EC_U+30A4_U+30E4_U+30FC 1
370
     0
100
AcDb2dPolyline
 66
     1
 10
0.0
 20
0.0
 30
0.0
  0
VERTEX
  5
D9
330
D8
100
AcDbEntity
  8
_U+30EC_U+30A4_U+30E4_U+30FC 1
370
     0
100
AcDbVertex
100
AcDb2dVertex
 10
97.56591696949144
 20
-145.9849953180502
 30
0.0
  0
VERTEX
  5
DA
330
D8
100
AcDbEntity
  8
_U+30EC_U+30A4_U+30E4_U+30FC 1
370
     0
100
AcDbVertex
100
AcDb2dVertex
 10
98.63165725785349
 20
-146.3367180352474
 30
0.0
  0
VERTEX
  5
DB
330
D8
100
AcDbEntity
  8
_U+30EC_U+30A4_U+30E4_U+30FC 1
370
     0
100
AcDbVertex
100
AcDb2dVertex
 10
97.88447525968145
 20
-145.49923685463
 30
0.0
  0
VERTEX
  5
DC
330
D8
100
AcDbEntity
  8
_U+30EC_U+30A4_U+30E4_U+30FC 1
370
     0
100
AcDbVertex
100
AcDb2dVertex
 10
97.56591696949144
 20
-145.9849953180502
 30
0.0
  0
SEQEND
  5
DE
330
D8
100
AcDbEntity
  8
_U+30EC_U+30A4_U+30E4_U+30FC 1
370
     0
  0
HATCH
  5
DD
330
1F
100
AcDbEntity
  8
_U+30EC_U+30A4_U+30E4_U+30FC 1
 62
   179
420
  2234388
100
AcDbHatch
 10
0.0
 20
0.0
 30
0.0
210
0.0
220
0.0
230
1.0
  2
SOLID
 70
     1
 71
     0
 91
        1
 92
        1
 93
        3
 72
     1
 10
97.56591696949144
 20
-145.9849953180502
 11
98.63165725785349
 21
-146.3367180352474
 72
     1
 10
98.63165725785349
 20
-146.3367180352474
 11
97.88447525968145
 21
-145.49923685463
 72
     1
 10
97.88447525968145
 20
-145.49923685463
 11
97.56591696949144
 21
-145.9849953180502
 97
        0
 75
     2
 76
     1
 98
        0
  0
ENDSEC
  0
SECTION
  2
OBJECTS
  0
DICTIONARY
  5
C
330
0
100
AcDbDictionary
281
     1
  3
ACAD_GROUP
350
D
  3
ACAD_LAYOUT
350
1A
  3
ACAD_MATERIAL
350
3B
  3
ACAD_MLEADERSTYLE
350
E0
  3
ACAD_MLINESTYLE
350
17
  3
ACAD_PLOTSETTINGS
350
19
  3
ACAD_PLOTSTYLENAME
350
E
  3
ACAD_TABLESTYLE
350
DF
  3
ACAD_VISUALSTYLE
350
2A
  0
SUN
  5
3F
330
29
100
AcDbSun
 90
        1
290
     0
 63
     7
421
 16777215
 40
1.0
291
     1
 91
  2455826
 92
 54000000
292
     0
 70
     2
 71
   256
280
     1
  0
DICTIONARY
  5
D
102
{ACAD_REACTORS
330
C
102
}
330
C
100
AcDbDictionary
281
     1
  0
DICTIONARY
  5
1A
102
{ACAD_REACTORS
330
C
102
}
330
C
100
AcDbDictionary
281
     1
  3
Layout1
350
1E
  3
Layout2
350
26
  3
Model
350
22
  0
DICTIONARY
  5
3B
102
{ACAD_REACTORS
330
C
102
}
330
C
100
AcDbDictionary
281
     1
  3
ByBlock
350
3D
  3
ByLayer
350
3C
  3
Global
350
3E
  0
DICTIONARY
  5
E0
102
{ACAD_REACTORS
330
C
102
}
330
C
100
AcDbDictionary
281
     1
  0
DICTIONARY
  5
17
102
{ACAD_REACTORS
330
C
102
}
330
C
100
AcDbDictionary
281
     1
  3
Standard
350
18
  0
DICTIONARY
  5
19
102
{ACAD_REACTORS
330
C
102
}
330
C
100
AcDbDictionary
281
     1
  0
ACDBDICTIONARYWDFLT
  5
E
102
{ACAD_REACTORS
330
C
102
}
330
C
100
AcDbDictionary
281
     1
  3
Normal
350
F
100
AcDbDictionaryWithDefault
340
F
  0
DICTIONARY
  5
DF
102
{ACAD_REACTORS
330
C
102
}
330
C
100
AcDbDictionary
281
     1
  0
DICTIONARY
  5
2A
102
{ACAD_REACTORS
330
C
102
}
330
C
100
AcDbDictionary
281
     1
  3
2dWireframe
350
2F
  3
3D Hidden
350
31
  3
3dWireframe
350
30
  3
Basic
350
32
  3
Brighten
350
36
  3
ColorChange
350
3A
  3
Conceptual
350
34
  3
Dim
350
35
  3
Facepattern
350
39
  3
Flat
350
2B
  3
FlatWithEdges
350
2C
  3
Gouraud
350
2D
  3
GouraudWithEdges
350
2E
  3
Linepattern
350
38
  3
Realistic
350
33
  3
Thicken
350
37
  0
LAYOUT
  5
1E
102
{ACAD_REACTORS
330
1A
102
}
330
1A
100
AcDbPlotSettings
  1

  2
none_device
  4

  6

 40
0.0
 41
0.0
 42
0.0
 43
0.0
 44
0.0
 45
0.0
 46
0.0
 47
0.0
 48
0.0
 49
0.0
140
0.0
141
0.0
142
1.0
143
1.0
 70
   688
 72
     0
 73
     0
 74
     5
  7

 75
    16
 76
     0
 77
     2
 78
   300
147
1.0
148
0.0
149
0.0
100
AcDbLayout
  1
Layout1
 70
     1
 71
     1
 10
0.0
 20
0.0
 11
12.0
 21
9.0
 12
0.0
 22
0.0
 32
0.0
 14
1.000000000000000E+20
 24
1.000000000000000E+20
 34
1.000000000000000E+20
 15
-1.000000000000000E+20
 25
-1.000000000000000E+20
 35
-1.000000000000000E+20
146
0.0
 13
0.0
 23
0.0
 33
0.0
 16
1.0
 26
0.0
 36
0.0
 17
0.0
 27
1.0
 37
0.0
 76
     0
330
1B
  0
LAYOUT
  5
26
102
{ACAD_REACTORS
330
1A
102
}
330
1A
100
AcDbPlotSettings
  1

  2
none_device
  4

  6

 40
0.0
 41
0.0
 42
0.0
 43
0.0
 44
0.0
 45
0.0
 46
0.0
 47
0.0
 48
0.0
 49
0.0
140
0.0
141
0.0
142
1.0
143
1.0
 70
   688
 72
     0
 73
     0
 74
     5
  7

 75
    16
 76
     0
 77
     2
 78
   300
147
1.0
148
0.0
149
0.0
100
AcDbLayout
  1
Layout2
 70
     1
 71
     2
 10
0.0
 20
0.0
 11
0.0
 21
0.0
 12
0.0
 22
0.0
 32
0.0
 14
0.0
 24
0.0
 34
0.0
 15
0.0
 25
0.0
 35
0.0
146
0.0
 13
0.0
 23
0.0
 33
0.0
 16
1.0
 26
0.0
 36
0.0
 17
0.0
 27
1.0
 37
0.0
 76
     0
330
23
  0
LAYOUT
  5
22
102
{ACAD_REACTORS
330
1A
102
}
330
1A
100
AcDbPlotSettings
  1

  2
none_device
  4

  6

 40
0.0
 41
0.0
 42
0.0
 43
0.0
 44
0.0
 45
0.0
 46
0.0
 47
0.0
 48
0.0
 49
0.0
140
0.0
141
0.0
142
1.0
143
1.0
 70
  1712
 72
     0
 73
     0
 74
     0
  7

 75
     0
 76
     0
 77
     2
 78
   300
147
1.0
148
0.0
149
0.0
100
AcDbLayout
  1
Model
 70
     1
 71
     0
 10
0.0
 20
0.0
 11
12.0
 21
9.0
 12
0.0
 22
0.0
 32
0.0
 14
1.000000000000000E+20
 24
1.000000000000000E+20
 34
1.000000000000000E+20
 15
-1.000000000000000E+20
 25
-1.000000000000000E+20
 35
-1.000000000000000E+20
146
0.0
 13
0.0
 23
0.0
 33
0.0
 16
1.0
 26
0.0
 36
0.0
 17
0.0
 27
1.0
 37
0.0
 76
     0
330
1F
331
29
  0
MATERIAL
  5
3D
102
{ACAD_REACTORS
330
3B
102
}
330
3B
100
AcDbMaterial
  1
ByBlock
 72
     1
 94
      127
  0
MATERIAL
  5
3C
102
{ACAD_REACTORS
330
3B
102
}
330
3B
100
AcDbMaterial
  1
ByLayer
 72
     1
 94
      127
  0
MATERIAL
  5
3E
102
{ACAD_REACTORS
330
3B
102
}
330
3B
100
AcDbMaterial
  1
Global
 72
     1
 94
      127
  0
MLINESTYLE
  5
18
102
{ACAD_REACTORS
330
17
102
}
330
17
100
AcDbMlineStyle
  2
Standard
 70
     0
  3

 62
   256
 51
90.0
 52
90.0
 71
     2
 49
0.5
 62
   256
  6
BYLAYER
 49
-0.5
 62
   256
  6
BYLAYER
  0
ACDBPLACEHOLDER
  5
F
102
{ACAD_REACTORS
330
E
102
}
330
E
  0
VISUALSTYLE
  5
2F
102
{ACAD_REACTORS
330
2A
102
}
330
2A
100
AcDbVisualStyle
  2
2dWireframe
 70
     4
177
     2
291
     0
 71
     0
176
     1
 72
     2
176
     1
 73
     0
176
     1
 90
        0
176
     1
 40
-0.6
176
     1
 41
-30.0
176
     1
 62
     5
 63
     7
421
 16777215
176
     1
 74
     1
176
     1
 91
        4
176
     1
 64
     7
176
     1
 65
   257
176
     1
 75
     1
176
     1
175
     1
176
     1
 42
1.0
176
     1
 92
        0
176
     1
 66
   257
176
     1
 43
1.0
176
     1
 76
     1
176
     1
 77
     6
176
     1
 78
     2
176
     1
 67
     7
176
     1
 79
     5
176
     1
170
     0
176
     1
171
     0
176
     1
290
     0
176
     1
 93
        1
176
     1
 44
0.0
176
     1
173
     0
176
     1
  0
VISUALSTYLE
  5
31
102
{ACAD_REACTORS
330
2A
102
}
330
2A
100
AcDbVisualStyle
  2
3D Hidden
 70
     6
177
     2
291
     0
 71
     1
176
     1
 72
     2
176
     1
 73
     2
176
     1
 90
        0
176
     1
 40
-0.6
176
     1
 41
-30.0
176
     1
 62
     5
 63
     7
421
 16777215
176
     1
 74
     2
176
     1
 91
        2
176
     1
 64
     7
176
     1
 65
   257
176
     1
 75
     2
176
     1
175
     1
176
     1
 42
40.0
176
     1
 92
        0
176
     1
 66
   257
176
     1
 43
1.0
176
     1
 76
     1
176
     1
 77
     6
176
     1
 78
     2
176
     1
 67
     7
176
     1
 79
     3
176
     1
170
     0
176
     1
171
     0
176
     1
290
     0
176
     1
 93
        1
176
     1
 44
0.0
176
     1
173
     0
176
     1
  0
VISUALSTYLE
  5
30
102
{ACAD_REACTORS
330
2A
102
}
330
2A
100
AcDbVisualStyle
  2
3dWireframe
 70
     5
177
     2
291
     0
 71
     0
176
     1
 72
     2
176
     1
 73
     0
176
     1
 90
        0
176
     1
 40
-0.6
176
     1
 41
-30.0
176
     1
 62
     5
 63
     7
421
 16777215
176
     1
 74
     1
176
     1
 91
        4
176
     1
 64
     7
176
     1
 65
   257
176
     1
 75
     1
176
     1
175
     1
176
     1
 42
1.0
176
     1
 92
        0
176
     1
 66
   257
176
     1
 43
1.0
176
     1
 76
     1
176
     1
 77
     6
176
     1
 78
     2
176
     1
 67
     7
176
     1
 79
     5
176
     1
170
     0
176
     1
171
     0
176
     1
290
     0
176
     1
 93
        1
176
     1
 44
0.0
176
     1
173
     0
176
     1
  0
VISUALSTYLE
  5
32
102
{ACAD_REACTORS
330
2A
102
}
330
2A
100
AcDbVisualStyle
  2
Basic
 70
     7
177
     2
291
     1
 71
     1
176
     1
 72
     0
176
     1
 73
     1
176
     1
 90
        0
176
     1
 40
-0.6
176
     1
 41
-30.0
176
     1
 62
     5
 63
     7
421
 16777215
176
     1
 74
     0
176
     1
 91
        4
176
     1
 64
     7
176
     1
 65
   257
176
     1
 75
     1
176
     1
175
     1
176
     1
 42
1.0
176
     1
 92
        8
176
     1
 66
     7
176
     1
 43
1.0
176
     1
 76
     1
176
     1
 77
     6
176
     1
 78
     2
176
     1
 67
     7
176
     1
 79
     5
176
     1
170
     0
176
     1
171
     0
176
     1
290
     0
176
     1
 93
        1
176
     1
 44
0.0
176
     1
173
     0
176
     1
  0
VISUALSTYLE
  5
36
102
{ACAD_REACTORS
330
2A
102
}
330
2A
100
AcDbVisualStyle
  2
Brighten
 70
    12
177
     2
291
     1
 71
     2
176
     1
 72
     2
176
     1
 73
     0
176
     1
 90
        0
176
     1
 40
-0.6
176
     1
 41
-30.0
176
     1
 62
     5
 63
     7
421
 16777215
176
     1
 74
     1
176
     1
 91
        4
176
     1
 64
     7
176
     1
 65
   257
176
     1
 75
     1
176
     1
175
     1
176
     1
 42
1.0
176
     1
 92
        8
176
     1
 66
     7
176
     1
 43
1.0
176
     1
 76
     1
176
     1
 77
     6
176
     1
 78
     2
176
     1
 67
     7
176
     1
 79
     5
176
     1
170
     0
176
     1
171
     0
176
     1
290
     0
176
     1
 93
        1
176
     1
 44
50.0
176
     1
173
     0
176
     1
  0
VISUALSTYLE
  5
3A
102
{ACAD_REACTORS
330
2A
102
}
330
2A
100
AcDbVisualStyle
  2
ColorChange
 70
    16
177
     2
291
     1
 71
     2
176
     1
 72
     2
176
     1
 73
     3
176
     1
 90
        0
176
     1
 40
-0.6
176
     1
 41
-30.0
176
     1
 62
     5
 63
     8
421
  8421504
176
     1
 74
     1
176
     1
 91
        4
176
     1
 64
     7
176
     1
 65
   257
176
     1
 75
     1
176
     1
175
     1
176
     1
 42
1.0
176
     1
 92
        8
176
     1
 66
     8
424
  8421504
176
     1
 43
1.0
176
     1
 76
     1
176
     1
 77
     6
176
     1
 78
     2
176
     1
 67
     7
176
     1
 79
     5
176
     1
170
     0
176
     1
171
     0
176
     1
290
     0
176
     1
 93
        1
176
     1
 44
0.0
176
     1
173
     0
176
     1
  0
VISUALSTYLE
  5
34
102
{ACAD_REACTORS
330
2A
102
}
330
2A
100
AcDbVisualStyle
  2
Conceptual
 70
     9
177
     2
291
     0
 71
     3
176
     1
 72
     2
176
     1
 73
     0
176
     1
 90
        0
176
     1
 40
-0.6
176
     1
 41
-30.0
176
     1
 62
     5
 63
     7
421
 16777215
176
     1
 74
     2
176
     1
 91
        2
176
     1
 64
     7
176
     1
 65
   257
176
     1
 75
     1
176
     1
175
     1
176
     1
 42
40.0
176
     1
 92
        8
176
     1
 66
     7
176
     1
 43
1.0
176
     1
 76
     1
176
     1
 77
     6
176
     1
 78
     2
176
     1
 67
     7
176
     1
 79
     3
176
     1
170
     0
176
     1
171
     0
176
     1
290
     0
176
     1
 93
        1
176
     1
 44
0.0
176
     1
173
     0
176
     1
  0
VISUALSTYLE
  5
35
102
{ACAD_REACTORS
330
2A
102
}
330
2A
100
AcDbVisualStyle
  2
Dim
 70
    11
177
     2
291
     1
 71
     2
176
     1
 72
     2
176
     1
 73
     0
176
     1
 90
        0
176
     1
 40
-0.6
176
     1
 41
-30.0
176
     1
 62
     5
 63
     7
421
 16777215
176
     1
 74
     1
176
     1
 91
        4
176
     1
 64
     7
176
     1
 65
   257
176
     1
 75
     1
176
     1
175
     1
176
     1
 42
1.0
176
     1
 92
        8
176
     1
 66
     7
176
     1
 43
1.0
176
     1
 76
     1
176
     1
 77
     6
176
     1
 78
     2
176
     1
 67
     7
176
     1
 79
     5
176
     1
170
     0
176
     1
171
     0
176
     1
290
     0
176
     1
 93
        1
176
     1
 44
-50.0
176
     1
173
     0
176
     1
  0
VISUALSTYLE
  5
39
102
{ACAD_REACTORS
330
2A
102
}
330
2A
100
AcDbVisualStyle
  2
Facepattern
 70
    15
177
     2
291
     1
 71
     2
176
     1
 72
     2
176
     1
 73
     0
176
     1
 90
        0
176
     1
 40
-0.6
176
     1
 41
-30.0
176
     1
 62
     5
 63
     7
421
 16777215
176
     1
 74
     1
176
     1
 91
        4
176
     1
 64
     7
176
     1
 65
   257
176
     1
 75
     1
176
     1
175
     1
176
     1
 42
1.0
176
     1
 92
        8
176
     1
 66
     7
176
     1
 43
1.0
176
     1
 76
     1
176
     1
 77
     6
176
     1
 78
     2
176
     1
 67
     7
176
     1
 79
     5
176
     1
170
     0
176
     1
171
     0
176
     1
290
     0
176
     1
 93
        1
176
     1
 44
0.0
176
     1
173
     0
176
     1
  0
VISUALSTYLE
  5
2B
102
{ACAD_REACTORS
330
2A
102
}
330
2A
100
AcDbVisualStyle
  2
Flat
 70
     0
177
     2
291
     1
 71
     2
176
     1
 72
     1
176
     1
 73
     1
176
     1
 90
        2
176
     1
 40
-0.6
176
     1
 41
30.0
176
     1
 62
     5
 63
     7
421
 16777215
176
     1
 74
     0
176
     1
 91
        4
176
     1
 64
     7
176
     1
 65
   257
176
     1
 75
     1
176
     1
175
     1
176
     1
 42
1.0
176
     1
 92
        8
176
     1
 66
     7
176
     1
 43
1.0
176
     1
 76
     1
176
     1
 77
     6
176
     1
 78
     2
176
     1
 67
     7
176
     1
 79
     5
176
     1
170
     0
176
     1
171
     0
176
     1
290
     0
176
     1
 93
       13
176
     1
 44
0.0
176
     1
173
     0
176
     1
  0
VISUALSTYLE
  5
2C
102
{ACAD_REACTORS
330
2A
102
}
330
2A
100
AcDbVisualStyle
  2
FlatWithEdges
 70
     1
177
     2
291
     1
 71
     2
176
     1
 72
     1
176
     1
 73
     1
176
     1
 90
        2
176
     1
 40
-0.6
176
     1
 41
30.0
176
     1
 62
     5
 63
     7
421
 16777215
176
     1
 74
     1
176
     1
 91
        4
176
     1
 64
     7
176
     1
 65
   257
176
     1
 75
     1
176
     1
175
     1
176
     1
 42
1.0
176
     1
 92
        0
176
     1
 66
   257
176
     1
 43
1.0
176
     1
 76
     1
176
     1
 77
     6
176
     1
 78
     2
176
     1
 67
     7
176
     1
 79
     5
176
     1
170
     0
176
     1
171
     0
176
     1
290
     0
176
     1
 93
       13
176
     1
 44
0.0
176
     1
173
     0
176
     1
  0
VISUALSTYLE
  5
2D
102
{ACAD_REACTORS
330
2A
102
}
330
2A
100
AcDbVisualStyle
  2
Gouraud
 70
     2
177
     2
291
     1
 71
     2
176
     1
 72
     2
176
     1
 73
     1
176
     1
 90
        2
176
     1
 40
-0.6
176
     1
 41
30.0
176
     1
 62
     5
 63
     7
421
 16777215
176
     1
 74
     0
176
     1
 91
        4
176
     1
 64
     7
176
     1
 65
   257
176
     1
 75
     1
176
     1
175
     1
176
     1
 42
1.0
176
     1
 92
        0
176
     1
 66
     7
176
     1
 43
1.0
176
     1
 76
     1
176
     1
 77
     6
176
     1
 78
     2
176
     1
 67
     7
176
     1
 79
     5
176
     1
170
     0
176
     1
171
     0
176
     1
290
     0
176
     1
 93
       13
176
     1
 44
0.0
176
     1
173
     0
176
     1
  0
VISUALSTYLE
  5
2E
102
{ACAD_REACTORS
330
2A
102
}
330
2A
100
AcDbVisualStyle
  2
GouraudWithEdges
 70
     3
177
     2
291
     1
 71
     2
176
     1
 72
     2
176
     1
 73
     1
176
     1
 90
        2
176
     1
 40
-0.6
176
     1
 41
30.0
176
     1
 62
     5
 63
     7
421
 16777215
176
     1
 74
     1
176
     1
 91
        4
176
     1
 64
     7
176
     1
 65
   257
176
     1
 75
     1
176
     1
175
     1
176
     1
 42
1.0
176
     1
 92
        0
176
     1
 66
   257
176
     1
 43
1.0
176
     1
 76
     1
176
     1
 77
     6
176
     1
 78
     2
176
     1
 67
     7
176
     1
 79
     5
176
     1
170
     0
176
     1
171
     0
176
     1
290
     0
176
     1
 93
       13
176
     1
 44
0.0
176
     1
173
     0
176
     1
  0
VISUALSTYLE
  5
38
102
{ACAD_REACTORS
330
2A
102
}
330
2A
100
AcDbVisualStyle
  2
Linepattern
 70
    14
177
     2
291
     1
 71
     2
176
     1
 72
     2
176
     1
 73
     0
176
     1
 90
        0
176
     1
 40
-0.6
176
     1
 41
-30.0
176
     1
 62
     5
 63
     7
421
 16777215
176
     1
 74
     1
176
     1
 91
        4
176
     1
 64
     7
176
     1
 65
   257
176
     1
 75
     7
176
     1
175
     7
176
     1
 42
1.0
176
     1
 92
        8
176
     1
 66
     7
176
     1
 43
1.0
176
     1
 76
     1
176
     1
 77
     6
176
     1
 78
     2
176
     1
 67
     7
176
     1
 79
     5
176
     1
170
     0
176
     1
171
     0
176
     1
290
     0
176
     1
 93
        1
176
     1
 44
0.0
176
     1
173
     0
176
     1
  0
VISUALSTYLE
  5
33
102
{ACAD_REACTORS
330
2A
102
}
330
2A
100
AcDbVisualStyle
  2
Realistic
 70
     8
177
     2
291
     0
 71
     2
176
     1
 72
     2
176
     1
 73
     0
176
     1
 90
        0
176
     1
 40
-0.6
176
     1
 41
-30.0
176
     1
 62
     5
 63
     7
421
 16777215
176
     1
 74
     1
176
     1
 91
        0
176
     1
 64
     7
176
     1
 65
   257
176
     1
 75
     1
176
     1
175
     1
176
     1
 42
1.0
176
     1
 92
        8
176
     1
 66
     8
424
  7895160
176
     1
 43
1.0
176
     1
 76
     1
176
     1
 77
     6
176
     1
 78
     2
176
     1
 67
     7
176
     1
 79
     5
176
     1
170
     0
176
     1
171
     0
176
     1
290
     0
176
     1
 93
       13
176
     1
 44
0.0
176
     1
173
     0
176
     1
  0
VISUALSTYLE
  5
37
102
{ACAD_REACTORS
330
2A
102
}
330
2A
100
AcDbVisualStyle
  2
Thicken
 70
    13
177
     2
291
     1
 71
     2
176
     1
 72
     2
176
     1
 73
     0
176
     1
 90
        0
176
     1
 40
-0.6
176
     1
 41
-30.0
176
     1
 62
     5
 63
     7
421
 16777215
176
     1
 74
     1
176
     1
 91
        4
176
     1
 64
     7
176
     1
 65
   257
176
     1
 75
     1
176
     1
175
     1
176
     1
 42
1.0
176
     1
 92
       12
176
     1
 66
     7
176
     1
 43
1.0
176
     1
 76
     1
176
     1
 77
     6
176
     1
 78
     2
176
     1
 67
     7
176
     1
 79
     5
176
     1
170
     0
176
     1
171
     0
176
     1
290
     0
176
     1
 93
        1
176
     1
 44
0.0
176
     1
173
     0
176
     1
  0
ENDSEC
  0
EOF
