  0
SECTION
  2
HEADER
  9
$ACADVER
  1
AC1024
  9
$ACADMAINTVER
 70
     6
  9
$DWGCODEPAGE
  3
UNDEFINED
  9
$INSBASE
 10
0.0
 20
0.0
 30
0.0
  9
$EXTMIN
 10
1.000000000000000E+20
 20
1.000000000000000E+20
 30
1.000000000000000E+20
  9
$EXTMAX
 10
-1.000000000000000E+20
 20
-1.000000000000000E+20
 30
-1.000000000000000E+20
  9
$LIMMIN
 10
0.0
 20
0.0
  9
$LIMMAX
 10
12.0
 20
9.0
  9
$ORTHOMODE
 70
     0
  9
$REGENMODE
 70
     1
  9
$FILLMODE
 70
     1
  9
$QTEXTMODE
 70
     0
  9
$MIRRTEXT
 70
     1
  9
$LTSCALE
 40
1.0
  9
$ATTMODE
 70
     1
  9
$TEXTSIZE
 40
0.2
  9
$TRACEWID
 40
0.05
  9
$TEXTSTYLE
  7
Standard
  9
$CLAYER
  8
0
  9
$CELTYPE
  6
ByLayer
  9
$CECOLOR
 62
   256
  9
$CELTSCALE
 40
1.0
  9
$DISPSILH
 70
     0
  9
$DIMSCALE
 40
1.0
  9
$DIMASZ
 40
0.18
  9
$DIMEXO
 40
0.0625
  9
$DIMDLI
 40
0.38
  9
$DIMRND
 40
0.0
  9
$DIMDLE
 40
0.0
  9
$DIMEXE
 40
0.18
  9
$DIMTP
 40
0.0
  9
$DIMTM
 40
0.0
  9
$DIMTXT
 40
0.18
  9
$DIMCEN
 40
0.09
  9
$DIMTSZ
 40
0.0
  9
$DIMTOL
 70
     0
  9
$DIMLIM
 70
     0
  9
$DIMTIH
 70
     1
  9
$DIMTOH
 70
     1
  9
$DIMSE1
 70
     0
  9
$DIMSE2
 70
     0
  9
$DIMTAD
 70
     0
  9
$DIMZIN
 70
     0
  9
$DIMBLK
  1

  9
$DIMASO
 70
     1
  9
$DIMSHO
 70
     1
  9
$DIMPOST
  1

  9
$DIMAPOST
  1

  9
$DIMALT
 70
     0
  9
$DIMALTD
 70
     2
  9
$DIMALTF
 40
25.4
  9
$DIMLFAC
 40
1.0
  9
$DIMTOFL
 70
     0
  9
$DIMTVP
 40
0.0
  9
$DIMTIX
 70
     0
  9
$DIMSOXD
 70
     0
  9
$DIMSAH
 70
     0
  9
$DIMBLK1
  1

  9
$DIMBLK2
  1

  9
$DIMSTYLE
  2
Standard
  9
$DIMCLRD
 70
     0
  9
$DIMCLRE
 70
     0
  9
$DIMCLRT
 70
     0
  9
$DIMTFAC
 40
1.0
  9
$DIMGAP
 40
0.09
  9
$DIMJUST
 70
     0
  9
$DIMSD1
 70
     0
  9
$DIMSD2
 70
     0
  9
$DIMTOLJ
 70
     1
  9
$DIMTZIN
 70
     0
  9
$DIMALTZ
 70
     0
  9
$DIMALTTZ
 70
     0
  9
$DIMUPT
 70
     0
  9
$DIMDEC
 70
     4
  9
$DIMTDEC
 70
     4
  9
$DIMALTU
 70
     2
  9
$DIMALTTD
 70
     2
  9
$DIMTXSTY
  7
Standard
  9
$DIMAUNIT
 70
     0
  9
$DIMADEC
 70
     0
  9
$DIMALTRND
 40
0.0
  9
$DIMAZIN
 70
     0
  9
$DIMDSEP
 70
    46
  9
$DIMATFIT
 70
     3
  9
$DIMFRAC
 70
     0
  9
$DIMLDRBLK
  1

  9
$DIMLUNIT
 70
     2
  9
$DIMLWD
 70
    -2
  9
$DIMLWE
 70
    -2
  9
$DIMTMOVE
 70
     0
  9
$DIMFXL
 40
1.0
  9
$DIMFXLON
 70
     0
  9
$DIMJOGANG
 40
0.7853981633974483
  9
$DIMTFILL
 70
     0
  9
$DIMTFILLCLR
 70
     0
  9
$DIMARCSYM
 70
     0
  9
$DIMLTYPE
  6

  9
$DIMLTEX1
  6

  9
$DIMLTEX2
  6

  9
$DIMTXTDIRECTION
 70
     0
  9
$LUNITS
 70
     2
  9
$LUPREC
 70
     4
  9
$SKETCHINC
 40
0.1
  9
$FILLETRAD
 40
0.5
  9
$AUNITS
 70
     0
  9
$AUPREC
 70
     0
  9
$MENU
  1
.
  9
$ELEVATION
 40
0.0
  9
$PELEVATION
 40
0.0
  9
$THICKNESS
 40
0.0
  9
$LIMCHECK
 70
     0
  9
$CHAMFERA
 40
0.5
  9
$CHAMFERB
 40
0.5
  9
$CHAMFERC
 40
1.0
  9
$CHAMFERD
 40
0.0
  9
$SKPOLY
 70
     0
  9
$TDCREATE
 40
2458263.582847211
  9
$TDUCREATE
 40
2458263.207847222
  9
$TDUPDATE
 40
2458263.582847211
  9
$TDUUPDATE
 40
2458263.207847222
  9
$TDINDWG
 40
0.0000000116
  9
$TDUSRTIMER
 40
0.0000000116
  9
$USRTIMER
 70
     1
  9
$ANGBASE
 50
0.0
  9
$ANGDIR
 70
     0
  9
$PDMODE
 70
     0
  9
$PDSIZE
 40
0.0
  9
$PLINEWID
 40
0.0
  9
$SPLFRAME
 70
     0
  9
$SPLINETYPE
 70
     6
  9
$SPLINESEGS
 70
     8
  9
$HANDSEED
  5
CE
  9
$SURFTAB1
 70
     6
  9
$SURFTAB2
 70
     6
  9
$SURFTYPE
 70
     6
  9
$SURFU
 70
     6
  9
$SURFV
 70
     6
  9
$UCSBASE
  2

  9
$UCSNAME
  2

  9
$UCSORG
 10
0.0
 20
0.0
 30
0.0
  9
$UCSXDIR
 10
1.0
 20
0.0
 30
0.0
  9
$UCSYDIR
 10
0.0
 20
1.0
 30
0.0
  9
$UCSORTHOREF
  2

  9
$UCSORTHOVIEW
 70
     0
  9
$UCSORGTOP
 10
0.0
 20
0.0
 30
0.0
  9
$UCSORGBOTTOM
 10
0.0
 20
0.0
 30
0.0
  9
$UCSORGLEFT
 10
0.0
 20
0.0
 30
0.0
  9
$UCSORGRIGHT
 10
0.0
 20
0.0
 30
0.0
  9
$UCSORGFRONT
 10
0.0
 20
0.0
 30
0.0
  9
$UCSORGBACK
 10
0.0
 20
0.0
 30
0.0
  9
$PUCSBASE
  2

  9
$PUCSNAME
  2

  9
$PUCSORG
 10
0.0
 20
0.0
 30
0.0
  9
$PUCSXDIR
 10
1.0
 20
0.0
 30
0.0
  9
$PUCSYDIR
 10
0.0
 20
1.0
 30
0.0
  9
$PUCSORTHOREF
  2

  9
$PUCSORTHOVIEW
 70
     0
  9
$PUCSORGTOP
 10
0.0
 20
0.0
 30
0.0
  9
$PUCSORGBOTTOM
 10
0.0
 20
0.0
 30
0.0
  9
$PUCSORGLEFT
 10
0.0
 20
0.0
 30
0.0
  9
$PUCSORGRIGHT
 10
0.0
 20
0.0
 30
0.0
  9
$PUCSORGFRONT
 10
0.0
 20
0.0
 30
0.0
  9
$PUCSORGBACK
 10
0.0
 20
0.0
 30
0.0
  9
$USERI1
 70
     0
  9
$USERI2
 70
     0
  9
$USERI3
 70
     0
  9
$USERI4
 70
     0
  9
$USERI5
 70
     0
  9
$USERR1
 40
0.0
  9
$USERR2
 40
0.0
  9
$USERR3
 40
0.0
  9
$USERR4
 40
0.0
  9
$USERR5
 40
0.0
  9
$WORLDVIEW
 70
     1
  9
$SHADEDGE
 70
     3
  9
$SHADEDIF
 70
    70
  9
$TILEMODE
 70
     1
  9
$MAXACTVP
 70
    64
  9
$PINSBASE
 10
0.0
 20
0.0
 30
0.0
  9
$PLIMCHECK
 70
     0
  9
$PEXTMIN
 10
1.000000000000000E+20
 20
1.000000000000000E+20
 30
1.000000000000000E+20
  9
$PEXTMAX
 10
-1.000000000000000E+20
 20
-1.000000000000000E+20
 30
-1.000000000000000E+20
  9
$PLIMMIN
 10
0.0
 20
0.0
  9
$PLIMMAX
 10
12.0
 20
9.0
  9
$UNITMODE
 70
     0
  9
$VISRETAIN
 70
     1
  9
$PLINEGEN
 70
     0
  9
$PSLTSCALE
 70
     1
  9
$TREEDEPTH
 70
  3020
  9
$CMLSTYLE
  2
Standard
  9
$CMLJUST
 70
     0
  9
$CMLSCALE
 40
1.0
  9
$PROXYGRAPHICS
 70
     1
  9
$MEASUREMENT
 70
     0
  9
$CELWEIGHT
370
    -1
  9
$ENDCAPS
280
     0
  9
$JOINSTYLE
280
     0
  9
$LWDISPLAY
290
     1
  9
$INSUNITS
 70
     1
  9
$HYPERLINKBASE
  1

  9
$STYLESHEET
  1

  9
$XEDIT
290
     1
  9
$CEPSNTYPE
380
     0
  9
$PSTYLEMODE
290
     1
  9
$FINGERPRINTGUID
  2
{22BB3292-1423-A197-AB0B-4A37E124D1CC}
  9
$VERSIONGUID
  2
{FAEB1C32-E019-11D5-929B-00C0DF256EC4}
  9
$EXTNAMES
290
     1
  9
$PSVPSCALE
 40
0.0
  9
$OLESTARTUP
290
     0
  9
$SORTENTS
280
   127
  9
$INDEXCTL
280
     0
  9
$HIDETEXT
280
     1
  9
$XCLIPFRAME
280
     2
  9
$HALOGAP
280
     0
  9
$OBSCOLOR
 70
   257
  9
$OBSLTYPE
280
     0
  9
$INTERSECTIONDISPLAY
280
     0
  9
$INTERSECTIONCOLOR
 70
   257
  9
$DIMASSOC
280
     2
  9
$PROJECTNAME
  1

  9
$CAMERADISPLAY
290
     0
  9
$LENSLENGTH
 40
50.0
  9
$CAMERAHEIGHT
 40
0.0
  9
$STEPSPERSEC
 40
2.0
  9
$STEPSIZE
 40
6.0
  9
$3DDWFPREC
 40
2.0
  9
$PSOLWIDTH
 40
0.25
  9
$PSOLHEIGHT
 40
4.0
  9
$LOFTANG1
 40
1.570796326794897
  9
$LOFTANG2
 40
1.570796326794897
  9
$LOFTMAG1
 40
0.0
  9
$LOFTMAG2
 40
0.0
  9
$LOFTPARAM
 70
     7
  9
$LOFTNORMALS
280
     1
  9
$LATITUDE
 40
37.795
  9
$LONGITUDE
 40
-122.394
  9
$NORTHDIRECTION
 40
0.0
  9
$TIMEZONE
 70
 -8000
  9
$LIGHTGLYPHDISPLAY
280
     1
  9
$TILEMODELIGHTSYNCH
280
     1
  9
$CMATERIAL
347
3C
  9
$SOLIDHIST
280
     1
  9
$SHOWHIST
280
     1
  9
$DWFFRAME
280
     2
  9
$DGNFRAME
280
     2
  9
$REALWORLDSCALE
290
     1
  9
$INTERFERECOLOR
 62
   256
  9
$CSHADOW
280
     0
  9
$SHADOWPLANELOCATION
 40
0.0
  0
ENDSEC
  0
SECTION
  2
CLASSES
  0
CLASS
  1
ACDBDICTIONARYWDFLT
  2
AcDbDictionaryWithDefault
  3
ObjectDBX Classes
 90
        0
 91
        4
280
     0
281
     0
  0
CLASS
  1
VISUALSTYLE
  2
AcDbVisualStyle
  3
ObjectDBX Classes
 90
     4095
 91
        4
280
     0
281
     0
  0
CLASS
  1
MATERIAL
  2
AcDbMaterial
  3
ObjectDBX Classes
 90
     1153
 91
        4
280
     0
281
     0
  0
CLASS
  1
SUN
  2
AcDbSun
  3
SCENEOE
 90
     1024
 91
        4
280
     0
281
     0
  0
ENDSEC
  0
SECTION
  2
TABLES
  0
TABLE
  2
VPORT
  5
8
330
0
100
AcDbSymbolTable
 70
     1
  0
VPORT
  5
29
330
8
100
AcDbSymbolTableRecord
100
AcDbViewportTableRecord
  2
*Active
 70
     0
 10
0.0
 20
0.0
 11
1.0
 21
1.0
 12
0.0
 22
0.0
 13
0.0
 23
0.0
 14
0.5
 24
0.5
 15
0.5
 25
0.5
 16
0.0
 26
0.0
 36
1.0
 17
105.0007777515277
 27
-148.5000416295416
 37
0.0
 40
297.0000832590831
 41
0.7070757462376333
 42
50.0
 43
0.0
 44
0.0
 50
0.0
 51
0.0
 71
     0
 72
   100
 73
     1
 74
     3
 75
     0
 76
     0
 77
     0
 78
     0
281
     0
 65
     1
110
0.0
120
0.0
130
0.0
111
1.0
121
0.0
131
0.0
112
0.0
122
1.0
132
0.0
 79
     0
146
0.0
 60
     3
 61
     5
292
     1
282
     1
141
0.0
142
0.0
 63
   250
361
3F
  0
ENDTAB
  0
TABLE
  2
LTYPE
  5
5
330
0
100
AcDbSymbolTable
 70
     1
  0
LTYPE
  5
14
330
5
100
AcDbSymbolTableRecord
100
AcDbLinetypeTableRecord
  2
ByBlock
 70
     0
  3

 72
    65
 73
     0
 40
0.0
  0
LTYPE
  5
15
330
5
100
AcDbSymbolTableRecord
100
AcDbLinetypeTableRecord
  2
ByLayer
 70
     0
  3

 72
    65
 73
     0
 40
0.0
  0
LTYPE
  5
16
330
5
100
AcDbSymbolTableRecord
100
AcDbLinetypeTableRecord
  2
Continuous
 70
     0
  3
Solid line
 72
    65
 73
     0
 40
0.0
  0
ENDTAB
  0
TABLE
  2
LAYER
  5
2
330
0
100
AcDbSymbolTable
 70
     2
  0
LAYER
  5
10
330
2
100
AcDbSymbolTableRecord
100
AcDbLayerTableRecord
  2
0
 70
     0
 62
     7
  6
Continuous
370
    -3
390
F
347
3E
  0
LAYER
  5
40
330
2
100
AcDbSymbolTableRecord
100
AcDbLayerTableRecord
  2
_U+30EC_U+30A4_U+30E4_U+30FC 1
 70
     0
 62
     7
  6
Continuous
370
    -3
390
F
347
3E
  0
ENDTAB
  0
TABLE
  2
STYLE
  5
3
330
0
100
AcDbSymbolTable
 70
     1
  0
STYLE
  5
11
330
3
100
AcDbSymbolTableRecord
100
AcDbTextStyleTableRecord
  2
Standard
 70
     0
 40
0.0
 41
1.0
 50
0.0
 71
     0
 42
0.2
  3
txt
  4

  0
ENDTAB
  0
TABLE
  2
VIEW
  5
6
330
0
100
AcDbSymbolTable
 70
     0
  0
ENDTAB
  0
TABLE
  2
UCS
  5
7
330
0
100
AcDbSymbolTable
 70
     0
  0
ENDTAB
  0
TABLE
  2
APPID
  5
9
330
0
100
AcDbSymbolTable
 70
     1
  0
APPID
  5
12
330
9
100
AcDbSymbolTableRecord
100
AcDbRegAppTableRecord
  2
ACAD
 70
     0
  0
ENDTAB
  0
TABLE
  2
DIMSTYLE
  5
A
330
0
100
AcDbSymbolTable
 70
     1
100
AcDbDimStyleTable
  0
DIMSTYLE
105
27
330
A
100
AcDbSymbolTableRecord
100
AcDbDimStyleTableRecord
  2
Standard
 70
     0
178
     0
340
11
  0
ENDTAB
  0
TABLE
  2
BLOCK_RECORD
  5
1
330
0
100
AcDbSymbolTable
 70
     7
  0
BLOCK_RECORD
  5
1F
330
1
100
AcDbSymbolTableRecord
100
AcDbBlockTableRecord
  2
*Model_Space
340
22
 70
     0
280
     1
281
     0
  0
BLOCK_RECORD
  5
1B
330
1
100
AcDbSymbolTableRecord
100
AcDbBlockTableRecord
  2
*Paper_Space
340
1E
 70
     0
280
     1
281
     0
  0
BLOCK_RECORD
  5
23
330
1
100
AcDbSymbolTableRecord
100
AcDbBlockTableRecord
  2
*Paper_Space0
340
26
 70
     0
280
     1
281
     0
  0
BLOCK_RECORD
  5
52
330
1
100
AcDbSymbolTableRecord
100
AcDbBlockTableRecord
  2
block 2
340
0
102
{BLKREFS
331
53
102
}
 70
     0
280
     1
281
     0
  0
BLOCK_RECORD
  5
70
330
1
100
AcDbSymbolTableRecord
100
AcDbBlockTableRecord
  2
block 3
340
0
102
{BLKREFS
331
71
102
}
 70
     0
280
     1
281
     0
  0
BLOCK_RECORD
  5
80
330
1
100
AcDbSymbolTableRecord
100
AcDbBlockTableRecord
  2
block 4
340
0
102
{BLKREFS
331
81
102
}
 70
     0
280
     1
281
     0
  0
BLOCK_RECORD
  5
90
330
1
100
AcDbSymbolTableRecord
100
AcDbBlockTableRecord
  2
block 5
340
0
102
{BLKREFS
331
91
102
}
 70
     0
280
     1
281
     0
  0
BLOCK_RECORD
  5
A0
330
1
100
AcDbSymbolTableRecord
100
AcDbBlockTableRecord
  2
block 6
340
0
102
{BLKREFS
331
A1
102
}
 70
     0
280
     1
281
     0
  0
BLOCK_RECORD
  5
AE
330
1
100
AcDbSymbolTableRecord
100
AcDbBlockTableRecord
  2
block 7
340
0
102
{BLKREFS
331
AF
102
}
 70
     0
280
     1
281
     0
  0
ENDTAB
  0
ENDSEC
  0
SECTION
  2
BLOCKS
  0
BLOCK
  5
20
330
1F
100
AcDbEntity
  8
0
100
AcDbBlockBegin
  2
*Model_Space
 70
     0
 10
0.0
 20
0.0
 30
0.0
  3
*Model_Space
  1

  0
ENDBLK
  5
21
330
1F
100
AcDbEntity
  8
0
100
AcDbBlockEnd
  0
BLOCK
  5
1C
330
1B
100
AcDbEntity
 67
     1
  8
0
100
AcDbBlockBegin
  2
*Paper_Space
 70
     0
 10
0.0
 20
0.0
 30
0.0
  3
*Paper_Space
  1

  0
ENDBLK
  5
1D
330
1B
100
AcDbEntity
 67
     1
  8
0
100
AcDbBlockEnd
  0
BLOCK
  5
24
330
23
100
AcDbEntity
  8
0
100
AcDbBlockBegin
  2
*Paper_Space0
 70
     0
 10
0.0
 20
0.0
 30
0.0
  3
*Paper_Space0
  1

  0
ENDBLK
  5
25
330
23
100
AcDbEntity
  8
0
100
AcDbBlockEnd
  0
BLOCK
  5
54
330
52
100
AcDbEntity
  8
0
100
AcDbBlockBegin
  2
block 2
 70
     0
 10
0.0
 20
0.0
 30
0.0
  3
block 2
  1

  0
SPLINE
  5
56
330
52
100
AcDbEntity
  8
_U+30EC_U+30A4_U+30E4_U+30FC 1
370
     0
100
AcDbSpline
210
0.0
220
0.0
230
1.0
 70
    11
 71
     3
 72
    44
 73
    40
 74
     0
 42
0.0000000001
 43
0.0000000001
 12
1.0
 22
0.0
 32
0.0
 13
1.0
 23
0.0
 33
0.0
 40
0.0
 40
0.0
 40
0.0
 40
0.0
 40
1.0
 40
1.0
 40
1.0
 40
2.0
 40
2.0
 40
2.0
 40
3.0
 40
3.0
 40
3.0
 40
4.0
 40
4.0
 40
4.0
 40
5.0
 40
5.0
 40
5.0
 40
6.0
 40
6.0
 40
6.0
 40
7.0
 40
7.0
 40
7.0
 40
8.0
 40
8.0
 40
8.0
 40
9.0
 40
9.0
 40
9.0
 40
10.0
 40
10.0
 40
10.0
 40
11.0
 40
11.0
 40
11.0
 40
12.0
 40
12.0
 40
12.0
 40
13.0
 40
13.0
 40
13.0
 40
13.0
 10
100.9984863028754
 20
-155.3937879385821
 30
0.0
 10
100.7655978480725
 20
-155.5522623309036
 30
0.0
 10
100.666206843323
 20
-155.6263318838365
 30
0.0
 10
100.6141859014958
 20
-155.7703368751199
 30
0.0
 10
100.6141859014958
 20
-155.7703368751199
 30
0.0
 10
101.4461764611836
 20
-155.7703368751199
 30
0.0
 10
101.4461764611836
 20
-155.7703368751199
 30
0.0
 10
101.4461764611836
 20
-155.7703368751199
 30
0.0
 10
101.4461764611836
 20
-155.9753200564923
 30
0.0
 10
101.4461764611836
 20
-155.9753200564923
 30
0.0
 10
101.4461764611836
 20
-155.9753200564923
 30
0.0
 10
100.3473632561632
 20
-155.9753200564923
 30
0.0
 10
100.3473632561632
 20
-155.9753200564923
 30
0.0
 10
100.3812974466929
 20
-155.6177191451233
 30
0.0
 10
100.4514051398177
 20
-155.5395154776082
 30
0.0
 10
100.8629217955308
 20
-155.2411702085855
 30
0.0
 10
101.1364623770596
 20
-155.0423881990866
 30
0.0
 10
101.2065700701845
 20
-154.9748643275757
 30
0.0
 10
101.2065700701845
 20
-154.8374050177143
 30
0.0
 10
101.2065700701845
 20
-154.7188937330217
 30
0.0
 10
101.1297444408634
 20
-154.5876355950336
 30
0.0
 10
100.9194213614889
 20
-154.5876355950336
 30
0.0
 10
100.641229901055
 20
-154.5876355950336
 30
0.0
 10
100.6322726527933
 20
-154.8181124829969
 30
0.0
 10
100.6277940286625
 20
-154.9345567103983
 30
0.0
 10
100.6277940286625
 20
-154.9345567103983
 30
0.0
 10
100.3880153828891
 20
-154.9345567103983
 30
0.0
 10
100.3880153828891
 20
-154.9345567103983
 30
0.0
 10
100.397144885925
 20
-154.8077771965411
 30
0.0
 10
100.4085137010264
 20
-154.695467083722
 30
0.0
 10
100.4942965786091
 20
-154.5769557990294
 30
0.0
 10
100.6119465894303
 20
-154.4164143494167
 30
0.0
 10
100.8109008537035
 20
-154.3823079041128
 30
0.0
 10
100.935268800721
 20
-154.3823079041128
 30
0.0
 10
101.2313747576783
 20
-154.3823079041128
 30
0.0
 10
101.4528943973798
 20
-154.5666205125736
 30
0.0
 10
101.4528943973798
 20
-154.8394720750054
 30
0.0
 10
101.4528943973798
 20
-155.0678819056775
 30
0.0
 10
101.3285264503623
 20
-155.1674451652012
 30
0.0
 10
100.9984863028754
 20
-155.3937879385821
 30
0.0
  0
HATCH
  5
57
330
52
100
AcDbEntity
  8
_U+30EC_U+30A4_U+30E4_U+30FC 1
 62
   179
420
  2234388
100
AcDbHatch
 10
0.0
 20
0.0
 30
0.0
210
0.0
220
0.0
230
1.0
  2
SOLID
 70
     1
 71
     0
 91
        1
 92
        1
 93
        1
 72
     4
 94
        3
 73
     0
 74
     1
 95
       44
 96
       40
 40
0.0
 40
0.0
 40
0.0
 40
0.0
 40
1.0
 40
1.0
 40
1.0
 40
2.0
 40
2.0
 40
2.0
 40
3.0
 40
3.0
 40
3.0
 40
4.0
 40
4.0
 40
4.0
 40
5.0
 40
5.0
 40
5.0
 40
6.0
 40
6.0
 40
6.0
 40
7.0
 40
7.0
 40
7.0
 40
8.0
 40
8.0
 40
8.0
 40
9.0
 40
9.0
 40
9.0
 40
10.0
 40
10.0
 40
10.0
 40
11.0
 40
11.0
 40
11.0
 40
12.0
 40
12.0
 40
12.0
 40
13.0
 40
13.0
 40
13.0
 40
13.0
 10
100.9984863028754
 20
-155.3937879385821
 10
100.7655978480725
 20
-155.5522623309036
 10
100.666206843323
 20
-155.6263318838365
 10
100.6141859014958
 20
-155.7703368751199
 10
100.6141859014958
 20
-155.7703368751199
 10
101.4461764611836
 20
-155.7703368751199
 10
101.4461764611836
 20
-155.7703368751199
 10
101.4461764611836
 20
-155.7703368751199
 10
101.4461764611836
 20
-155.9753200564923
 10
101.4461764611836
 20
-155.9753200564923
 10
101.4461764611836
 20
-155.9753200564923
 10
100.3473632561632
 20
-155.9753200564923
 10
100.3473632561632
 20
-155.9753200564923
 10
100.3812974466929
 20
-155.6177191451233
 10
100.4514051398177
 20
-155.5395154776082
 10
100.8629217955308
 20
-155.2411702085855
 10
101.1364623770596
 20
-155.0423881990866
 10
101.2065700701845
 20
-154.9748643275757
 10
101.2065700701845
 20
-154.8374050177143
 10
101.2065700701845
 20
-154.7188937330217
 10
101.1297444408634
 20
-154.5876355950336
 10
100.9194213614889
 20
-154.5876355950336
 10
100.641229901055
 20
-154.5876355950336
 10
100.6322726527933
 20
-154.8181124829969
 10
100.6277940286625
 20
-154.9345567103983
 10
100.6277940286625
 20
-154.9345567103983
 10
100.3880153828891
 20
-154.9345567103983
 10
100.3880153828891
 20
-154.9345567103983
 10
100.397144885925
 20
-154.8077771965411
 10
100.4085137010264
 20
-154.695467083722
 10
100.4942965786091
 20
-154.5769557990294
 10
100.6119465894303
 20
-154.4164143494167
 10
100.8109008537035
 20
-154.3823079041128
 10
100.935268800721
 20
-154.3823079041128
 10
101.2313747576783
 20
-154.3823079041128
 10
101.4528943973798
 20
-154.5666205125736
 10
101.4528943973798
 20
-154.8394720750054
 10
101.4528943973798
 20
-155.0678819056775
 10
101.3285264503623
 20
-155.1674451652012
 10
100.9984863028754
 20
-155.3937879385821
 97
        0
 97
        0
 75
     2
 76
     1
 98
        0
  0
SPLINE
  5
58
330
52
100
AcDbEntity
  8
_U+30EC_U+30A4_U+30E4_U+30FC 1
370
     0
100
AcDbSpline
210
0.0
220
0.0
230
1.0
 70
    11
 71
     3
 72
    29
 73
    25
 74
     0
 42
0.0000000001
 43
0.0000000001
 12
1.0
 22
0.0
 32
0.0
 13
1.0
 23
0.0
 33
0.0
 40
0.0
 40
0.0
 40
0.0
 40
0.0
 40
1.0
 40
1.0
 40
1.0
 40
2.0
 40
2.0
 40
2.0
 40
3.0
 40
3.0
 40
3.0
 40
4.0
 40
4.0
 40
4.0
 40
5.0
 40
5.0
 40
5.0
 40
6.0
 40
6.0
 40
6.0
 40
7.0
 40
7.0
 40
7.0
 40
8.0
 40
8.0
 40
8.0
 40
8.0
 10
102.5818521878962
 20
-155.7975531294534
 30
0.0
 10
102.4666137439146
 20
-156.0070149349566
 30
0.0
 10
102.2812676068082
 20
-156.026307469674
 30
0.0
 10
102.1568996597906
 20
-156.026307469674
 30
0.0
 10
101.9849893950767
 20
-156.026307469674
 30
0.0
 10
101.8335774484999
 20
-155.9797986806231
 30
0.0
 10
101.7317748769108
 20
-155.7975531294534
 30
0.0
 10
101.62101505706
 20
-155.6029052345368
 30
0.0
 10
101.600688993697
 20
-155.3662271747001
 30
0.0
 10
101.600688993697
 20
-155.2032741582478
 30
0.0
 10
101.600688993697
 20
-155.0592691669644
 30
0.0
 10
101.6187757449946
 20
-154.8077771965411
 30
0.0
 10
101.7317748769108
 20
-154.6086506774937
 30
0.0
 10
101.8471855756667
 20
-154.4057345534125
 30
0.0
 10
102.0189235856064
 20
-154.3823079041128
 30
0.0
 10
102.1568996597906
 20
-154.3823079041128
 30
0.0
 10
102.3263983576649
 20
-154.3823079041128
 30
0.0
 10
102.4802218710813
 20
-154.4267496358725
 30
0.0
 10
102.5818521878962
 20
-154.6086506774937
 30
0.0
 10
102.6881333836162
 20
-154.8012315151192
 30
0.0
 10
102.7131103258842
 20
-155.0296413457912
 30
0.0
 10
102.7131103258842
 20
-155.2032741582478
 30
0.0
 10
102.7131103258842
 20
-155.3744954038647
 30
0.0
 10
102.6903726956816
 20
-155.6053168013765
 30
0.0
 10
102.5818521878962
 20
-155.7975531294534
 30
0.0
  0
SPLINE
  5
59
330
52
100
AcDbEntity
  8
_U+30EC_U+30A4_U+30E4_U+30FC 1
370
     0
100
AcDbSpline
210
0.0
220
0.0
230
1.0
 70
    11
 71
     3
 72
    17
 73
    13
 74
     0
 42
0.0000000001
 43
0.0000000001
 12
1.0
 22
0.0
 32
0.0
 13
1.0
 23
0.0
 33
0.0
 40
0.0
 40
0.0
 40
0.0
 40
0.0
 40
1.0
 40
1.0
 40
1.0
 40
2.0
 40
2.0
 40
2.0
 40
3.0
 40
3.0
 40
3.0
 40
4.0
 40
4.0
 40
4.0
 40
4.0
 10
102.1568996597906
 20
-154.5748887417382
 30
0.0
 10
101.890077014458
 20
-154.5748887417382
 30
0.0
 10
101.8402953846962
 20
-154.8584201001743
 30
0.0
 10
101.8402953846962
 20
-155.2032741582478
 30
0.0
 10
101.8402953846962
 20
-155.5226345097305
 30
0.0
 10
101.8787081993567
 20
-155.8316595747574
 30
0.0
 10
102.1568996597906
 20
-155.8316595747574
 30
0.0
 10
102.4213107382836
 20
-155.8316595747574
 30
0.0
 10
102.4733316801108
 20
-155.5501952736124
 30
0.0
 10
102.4733316801108
 20
-155.2032741582478
 30
0.0
 10
102.4733316801108
 20
-154.8839138067652
 30
0.0
 10
102.4326795533849
 20
-154.5748887417382
 30
0.0
 10
102.1568996597906
 20
-154.5748887417382
 30
0.0
  0
HATCH
  5
5A
330
52
100
AcDbEntity
  8
_U+30EC_U+30A4_U+30E4_U+30FC 1
 62
   179
420
  2234388
100
AcDbHatch
 10
0.0
 20
0.0
 30
0.0
210
0.0
220
0.0
230
1.0
  2
SOLID
 70
     1
 71
     0
 91
        2
 92
        1
 93
        1
 72
     4
 94
        3
 73
     0
 74
     1
 95
       29
 96
       25
 40
0.0
 40
0.0
 40
0.0
 40
0.0
 40
1.0
 40
1.0
 40
1.0
 40
2.0
 40
2.0
 40
2.0
 40
3.0
 40
3.0
 40
3.0
 40
4.0
 40
4.0
 40
4.0
 40
5.0
 40
5.0
 40
5.0
 40
6.0
 40
6.0
 40
6.0
 40
7.0
 40
7.0
 40
7.0
 40
8.0
 40
8.0
 40
8.0
 40
8.0
 10
102.5818521878962
 20
-155.7975531294534
 10
102.4666137439146
 20
-156.0070149349566
 10
102.2812676068082
 20
-156.026307469674
 10
102.1568996597906
 20
-156.026307469674
 10
101.9849893950767
 20
-156.026307469674
 10
101.8335774484999
 20
-155.9797986806231
 10
101.7317748769108
 20
-155.7975531294534
 10
101.62101505706
 20
-155.6029052345368
 10
101.600688993697
 20
-155.3662271747001
 10
101.600688993697
 20
-155.2032741582478
 10
101.600688993697
 20
-155.0592691669644
 10
101.6187757449946
 20
-154.8077771965411
 10
101.7317748769108
 20
-154.6086506774937
 10
101.8471855756667
 20
-154.4057345534125
 10
102.0189235856064
 20
-154.3823079041128
 10
102.1568996597906
 20
-154.3823079041128
 10
102.3263983576649
 20
-154.3823079041128
 10
102.4802218710813
 20
-154.4267496358725
 10
102.5818521878962
 20
-154.6086506774937
 10
102.6881333836162
 20
-154.8012315151192
 10
102.7131103258842
 20
-155.0296413457912
 10
102.7131103258842
 20
-155.2032741582478
 10
102.7131103258842
 20
-155.3744954038647
 10
102.6903726956816
 20
-155.6053168013765
 10
102.5818521878962
 20
-155.7975531294534
 97
        0
 97
        0
 92
        1
 93
        1
 72
     4
 94
        3
 73
     0
 74
     1
 95
       17
 96
       13
 40
0.0
 40
0.0
 40
0.0
 40
0.0
 40
1.0
 40
1.0
 40
1.0
 40
2.0
 40
2.0
 40
2.0
 40
3.0
 40
3.0
 40
3.0
 40
4.0
 40
4.0
 40
4.0
 40
4.0
 10
102.1568996597906
 20
-154.5748887417382
 10
101.890077014458
 20
-154.5748887417382
 10
101.8402953846962
 20
-154.8584201001743
 10
101.8402953846962
 20
-155.2032741582478
 10
101.8402953846962
 20
-155.5226345097305
 10
101.8787081993567
 20
-155.8316595747574
 10
102.1568996597906
 20
-155.8316595747574
 10
102.4213107382836
 20
-155.8316595747574
 10
102.4733316801108
 20
-155.5501952736124
 10
102.4733316801108
 20
-155.2032741582478
 10
102.4733316801108
 20
-154.8839138067652
 10
102.4326795533849
 20
-154.5748887417382
 10
102.1568996597906
 20
-154.5748887417382
 97
        0
 97
        0
 75
     2
 76
     1
 98
        0
  0
ENDBLK
  5
55
330
52
100
AcDbEntity
  8
0
100
AcDbBlockEnd
  0
BLOCK
  5
72
330
70
100
AcDbEntity
  8
0
100
AcDbBlockBegin
  2
block 3
 70
     0
 10
0.0
 20
0.0
 30
0.0
  3
block 3
  1

  0
SPLINE
  5
74
330
70
100
AcDbEntity
  8
_U+30EC_U+30A4_U+30E4_U+30FC 1
370
     0
100
AcDbSpline
210
0.0
220
0.0
230
1.0
 70
    11
 71
     3
 72
    62
 73
    58
 74
     0
 42
0.0000000001
 43
0.0000000001
 12
1.0
 22
0.0
 32
0.0
 13
1.0
 23
0.0
 33
0.0
 40
0.0
 40
0.0
 40
0.0
 40
0.0
 40
1.0
 40
1.0
 40
1.0
 40
2.0
 40
2.0
 40
2.0
 40
3.0
 40
3.0
 40
3.0
 40
4.0
 40
4.0
 40
4.0
 40
5.0
 40
5.0
 40
5.0
 40
6.0
 40
6.0
 40
6.0
 40
7.0
 40
7.0
 40
7.0
 40
8.0
 40
8.0
 40
8.0
 40
9.0
 40
9.0
 40
9.0
 40
10.0
 40
10.0
 40
10.0
 40
11.0
 40
11.0
 40
11.0
 40
12.0
 40
12.0
 40
12.0
 40
13.0
 40
13.0
 40
13.0
 40
14.0
 40
14.0
 40
14.0
 40
15.0
 40
15.0
 40
15.0
 40
16.0
 40
16.0
 40
16.0
 40
17.0
 40
17.0
 40
17.0
 40
18.0
 40
18.0
 40
18.0
 40
19.0
 40
19.0
 40
19.0
 40
19.0
 10
118.4427272924379
 20
-150.6436902835196
 30
0.0
 10
118.4427272924379
 20
-150.745665109883
 30
0.0
 10
118.4217122099779
 20
-150.9785535646859
 30
0.0
 10
118.2353325442259
 20
-151.1118787599651
 30
0.0
 10
118.1233669409553
 20
-151.1907714465773
 30
0.0
 10
118.0238036814316
 20
-151.1955945802567
 30
0.0
 10
117.9393988420429
 20
-151.2000732043875
 30
0.0
 10
117.9393988420429
 20
-151.2000732043875
 30
0.0
 10
117.9393988420429
 20
-150.9647731827449
 30
0.0
 10
117.9393988420429
 20
-150.9647731827449
 30
0.0
 10
118.0134683949758
 20
-150.9627061254538
 30
0.0
 10
118.2480793975213
 20
-150.9513373103524
 30
0.0
 10
118.2480793975213
 20
-150.648513417199
 30
0.0
 10
118.2480793975213
 20
-150.5014078399788
 30
0.0
 10
118.1784884687193
 20
-150.3384548235265
 30
0.0
 10
117.9497341284987
 20
-150.3384548235265
 30
0.0
 10
117.8336344106458
 20
-150.3384548235265
 30
0.0
 10
117.7847140547552
 20
-150.3791069502525
 30
0.0
 10
117.7530191762909
 20
-150.4132133955564
 30
0.0
 10
117.6789496233581
 20
-150.4921060821686
 30
0.0
 10
117.6665472796112
 20
-150.6168185387347
 30
0.0
 10
117.6665472796112
 20
-150.6753851619839
 30
0.0
 10
117.6665472796112
 20
-150.6960557348954
 30
0.0
 10
117.6686143369023
 20
-150.7342962947817
 30
0.0
 10
117.6727484514846
 20
-150.7635796064063
 30
0.0
 10
117.6727484514846
 20
-150.7635796064063
 30
0.0
 10
117.478100556568
 20
-150.7635796064063
 30
0.0
 10
117.478100556568
 20
-150.7635796064063
 30
0.0
 10
117.4843017284414
 20
-150.7229274796804
 30
0.0
 10
117.4867132952811
 20
-150.6777967288236
 30
0.0
 10
117.4867132952811
 20
-150.6709065378531
 30
0.0
 10
117.4867132952811
 20
-150.6009710995025
 30
0.0
 10
117.4653537032726
 20
-150.3884087080626
 30
0.0
 10
117.2283311338874
 20
-150.3884087080626
 30
0.0
 10
117.050908716397
 20
-150.3884087080626
 30
0.0
 10
116.995787188633
 20
-150.5286240943123
 30
0.0
 10
116.995787188633
 20
-150.6461018503593
 30
0.0
 10
116.995787188633
 20
-150.9285996801498
 30
0.0
 10
117.2283311338874
 20
-150.93790143796
 30
0.0
 10
117.3003336295291
 20
-150.9420355525423
 30
0.0
 10
117.3003336295291
 20
-150.9420355525423
 30
0.0
 10
117.3003336295291
 20
-151.159076568113
 30
0.0
 10
117.3003336295291
 20
-151.159076568113
 30
0.0
 10
117.175621172963
 20
-151.1501193198514
 30
0.0
 10
116.7990722364252
 20
-151.1208360082267
 30
0.0
 10
116.7990722364252
 20
-150.6326659779668
 30
0.0
 10
116.7990722364252
 20
-150.3928873321935
 30
0.0
 10
116.9258517502824
 20
-150.1351941898968
 30
0.0
 10
117.2221299620139
 20
-150.1351941898968
 30
0.0
 10
117.4081651182174
 20
-150.1351941898968
 30
0.0
 10
117.4908474098634
 20
-150.2368245067116
 30
0.0
 10
117.5521701095008
 20
-150.3432779572059
 30
0.0
 10
117.5797308733829
 20
-150.2774766334376
 30
0.0
 10
117.6600015981892
 20
-150.0831732480695
 30
0.0
 10
117.9373317847518
 20
-150.0831732480695
 30
0.0
 10
118.2756401614033
 20
-150.0831732480695
 30
0.0
 10
118.4427272924379
 20
-150.3474120717881
 30
0.0
 10
118.4427272924379
 20
-150.6436902835196
 30
0.0
  0
HATCH
  5
75
330
70
100
AcDbEntity
  8
_U+30EC_U+30A4_U+30E4_U+30FC 1
 62
   179
420
  2234388
100
AcDbHatch
 10
0.0
 20
0.0
 30
0.0
210
0.0
220
0.0
230
1.0
  2
SOLID
 70
     1
 71
     0
 91
        1
 92
        1
 93
        1
 72
     4
 94
        3
 73
     0
 74
     1
 95
       62
 96
       58
 40
0.0
 40
0.0
 40
0.0
 40
0.0
 40
1.0
 40
1.0
 40
1.0
 40
2.0
 40
2.0
 40
2.0
 40
3.0
 40
3.0
 40
3.0
 40
4.0
 40
4.0
 40
4.0
 40
5.0
 40
5.0
 40
5.0
 40
6.0
 40
6.0
 40
6.0
 40
7.0
 40
7.0
 40
7.0
 40
8.0
 40
8.0
 40
8.0
 40
9.0
 40
9.0
 40
9.0
 40
10.0
 40
10.0
 40
10.0
 40
11.0
 40
11.0
 40
11.0
 40
12.0
 40
12.0
 40
12.0
 40
13.0
 40
13.0
 40
13.0
 40
14.0
 40
14.0
 40
14.0
 40
15.0
 40
15.0
 40
15.0
 40
16.0
 40
16.0
 40
16.0
 40
17.0
 40
17.0
 40
17.0
 40
18.0
 40
18.0
 40
18.0
 40
19.0
 40
19.0
 40
19.0
 40
19.0
 10
118.4427272924379
 20
-150.6436902835196
 10
118.4427272924379
 20
-150.745665109883
 10
118.4217122099779
 20
-150.9785535646859
 10
118.2353325442259
 20
-151.1118787599651
 10
118.1233669409553
 20
-151.1907714465773
 10
118.0238036814316
 20
-151.1955945802567
 10
117.9393988420429
 20
-151.2000732043875
 10
117.9393988420429
 20
-151.2000732043875
 10
117.9393988420429
 20
-150.9647731827449
 10
117.9393988420429
 20
-150.9647731827449
 10
118.0134683949758
 20
-150.9627061254538
 10
118.2480793975213
 20
-150.9513373103524
 10
118.2480793975213
 20
-150.648513417199
 10
118.2480793975213
 20
-150.5014078399788
 10
118.1784884687193
 20
-150.3384548235265
 10
117.9497341284987
 20
-150.3384548235265
 10
117.8336344106458
 20
-150.3384548235265
 10
117.7847140547552
 20
-150.3791069502525
 10
117.7530191762909
 20
-150.4132133955564
 10
117.6789496233581
 20
-150.4921060821686
 10
117.6665472796112
 20
-150.6168185387347
 10
117.6665472796112
 20
-150.6753851619839
 10
117.6665472796112
 20
-150.6960557348954
 10
117.6686143369023
 20
-150.7342962947817
 10
117.6727484514846
 20
-150.7635796064063
 10
117.6727484514846
 20
-150.7635796064063
 10
117.478100556568
 20
-150.7635796064063
 10
117.478100556568
 20
-150.7635796064063
 10
117.4843017284414
 20
-150.7229274796804
 10
117.4867132952811
 20
-150.6777967288236
 10
117.4867132952811
 20
-150.6709065378531
 10
117.4867132952811
 20
-150.6009710995025
 10
117.4653537032726
 20
-150.3884087080626
 10
117.2283311338874
 20
-150.3884087080626
 10
117.050908716397
 20
-150.3884087080626
 10
116.995787188633
 20
-150.5286240943123
 10
116.995787188633
 20
-150.6461018503593
 10
116.995787188633
 20
-150.9285996801498
 10
117.2283311338874
 20
-150.93790143796
 10
117.3003336295291
 20
-150.9420355525423
 10
117.3003336295291
 20
-150.9420355525423
 10
117.3003336295291
 20
-151.159076568113
 10
117.3003336295291
 20
-151.159076568113
 10
117.175621172963
 20
-151.1501193198514
 10
116.7990722364252
 20
-151.1208360082267
 10
116.7990722364252
 20
-150.6326659779668
 10
116.7990722364252
 20
-150.3928873321935
 10
116.9258517502824
 20
-150.1351941898968
 10
117.2221299620139
 20
-150.1351941898968
 10
117.4081651182174
 20
-150.1351941898968
 10
117.4908474098634
 20
-150.2368245067116
 10
117.5521701095008
 20
-150.3432779572059
 10
117.5797308733829
 20
-150.2774766334376
 10
117.6600015981892
 20
-150.0831732480695
 10
117.9373317847518
 20
-150.0831732480695
 10
118.2756401614033
 20
-150.0831732480695
 10
118.4427272924379
 20
-150.3474120717881
 10
118.4427272924379
 20
-150.6436902835196
 97
        0
 97
        0
 75
     2
 76
     1
 98
        0
  0
POLYLINE
  5
76
330
70
100
AcDbEntity
  8
_U+30EC_U+30A4_U+30E4_U+30FC 1
370
     0
100
AcDb2dPolyline
 66
     1
 10
0.0
 20
0.0
 30
0.0
  0
VERTEX
  5
77
330
76
100
AcDbEntity
  8
_U+30EC_U+30A4_U+30E4_U+30FC 1
370
     0
100
AcDbVertex
100
AcDb2dVertex
 10
118.3920843888048
 20
-149.8471842073299
 30
0.0
  0
VERTEX
  5
78
330
76
100
AcDbEntity
  8
_U+30EC_U+30A4_U+30E4_U+30FC 1
370
     0
100
AcDbVertex
100
AcDb2dVertex
 10
118.140247908833
 20
-149.8471842073299
 30
0.0
  0
VERTEX
  5
79
330
76
100
AcDbEntity
  8
_U+30EC_U+30A4_U+30E4_U+30FC 1
370
     0
100
AcDbVertex
100
AcDb2dVertex
 10
118.140247908833
 20
-149.5781222499319
 30
0.0
  0
VERTEX
  5
7A
330
76
100
AcDbEntity
  8
_U+30EC_U+30A4_U+30E4_U+30FC 1
370
     0
100
AcDbVertex
100
AcDb2dVertex
 10
118.3920843888048
 20
-149.5781222499319
 30
0.0
  0
VERTEX
  5
7B
330
76
100
AcDbEntity
  8
_U+30EC_U+30A4_U+30E4_U+30FC 1
370
     0
100
AcDbVertex
100
AcDb2dVertex
 10
118.3920843888048
 20
-149.8471842073299
 30
0.0
  0
SEQEND
  5
7C
330
76
100
AcDbEntity
  8
_U+30EC_U+30A4_U+30E4_U+30FC 1
370
     0
  0
HATCH
  5
7D
330
70
100
AcDbEntity
  8
_U+30EC_U+30A4_U+30E4_U+30FC 1
 62
   179
420
  2234388
100
AcDbHatch
 10
0.0
 20
0.0
 30
0.0
210
0.0
220
0.0
230
1.0
  2
SOLID
 70
     1
 71
     0
 91
        1
 92
        1
 93
        4
 72
     1
 10
118.3920843888048
 20
-149.8471842073299
 11
118.140247908833
 21
-149.8471842073299
 72
     1
 10
118.140247908833
 20
-149.8471842073299
 11
118.140247908833
 21
-149.5781222499319
 72
     1
 10
118.140247908833
 20
-149.5781222499319
 11
118.3920843888048
 21
-149.5781222499319
 72
     1
 10
118.3920843888048
 20
-149.5781222499319
 11
118.3920843888048
 21
-149.8471842073299
 97
        0
 75
     2
 76
     1
 98
        0
  0
SPLINE
  5
7E
330
70
100
AcDbEntity
  8
_U+30EC_U+30A4_U+30E4_U+30FC 1
370
     0
100
AcDbSpline
210
0.0
220
0.0
230
1.0
 70
    11
 71
     3
 72
    53
 73
    49
 74
     0
 42
0.0000000001
 43
0.0000000001
 12
1.0
 22
0.0
 32
0.0
 13
1.0
 23
0.0
 33
0.0
 40
0.0
 40
0.0
 40
0.0
 40
0.0
 40
1.0
 40
1.0
 40
1.0
 40
2.0
 40
2.0
 40
2.0
 40
3.0
 40
3.0
 40
3.0
 40
4.0
 40
4.0
 40
4.0
 40
5.0
 40
5.0
 40
5.0
 40
6.0
 40
6.0
 40
6.0
 40
7.0
 40
7.0
 40
7.0
 40
8.0
 40
8.0
 40
8.0
 40
9.0
 40
9.0
 40
9.0
 40
10.0
 40
10.0
 40
10.0
 40
11.0
 40
11.0
 40
11.0
 40
12.0
 40
12.0
 40
12.0
 40
13.0
 40
13.0
 40
13.0
 40
14.0
 40
14.0
 40
14.0
 40
15.0
 40
15.0
 40
15.0
 40
16.0
 40
16.0
 40
16.0
 40
16.0
 10
118.4427272924379
 20
-148.8114162496895
 30
0.0
 10
118.4427272924379
 20
-148.8949598152068
 30
0.0
 10
118.4258463245602
 20
-149.0038248325407
 30
0.0
 10
118.3624565676316
 20
-149.1120008307776
 30
0.0
 10
118.2522135121036
 20
-149.297346967884
 30
0.0
 10
118.1212998836641
 20
-149.3200845980867
 30
0.0
 10
118.0134683949758
 20
-149.3407551709982
 30
0.0
 10
118.0134683949758
 20
-149.3407551709982
 30
0.0
 10
118.0134683949758
 20
-149.1030435825159
 30
0.0
 10
118.0134683949758
 20
-149.1030435825159
 30
0.0
 10
118.2122504044747
 20
-149.0444769592667
 30
0.0
 10
118.2418782256479
 20
-148.9087401971478
 30
0.0
 10
118.2418782256479
 20
-148.8091769376241
 30
0.0
 10
118.2418782256479
 20
-148.6600043031128
 30
0.0
 10
118.1423149661241
 20
-148.4972235414347
 30
0.0
 10
117.9097710208698
 20
-148.4972235414347
 30
0.0
 10
117.6538004263157
 20
-148.4972235414347
 30
0.0
 10
117.5838649879652
 20
-148.6894598695117
 30
0.0
 10
117.5838649879652
 20
-148.81830644066
 30
0.0
 10
117.5838649879652
 20
-148.8522406311897
 30
0.0
 10
117.5838649879652
 20
-149.0038248325407
 30
0.0
 10
117.713056068662
 20
-149.0985649583851
 30
0.0
 10
117.713056068662
 20
-149.0985649583851
 30
0.0
 10
117.6937635339446
 20
-149.2863226623312
 30
0.0
 10
117.6937635339446
 20
-149.2863226623312
 30
0.0
 10
117.6937635339446
 20
-149.2863226623312
 30
0.0
 10
116.8476480827673
 20
-149.1574760911829
 30
0.0
 10
116.8476480827673
 20
-149.1574760911829
 30
0.0
 10
116.8476480827673
 20
-149.1574760911829
 30
0.0
 10
116.8476480827673
 20
-148.325485531495
 30
0.0
 10
116.8476480827673
 20
-148.325485531495
 30
0.0
 10
116.8476480827673
 20
-148.325485531495
 30
0.0
 10
117.0422959776839
 20
-148.325485531495
 30
0.0
 10
117.0422959776839
 20
-148.325485531495
 30
0.0
 10
117.0422959776839
 20
-148.325485531495
 30
0.0
 10
117.0422959776839
 20
-148.9831542596292
 30
0.0
 10
117.0422959776839
 20
-148.9831542596292
 30
0.0
 10
117.0422959776839
 20
-148.9831542596292
 30
0.0
 10
117.4653537032726
 20
-149.0534342075283
 30
0.0
 10
117.4653537032726
 20
-149.0534342075283
 30
0.0
 10
117.4315917675171
 20
-148.9879773933086
 30
0.0
 10
117.3912841503397
 20
-148.8997829488862
 30
0.0
 10
117.3912841503397
 20
-148.773003435029
 30
0.0
 10
117.3912841503397
 20
-148.5017021655655
 30
0.0
 10
117.5776638160917
 20
-148.2484876473997
 30
0.0
 10
117.8904784861524
 20
-148.2484876473997
 30
0.0
 10
118.2081162898924
 20
-148.2484876473997
 30
0.0
 10
118.4427272924379
 20
-148.4880940383988
 30
0.0
 10
118.4427272924379
 20
-148.8114162496895
 30
0.0
  0
HATCH
  5
7F
330
70
100
AcDbEntity
  8
_U+30EC_U+30A4_U+30E4_U+30FC 1
 62
   179
420
  2234388
100
AcDbHatch
 10
0.0
 20
0.0
 30
0.0
210
0.0
220
0.0
230
1.0
  2
SOLID
 70
     1
 71
     0
 91
        1
 92
        1
 93
        1
 72
     4
 94
        3
 73
     0
 74
     1
 95
       53
 96
       49
 40
0.0
 40
0.0
 40
0.0
 40
0.0
 40
1.0
 40
1.0
 40
1.0
 40
2.0
 40
2.0
 40
2.0
 40
3.0
 40
3.0
 40
3.0
 40
4.0
 40
4.0
 40
4.0
 40
5.0
 40
5.0
 40
5.0
 40
6.0
 40
6.0
 40
6.0
 40
7.0
 40
7.0
 40
7.0
 40
8.0
 40
8.0
 40
8.0
 40
9.0
 40
9.0
 40
9.0
 40
10.0
 40
10.0
 40
10.0
 40
11.0
 40
11.0
 40
11.0
 40
12.0
 40
12.0
 40
12.0
 40
13.0
 40
13.0
 40
13.0
 40
14.0
 40
14.0
 40
14.0
 40
15.0
 40
15.0
 40
15.0
 40
16.0
 40
16.0
 40
16.0
 40
16.0
 10
118.4427272924379
 20
-148.8114162496895
 10
118.4427272924379
 20
-148.8949598152068
 10
118.4258463245602
 20
-149.0038248325407
 10
118.3624565676316
 20
-149.1120008307776
 10
118.2522135121036
 20
-149.297346967884
 10
118.1212998836641
 20
-149.3200845980867
 10
118.0134683949758
 20
-149.3407551709982
 10
118.0134683949758
 20
-149.3407551709982
 10
118.0134683949758
 20
-149.1030435825159
 10
118.0134683949758
 20
-149.1030435825159
 10
118.2122504044747
 20
-149.0444769592667
 10
118.2418782256479
 20
-148.9087401971478
 10
118.2418782256479
 20
-148.8091769376241
 10
118.2418782256479
 20
-148.6600043031128
 10
118.1423149661241
 20
-148.4972235414347
 10
117.9097710208698
 20
-148.4972235414347
 10
117.6538004263157
 20
-148.4972235414347
 10
117.5838649879652
 20
-148.6894598695117
 10
117.5838649879652
 20
-148.81830644066
 10
117.5838649879652
 20
-148.8522406311897
 10
117.5838649879652
 20
-149.0038248325407
 10
117.713056068662
 20
-149.0985649583851
 10
117.713056068662
 20
-149.0985649583851
 10
117.6937635339446
 20
-149.2863226623312
 10
117.6937635339446
 20
-149.2863226623312
 10
117.6937635339446
 20
-149.2863226623312
 10
116.8476480827673
 20
-149.1574760911829
 10
116.8476480827673
 20
-149.1574760911829
 10
116.8476480827673
 20
-149.1574760911829
 10
116.8476480827673
 20
-148.325485531495
 10
116.8476480827673
 20
-148.325485531495
 10
116.8476480827673
 20
-148.325485531495
 10
117.0422959776839
 20
-148.325485531495
 10
117.0422959776839
 20
-148.325485531495
 10
117.0422959776839
 20
-148.325485531495
 10
117.0422959776839
 20
-148.9831542596292
 10
117.0422959776839
 20
-148.9831542596292
 10
117.0422959776839
 20
-148.9831542596292
 10
117.4653537032726
 20
-149.0534342075283
 10
117.4653537032726
 20
-149.0534342075283
 10
117.4315917675171
 20
-148.9879773933086
 10
117.3912841503397
 20
-148.8997829488862
 10
117.3912841503397
 20
-148.773003435029
 10
117.3912841503397
 20
-148.5017021655655
 10
117.5776638160917
 20
-148.2484876473997
 10
117.8904784861524
 20
-148.2484876473997
 10
118.2081162898924
 20
-148.2484876473997
 10
118.4427272924379
 20
-148.4880940383988
 10
118.4427272924379
 20
-148.8114162496895
 97
        0
 97
        0
 75
     2
 76
     1
 98
        0
  0
ENDBLK
  5
73
330
70
100
AcDbEntity
  8
0
100
AcDbBlockEnd
  0
BLOCK
  5
82
330
80
100
AcDbEntity
  8
0
100
AcDbBlockBegin
  2
block 4
 70
     0
 10
0.0
 20
0.0
 30
0.0
  3
block 4
  1

  0
SPLINE
  5
84
330
80
100
AcDbEntity
  8
_U+30EC_U+30A4_U+30E4_U+30FC 1
370
     0
100
AcDbSpline
210
0.0
220
0.0
230
1.0
 70
    11
 71
     3
 72
    26
 73
    22
 74
     0
 42
0.0000000001
 43
0.0000000001
 12
1.0
 22
0.0
 32
0.0
 13
1.0
 23
0.0
 33
0.0
 40
0.0
 40
0.0
 40
0.0
 40
0.0
 40
1.0
 40
1.0
 40
1.0
 40
2.0
 40
2.0
 40
2.0
 40
3.0
 40
3.0
 40
3.0
 40
4.0
 40
4.0
 40
4.0
 40
5.0
 40
5.0
 40
5.0
 40
6.0
 40
6.0
 40
6.0
 40
7.0
 40
7.0
 40
7.0
 40
7.0
 10
114.1584065469812
 20
-148.3657931486725
 30
0.0
 10
114.1584065469812
 20
-148.3657931486725
 30
0.0
 10
113.0542534439587
 20
-148.3657931486725
 30
0.0
 10
113.0542534439587
 20
-148.3657931486725
 30
0.0
 10
113.0542534439587
 20
-148.3657931486725
 30
0.0
 10
113.0542534439587
 20
-148.718570926362
 30
0.0
 10
113.0542534439587
 20
-148.718570926362
 30
0.0
 10
113.0542534439587
 20
-148.718570926362
 30
0.0
 10
112.9061143380929
 20
-148.718570926362
 30
0.0
 10
112.9061143380929
 20
-148.718570926362
 30
0.0
 10
112.8913004275064
 20
-148.363553836607
 30
0.0
 10
112.728347411054
 20
-148.3137722068452
 30
0.0
 10
112.6143147504923
 20
-148.2820773283809
 30
0.0
 10
112.6143147504923
 20
-148.2820773283809
 30
0.0
 10
112.6143147504923
 20
-148.1261867576733
 30
0.0
 10
112.6143147504923
 20
-148.1261867576733
 30
0.0
 10
112.6143147504923
 20
-148.1261867576733
 30
0.0
 10
114.1584065469812
 20
-148.1261867576733
 30
0.0
 10
114.1584065469812
 20
-148.1261867576733
 30
0.0
 10
114.1584065469812
 20
-148.1261867576733
 30
0.0
 10
114.1584065469812
 20
-148.3657931486725
 30
0.0
 10
114.1584065469812
 20
-148.3657931486725
 30
0.0
  0
HATCH
  5
85
330
80
100
AcDbEntity
  8
_U+30EC_U+30A4_U+30E4_U+30FC 1
 62
   179
420
  2234388
100
AcDbHatch
 10
0.0
 20
0.0
 30
0.0
210
0.0
220
0.0
230
1.0
  2
SOLID
 70
     1
 71
     0
 91
        1
 92
        1
 93
        1
 72
     4
 94
        3
 73
     0
 74
     1
 95
       26
 96
       22
 40
0.0
 40
0.0
 40
0.0
 40
0.0
 40
1.0
 40
1.0
 40
1.0
 40
2.0
 40
2.0
 40
2.0
 40
3.0
 40
3.0
 40
3.0
 40
4.0
 40
4.0
 40
4.0
 40
5.0
 40
5.0
 40
5.0
 40
6.0
 40
6.0
 40
6.0
 40
7.0
 40
7.0
 40
7.0
 40
7.0
 10
114.1584065469812
 20
-148.3657931486725
 10
114.1584065469812
 20
-148.3657931486725
 10
113.0542534439587
 20
-148.3657931486725
 10
113.0542534439587
 20
-148.3657931486725
 10
113.0542534439587
 20
-148.3657931486725
 10
113.0542534439587
 20
-148.718570926362
 10
113.0542534439587
 20
-148.718570926362
 10
113.0542534439587
 20
-148.718570926362
 10
112.9061143380929
 20
-148.718570926362
 10
112.9061143380929
 20
-148.718570926362
 10
112.8913004275064
 20
-148.363553836607
 10
112.728347411054
 20
-148.3137722068452
 10
112.6143147504923
 20
-148.2820773283809
 10
112.6143147504923
 20
-148.2820773283809
 10
112.6143147504923
 20
-148.1261867576733
 10
112.6143147504923
 20
-148.1261867576733
 10
112.6143147504923
 20
-148.1261867576733
 10
114.1584065469812
 20
-148.1261867576733
 10
114.1584065469812
 20
-148.1261867576733
 10
114.1584065469812
 20
-148.1261867576733
 10
114.1584065469812
 20
-148.3657931486725
 10
114.1584065469812
 20
-148.3657931486725
 97
        0
 97
        0
 75
     2
 76
     1
 98
        0
  0
POLYLINE
  5
86
330
80
100
AcDbEntity
  8
_U+30EC_U+30A4_U+30E4_U+30FC 1
370
     0
100
AcDb2dPolyline
 66
     1
 10
0.0
 20
0.0
 30
0.0
  0
VERTEX
  5
87
330
86
100
AcDbEntity
  8
_U+30EC_U+30A4_U+30E4_U+30FC 1
370
     0
100
AcDbVertex
100
AcDb2dVertex
 10
114.1584065469812
 20
-147.5262233789171
 30
0.0
  0
VERTEX
  5
88
330
86
100
AcDbEntity
  8
_U+30EC_U+30A4_U+30E4_U+30FC 1
370
     0
100
AcDbVertex
100
AcDb2dVertex
 10
113.906914576558
 20
-147.5262233789171
 30
0.0
  0
VERTEX
  5
89
330
86
100
AcDbEntity
  8
_U+30EC_U+30A4_U+30E4_U+30FC 1
370
     0
100
AcDbVertex
100
AcDb2dVertex
 10
113.906914576558
 20
-147.257161421519
 30
0.0
  0
VERTEX
  5
8A
330
86
100
AcDbEntity
  8
_U+30EC_U+30A4_U+30E4_U+30FC 1
370
     0
100
AcDbVertex
100
AcDb2dVertex
 10
114.1584065469812
 20
-147.257161421519
 30
0.0
  0
VERTEX
  5
8B
330
86
100
AcDbEntity
  8
_U+30EC_U+30A4_U+30E4_U+30FC 1
370
     0
100
AcDbVertex
100
AcDb2dVertex
 10
114.1584065469812
 20
-147.5262233789171
 30
0.0
  0
SEQEND
  5
8C
330
86
100
AcDbEntity
  8
_U+30EC_U+30A4_U+30E4_U+30FC 1
370
     0
  0
HATCH
  5
8D
330
80
100
AcDbEntity
  8
_U+30EC_U+30A4_U+30E4_U+30FC 1
 62
   179
420
  2234388
100
AcDbHatch
 10
0.0
 20
0.0
 30
0.0
210
0.0
220
0.0
230
1.0
  2
SOLID
 70
     1
 71
     0
 91
        1
 92
        1
 93
        4
 72
     1
 10
114.1584065469812
 20
-147.5262233789171
 11
113.906914576558
 21
-147.5262233789171
 72
     1
 10
113.906914576558
 20
-147.5262233789171
 11
113.906914576558
 21
-147.257161421519
 72
     1
 10
113.906914576558
 20
-147.257161421519
 11
114.1584065469812
 21
-147.257161421519
 72
     1
 10
114.1584065469812
 20
-147.257161421519
 11
114.1584065469812
 21
-147.5262233789171
 97
        0
 75
     2
 76
     1
 98
        0
  0
SPLINE
  5
8E
330
80
100
AcDbEntity
  8
_U+30EC_U+30A4_U+30E4_U+30FC 1
370
     0
100
AcDbSpline
210
0.0
220
0.0
230
1.0
 70
    11
 71
     3
 72
    53
 73
    49
 74
     0
 42
0.0000000001
 43
0.0000000001
 12
1.0
 22
0.0
 32
0.0
 13
1.0
 23
0.0
 33
0.0
 40
0.0
 40
0.0
 40
0.0
 40
0.0
 40
1.0
 40
1.0
 40
1.0
 40
2.0
 40
2.0
 40
2.0
 40
3.0
 40
3.0
 40
3.0
 40
4.0
 40
4.0
 40
4.0
 40
5.0
 40
5.0
 40
5.0
 40
6.0
 40
6.0
 40
6.0
 40
7.0
 40
7.0
 40
7.0
 40
8.0
 40
8.0
 40
8.0
 40
9.0
 40
9.0
 40
9.0
 40
10.0
 40
10.0
 40
10.0
 40
11.0
 40
11.0
 40
11.0
 40
12.0
 40
12.0
 40
12.0
 40
13.0
 40
13.0
 40
13.0
 40
14.0
 40
14.0
 40
14.0
 40
15.0
 40
15.0
 40
15.0
 40
16.0
 40
16.0
 40
16.0
 40
16.0
 10
114.2093939601629
 20
-146.4904554212767
 30
0.0
 10
114.2093939601629
 20
-146.5741712415683
 30
0.0
 10
114.1925129922852
 20
-146.6826917493536
 30
0.0
 10
114.1287787258081
 20
-146.791212257139
 30
0.0
 10
114.0188801798286
 20
-146.9765583942454
 30
0.0
 10
113.8876220418406
 20
-146.9991237696738
 30
0.0
 10
113.7797905531523
 20
-147.0196220878111
 30
0.0
 10
113.7797905531523
 20
-147.0196220878111
 30
0.0
 10
113.7797905531523
 20
-146.7820827541031
 30
0.0
 10
113.7797905531523
 20
-146.7820827541031
 30
0.0
 10
113.9785725626512
 20
-146.7233438760796
 30
0.0
 10
114.0082003838243
 20
-146.587779368735
 30
0.0
 10
114.0082003838243
 20
-146.4882161092113
 30
0.0
 10
114.0082003838243
 20
-146.3390434747
 30
0.0
 10
113.9089816338492
 20
-146.1762627130219
 30
0.0
 10
113.6760931790463
 20
-146.1762627130219
 30
0.0
 10
113.4201225844922
 20
-146.1762627130219
 30
0.0
 10
113.3505316556901
 20
-146.3684990410989
 30
0.0
 10
113.3505316556901
 20
-146.4973456122472
 30
0.0
 10
113.3505316556901
 20
-146.5312798027769
 30
0.0
 10
113.3505316556901
 20
-146.6826917493536
 30
0.0
 10
113.4793782268385
 20
-146.7776041299723
 30
0.0
 10
113.4793782268385
 20
-146.7776041299723
 30
0.0
 10
113.4604302016696
 20
-146.9653618339184
 30
0.0
 10
113.4604302016696
 20
-146.9653618339184
 30
0.0
 10
113.4604302016696
 20
-146.9653618339184
 30
0.0
 10
112.6143147504923
 20
-146.83651526277
 30
0.0
 10
112.6143147504923
 20
-146.83651526277
 30
0.0
 10
112.6143147504923
 20
-146.83651526277
 30
0.0
 10
112.6143147504923
 20
-146.0045247030822
 30
0.0
 10
112.6143147504923
 20
-146.0045247030822
 30
0.0
 10
112.6143147504923
 20
-146.0045247030822
 30
0.0
 10
112.8089626454089
 20
-146.0045247030822
 30
0.0
 10
112.8089626454089
 20
-146.0045247030822
 30
0.0
 10
112.8089626454089
 20
-146.0045247030822
 30
0.0
 10
112.8089626454089
 20
-146.6623656859907
 30
0.0
 10
112.8089626454089
 20
-146.6623656859907
 30
0.0
 10
112.8089626454089
 20
-146.6623656859907
 30
0.0
 10
113.2320203709976
 20
-146.7324733791155
 30
0.0
 10
113.2320203709976
 20
-146.7324733791155
 30
0.0
 10
113.1979139256936
 20
-146.6668443101215
 30
0.0
 10
113.1579508180647
 20
-146.5786498656991
 30
0.0
 10
113.1579508180647
 20
-146.4520426066162
 30
0.0
 10
113.1579508180647
 20
-146.1807413371527
 30
0.0
 10
113.3439859742682
 20
-145.9275268189869
 30
0.0
 10
113.6571451538774
 20
-145.9275268189869
 30
0.0
 10
113.9744384480689
 20
-145.9275268189869
 30
0.0
 10
114.2093939601629
 20
-146.167133209986
 30
0.0
 10
114.2093939601629
 20
-146.4904554212767
 30
0.0
  0
HATCH
  5
8F
330
80
100
AcDbEntity
  8
_U+30EC_U+30A4_U+30E4_U+30FC 1
 62
   179
420
  2234388
100
AcDbHatch
 10
0.0
 20
0.0
 30
0.0
210
0.0
220
0.0
230
1.0
  2
SOLID
 70
     1
 71
     0
 91
        1
 92
        1
 93
        1
 72
     4
 94
        3
 73
     0
 74
     1
 95
       53
 96
       49
 40
0.0
 40
0.0
 40
0.0
 40
0.0
 40
1.0
 40
1.0
 40
1.0
 40
2.0
 40
2.0
 40
2.0
 40
3.0
 40
3.0
 40
3.0
 40
4.0
 40
4.0
 40
4.0
 40
5.0
 40
5.0
 40
5.0
 40
6.0
 40
6.0
 40
6.0
 40
7.0
 40
7.0
 40
7.0
 40
8.0
 40
8.0
 40
8.0
 40
9.0
 40
9.0
 40
9.0
 40
10.0
 40
10.0
 40
10.0
 40
11.0
 40
11.0
 40
11.0
 40
12.0
 40
12.0
 40
12.0
 40
13.0
 40
13.0
 40
13.0
 40
14.0
 40
14.0
 40
14.0
 40
15.0
 40
15.0
 40
15.0
 40
16.0
 40
16.0
 40
16.0
 40
16.0
 10
114.2093939601629
 20
-146.4904554212767
 10
114.2093939601629
 20
-146.5741712415683
 10
114.1925129922852
 20
-146.6826917493536
 10
114.1287787258081
 20
-146.791212257139
 10
114.0188801798286
 20
-146.9765583942454
 10
113.8876220418406
 20
-146.9991237696738
 10
113.7797905531523
 20
-147.0196220878111
 10
113.7797905531523
 20
-147.0196220878111
 10
113.7797905531523
 20
-146.7820827541031
 10
113.7797905531523
 20
-146.7820827541031
 10
113.9785725626512
 20
-146.7233438760796
 10
114.0082003838243
 20
-146.587779368735
 10
114.0082003838243
 20
-146.4882161092113
 10
114.0082003838243
 20
-146.3390434747
 10
113.9089816338492
 20
-146.1762627130219
 10
113.6760931790463
 20
-146.1762627130219
 10
113.4201225844922
 20
-146.1762627130219
 10
113.3505316556901
 20
-146.3684990410989
 10
113.3505316556901
 20
-146.4973456122472
 10
113.3505316556901
 20
-146.5312798027769
 10
113.3505316556901
 20
-146.6826917493536
 10
113.4793782268385
 20
-146.7776041299723
 10
113.4793782268385
 20
-146.7776041299723
 10
113.4604302016696
 20
-146.9653618339184
 10
113.4604302016696
 20
-146.9653618339184
 10
113.4604302016696
 20
-146.9653618339184
 10
112.6143147504923
 20
-146.83651526277
 10
112.6143147504923
 20
-146.83651526277
 10
112.6143147504923
 20
-146.83651526277
 10
112.6143147504923
 20
-146.0045247030822
 10
112.6143147504923
 20
-146.0045247030822
 10
112.6143147504923
 20
-146.0045247030822
 10
112.8089626454089
 20
-146.0045247030822
 10
112.8089626454089
 20
-146.0045247030822
 10
112.8089626454089
 20
-146.0045247030822
 10
112.8089626454089
 20
-146.6623656859907
 10
112.8089626454089
 20
-146.6623656859907
 10
112.8089626454089
 20
-146.6623656859907
 10
113.2320203709976
 20
-146.7324733791155
 10
113.2320203709976
 20
-146.7324733791155
 10
113.1979139256936
 20
-146.6668443101215
 10
113.1579508180647
 20
-146.5786498656991
 10
113.1579508180647
 20
-146.4520426066162
 10
113.1579508180647
 20
-146.1807413371527
 10
113.3439859742682
 20
-145.9275268189869
 10
113.6571451538774
 20
-145.9275268189869
 10
113.9744384480689
 20
-145.9275268189869
 10
114.2093939601629
 20
-146.167133209986
 10
114.2093939601629
 20
-146.4904554212767
 97
        0
 97
        0
 75
     2
 76
     1
 98
        0
  0
ENDBLK
  5
83
330
80
100
AcDbEntity
  8
0
100
AcDbBlockEnd
  0
BLOCK
  5
92
330
90
100
AcDbEntity
  8
0
100
AcDbBlockBegin
  2
block 5
 70
     0
 10
0.0
 20
0.0
 30
0.0
  3
block 5
  1

  0
SPLINE
  5
94
330
90
100
AcDbEntity
  8
_U+30EC_U+30A4_U+30E4_U+30FC 1
370
     0
100
AcDbSpline
210
0.0
220
0.0
230
1.0
 70
    11
 71
     3
 72
    26
 73
    22
 74
     0
 42
0.0000000001
 43
0.0000000001
 12
1.0
 22
0.0
 32
0.0
 13
1.0
 23
0.0
 33
0.0
 40
0.0
 40
0.0
 40
0.0
 40
0.0
 40
1.0
 40
1.0
 40
1.0
 40
2.0
 40
2.0
 40
2.0
 40
3.0
 40
3.0
 40
3.0
 40
4.0
 40
4.0
 40
4.0
 40
5.0
 40
5.0
 40
5.0
 40
6.0
 40
6.0
 40
6.0
 40
7.0
 40
7.0
 40
7.0
 40
7.0
 10
114.1584065469812
 20
-151.9945122232861
 30
0.0
 10
114.1584065469812
 20
-151.9945122232861
 30
0.0
 10
113.0542534439587
 20
-151.9945122232861
 30
0.0
 10
113.0542534439587
 20
-151.9945122232861
 30
0.0
 10
113.0542534439587
 20
-151.9945122232861
 30
0.0
 10
113.0542534439587
 20
-152.3472900009757
 30
0.0
 10
113.0542534439587
 20
-152.3472900009757
 30
0.0
 10
113.0542534439587
 20
-152.3472900009757
 30
0.0
 10
112.9061143380929
 20
-152.3472900009757
 30
0.0
 10
112.9061143380929
 20
-152.3472900009757
 30
0.0
 10
112.8913004275064
 20
-151.9921006564464
 30
0.0
 10
112.728347411054
 20
-151.9424912814588
 30
0.0
 10
112.6143147504923
 20
-151.9107964029945
 30
0.0
 10
112.6143147504923
 20
-151.9107964029945
 30
0.0
 10
112.6143147504923
 20
-151.7550780870612
 30
0.0
 10
112.6143147504923
 20
-151.7550780870612
 30
0.0
 10
112.6143147504923
 20
-151.7550780870612
 30
0.0
 10
114.1584065469812
 20
-151.7550780870612
 30
0.0
 10
114.1584065469812
 20
-151.7550780870612
 30
0.0
 10
114.1584065469812
 20
-151.7550780870612
 30
0.0
 10
114.1584065469812
 20
-151.9945122232861
 30
0.0
 10
114.1584065469812
 20
-151.9945122232861
 30
0.0
  0
HATCH
  5
95
330
90
100
AcDbEntity
  8
_U+30EC_U+30A4_U+30E4_U+30FC 1
 62
   179
420
  2234388
100
AcDbHatch
 10
0.0
 20
0.0
 30
0.0
210
0.0
220
0.0
230
1.0
  2
SOLID
 70
     1
 71
     0
 91
        1
 92
        1
 93
        1
 72
     4
 94
        3
 73
     0
 74
     1
 95
       26
 96
       22
 40
0.0
 40
0.0
 40
0.0
 40
0.0
 40
1.0
 40
1.0
 40
1.0
 40
2.0
 40
2.0
 40
2.0
 40
3.0
 40
3.0
 40
3.0
 40
4.0
 40
4.0
 40
4.0
 40
5.0
 40
5.0
 40
5.0
 40
6.0
 40
6.0
 40
6.0
 40
7.0
 40
7.0
 40
7.0
 40
7.0
 10
114.1584065469812
 20
-151.9945122232861
 10
114.1584065469812
 20
-151.9945122232861
 10
113.0542534439587
 20
-151.9945122232861
 10
113.0542534439587
 20
-151.9945122232861
 10
113.0542534439587
 20
-151.9945122232861
 10
113.0542534439587
 20
-152.3472900009757
 10
113.0542534439587
 20
-152.3472900009757
 10
113.0542534439587
 20
-152.3472900009757
 10
112.9061143380929
 20
-152.3472900009757
 10
112.9061143380929
 20
-152.3472900009757
 10
112.8913004275064
 20
-151.9921006564464
 10
112.728347411054
 20
-151.9424912814588
 10
112.6143147504923
 20
-151.9107964029945
 10
112.6143147504923
 20
-151.9107964029945
 10
112.6143147504923
 20
-151.7550780870612
 10
112.6143147504923
 20
-151.7550780870612
 10
112.6143147504923
 20
-151.7550780870612
 10
114.1584065469812
 20
-151.7550780870612
 10
114.1584065469812
 20
-151.7550780870612
 10
114.1584065469812
 20
-151.7550780870612
 10
114.1584065469812
 20
-151.9945122232861
 10
114.1584065469812
 20
-151.9945122232861
 97
        0
 97
        0
 75
     2
 76
     1
 98
        0
  0
ENDBLK
  5
93
330
90
100
AcDbEntity
  8
0
100
AcDbBlockEnd
  0
BLOCK
  5
A2
330
A0
100
AcDbEntity
  8
0
100
AcDbBlockBegin
  2
block 6
 70
     0
 10
0.0
 20
0.0
 30
0.0
  3
block 6
  1

  0
SPLINE
  5
A4
330
A0
100
AcDbEntity
  8
_U+30EC_U+30A4_U+30E4_U+30FC 1
370
     0
100
AcDbSpline
210
0.0
220
0.0
230
1.0
 70
    11
 71
     3
 72
    32
 73
    28
 74
     0
 42
0.0000000001
 43
0.0000000001
 12
1.0
 22
0.0
 32
0.0
 13
1.0
 23
0.0
 33
0.0
 40
0.0
 40
0.0
 40
0.0
 40
0.0
 40
1.0
 40
1.0
 40
1.0
 40
2.0
 40
2.0
 40
2.0
 40
3.0
 40
3.0
 40
3.0
 40
4.0
 40
4.0
 40
4.0
 40
5.0
 40
5.0
 40
5.0
 40
6.0
 40
6.0
 40
6.0
 40
7.0
 40
7.0
 40
7.0
 40
8.0
 40
8.0
 40
8.0
 40
9.0
 40
9.0
 40
9.0
 40
9.0
 10
101.4627129195128
 20
-142.5160210147182
 30
0.0
 10
100.91098087755
 20
-142.5160210147182
 30
0.0
 10
100.9020236292884
 20
-141.9617051511415
 30
0.0
 10
100.9020236292884
 20
-141.748109231056
 30
0.0
 10
100.9020236292884
 20
-141.5174600883186
 30
0.0
 10
100.9223496926514
 20
-140.8701266466401
 30
0.0
 10
101.5033650462387
 20
-140.8701266466401
 30
0.0
 10
101.6888834381194
 20
-140.8701266466401
 30
0.0
 10
101.951055204547
 20
-140.9398898302164
 30
0.0
 10
101.9917073312729
 20
-141.2719970349945
 30
0.0
 10
101.9917073312729
 20
-141.2719970349945
 30
0.0
 10
101.7634697553751
 20
-141.2719970349945
 30
0.0
 10
101.7634697553751
 20
-141.2719970349945
 30
0.0
 10
101.7521009402738
 20
-141.2149807047136
 30
0.0
 10
101.7181667497441
 20
-141.0668415988479
 30
0.0
 10
101.5011257341733
 20
-141.0668415988479
 30
0.0
 10
101.189172337984
 20
-141.0668415988479
 30
0.0
 10
101.1462808991926
 20
-141.3948146890437
 30
0.0
 10
101.1326727720259
 20
-141.5999701251903
 30
0.0
 10
101.2320637767753
 20
-141.5217664576751
 30
0.0
 10
101.3044107819656
 20
-141.4625108153288
 30
0.0
 10
101.4988864221079
 20
-141.4625108153288
 30
0.0
 10
101.6911227501849
 20
-141.4625108153288
 30
0.0
 10
102.0144449614756
 20
-141.5703423040171
 30
0.0
 10
102.0144449614756
 20
-141.9765190617281
 30
0.0
 10
102.0144449614756
 20
-142.296051667985
 30
0.0
 10
101.8018825700356
 20
-142.5160210147182
 30
0.0
 10
101.4627129195128
 20
-142.5160210147182
 30
0.0
  0
SPLINE
  5
A5
330
A0
100
AcDbEntity
  8
_U+30EC_U+30A4_U+30E4_U+30FC 1
370
     0
100
AcDbSpline
210
0.0
220
0.0
230
1.0
 70
    11
 71
     3
 72
    17
 73
    13
 74
     0
 42
0.0000000001
 43
0.0000000001
 12
1.0
 22
0.0
 32
0.0
 13
1.0
 23
0.0
 33
0.0
 40
0.0
 40
0.0
 40
0.0
 40
0.0
 40
1.0
 40
1.0
 40
1.0
 40
2.0
 40
2.0
 40
2.0
 40
3.0
 40
3.0
 40
3.0
 40
4.0
 40
4.0
 40
4.0
 40
4.0
 10
101.4807996708104
 20
-141.6571587102454
 30
0.0
 10
101.200368898311
 20
-141.6571587102454
 30
0.0
 10
101.1597167715851
 20
-141.8686875730398
 30
0.0
 10
101.1597167715851
 20
-141.984959545667
 30
0.0
 10
101.1597167715851
 20
-142.1606594154147
 30
0.0
 10
101.2615193431742
 20
-142.3234401770927
 30
0.0
 10
101.458234295382
 20
-142.3234401770927
 30
0.0
 10
101.5870808665303
 20
-142.3234401770927
 30
0.0
 10
101.7746663157022
 20
-142.2641845347464
 30
0.0
 10
101.7746663157022
 20
-141.9785861190192
 30
0.0
 10
101.7746663157022
 20
-141.7544826577038
 30
0.0
 10
101.6254936811908
 20
-141.6571587102454
 30
0.0
 10
101.4807996708104
 20
-141.6571587102454
 30
0.0
  0
HATCH
  5
A6
330
A0
100
AcDbEntity
  8
_U+30EC_U+30A4_U+30E4_U+30FC 1
 62
   179
420
  2234388
100
AcDbHatch
 10
0.0
 20
0.0
 30
0.0
210
0.0
220
0.0
230
1.0
  2
SOLID
 70
     1
 71
     0
 91
        2
 92
        1
 93
        1
 72
     4
 94
        3
 73
     0
 74
     1
 95
       32
 96
       28
 40
0.0
 40
0.0
 40
0.0
 40
0.0
 40
1.0
 40
1.0
 40
1.0
 40
2.0
 40
2.0
 40
2.0
 40
3.0
 40
3.0
 40
3.0
 40
4.0
 40
4.0
 40
4.0
 40
5.0
 40
5.0
 40
5.0
 40
6.0
 40
6.0
 40
6.0
 40
7.0
 40
7.0
 40
7.0
 40
8.0
 40
8.0
 40
8.0
 40
9.0
 40
9.0
 40
9.0
 40
9.0
 10
101.4627129195128
 20
-142.5160210147182
 10
100.91098087755
 20
-142.5160210147182
 10
100.9020236292884
 20
-141.9617051511415
 10
100.9020236292884
 20
-141.748109231056
 10
100.9020236292884
 20
-141.5174600883186
 10
100.9223496926514
 20
-140.8701266466401
 10
101.5033650462387
 20
-140.8701266466401
 10
101.6888834381194
 20
-140.8701266466401
 10
101.951055204547
 20
-140.9398898302164
 10
101.9917073312729
 20
-141.2719970349945
 10
101.9917073312729
 20
-141.2719970349945
 10
101.7634697553751
 20
-141.2719970349945
 10
101.7634697553751
 20
-141.2719970349945
 10
101.7521009402738
 20
-141.2149807047136
 10
101.7181667497441
 20
-141.0668415988479
 10
101.5011257341733
 20
-141.0668415988479
 10
101.189172337984
 20
-141.0668415988479
 10
101.1462808991926
 20
-141.3948146890437
 10
101.1326727720259
 20
-141.5999701251903
 10
101.2320637767753
 20
-141.5217664576751
 10
101.3044107819656
 20
-141.4625108153288
 10
101.4988864221079
 20
-141.4625108153288
 10
101.6911227501849
 20
-141.4625108153288
 10
102.0144449614756
 20
-141.5703423040171
 10
102.0144449614756
 20
-141.9765190617281
 10
102.0144449614756
 20
-142.296051667985
 10
101.8018825700356
 20
-142.5160210147182
 10
101.4627129195128
 20
-142.5160210147182
 97
        0
 97
        0
 92
        1
 93
        1
 72
     4
 94
        3
 73
     0
 74
     1
 95
       17
 96
       13
 40
0.0
 40
0.0
 40
0.0
 40
0.0
 40
1.0
 40
1.0
 40
1.0
 40
2.0
 40
2.0
 40
2.0
 40
3.0
 40
3.0
 40
3.0
 40
4.0
 40
4.0
 40
4.0
 40
4.0
 10
101.4807996708104
 20
-141.6571587102454
 10
101.200368898311
 20
-141.6571587102454
 10
101.1597167715851
 20
-141.8686875730398
 10
101.1597167715851
 20
-141.984959545667
 10
101.1597167715851
 20
-142.1606594154147
 10
101.2615193431742
 20
-142.3234401770927
 10
101.458234295382
 20
-142.3234401770927
 10
101.5870808665303
 20
-142.3234401770927
 10
101.7746663157022
 20
-142.2641845347464
 10
101.7746663157022
 20
-141.9785861190192
 10
101.7746663157022
 20
-141.7544826577038
 10
101.6254936811908
 20
-141.6571587102454
 10
101.4807996708104
 20
-141.6571587102454
 97
        0
 97
        0
 75
     2
 76
     1
 98
        0
  0
ENDBLK
  5
A3
330
A0
100
AcDbEntity
  8
0
100
AcDbBlockEnd
  0
BLOCK
  5
B0
330
AE
100
AcDbEntity
  8
0
100
AcDbBlockBegin
  2
block 7
 70
     0
 10
0.0
 20
0.0
 30
0.0
  3
block 7
  1

  0
SPLINE
  5
B2
330
AE
100
AcDbEntity
  8
_U+30EC_U+30A4_U+30E4_U+30FC 1
370
     0
100
AcDbSpline
210
0.0
220
0.0
230
1.0
 70
    11
 71
     3
 72
    26
 73
    22
 74
     0
 42
0.0000000001
 43
0.0000000001
 12
1.0
 22
0.0
 32
0.0
 13
1.0
 23
0.0
 33
0.0
 40
0.0
 40
0.0
 40
0.0
 40
0.0
 40
1.0
 40
1.0
 40
1.0
 40
2.0
 40
2.0
 40
2.0
 40
3.0
 40
3.0
 40
3.0
 40
4.0
 40
4.0
 40
4.0
 40
5.0
 40
5.0
 40
5.0
 40
6.0
 40
6.0
 40
6.0
 40
7.0
 40
7.0
 40
7.0
 40
7.0
 10
91.84676240108345
 20
-145.9249429973729
 30
0.0
 10
91.84676240108345
 20
-145.9249429973729
 30
0.0
 10
91.84676240108345
 20
-144.8206176395761
 30
0.0
 10
91.84676240108345
 20
-144.8206176395761
 30
0.0
 10
91.84676240108345
 20
-144.8206176395761
 30
0.0
 10
91.51672225359651
 20
-144.8206176395761
 30
0.0
 10
91.51672225359651
 20
-144.8206176395761
 30
0.0
 10
91.51672225359651
 20
-144.8206176395761
 30
0.0
 10
91.51672225359651
 20
-144.6724785337103
 30
0.0
 10
91.51672225359651
 20
-144.6724785337103
 30
0.0
 10
91.8488294583746
 20
-144.657836877898
 30
0.0
 10
91.89533824742547
 20
-144.4948838614457
 30
0.0
 10
91.92496606859862
 20
-144.3806789461097
 30
0.0
 10
91.92496606859862
 20
-144.3806789461097
 30
0.0
 10
92.07103811717322
 20
-144.3806789461097
 30
0.0
 10
92.07103811717322
 20
-144.3806789461097
 30
0.0
 10
92.07103811717322
 20
-144.3806789461097
 30
0.0
 10
92.07103811717322
 20
-145.9249429973729
 30
0.0
 10
92.07103811717322
 20
-145.9249429973729
 30
0.0
 10
92.07103811717322
 20
-145.9249429973729
 30
0.0
 10
91.84676240108345
 20
-145.9249429973729
 30
0.0
 10
91.84676240108345
 20
-145.9249429973729
 30
0.0
  0
HATCH
  5
B3
330
AE
100
AcDbEntity
  8
_U+30EC_U+30A4_U+30E4_U+30FC 1
 62
   179
420
  2234388
100
AcDbHatch
 10
0.0
 20
0.0
 30
0.0
210
0.0
220
0.0
230
1.0
  2
SOLID
 70
     1
 71
     0
 91
        1
 92
        1
 93
        1
 72
     4
 94
        3
 73
     0
 74
     1
 95
       26
 96
       22
 40
0.0
 40
0.0
 40
0.0
 40
0.0
 40
1.0
 40
1.0
 40
1.0
 40
2.0
 40
2.0
 40
2.0
 40
3.0
 40
3.0
 40
3.0
 40
4.0
 40
4.0
 40
4.0
 40
5.0
 40
5.0
 40
5.0
 40
6.0
 40
6.0
 40
6.0
 40
7.0
 40
7.0
 40
7.0
 40
7.0
 10
91.84676240108345
 20
-145.9249429973729
 10
91.84676240108345
 20
-145.9249429973729
 10
91.84676240108345
 20
-144.8206176395761
 10
91.84676240108345
 20
-144.8206176395761
 10
91.84676240108345
 20
-144.8206176395761
 10
91.51672225359651
 20
-144.8206176395761
 10
91.51672225359651
 20
-144.8206176395761
 10
91.51672225359651
 20
-144.8206176395761
 10
91.51672225359651
 20
-144.6724785337103
 10
91.51672225359651
 20
-144.6724785337103
 10
91.8488294583746
 20
-144.657836877898
 10
91.89533824742547
 20
-144.4948838614457
 10
91.92496606859862
 20
-144.3806789461097
 10
91.92496606859862
 20
-144.3806789461097
 10
92.07103811717322
 20
-144.3806789461097
 10
92.07103811717322
 20
-144.3806789461097
 10
92.07103811717322
 20
-144.3806789461097
 10
92.07103811717322
 20
-145.9249429973729
 10
92.07103811717322
 20
-145.9249429973729
 10
92.07103811717322
 20
-145.9249429973729
 10
91.84676240108345
 20
-145.9249429973729
 10
91.84676240108345
 20
-145.9249429973729
 97
        0
 97
        0
 75
     2
 76
     1
 98
        0
  0
POLYLINE
  5
B4
330
AE
100
AcDbEntity
  8
_U+30EC_U+30A4_U+30E4_U+30FC 1
370
     0
100
AcDb2dPolyline
 66
     1
 10
0.0
 20
0.0
 30
0.0
  0
VERTEX
  5
B5
330
B4
100
AcDbEntity
  8
_U+30EC_U+30A4_U+30E4_U+30FC 1
370
     0
100
AcDbVertex
100
AcDb2dVertex
 10
92.63224417172042
 20
-145.9249429973729
 30
0.0
  0
VERTEX
  5
B6
330
B4
100
AcDbEntity
  8
_U+30EC_U+30A4_U+30E4_U+30FC 1
370
     0
100
AcDbVertex
100
AcDb2dVertex
 10
92.63224417172042
 20
-145.6732787721755
 30
0.0
  0
VERTEX
  5
B7
330
B4
100
AcDbEntity
  8
_U+30EC_U+30A4_U+30E4_U+30FC 1
370
     0
100
AcDbVertex
100
AcDb2dVertex
 10
92.88390839691792
 20
-145.6732787721755
 30
0.0
  0
VERTEX
  5
B8
330
B4
100
AcDbEntity
  8
_U+30EC_U+30A4_U+30E4_U+30FC 1
370
     0
100
AcDbVertex
100
AcDb2dVertex
 10
92.88390839691792
 20
-145.9249429973729
 30
0.0
  0
VERTEX
  5
B9
330
B4
100
AcDbEntity
  8
_U+30EC_U+30A4_U+30E4_U+30FC 1
370
     0
100
AcDbVertex
100
AcDb2dVertex
 10
92.63224417172042
 20
-145.9249429973729
 30
0.0
  0
SEQEND
  5
BA
330
B4
100
AcDbEntity
  8
_U+30EC_U+30A4_U+30E4_U+30FC 1
370
     0
  0
HATCH
  5
BB
330
AE
100
AcDbEntity
  8
_U+30EC_U+30A4_U+30E4_U+30FC 1
 62
   179
420
  2234388
100
AcDbHatch
 10
0.0
 20
0.0
 30
0.0
210
0.0
220
0.0
230
1.0
  2
SOLID
 70
     1
 71
     0
 91
        1
 92
        1
 93
        4
 72
     1
 10
92.63224417172042
 20
-145.9249429973729
 11
92.63224417172042
 21
-145.6732787721755
 72
     1
 10
92.63224417172042
 20
-145.6732787721755
 11
92.88390839691792
 21
-145.6732787721755
 72
     1
 10
92.88390839691792
 20
-145.6732787721755
 11
92.88390839691792
 21
-145.9249429973729
 72
     1
 10
92.88390839691792
 20
-145.9249429973729
 11
92.63224417172042
 21
-145.9249429973729
 97
        0
 75
     2
 76
     1
 98
        0
  0
SPLINE
  5
BC
330
AE
100
AcDbEntity
  8
_U+30EC_U+30A4_U+30E4_U+30FC 1
370
     0
100
AcDbSpline
210
0.0
220
0.0
230
1.0
 70
    11
 71
     3
 72
    53
 73
    49
 74
     0
 42
0.0000000001
 43
0.0000000001
 12
1.0
 22
0.0
 32
0.0
 13
1.0
 23
0.0
 33
0.0
 40
0.0
 40
0.0
 40
0.0
 40
0.0
 40
1.0
 40
1.0
 40
1.0
 40
2.0
 40
2.0
 40
2.0
 40
3.0
 40
3.0
 40
3.0
 40
4.0
 40
4.0
 40
4.0
 40
5.0
 40
5.0
 40
5.0
 40
6.0
 40
6.0
 40
6.0
 40
7.0
 40
7.0
 40
7.0
 40
8.0
 40
8.0
 40
8.0
 40
9.0
 40
9.0
 40
9.0
 40
10.0
 40
10.0
 40
10.0
 40
11.0
 40
11.0
 40
11.0
 40
12.0
 40
12.0
 40
12.0
 40
13.0
 40
13.0
 40
13.0
 40
14.0
 40
14.0
 40
14.0
 40
15.0
 40
15.0
 40
15.0
 40
16.0
 40
16.0
 40
16.0
 40
16.0
 10
93.60152178649545
 20
-145.9757581557804
 30
0.0
 10
93.52314586420603
 20
-145.9757581557804
 30
0.0
 10
93.42168780216542
 20
-145.9588771879027
 30
0.0
 10
93.32005748535055
 20
-145.8953151761998
 30
0.0
 10
93.14659692766821
 20
-145.7852443754461
 30
0.0
 10
93.12540959043393
 20
-145.6541584922323
 30
0.0
 10
93.10646156526505
 20
-145.546327003544
 30
0.0
 10
93.10646156526505
 20
-145.546327003544
 30
0.0
 10
93.3284979692894
 20
-145.546327003544
 30
0.0
 10
93.3284979692894
 20
-145.546327003544
 30
0.0
 10
93.3836194970534
 20
-145.7451090130429
 30
0.0
 10
93.51057126568486
 20
-145.774736834216
 30
0.0
 10
93.60358884378661
 20
-145.774736834216
 30
0.0
 10
93.74311521093922
 20
-145.774736834216
 30
0.0
 10
93.89556068616153
 20
-145.6753458294666
 30
0.0
 10
93.89556068616153
 20
-145.442629629438
 30
0.0
 10
93.89556068616153
 20
-145.1866590348839
 30
0.0
 10
93.71572670183149
 20
-145.1168958513076
 30
0.0
 10
93.59514835984774
 20
-145.1168958513076
 30
0.0
 10
93.56345348138345
 20
-145.1168958513076
 30
0.0
 10
93.42168780216542
 20
-145.1168958513076
 30
0.0
 10
93.33280433864597
 20
-145.2459146772302
 30
0.0
 10
93.33280433864597
 20
-145.2459146772302
 30
0.0
 10
93.1572767236725
 20
-145.2267943972871
 30
0.0
 10
93.1572767236725
 20
-145.2267943972871
 30
0.0
 10
93.1572767236725
 20
-145.2267943972871
 30
0.0
 10
93.27785506565624
 20
-144.3806789461097
 30
0.0
 10
93.27785506565624
 20
-144.3806789461097
 30
0.0
 10
93.27785506565624
 20
-144.3806789461097
 30
0.0
 10
94.05627439054844
 20
-144.3806789461097
 30
0.0
 10
94.05627439054844
 20
-144.3806789461097
 30
0.0
 10
94.05627439054844
 20
-144.3806789461097
 30
0.0
 10
94.05627439054844
 20
-144.5753268410263
 30
0.0
 10
94.05627439054844
 20
-144.5753268410263
 30
0.0
 10
94.05627439054844
 20
-144.5753268410263
 30
0.0
 10
93.44063582733429
 20
-144.5753268410263
 30
0.0
 10
93.44063582733429
 20
-144.5753268410263
 30
0.0
 10
93.44063582733429
 20
-144.5753268410263
 30
0.0
 10
93.37517901311455
 20
-144.998384566615
 30
0.0
 10
93.37517901311455
 20
-144.998384566615
 30
0.0
 10
93.43650171275199
 20
-144.9644503760853
 30
0.0
 10
93.51901174962373
 20
-144.9243150136821
 30
0.0
 10
93.63735077954206
 20
-144.9243150136821
 30
0.0
 10
93.89125431680498
 20
-144.9243150136821
 30
0.0
 10
94.12827688619015
 20
-145.1105224246599
 30
0.0
 10
94.12827688619015
 20
-145.4235093494948
 30
0.0
 10
94.12827688619015
 20
-145.7409748984606
 30
0.0
 10
93.90400117010039
 20
-145.9757581557804
 30
0.0
 10
93.60152178649545
 20
-145.9757581557804
 30
0.0
  0
HATCH
  5
BD
330
AE
100
AcDbEntity
  8
_U+30EC_U+30A4_U+30E4_U+30FC 1
 62
   179
420
  2234388
100
AcDbHatch
 10
0.0
 20
0.0
 30
0.0
210
0.0
220
0.0
230
1.0
  2
SOLID
 70
     1
 71
     0
 91
        1
 92
        1
 93
        1
 72
     4
 94
        3
 73
     0
 74
     1
 95
       53
 96
       49
 40
0.0
 40
0.0
 40
0.0
 40
0.0
 40
1.0
 40
1.0
 40
1.0
 40
2.0
 40
2.0
 40
2.0
 40
3.0
 40
3.0
 40
3.0
 40
4.0
 40
4.0
 40
4.0
 40
5.0
 40
5.0
 40
5.0
 40
6.0
 40
6.0
 40
6.0
 40
7.0
 40
7.0
 40
7.0
 40
8.0
 40
8.0
 40
8.0
 40
9.0
 40
9.0
 40
9.0
 40
10.0
 40
10.0
 40
10.0
 40
11.0
 40
11.0
 40
11.0
 40
12.0
 40
12.0
 40
12.0
 40
13.0
 40
13.0
 40
13.0
 40
14.0
 40
14.0
 40
14.0
 40
15.0
 40
15.0
 40
15.0
 40
16.0
 40
16.0
 40
16.0
 40
16.0
 10
93.60152178649545
 20
-145.9757581557804
 10
93.52314586420603
 20
-145.9757581557804
 10
93.42168780216542
 20
-145.9588771879027
 10
93.32005748535055
 20
-145.8953151761998
 10
93.14659692766821
 20
-145.7852443754461
 10
93.12540959043393
 20
-145.6541584922323
 10
93.10646156526505
 20
-145.546327003544
 10
93.10646156526505
 20
-145.546327003544
 10
93.3284979692894
 20
-145.546327003544
 10
93.3284979692894
 20
-145.546327003544
 10
93.3836194970534
 20
-145.7451090130429
 10
93.51057126568486
 20
-145.774736834216
 10
93.60358884378661
 20
-145.774736834216
 10
93.74311521093922
 20
-145.774736834216
 10
93.89556068616153
 20
-145.6753458294666
 10
93.89556068616153
 20
-145.442629629438
 10
93.89556068616153
 20
-145.1866590348839
 10
93.71572670183149
 20
-145.1168958513076
 10
93.59514835984774
 20
-145.1168958513076
 10
93.56345348138345
 20
-145.1168958513076
 10
93.42168780216542
 20
-145.1168958513076
 10
93.33280433864597
 20
-145.2459146772302
 10
93.33280433864597
 20
-145.2459146772302
 10
93.1572767236725
 20
-145.2267943972871
 10
93.1572767236725
 20
-145.2267943972871
 10
93.1572767236725
 20
-145.2267943972871
 10
93.27785506565624
 20
-144.3806789461097
 10
93.27785506565624
 20
-144.3806789461097
 10
93.27785506565624
 20
-144.3806789461097
 10
94.05627439054844
 20
-144.3806789461097
 10
94.05627439054844
 20
-144.3806789461097
 10
94.05627439054844
 20
-144.3806789461097
 10
94.05627439054844
 20
-144.5753268410263
 10
94.05627439054844
 20
-144.5753268410263
 10
94.05627439054844
 20
-144.5753268410263
 10
93.44063582733429
 20
-144.5753268410263
 10
93.44063582733429
 20
-144.5753268410263
 10
93.44063582733429
 20
-144.5753268410263
 10
93.37517901311455
 20
-144.998384566615
 10
93.37517901311455
 20
-144.998384566615
 10
93.43650171275199
 20
-144.9644503760853
 10
93.51901174962373
 20
-144.9243150136821
 10
93.63735077954206
 20
-144.9243150136821
 10
93.89125431680498
 20
-144.9243150136821
 10
94.12827688619015
 20
-145.1105224246599
 10
94.12827688619015
 20
-145.4235093494948
 10
94.12827688619015
 20
-145.7409748984606
 10
93.90400117010039
 20
-145.9757581557804
 10
93.60152178649545
 20
-145.9757581557804
 97
        0
 97
        0
 75
     2
 76
     1
 98
        0
  0
SPLINE
  5
BE
330
AE
100
AcDbEntity
  8
_U+30EC_U+30A4_U+30E4_U+30FC 1
370
     0
100
AcDbSpline
210
0.0
220
0.0
230
1.0
 70
    11
 71
     3
 72
    44
 73
    40
 74
     0
 42
0.0000000001
 43
0.0000000001
 12
1.0
 22
0.0
 32
0.0
 13
1.0
 23
0.0
 33
0.0
 40
0.0
 40
0.0
 40
0.0
 40
0.0
 40
1.0
 40
1.0
 40
1.0
 40
2.0
 40
2.0
 40
2.0
 40
3.0
 40
3.0
 40
3.0
 40
4.0
 40
4.0
 40
4.0
 40
5.0
 40
5.0
 40
5.0
 40
6.0
 40
6.0
 40
6.0
 40
7.0
 40
7.0
 40
7.0
 40
8.0
 40
8.0
 40
8.0
 40
9.0
 40
9.0
 40
9.0
 40
10.0
 40
10.0
 40
10.0
 40
11.0
 40
11.0
 40
11.0
 40
12.0
 40
12.0
 40
12.0
 40
13.0
 40
13.0
 40
13.0
 40
13.0
 10
95.31149493059921
 20
-145.9249429973729
 30
0.0
 10
95.28806828129952
 20
-145.8805012656132
 30
0.0
 10
95.26705319883949
 20
-145.8276190499146
 30
0.0
 10
95.26481388677408
 20
-145.5969699071771
 30
0.0
 10
95.26067977219178
 20
-145.3537461659185
 30
0.0
 10
95.20142412984548
 20
-145.2839829823422
 30
0.0
 10
95.02365720280659
 20
-145.2839829823422
 30
0.0
 10
95.02365720280659
 20
-145.2839829823422
 30
0.0
 10
94.61541338780448
 20
-145.2839829823422
 30
0.0
 10
94.61541338780448
 20
-145.2839829823422
 30
0.0
 10
94.61541338780448
 20
-145.2839829823422
 30
0.0
 10
94.61541338780448
 20
-145.9249429973729
 30
0.0
 10
94.61541338780448
 20
-145.9249429973729
 30
0.0
 10
94.61541338780448
 20
-145.9249429973729
 30
0.0
 10
94.3806301304847
 20
-145.9249429973729
 30
0.0
 10
94.3806301304847
 20
-145.9249429973729
 30
0.0
 10
94.3806301304847
 20
-145.9249429973729
 30
0.0
 10
94.3806301304847
 20
-144.3806789461097
 30
0.0
 10
94.3806301304847
 20
-144.3806789461097
 30
0.0
 10
94.3806301304847
 20
-144.3806789461097
 30
0.0
 10
95.05535208127088
 20
-144.3806789461097
 30
0.0
 10
95.05535208127088
 20
-144.3806789461097
 30
0.0
 10
95.36213783423239
 20
-144.3806789461097
 30
0.0
 10
95.52939722004126
 20
-144.5519001917266
 30
0.0
 10
95.52939722004126
 20
-144.8078707862807
 30
0.0
 10
95.52939722004126
 20
-144.8586859446881
 30
0.0
 10
95.52078448132814
 20
-144.9411959815598
 30
0.0
 10
95.47634274956842
 20
-145.0216389611404
 30
0.0
 10
95.41725936199639
 20
-145.1253363352465
 30
0.0
 10
95.35163029300237
 20
-145.1442843604153
 30
0.0
 10
95.29030759336493
 20
-145.161165328293
 30
0.0
 10
95.4277669032264
 20
-145.2035400027616
 30
0.0
 10
95.49546302951155
 20
-145.2522881038779
 30
0.0
 10
95.49976939886811
 20
-145.567342086004
 30
0.0
 10
95.50390351345041
 20
-145.8381265911446
 30
0.0
 10
95.53990476127127
 20
-145.8699937243832
 30
0.0
 10
95.60760088755644
 20
-145.9249429973729
 30
0.0
 10
95.60760088755644
 20
-145.9249429973729
 30
0.0
 10
95.31149493059921
 20
-145.9249429973729
 30
0.0
 10
95.31149493059921
 20
-145.9249429973729
 30
0.0
  0
SPLINE
  5
BF
330
AE
100
AcDbEntity
  8
_U+30EC_U+30A4_U+30E4_U+30FC 1
370
     0
100
AcDbSpline
210
0.0
220
0.0
230
1.0
 70
    11
 71
     3
 72
    20
 73
    16
 74
     0
 42
0.0000000001
 43
0.0000000001
 12
1.0
 22
0.0
 32
0.0
 13
1.0
 23
0.0
 33
0.0
 40
0.0
 40
0.0
 40
0.0
 40
0.0
 40
1.0
 40
1.0
 40
1.0
 40
2.0
 40
2.0
 40
2.0
 40
3.0
 40
3.0
 40
3.0
 40
4.0
 40
4.0
 40
4.0
 40
5.0
 40
5.0
 40
5.0
 40
5.0
 10
95.05965845062745
 20
-144.592207808904
 30
0.0
 10
95.05965845062745
 20
-144.592207808904
 30
0.0
 10
94.61541338780448
 20
-144.592207808904
 30
0.0
 10
94.61541338780448
 20
-144.592207808904
 30
0.0
 10
94.61541338780448
 20
-144.592207808904
 30
0.0
 10
94.61541338780448
 20
-145.0724541195479
 30
0.0
 10
94.61541338780448
 20
-145.0724541195479
 30
0.0
 10
94.61541338780448
 20
-145.0724541195479
 30
0.0
 10
95.0575913933363
 20
-145.0724541195479
 30
0.0
 10
95.0575913933363
 20
-145.0724541195479
 30
0.0
 10
95.15698239808576
 20
-145.0724541195479
 30
0.0
 10
95.29237465065607
 20
-144.9963175093238
 30
0.0
 10
95.29237465065607
 20
-144.8249240089327
 30
0.0
 10
95.29237465065607
 20
-144.7465480866432
 30
0.0
 10
95.25861271490064
 20
-144.592207808904
 30
0.0
 10
95.05965845062745
 20
-144.592207808904
 30
0.0
  0
HATCH
  5
C0
330
AE
100
AcDbEntity
  8
_U+30EC_U+30A4_U+30E4_U+30FC 1
 62
   179
420
  2234388
100
AcDbHatch
 10
0.0
 20
0.0
 30
0.0
210
0.0
220
0.0
230
1.0
  2
SOLID
 70
     1
 71
     0
 91
        2
 92
        1
 93
        1
 72
     4
 94
        3
 73
     0
 74
     1
 95
       44
 96
       40
 40
0.0
 40
0.0
 40
0.0
 40
0.0
 40
1.0
 40
1.0
 40
1.0
 40
2.0
 40
2.0
 40
2.0
 40
3.0
 40
3.0
 40
3.0
 40
4.0
 40
4.0
 40
4.0
 40
5.0
 40
5.0
 40
5.0
 40
6.0
 40
6.0
 40
6.0
 40
7.0
 40
7.0
 40
7.0
 40
8.0
 40
8.0
 40
8.0
 40
9.0
 40
9.0
 40
9.0
 40
10.0
 40
10.0
 40
10.0
 40
11.0
 40
11.0
 40
11.0
 40
12.0
 40
12.0
 40
12.0
 40
13.0
 40
13.0
 40
13.0
 40
13.0
 10
95.31149493059921
 20
-145.9249429973729
 10
95.28806828129952
 20
-145.8805012656132
 10
95.26705319883949
 20
-145.8276190499146
 10
95.26481388677408
 20
-145.5969699071771
 10
95.26067977219178
 20
-145.3537461659185
 10
95.20142412984548
 20
-145.2839829823422
 10
95.02365720280659
 20
-145.2839829823422
 10
95.02365720280659
 20
-145.2839829823422
 10
94.61541338780448
 20
-145.2839829823422
 10
94.61541338780448
 20
-145.2839829823422
 10
94.61541338780448
 20
-145.2839829823422
 10
94.61541338780448
 20
-145.9249429973729
 10
94.61541338780448
 20
-145.9249429973729
 10
94.61541338780448
 20
-145.9249429973729
 10
94.3806301304847
 20
-145.9249429973729
 10
94.3806301304847
 20
-145.9249429973729
 10
94.3806301304847
 20
-145.9249429973729
 10
94.3806301304847
 20
-144.3806789461097
 10
94.3806301304847
 20
-144.3806789461097
 10
94.3806301304847
 20
-144.3806789461097
 10
95.05535208127088
 20
-144.3806789461097
 10
95.05535208127088
 20
-144.3806789461097
 10
95.36213783423239
 20
-144.3806789461097
 10
95.52939722004126
 20
-144.5519001917266
 10
95.52939722004126
 20
-144.8078707862807
 10
95.52939722004126
 20
-144.8586859446881
 10
95.52078448132814
 20
-144.9411959815598
 10
95.47634274956842
 20
-145.0216389611404
 10
95.41725936199639
 20
-145.1253363352465
 10
95.35163029300237
 20
-145.1442843604153
 10
95.29030759336493
 20
-145.161165328293
 10
95.4277669032264
 20
-145.2035400027616
 10
95.49546302951155
 20
-145.2522881038779
 10
95.49976939886811
 20
-145.567342086004
 10
95.50390351345041
 20
-145.8381265911446
 10
95.53990476127127
 20
-145.8699937243832
 10
95.60760088755644
 20
-145.9249429973729
 10
95.60760088755644
 20
-145.9249429973729
 10
95.31149493059921
 20
-145.9249429973729
 10
95.31149493059921
 20
-145.9249429973729
 97
        0
 97
        0
 92
        1
 93
        1
 72
     4
 94
        3
 73
     0
 74
     1
 95
       20
 96
       16
 40
0.0
 40
0.0
 40
0.0
 40
0.0
 40
1.0
 40
1.0
 40
1.0
 40
2.0
 40
2.0
 40
2.0
 40
3.0
 40
3.0
 40
3.0
 40
4.0
 40
4.0
 40
4.0
 40
5.0
 40
5.0
 40
5.0
 40
5.0
 10
95.05965845062745
 20
-144.592207808904
 10
95.05965845062745
 20
-144.592207808904
 10
94.61541338780448
 20
-144.592207808904
 10
94.61541338780448
 20
-144.592207808904
 10
94.61541338780448
 20
-144.592207808904
 10
94.61541338780448
 20
-145.0724541195479
 10
94.61541338780448
 20
-145.0724541195479
 10
94.61541338780448
 20
-145.0724541195479
 10
95.0575913933363
 20
-145.0724541195479
 10
95.0575913933363
 20
-145.0724541195479
 10
95.15698239808576
 20
-145.0724541195479
 10
95.29237465065607
 20
-144.9963175093238
 10
95.29237465065607
 20
-144.8249240089327
 10
95.29237465065607
 20
-144.7465480866432
 10
95.25861271490064
 20
-144.592207808904
 10
95.05965845062745
 20
-144.592207808904
 97
        0
 97
        0
 75
     2
 76
     1
 98
        0
  0
ENDBLK
  5
B1
330
AE
100
AcDbEntity
  8
0
100
AcDbBlockEnd
  0
ENDSEC
  0
SECTION
  2
ENTITIES
  0
SPLINE
  5
41
330
1F
100
AcDbEntity
  8
_U+30EC_U+30A4_U+30E4_U+30FC 1
 62
   179
420
  2234388
370
     9
100
AcDbSpline
210
0.0
220
0.0
230
1.0
 70
    11
 71
     3
 72
    17
 73
    13
 74
     0
 42
0.0000000001
 43
0.0000000001
 12
1.0
 22
0.0
 32
0.0
 13
1.0
 23
0.0
 33
0.0
 40
0.0
 40
0.0
 40
0.0
 40
0.0
 40
1.0
 40
1.0
 40
1.0
 40
2.0
 40
2.0
 40
2.0
 40
3.0
 40
3.0
 40
3.0
 40
4.0
 40
4.0
 40
4.0
 40
4.0
 10
115.5512317368593
 20
-147.9708775468289
 30
0.0
 10
115.5512317368593
 20
-147.9158636782988
 30
0.0
 10
115.5064239637042
 20
-147.8710559051438
 30
0.0
 10
115.4513939462891
 20
-147.8710559051438
 30
0.0
 10
115.3963585459122
 20
-147.8710559051438
 30
0.0
 10
115.3515561557189
 20
-147.9158636782988
 30
0.0
 10
115.3515561557189
 20
-147.9708775468289
 30
0.0
 10
115.3515561557189
 20
-148.0259129472058
 30
0.0
 10
115.3963585459122
 20
-148.0707207203608
 30
0.0
 10
115.4513939462891
 20
-148.0707207203608
 30
0.0
 10
115.5064239637042
 20
-148.0707207203608
 30
0.0
 10
115.5512317368593
 20
-148.0259129472058
 30
0.0
 10
115.5512317368593
 20
-147.9708775468289
 30
0.0
  0
SPLINE
  5
42
330
1F
100
AcDbEntity
  8
_U+30EC_U+30A4_U+30E4_U+30FC 1
 62
   179
420
  2234388
370
     9
100
AcDbSpline
210
0.0
220
0.0
230
1.0
 70
    11
 71
     3
 72
    17
 73
    13
 74
     0
 42
0.0000000001
 43
0.0000000001
 12
1.0
 22
0.0
 32
0.0
 13
1.0
 23
0.0
 33
0.0
 40
0.0
 40
0.0
 40
0.0
 40
0.0
 40
1.0
 40
1.0
 40
1.0
 40
2.0
 40
2.0
 40
2.0
 40
3.0
 40
3.0
 40
3.0
 40
4.0
 40
4.0
 40
4.0
 40
4.0
 10
115.5512317368593
 20
-151.4711376235363
 30
0.0
 10
115.5512317368593
 20
-151.4157577136109
 30
0.0
 10
115.5064239637042
 20
-151.3709499404559
 30
0.0
 10
115.4513939462891
 20
-151.3709499404559
 30
0.0
 10
115.3963585459122
 20
-151.3709499404559
 30
0.0
 10
115.3515561557189
 20
-151.4157577136109
 30
0.0
 10
115.3515561557189
 20
-151.4711376235363
 30
0.0
 10
115.3515561557189
 20
-151.5261730239132
 30
0.0
 10
115.3963585459122
 20
-151.5709807970682
 30
0.0
 10
115.4513939462891
 20
-151.5709807970682
 30
0.0
 10
115.5064239637042
 20
-151.5709807970682
 30
0.0
 10
115.5512317368593
 20
-151.5261730239132
 30
0.0
 10
115.5512317368593
 20
-151.4711376235363
 30
0.0
  0
SPLINE
  5
43
330
1F
100
AcDbEntity
  8
_U+30EC_U+30A4_U+30E4_U+30FC 1
 62
   179
420
  2234388
370
     9
100
AcDbSpline
210
0.0
220
0.0
230
1.0
 70
    11
 71
     3
 72
    17
 73
    13
 74
     0
 42
0.0000000001
 43
0.0000000001
 12
1.0
 22
0.0
 32
0.0
 13
1.0
 23
0.0
 33
0.0
 40
0.0
 40
0.0
 40
0.0
 40
0.0
 40
1.0
 40
1.0
 40
1.0
 40
2.0
 40
2.0
 40
2.0
 40
3.0
 40
3.0
 40
3.0
 40
4.0
 40
4.0
 40
4.0
 40
4.0
 10
115.5512317368593
 20
-152.4710119925897
 30
0.0
 10
115.5512317368593
 20
-152.4156320826643
 30
0.0
 10
115.5064239637042
 20
-152.3708243095093
 30
0.0
 10
115.4513939462891
 20
-152.3708243095093
 30
0.0
 10
115.3963585459122
 20
-152.3708243095093
 30
0.0
 10
115.3515561557189
 20
-152.4156320826643
 30
0.0
 10
115.3515561557189
 20
-152.4710119925897
 30
0.0
 10
115.3515561557189
 20
-152.5260473929666
 30
0.0
 10
115.3963585459122
 20
-152.5708551661216
 30
0.0
 10
115.4513939462891
 20
-152.5708551661216
 30
0.0
 10
115.5064239637042
 20
-152.5708551661216
 30
0.0
 10
115.5512317368593
 20
-152.5260473929666
 30
0.0
 10
115.5512317368593
 20
-152.4710119925897
 30
0.0
  0
SPLINE
  5
44
330
1F
100
AcDbEntity
  8
_U+30EC_U+30A4_U+30E4_U+30FC 1
 62
   179
420
  2234388
370
     9
100
AcDbSpline
210
0.0
220
0.0
230
1.0
 70
    11
 71
     3
 72
    17
 73
    13
 74
     0
 42
0.0000000001
 43
0.0000000001
 12
1.0
 22
0.0
 32
0.0
 13
1.0
 23
0.0
 33
0.0
 40
0.0
 40
0.0
 40
0.0
 40
0.0
 40
1.0
 40
1.0
 40
1.0
 40
2.0
 40
2.0
 40
2.0
 40
3.0
 40
3.0
 40
3.0
 40
4.0
 40
4.0
 40
4.0
 40
4.0
 10
91.62365478768166
 20
-156.5708909385048
 30
0.0
 10
91.62365478768166
 20
-156.5155110285795
 30
0.0
 10
91.57884970600747
 20
-156.4707032554244
 30
0.0
 10
91.52381699711145
 20
-156.4707032554244
 30
0.0
 10
91.46878428821543
 20
-156.4707032554244
 30
0.0
 10
91.4239818980221
 20
-156.5155110285795
 30
0.0
 10
91.4239818980221
 20
-156.5708909385048
 30
0.0
 10
91.4239818980221
 20
-156.6259263388817
 30
0.0
 10
91.46878428821543
 20
-156.6707341120367
 30
0.0
 10
91.52381699711145
 20
-156.6707341120367
 30
0.0
 10
91.57884970600747
 20
-156.6707341120367
 30
0.0
 10
91.62365478768166
 20
-156.6259263388817
 30
0.0
 10
91.62365478768166
 20
-156.5708909385048
 30
0.0
  0
SPLINE
  5
45
330
1F
100
AcDbEntity
  8
_U+30EC_U+30A4_U+30E4_U+30FC 1
 62
   179
420
  2234388
370
     9
100
AcDbSpline
210
0.0
220
0.0
230
1.0
 70
    11
 71
     3
 72
    17
 73
    13
 74
     0
 42
0.0000000001
 43
0.0000000001
 12
1.0
 22
0.0
 32
0.0
 13
1.0
 23
0.0
 33
0.0
 40
0.0
 40
0.0
 40
0.0
 40
0.0
 40
1.0
 40
1.0
 40
1.0
 40
2.0
 40
2.0
 40
2.0
 40
3.0
 40
3.0
 40
3.0
 40
4.0
 40
4.0
 40
4.0
 40
4.0
 10
111.6234406933941
 20
-156.5708909385048
 30
0.0
 10
111.6234406933941
 20
-156.5155110285795
 30
0.0
 10
111.578632920239
 20
-156.4707032554244
 30
0.0
 10
111.5236029028239
 20
-156.4707032554244
 30
0.0
 10
111.468567502447
 20
-156.4707032554244
 30
0.0
 10
111.4237651122537
 20
-156.5155110285795
 30
0.0
 10
111.4237651122537
 20
-156.5708909385048
 30
0.0
 10
111.4237651122537
 20
-156.6259263388817
 30
0.0
 10
111.468567502447
 20
-156.6707341120367
 30
0.0
 10
111.5236029028239
 20
-156.6707341120367
 30
0.0
 10
111.578632920239
 20
-156.6707341120367
 30
0.0
 10
111.6234406933941
 20
-156.6259263388817
 30
0.0
 10
111.6234406933941
 20
-156.5708909385048
 30
0.0
  0
POLYLINE
  5
46
330
1F
100
AcDbEntity
  8
_U+30EC_U+30A4_U+30E4_U+30FC 1
 62
   179
420
  2234388
370
     9
100
AcDb2dPolyline
 66
     1
 10
0.0
 20
0.0
 30
0.0
  0
VERTEX
  5
47
330
46
100
AcDbEntity
  8
_U+30EC_U+30A4_U+30E4_U+30FC 1
 62
   179
420
  2234388
370
     9
100
AcDbVertex
100
AcDb2dVertex
 10
91.52371472083924
 20
-156.5708909385048
 30
0.0
  0
VERTEX
  5
48
330
46
100
AcDbEntity
  8
_U+30EC_U+30A4_U+30E4_U+30FC 1
 62
   179
420
  2234388
370
     9
100
AcDbVertex
100
AcDb2dVertex
 10
111.5233929673177
 20
-156.5708909385048
 30
0.0
  0
SEQEND
  5
49
330
46
100
AcDbEntity
  8
_U+30EC_U+30A4_U+30E4_U+30FC 1
 62
   179
420
  2234388
370
     9
  0
POLYLINE
  5
4A
330
1F
100
AcDbEntity
  8
_U+30EC_U+30A4_U+30E4_U+30FC 1
 62
   179
420
  2234388
370
     9
100
AcDb2dPolyline
 66
     1
 10
0.0
 20
0.0
 30
0.0
  0
VERTEX
  5
4B
330
4A
100
AcDbEntity
  8
_U+30EC_U+30A4_U+30E4_U+30FC 1
 62
   179
420
  2234388
370
     9
100
AcDbVertex
100
AcDb2dVertex
 10
91.52371472083924
 20
-154.3105422587857
 30
0.0
  0
VERTEX
  5
4C
330
4A
100
AcDbEntity
  8
_U+30EC_U+30A4_U+30E4_U+30FC 1
 62
   179
420
  2234388
370
     9
100
AcDbVertex
100
AcDb2dVertex
 10
91.52371472083924
 20
-157.5705715209372
 30
0.0
  0
SEQEND
  5
4D
330
4A
100
AcDbEntity
  8
_U+30EC_U+30A4_U+30E4_U+30FC 1
 62
   179
420
  2234388
370
     9
  0
POLYLINE
  5
4E
330
1F
100
AcDbEntity
  8
_U+30EC_U+30A4_U+30E4_U+30FC 1
 62
   179
420
  2234388
370
     9
100
AcDb2dPolyline
 66
     1
 10
0.0
 20
0.0
 30
0.0
  0
VERTEX
  5
4F
330
4E
100
AcDbEntity
  8
_U+30EC_U+30A4_U+30E4_U+30FC 1
 62
   179
420
  2234388
370
     9
100
AcDbVertex
100
AcDb2dVertex
 10
111.5235706050537
 20
-155.1108164081624
 30
0.0
  0
VERTEX
  5
50
330
4E
100
AcDbEntity
  8
_U+30EC_U+30A4_U+30E4_U+30FC 1
 62
   179
420
  2234388
370
     9
100
AcDbVertex
100
AcDb2dVertex
 10
111.5235706050537
 20
-157.5707437757115
 30
0.0
  0
SEQEND
  5
51
330
4E
100
AcDbEntity
  8
_U+30EC_U+30A4_U+30E4_U+30FC 1
 62
   179
420
  2234388
370
     9
  0
INSERT
  5
53
330
1F
100
AcDbEntity
  8
_U+30EC_U+30A4_U+30E4_U+30FC 1
100
AcDbBlockReference
  2
block 2
 10
0.0
 20
0.0
 30
0.0
  0
POLYLINE
  5
5B
330
1F
100
AcDbEntity
  8
_U+30EC_U+30A4_U+30E4_U+30FC 1
 62
   179
420
  2234388
370
     9
100
AcDb2dPolyline
 66
     1
 10
0.0
 20
0.0
 30
0.0
  0
VERTEX
  5
5C
330
5B
100
AcDbEntity
  8
_U+30EC_U+30A4_U+30E4_U+30FC 1
 62
   179
420
  2234388
370
     9
100
AcDbVertex
100
AcDb2dVertex
 10
115.4512916700168
 20
-146.4709045043979
 30
0.0
  0
VERTEX
  5
5D
330
5B
100
AcDbEntity
  8
_U+30EC_U+30A4_U+30E4_U+30FC 1
 62
   179
420
  2234388
370
     9
100
AcDbVertex
100
AcDb2dVertex
 10
115.4512916700168
 20
-152.4709689288962
 30
0.0
  0
SEQEND
  5
5E
330
5B
100
AcDbEntity
  8
_U+30EC_U+30A4_U+30E4_U+30FC 1
 62
   179
420
  2234388
370
     9
  0
POLYLINE
  5
5F
330
1F
100
AcDbEntity
  8
_U+30EC_U+30A4_U+30E4_U+30FC 1
 62
   179
420
  2234388
370
     9
100
AcDb2dPolyline
 66
     1
 10
0.0
 20
0.0
 30
0.0
  0
VERTEX
  5
60
330
5F
100
AcDbEntity
  8
_U+30EC_U+30A4_U+30E4_U+30FC 1
 62
   179
420
  2234388
370
     9
100
AcDbVertex
100
AcDb2dVertex
 10
114.447073250875
 20
-147.9708775468289
 30
0.0
  0
VERTEX
  5
61
330
5F
100
AcDbEntity
  8
_U+30EC_U+30A4_U+30E4_U+30FC 1
 62
   179
420
  2234388
370
     9
100
AcDbVertex
100
AcDb2dVertex
 10
116.4515536123124
 20
-147.9708775468289
 30
0.0
  0
SEQEND
  5
62
330
5F
100
AcDbEntity
  8
_U+30EC_U+30A4_U+30E4_U+30FC 1
 62
   179
420
  2234388
370
     9
  0
SPLINE
  5
63
330
1F
100
AcDbEntity
  8
_U+30EC_U+30A4_U+30E4_U+30FC 1
 62
   179
420
  2234388
370
     9
100
AcDbSpline
210
0.0
220
0.0
230
1.0
 70
    11
 71
     3
 72
    17
 73
    13
 74
     0
 42
0.0000000001
 43
0.0000000001
 12
1.0
 22
0.0
 32
0.0
 13
1.0
 23
0.0
 33
0.0
 40
0.0
 40
0.0
 40
0.0
 40
0.0
 40
1.0
 40
1.0
 40
1.0
 40
2.0
 40
2.0
 40
2.0
 40
3.0
 40
3.0
 40
3.0
 40
4.0
 40
4.0
 40
4.0
 40
4.0
 10
115.5512317368593
 20
-146.4709045043979
 30
0.0
 10
115.5512317368593
 20
-146.4158906358678
 30
0.0
 10
115.5064239637042
 20
-146.3710828627128
 30
0.0
 10
115.4513939462891
 20
-146.3710828627128
 30
0.0
 10
115.3963585459122
 20
-146.3710828627128
 30
0.0
 10
115.3515561557189
 20
-146.4158906358678
 30
0.0
 10
115.3515561557189
 20
-146.4709045043979
 30
0.0
 10
115.3515561557189
 20
-146.5259399047748
 30
0.0
 10
115.3963585459122
 20
-146.5707476779298
 30
0.0
 10
115.4513939462891
 20
-146.5707476779298
 30
0.0
 10
115.5064239637042
 20
-146.5707476779298
 30
0.0
 10
115.5512317368593
 20
-146.5259399047748
 30
0.0
 10
115.5512317368593
 20
-146.4709045043979
 30
0.0
  0
POLYLINE
  5
64
330
1F
100
AcDbEntity
  8
_U+30EC_U+30A4_U+30E4_U+30FC 1
 62
   179
420
  2234388
370
     9
100
AcDb2dPolyline
 66
     1
 10
0.0
 20
0.0
 30
0.0
  0
VERTEX
  5
65
330
64
100
AcDbEntity
  8
_U+30EC_U+30A4_U+30E4_U+30FC 1
 62
   179
420
  2234388
370
     9
100
AcDbVertex
100
AcDb2dVertex
 10
114.447073250875
 20
-146.4709045043979
 30
0.0
  0
VERTEX
  5
66
330
64
100
AcDbEntity
  8
_U+30EC_U+30A4_U+30E4_U+30FC 1
 62
   179
420
  2234388
370
     9
100
AcDbVertex
100
AcDb2dVertex
 10
116.4515536123124
 20
-146.4709045043979
 30
0.0
  0
SEQEND
  5
67
330
64
100
AcDbEntity
  8
_U+30EC_U+30A4_U+30E4_U+30FC 1
 62
   179
420
  2234388
370
     9
  0
POLYLINE
  5
68
330
1F
100
AcDbEntity
  8
_U+30EC_U+30A4_U+30E4_U+30FC 1
 62
   179
420
  2234388
370
     9
100
AcDb2dPolyline
 66
     1
 10
0.0
 20
0.0
 30
0.0
  0
VERTEX
  5
69
330
68
100
AcDbEntity
  8
_U+30EC_U+30A4_U+30E4_U+30FC 1
 62
   179
420
  2234388
370
     9
100
AcDbVertex
100
AcDb2dVertex
 10
114.4556806066264
 20
-151.4711376235363
 30
0.0
  0
VERTEX
  5
6A
330
68
100
AcDbEntity
  8
_U+30EC_U+30A4_U+30E4_U+30FC 1
 62
   179
420
  2234388
370
     9
100
AcDbVertex
100
AcDb2dVertex
 10
116.4513436768062
 20
-151.4711376235363
 30
0.0
  0
SEQEND
  5
6B
330
68
100
AcDbEntity
  8
_U+30EC_U+30A4_U+30E4_U+30FC 1
 62
   179
420
  2234388
370
     9
  0
POLYLINE
  5
6C
330
1F
100
AcDbEntity
  8
_U+30EC_U+30A4_U+30E4_U+30FC 1
 62
   179
420
  2234388
370
     9
100
AcDb2dPolyline
 66
     1
 10
0.0
 20
0.0
 30
0.0
  0
VERTEX
  5
6D
330
6C
100
AcDbEntity
  8
_U+30EC_U+30A4_U+30E4_U+30FC 1
 62
   179
420
  2234388
370
     9
100
AcDbVertex
100
AcDb2dVertex
 10
114.4556806066264
 20
-152.4708397378155
 30
0.0
  0
VERTEX
  5
6E
330
6C
100
AcDbEntity
  8
_U+30EC_U+30A4_U+30E4_U+30FC 1
 62
   179
420
  2234388
370
     9
100
AcDbVertex
100
AcDb2dVertex
 10
116.4513436768062
 20
-152.4708397378155
 30
0.0
  0
SEQEND
  5
6F
330
6C
100
AcDbEntity
  8
_U+30EC_U+30A4_U+30E4_U+30FC 1
 62
   179
420
  2234388
370
     9
  0
INSERT
  5
71
330
1F
100
AcDbEntity
  8
_U+30EC_U+30A4_U+30E4_U+30FC 1
100
AcDbBlockReference
  2
block 3
 10
0.0
 20
0.0
 30
0.0
  0
INSERT
  5
81
330
1F
100
AcDbEntity
  8
_U+30EC_U+30A4_U+30E4_U+30FC 1
100
AcDbBlockReference
  2
block 4
 10
0.0
 20
0.0
 30
0.0
  0
INSERT
  5
91
330
1F
100
AcDbEntity
  8
_U+30EC_U+30A4_U+30E4_U+30FC 1
100
AcDbBlockReference
  2
block 5
 10
0.0
 20
0.0
 30
0.0
  0
SPLINE
  5
96
330
1F
100
AcDbEntity
  8
_U+30EC_U+30A4_U+30E4_U+30FC 1
 62
   179
420
  2234388
370
     9
100
AcDbSpline
210
0.0
220
0.0
230
1.0
 70
    11
 71
     3
 72
    17
 73
    13
 74
     0
 42
0.0000000001
 43
0.0000000001
 12
1.0
 22
0.0
 32
0.0
 13
1.0
 23
0.0
 33
0.0
 40
0.0
 40
0.0
 40
0.0
 40
0.0
 40
1.0
 40
1.0
 40
1.0
 40
2.0
 40
2.0
 40
2.0
 40
3.0
 40
3.0
 40
3.0
 40
4.0
 40
4.0
 40
4.0
 40
4.0
 10
104.6592178506934
 20
-143.7658370612265
 30
0.0
 10
104.6592178506934
 20
-143.7108231926968
 30
0.0
 10
104.6144100775384
 20
-143.6660154195414
 30
0.0
 10
104.5593800601235
 20
-143.6660154195414
 30
0.0
 10
104.5043446597466
 20
-143.6660154195414
 30
0.0
 10
104.459542269553
 20
-143.7108231926968
 30
0.0
 10
104.459542269553
 20
-143.7658370612265
 30
0.0
 10
104.459542269553
 20
-143.8208724616034
 30
0.0
 10
104.5043446597466
 20
-143.8656802347587
 30
0.0
 10
104.5593800601235
 20
-143.8656802347587
 30
0.0
 10
104.6144100775384
 20
-143.8656802347587
 30
0.0
 10
104.6592178506934
 20
-143.8208724616034
 30
0.0
 10
104.6592178506934
 20
-143.7658370612265
 30
0.0
  0
SPLINE
  5
97
330
1F
100
AcDbEntity
  8
_U+30EC_U+30A4_U+30E4_U+30FC 1
 62
   179
420
  2234388
370
     9
100
AcDbSpline
210
0.0
220
0.0
230
1.0
 70
    11
 71
     3
 72
    17
 73
    13
 74
     0
 42
0.0000000001
 43
0.0000000001
 12
1.0
 22
0.0
 32
0.0
 13
1.0
 23
0.0
 33
0.0
 40
0.0
 40
0.0
 40
0.0
 40
0.0
 40
1.0
 40
1.0
 40
1.0
 40
2.0
 40
2.0
 40
2.0
 40
3.0
 40
3.0
 40
3.0
 40
4.0
 40
4.0
 40
4.0
 40
4.0
 10
98.65853976856182
 20
-143.7658370612265
 30
0.0
 10
98.65853976856182
 20
-143.7108231926968
 30
0.0
 10
98.61373468688764
 20
-143.6660154195414
 30
0.0
 10
98.55870197799162
 20
-143.6660154195414
 30
0.0
 10
98.50366926909561
 20
-143.6660154195414
 30
0.0
 10
98.45886687890227
 20
-143.7108231926968
 30
0.0
 10
98.45886687890227
 20
-143.7658370612265
 30
0.0
 10
98.45886687890227
 20
-143.8208724616034
 30
0.0
 10
98.50366926909561
 20
-143.8656802347587
 30
0.0
 10
98.55870197799162
 20
-143.8656802347587
 30
0.0
 10
98.61373468688764
 20
-143.8656802347587
 30
0.0
 10
98.65853976856182
 20
-143.8208724616034
 30
0.0
 10
98.65853976856182
 20
-143.7658370612265
 30
0.0
  0
POLYLINE
  5
98
330
1F
100
AcDbEntity
  8
_U+30EC_U+30A4_U+30E4_U+30FC 1
 62
   179
420
  2234388
370
     9
100
AcDb2dPolyline
 66
     1
 10
0.0
 20
0.0
 30
0.0
  0
VERTEX
  5
99
330
98
100
AcDbEntity
  8
_U+30EC_U+30A4_U+30E4_U+30FC 1
 62
   179
420
  2234388
370
     9
100
AcDbVertex
100
AcDb2dVertex
 10
98.55863199948958
 20
-142.3058055945776
 30
0.0
  0
VERTEX
  5
9A
330
98
100
AcDbEntity
  8
_U+30EC_U+30A4_U+30E4_U+30FC 1
 62
   179
420
  2234388
370
     9
100
AcDbVertex
100
AcDb2dVertex
 10
98.55863199948958
 20
-144.7664435130706
 30
0.0
  0
SEQEND
  5
9B
330
98
100
AcDbEntity
  8
_U+30EC_U+30A4_U+30E4_U+30FC 1
 62
   179
420
  2234388
370
     9
  0
POLYLINE
  5
9C
330
1F
100
AcDbEntity
  8
_U+30EC_U+30A4_U+30E4_U+30FC 1
 62
   179
420
  2234388
370
     9
100
AcDb2dPolyline
 66
     1
 10
0.0
 20
0.0
 30
0.0
  0
VERTEX
  5
9D
330
9C
100
AcDbEntity
  8
_U+30EC_U+30A4_U+30E4_U+30FC 1
 62
   179
420
  2234388
370
     9
100
AcDbVertex
100
AcDb2dVertex
 10
104.559277783851
 20
-142.3058055945776
 30
0.0
  0
VERTEX
  5
9E
330
9C
100
AcDbEntity
  8
_U+30EC_U+30A4_U+30E4_U+30FC 1
 62
   179
420
  2234388
370
     9
100
AcDbVertex
100
AcDb2dVertex
 10
104.559277783851
 20
-144.7664435130706
 30
0.0
  0
SEQEND
  5
9F
330
9C
100
AcDbEntity
  8
_U+30EC_U+30A4_U+30E4_U+30FC 1
 62
   179
420
  2234388
370
     9
  0
INSERT
  5
A1
330
1F
100
AcDbEntity
  8
_U+30EC_U+30A4_U+30E4_U+30FC 1
100
AcDbBlockReference
  2
block 6
 10
0.0
 20
0.0
 30
0.0
  0
POLYLINE
  5
A7
330
1F
100
AcDbEntity
  8
_U+30EC_U+30A4_U+30E4_U+30FC 1
 62
   179
420
  2234388
370
     9
100
AcDb2dPolyline
 66
     1
 10
0.0
 20
0.0
 30
0.0
  0
VERTEX
  5
A8
330
A7
100
AcDbEntity
  8
_U+30EC_U+30A4_U+30E4_U+30FC 1
 62
   179
420
  2234388
370
     9
100
AcDbVertex
100
AcDb2dVertex
 10
104.5586049136393
 20
-143.7658370612265
 30
0.0
  0
VERTEX
  5
A9
330
A7
100
AcDbEntity
  8
_U+30EC_U+30A4_U+30E4_U+30FC 1
 62
   179
420
  2234388
370
     9
100
AcDbVertex
100
AcDb2dVertex
 10
98.55855932950669
 20
-143.7658370612265
 30
0.0
  0
SEQEND
  5
AA
330
A7
100
AcDbEntity
  8
_U+30EC_U+30A4_U+30E4_U+30FC 1
 62
   179
420
  2234388
370
     9
  0
SPLINE
  5
AB
330
1F
100
AcDbEntity
  8
_U+30EC_U+30A4_U+30E4_U+30FC 1
370
     0
100
AcDbSpline
210
0.0
220
0.0
230
1.0
 70
    11
 71
     3
 72
    41
 73
    37
 74
     0
 42
0.0000000001
 43
0.0000000001
 12
1.0
 22
0.0
 32
0.0
 13
1.0
 23
0.0
 33
0.0
 40
0.0
 40
0.0
 40
0.0
 40
0.0
 40
1.0
 40
1.0
 40
1.0
 40
2.0
 40
2.0
 40
2.0
 40
3.0
 40
3.0
 40
3.0
 40
4.0
 40
4.0
 40
4.0
 40
5.0
 40
5.0
 40
5.0
 40
6.0
 40
6.0
 40
6.0
 40
7.0
 40
7.0
 40
7.0
 40
8.0
 40
8.0
 40
8.0
 40
9.0
 40
9.0
 40
9.0
 40
10.0
 40
10.0
 40
10.0
 40
11.0
 40
11.0
 40
11.0
 40
12.0
 40
12.0
 40
12.0
 40
12.0
 10
110.07933274802
 20
-151.5676002971233
 30
0.0
 10
110.07933274802
 20
-151.5676002971233
 30
0.0
 10
102.078332642361
 20
-151.5676002971233
 30
0.0
 10
102.078332642361
 20
-151.5676002971233
 30
0.0
 10
102.078332642361
 20
-151.5676002971233
 30
0.0
 10
102.078332642361
 20
-148.0687613223036
 30
0.0
 10
102.078332642361
 20
-148.0687613223036
 30
0.0
 10
102.078332642361
 20
-148.0687613223036
 30
0.0
 10
104.5558865179827
 20
-148.0687613223036
 30
0.0
 10
104.5558865179827
 20
-148.0687613223036
 30
0.0
 10
104.5558865179827
 20
-147.6193270844059
 30
0.0
 10
104.0041464015774
 20
-146.5684007066305
 30
0.0
 10
103.4245306180309
 20
-146.5684007066305
 30
0.0
 10
103.4245306180309
 20
-146.5684007066305
 30
0.0
 10
99.73306505041124
 20
-146.5684007066305
 30
0.0
 10
99.73306505041124
 20
-146.5684007066305
 30
0.0
 10
99.15309937435453
 20
-146.5684007066305
 30
0.0
 10
98.60135387498752
 20
-147.3889578556766
 30
0.0
 10
98.60135387498752
 20
-148.0687613223036
 30
0.0
 10
98.60135387498752
 20
-148.0687613223036
 30
0.0
 10
101.0782079655887
 20
-148.0687613223036
 30
0.0
 10
101.0782079655887
 20
-148.0687613223036
 30
0.0
 10
101.0782079655887
 20
-148.0687613223036
 30
0.0
 10
101.0782079655887
 20
-151.5676002971233
 30
0.0
 10
101.0782079655887
 20
-151.5676002971233
 30
0.0
 10
101.0782079655887
 20
-151.5676002971233
 30
0.0
 10
93.07826561190296
 20
-151.5676002971233
 30
0.0
 10
93.07826561190296
 20
-151.5676002971233
 30
0.0
 10
91.98853615474403
 20
-151.5676002971233
 30
0.0
 10
91.57860747273116
 20
-152.5677330483381
 30
0.0
 10
91.57860747273116
 20
-152.5677330483381
 30
0.0
 10
91.57860747273116
 20
-152.5677330483381
 30
0.0
 10
111.5789881957109
 20
-152.5677330483381
 30
0.0
 10
111.5789881957109
 20
-152.5677330483381
 30
0.0
 10
111.5789881957109
 20
-152.5677330483381
 30
0.0
 10
111.0424145738833
 20
-151.5676002971233
 30
0.0
 10
110.07933274802
 20
-151.5676002971233
 30
0.0
  0
HATCH
  5
AC
330
1F
100
AcDbEntity
  8
_U+30EC_U+30A4_U+30E4_U+30FC 1
 62
     9
420
 13224394
100
AcDbHatch
 10
0.0
 20
0.0
 30
0.0
210
0.0
220
0.0
230
1.0
  2
SOLID
 70
     1
 71
     0
 91
        1
 92
        1
 93
        2
 72
     4
 94
        3
 73
     0
 74
     0
 95
       41
 96
       37
 40
0.0
 40
0.0
 40
0.0
 40
0.0
 40
0.3527777776895833
 40
0.3527777776895833
 40
0.3527777776895833
 40
0.7055555553791667
 40
0.7055555553791667
 40
0.7055555553791667
 40
1.05833333306875
 40
1.05833333306875
 40
1.05833333306875
 40
1.411111110758333
 40
1.411111110758333
 40
1.411111110758333
 40
1.763888888447917
 40
1.763888888447917
 40
1.763888888447917
 40
2.1166666661375
 40
2.1166666661375
 40
2.1166666661375
 40
2.469444443827083
 40
2.469444443827083
 40
2.469444443827083
 40
2.822222221516667
 40
2.822222221516667
 40
2.822222221516667
 40
3.17499999920625
 40
3.17499999920625
 40
3.17499999920625
 40
3.527777776895833
 40
3.527777776895833
 40
3.527777776895833
 40
3.880555554585417
 40
3.880555554585417
 40
3.880555554585417
 40
4.233333332275
 40
4.233333332275
 40
4.233333332275
 40
4.233333332275
 10
110.07933274802
 20
-151.5676002971233
 10
110.07933274802
 20
-151.5676002971233
 10
102.078332642361
 20
-151.5676002971233
 10
102.078332642361
 20
-151.5676002971233
 10
102.078332642361
 20
-151.5676002971233
 10
102.078332642361
 20
-148.0687613223036
 10
102.078332642361
 20
-148.0687613223036
 10
102.078332642361
 20
-148.0687613223036
 10
104.5558865179827
 20
-148.0687613223036
 10
104.5558865179827
 20
-148.0687613223036
 10
104.5558865179827
 20
-147.6193270844059
 10
104.0041464015774
 20
-146.5684007066305
 10
103.4245306180309
 20
-146.5684007066305
 10
103.4245306180309
 20
-146.5684007066305
 10
99.73306505041124
 20
-146.5684007066305
 10
99.73306505041124
 20
-146.5684007066305
 10
99.15309937435453
 20
-146.5684007066305
 10
98.60135387498752
 20
-147.3889578556766
 10
98.60135387498752
 20
-148.0687613223036
 10
98.60135387498752
 20
-148.0687613223036
 10
101.0782079655887
 20
-148.0687613223036
 10
101.0782079655887
 20
-148.0687613223036
 10
101.0782079655887
 20
-148.0687613223036
 10
101.0782079655887
 20
-151.5676002971233
 10
101.0782079655887
 20
-151.5676002971233
 10
101.0782079655887
 20
-151.5676002971233
 10
93.07826561190296
 20
-151.5676002971233
 10
93.07826561190296
 20
-151.5676002971233
 10
91.98853615474403
 20
-151.5676002971233
 10
91.57860747273116
 20
-152.5677330483381
 10
91.57860747273116
 20
-152.5677330483381
 10
91.57860747273116
 20
-152.5677330483381
 10
111.5789881957109
 20
-152.5677330483381
 10
111.5789881957109
 20
-152.5677330483381
 10
111.5789881957109
 20
-152.5677330483381
 10
111.0424145738833
 20
-151.5676002971233
 10
110.07933274802
 20
-151.5676002971233
 97
        0
 72
     1
 10
110.07933274802
 20
-151.5676002971233
 11
110.07933274802
 21
-151.5676002971233
 97
        0
 75
     2
 76
     1
 98
        0
  0
SPLINE
  5
AD
330
1F
100
AcDbEntity
  8
_U+30EC_U+30A4_U+30E4_U+30FC 1
 62
   179
420
  2234388
370
    25
100
AcDbSpline
210
0.0
220
0.0
230
1.0
 70
    11
 71
     3
 72
    41
 73
    37
 74
     0
 42
0.0000000001
 43
0.0000000001
 12
1.0
 22
0.0
 32
0.0
 13
1.0
 23
0.0
 33
0.0
 40
0.0
 40
0.0
 40
0.0
 40
0.0
 40
1.0
 40
1.0
 40
1.0
 40
2.0
 40
2.0
 40
2.0
 40
3.0
 40
3.0
 40
3.0
 40
4.0
 40
4.0
 40
4.0
 40
5.0
 40
5.0
 40
5.0
 40
6.0
 40
6.0
 40
6.0
 40
7.0
 40
7.0
 40
7.0
 40
8.0
 40
8.0
 40
8.0
 40
9.0
 40
9.0
 40
9.0
 40
10.0
 40
10.0
 40
10.0
 40
11.0
 40
11.0
 40
11.0
 40
12.0
 40
12.0
 40
12.0
 40
12.0
 10
110.07933274802
 20
-151.5676002971233
 30
0.0
 10
110.07933274802
 20
-151.5676002971233
 30
0.0
 10
102.078332642361
 20
-151.5676002971233
 30
0.0
 10
102.078332642361
 20
-151.5676002971233
 30
0.0
 10
102.078332642361
 20
-151.5676002971233
 30
0.0
 10
102.078332642361
 20
-148.0687613223036
 30
0.0
 10
102.078332642361
 20
-148.0687613223036
 30
0.0
 10
102.078332642361
 20
-148.0687613223036
 30
0.0
 10
104.5558865179827
 20
-148.0687613223036
 30
0.0
 10
104.5558865179827
 20
-148.0687613223036
 30
0.0
 10
104.5558865179827
 20
-147.6193270844059
 30
0.0
 10
104.0041464015774
 20
-146.5684007066305
 30
0.0
 10
103.4245306180309
 20
-146.5684007066305
 30
0.0
 10
103.4245306180309
 20
-146.5684007066305
 30
0.0
 10
99.73306505041124
 20
-146.5684007066305
 30
0.0
 10
99.73306505041124
 20
-146.5684007066305
 30
0.0
 10
99.15309937435453
 20
-146.5684007066305
 30
0.0
 10
98.60135387498752
 20
-147.3889578556766
 30
0.0
 10
98.60135387498752
 20
-148.0687613223036
 30
0.0
 10
98.60135387498752
 20
-148.0687613223036
 30
0.0
 10
101.0782079655887
 20
-148.0687613223036
 30
0.0
 10
101.0782079655887
 20
-148.0687613223036
 30
0.0
 10
101.0782079655887
 20
-148.0687613223036
 30
0.0
 10
101.0782079655887
 20
-151.5676002971233
 30
0.0
 10
101.0782079655887
 20
-151.5676002971233
 30
0.0
 10
101.0782079655887
 20
-151.5676002971233
 30
0.0
 10
93.07826561190296
 20
-151.5676002971233
 30
0.0
 10
93.07826561190296
 20
-151.5676002971233
 30
0.0
 10
91.98853615474403
 20
-151.5676002971233
 30
0.0
 10
91.57860747273116
 20
-152.5677330483381
 30
0.0
 10
91.57860747273116
 20
-152.5677330483381
 30
0.0
 10
91.57860747273116
 20
-152.5677330483381
 30
0.0
 10
111.5789881957109
 20
-152.5677330483381
 30
0.0
 10
111.5789881957109
 20
-152.5677330483381
 30
0.0
 10
111.5789881957109
 20
-152.5677330483381
 30
0.0
 10
111.0424145738833
 20
-151.5676002971233
 30
0.0
 10
110.07933274802
 20
-151.5676002971233
 30
0.0
  0
INSERT
  5
AF
330
1F
100
AcDbEntity
  8
_U+30EC_U+30A4_U+30E4_U+30FC 1
100
AcDbBlockReference
  2
block 7
 10
0.0
 20
0.0
 30
0.0
  0
POLYLINE
  5
C1
330
1F
100
AcDbEntity
  8
_U+30EC_U+30A4_U+30E4_U+30FC 1
 62
   179
420
  2234388
370
     9
100
AcDb2dPolyline
 66
     1
 10
0.0
 20
0.0
 30
0.0
  0
VERTEX
  5
C2
330
C1
100
AcDbEntity
  8
_U+30EC_U+30A4_U+30E4_U+30FC 1
 62
   179
420
  2234388
370
     9
100
AcDbVertex
100
AcDb2dVertex
 10
97.80827405391707
 20
-146.5010275580471
 30
0.0
  0
VERTEX
  5
C3
330
C1
100
AcDbEntity
  8
_U+30EC_U+30A4_U+30E4_U+30FC 1
 62
   179
420
  2234388
370
     9
100
AcDbVertex
100
AcDb2dVertex
 10
95.83624487706227
 20
-145.2081047542796
 30
0.0
  0
SEQEND
  5
C4
330
C1
100
AcDbEntity
  8
_U+30EC_U+30A4_U+30E4_U+30FC 1
 62
   179
420
  2234388
370
     9
  0
POLYLINE
  5
C5
330
1F
100
AcDbEntity
  8
_U+30EC_U+30A4_U+30E4_U+30FC 1
370
     0
100
AcDb2dPolyline
 66
     1
 10
0.0
 20
0.0
 30
0.0
  0
VERTEX
  5
C6
330
C5
100
AcDbEntity
  8
_U+30EC_U+30A4_U+30E4_U+30FC 1
370
     0
100
AcDbVertex
100
AcDb2dVertex
 10
97.48530711809862
 20
-146.6323072278819
 30
0.0
  0
VERTEX
  5
C7
330
C5
100
AcDbEntity
  8
_U+30EC_U+30A4_U+30E4_U+30FC 1
370
     0
100
AcDbVertex
100
AcDb2dVertex
 10
98.55104740646065
 20
-146.9840299450791
 30
0.0
  0
VERTEX
  5
C8
330
C5
100
AcDbEntity
  8
_U+30EC_U+30A4_U+30E4_U+30FC 1
370
     0
100
AcDbVertex
100
AcDb2dVertex
 10
97.8038654082883
 20
-146.1465487644616
 30
0.0
  0
VERTEX
  5
C9
330
C5
100
AcDbEntity
  8
_U+30EC_U+30A4_U+30E4_U+30FC 1
370
     0
100
AcDbVertex
100
AcDb2dVertex
 10
97.48530711809862
 20
-146.6323072278819
 30
0.0
  0
SEQEND
  5
CB
330
C5
100
AcDbEntity
  8
_U+30EC_U+30A4_U+30E4_U+30FC 1
370
     0
  0
HATCH
  5
CA
330
1F
100
AcDbEntity
  8
_U+30EC_U+30A4_U+30E4_U+30FC 1
 62
   179
420
  2234388
100
AcDbHatch
 10
0.0
 20
0.0
 30
0.0
210
0.0
220
0.0
230
1.0
  2
SOLID
 70
     1
 71
     0
 91
        1
 92
        1
 93
        3
 72
     1
 10
97.48530711809862
 20
-146.6323072278819
 11
98.55104740646065
 21
-146.9840299450791
 72
     1
 10
98.55104740646065
 20
-146.9840299450791
 11
97.8038654082883
 21
-146.1465487644616
 72
     1
 10
97.8038654082883
 20
-146.1465487644616
 11
97.48530711809862
 21
-146.6323072278819
 97
        0
 75
     2
 76
     1
 98
        0
  0
ENDSEC
  0
SECTION
  2
OBJECTS
  0
DICTIONARY
  5
C
330
0
100
AcDbDictionary
281
     1
  3
ACAD_GROUP
350
D
  3
ACAD_LAYOUT
350
1A
  3
ACAD_MATERIAL
350
3B
  3
ACAD_MLEADERSTYLE
350
CD
  3
ACAD_MLINESTYLE
350
17
  3
ACAD_PLOTSETTINGS
350
19
  3
ACAD_PLOTSTYLENAME
350
E
  3
ACAD_TABLESTYLE
350
CC
  3
ACAD_VISUALSTYLE
350
2A
  0
SUN
  5
3F
330
29
100
AcDbSun
 90
        1
290
     0
 63
     7
421
 16777215
 40
1.0
291
     1
 91
  2455826
 92
 54000000
292
     0
 70
     2
 71
   256
280
     1
  0
DICTIONARY
  5
D
102
{ACAD_REACTORS
330
C
102
}
330
C
100
AcDbDictionary
281
     1
  0
DICTIONARY
  5
1A
102
{ACAD_REACTORS
330
C
102
}
330
C
100
AcDbDictionary
281
     1
  3
Layout1
350
1E
  3
Layout2
350
26
  3
Model
350
22
  0
DICTIONARY
  5
3B
102
{ACAD_REACTORS
330
C
102
}
330
C
100
AcDbDictionary
281
     1
  3
ByBlock
350
3D
  3
ByLayer
350
3C
  3
Global
350
3E
  0
DICTIONARY
  5
CD
102
{ACAD_REACTORS
330
C
102
}
330
C
100
AcDbDictionary
281
     1
  0
DICTIONARY
  5
17
102
{ACAD_REACTORS
330
C
102
}
330
C
100
AcDbDictionary
281
     1
  3
Standard
350
18
  0
DICTIONARY
  5
19
102
{ACAD_REACTORS
330
C
102
}
330
C
100
AcDbDictionary
281
     1
  0
ACDBDICTIONARYWDFLT
  5
E
102
{ACAD_REACTORS
330
C
102
}
330
C
100
AcDbDictionary
281
     1
  3
Normal
350
F
100
AcDbDictionaryWithDefault
340
F
  0
DICTIONARY
  5
CC
102
{ACAD_REACTORS
330
C
102
}
330
C
100
AcDbDictionary
281
     1
  0
DICTIONARY
  5
2A
102
{ACAD_REACTORS
330
C
102
}
330
C
100
AcDbDictionary
281
     1
  3
2dWireframe
350
2F
  3
3D Hidden
350
31
  3
3dWireframe
350
30
  3
Basic
350
32
  3
Brighten
350
36
  3
ColorChange
350
3A
  3
Conceptual
350
34
  3
Dim
350
35
  3
Facepattern
350
39
  3
Flat
350
2B
  3
FlatWithEdges
350
2C
  3
Gouraud
350
2D
  3
GouraudWithEdges
350
2E
  3
Linepattern
350
38
  3
Realistic
350
33
  3
Thicken
350
37
  0
LAYOUT
  5
1E
102
{ACAD_REACTORS
330
1A
102
}
330
1A
100
AcDbPlotSettings
  1

  2
none_device
  4

  6

 40
0.0
 41
0.0
 42
0.0
 43
0.0
 44
0.0
 45
0.0
 46
0.0
 47
0.0
 48
0.0
 49
0.0
140
0.0
141
0.0
142
1.0
143
1.0
 70
   688
 72
     0
 73
     0
 74
     5
  7

 75
    16
 76
     0
 77
     2
 78
   300
147
1.0
148
0.0
149
0.0
100
AcDbLayout
  1
Layout1
 70
     1
 71
     1
 10
0.0
 20
0.0
 11
12.0
 21
9.0
 12
0.0
 22
0.0
 32
0.0
 14
1.000000000000000E+20
 24
1.000000000000000E+20
 34
1.000000000000000E+20
 15
-1.000000000000000E+20
 25
-1.000000000000000E+20
 35
-1.000000000000000E+20
146
0.0
 13
0.0
 23
0.0
 33
0.0
 16
1.0
 26
0.0
 36
0.0
 17
0.0
 27
1.0
 37
0.0
 76
     0
330
1B
  0
LAYOUT
  5
26
102
{ACAD_REACTORS
330
1A
102
}
330
1A
100
AcDbPlotSettings
  1

  2
none_device
  4

  6

 40
0.0
 41
0.0
 42
0.0
 43
0.0
 44
0.0
 45
0.0
 46
0.0
 47
0.0
 48
0.0
 49
0.0
140
0.0
141
0.0
142
1.0
143
1.0
 70
   688
 72
     0
 73
     0
 74
     5
  7

 75
    16
 76
     0
 77
     2
 78
   300
147
1.0
148
0.0
149
0.0
100
AcDbLayout
  1
Layout2
 70
     1
 71
     2
 10
0.0
 20
0.0
 11
0.0
 21
0.0
 12
0.0
 22
0.0
 32
0.0
 14
0.0
 24
0.0
 34
0.0
 15
0.0
 25
0.0
 35
0.0
146
0.0
 13
0.0
 23
0.0
 33
0.0
 16
1.0
 26
0.0
 36
0.0
 17
0.0
 27
1.0
 37
0.0
 76
     0
330
23
  0
LAYOUT
  5
22
102
{ACAD_REACTORS
330
1A
102
}
330
1A
100
AcDbPlotSettings
  1

  2
none_device
  4

  6

 40
0.0
 41
0.0
 42
0.0
 43
0.0
 44
0.0
 45
0.0
 46
0.0
 47
0.0
 48
0.0
 49
0.0
140
0.0
141
0.0
142
1.0
143
1.0
 70
  1712
 72
     0
 73
     0
 74
     0
  7

 75
     0
 76
     0
 77
     2
 78
   300
147
1.0
148
0.0
149
0.0
100
AcDbLayout
  1
Model
 70
     1
 71
     0
 10
0.0
 20
0.0
 11
12.0
 21
9.0
 12
0.0
 22
0.0
 32
0.0
 14
1.000000000000000E+20
 24
1.000000000000000E+20
 34
1.000000000000000E+20
 15
-1.000000000000000E+20
 25
-1.000000000000000E+20
 35
-1.000000000000000E+20
146
0.0
 13
0.0
 23
0.0
 33
0.0
 16
1.0
 26
0.0
 36
0.0
 17
0.0
 27
1.0
 37
0.0
 76
     0
330
1F
331
29
  0
MATERIAL
  5
3D
102
{ACAD_REACTORS
330
3B
102
}
330
3B
100
AcDbMaterial
  1
ByBlock
 72
     1
 94
      127
  0
MATERIAL
  5
3C
102
{ACAD_REACTORS
330
3B
102
}
330
3B
100
AcDbMaterial
  1
ByLayer
 72
     1
 94
      127
  0
MATERIAL
  5
3E
102
{ACAD_REACTORS
330
3B
102
}
330
3B
100
AcDbMaterial
  1
Global
 72
     1
 94
      127
  0
MLINESTYLE
  5
18
102
{ACAD_REACTORS
330
17
102
}
330
17
100
AcDbMlineStyle
  2
Standard
 70
     0
  3

 62
   256
 51
90.0
 52
90.0
 71
     2
 49
0.5
 62
   256
  6
BYLAYER
 49
-0.5
 62
   256
  6
BYLAYER
  0
ACDBPLACEHOLDER
  5
F
102
{ACAD_REACTORS
330
E
102
}
330
E
  0
VISUALSTYLE
  5
2F
102
{ACAD_REACTORS
330
2A
102
}
330
2A
100
AcDbVisualStyle
  2
2dWireframe
 70
     4
177
     2
291
     0
 71
     0
176
     1
 72
     2
176
     1
 73
     0
176
     1
 90
        0
176
     1
 40
-0.6
176
     1
 41
-30.0
176
     1
 62
     5
 63
     7
421
 16777215
176
     1
 74
     1
176
     1
 91
        4
176
     1
 64
     7
176
     1
 65
   257
176
     1
 75
     1
176
     1
175
     1
176
     1
 42
1.0
176
     1
 92
        0
176
     1
 66
   257
176
     1
 43
1.0
176
     1
 76
     1
176
     1
 77
     6
176
     1
 78
     2
176
     1
 67
     7
176
     1
 79
     5
176
     1
170
     0
176
     1
171
     0
176
     1
290
     0
176
     1
 93
        1
176
     1
 44
0.0
176
     1
173
     0
176
     1
  0
VISUALSTYLE
  5
31
102
{ACAD_REACTORS
330
2A
102
}
330
2A
100
AcDbVisualStyle
  2
3D Hidden
 70
     6
177
     2
291
     0
 71
     1
176
     1
 72
     2
176
     1
 73
     2
176
     1
 90
        0
176
     1
 40
-0.6
176
     1
 41
-30.0
176
     1
 62
     5
 63
     7
421
 16777215
176
     1
 74
     2
176
     1
 91
        2
176
     1
 64
     7
176
     1
 65
   257
176
     1
 75
     2
176
     1
175
     1
176
     1
 42
40.0
176
     1
 92
        0
176
     1
 66
   257
176
     1
 43
1.0
176
     1
 76
     1
176
     1
 77
     6
176
     1
 78
     2
176
     1
 67
     7
176
     1
 79
     3
176
     1
170
     0
176
     1
171
     0
176
     1
290
     0
176
     1
 93
        1
176
     1
 44
0.0
176
     1
173
     0
176
     1
  0
VISUALSTYLE
  5
30
102
{ACAD_REACTORS
330
2A
102
}
330
2A
100
AcDbVisualStyle
  2
3dWireframe
 70
     5
177
     2
291
     0
 71
     0
176
     1
 72
     2
176
     1
 73
     0
176
     1
 90
        0
176
     1
 40
-0.6
176
     1
 41
-30.0
176
     1
 62
     5
 63
     7
421
 16777215
176
     1
 74
     1
176
     1
 91
        4
176
     1
 64
     7
176
     1
 65
   257
176
     1
 75
     1
176
     1
175
     1
176
     1
 42
1.0
176
     1
 92
        0
176
     1
 66
   257
176
     1
 43
1.0
176
     1
 76
     1
176
     1
 77
     6
176
     1
 78
     2
176
     1
 67
     7
176
     1
 79
     5
176
     1
170
     0
176
     1
171
     0
176
     1
290
     0
176
     1
 93
        1
176
     1
 44
0.0
176
     1
173
     0
176
     1
  0
VISUALSTYLE
  5
32
102
{ACAD_REACTORS
330
2A
102
}
330
2A
100
AcDbVisualStyle
  2
Basic
 70
     7
177
     2
291
     1
 71
     1
176
     1
 72
     0
176
     1
 73
     1
176
     1
 90
        0
176
     1
 40
-0.6
176
     1
 41
-30.0
176
     1
 62
     5
 63
     7
421
 16777215
176
     1
 74
     0
176
     1
 91
        4
176
     1
 64
     7
176
     1
 65
   257
176
     1
 75
     1
176
     1
175
     1
176
     1
 42
1.0
176
     1
 92
        8
176
     1
 66
     7
176
     1
 43
1.0
176
     1
 76
     1
176
     1
 77
     6
176
     1
 78
     2
176
     1
 67
     7
176
     1
 79
     5
176
     1
170
     0
176
     1
171
     0
176
     1
290
     0
176
     1
 93
        1
176
     1
 44
0.0
176
     1
173
     0
176
     1
  0
VISUALSTYLE
  5
36
102
{ACAD_REACTORS
330
2A
102
}
330
2A
100
AcDbVisualStyle
  2
Brighten
 70
    12
177
     2
291
     1
 71
     2
176
     1
 72
     2
176
     1
 73
     0
176
     1
 90
        0
176
     1
 40
-0.6
176
     1
 41
-30.0
176
     1
 62
     5
 63
     7
421
 16777215
176
     1
 74
     1
176
     1
 91
        4
176
     1
 64
     7
176
     1
 65
   257
176
     1
 75
     1
176
     1
175
     1
176
     1
 42
1.0
176
     1
 92
        8
176
     1
 66
     7
176
     1
 43
1.0
176
     1
 76
     1
176
     1
 77
     6
176
     1
 78
     2
176
     1
 67
     7
176
     1
 79
     5
176
     1
170
     0
176
     1
171
     0
176
     1
290
     0
176
     1
 93
        1
176
     1
 44
50.0
176
     1
173
     0
176
     1
  0
VISUALSTYLE
  5
3A
102
{ACAD_REACTORS
330
2A
102
}
330
2A
100
AcDbVisualStyle
  2
ColorChange
 70
    16
177
     2
291
     1
 71
     2
176
     1
 72
     2
176
     1
 73
     3
176
     1
 90
        0
176
     1
 40
-0.6
176
     1
 41
-30.0
176
     1
 62
     5
 63
     8
421
  8421504
176
     1
 74
     1
176
     1
 91
        4
176
     1
 64
     7
176
     1
 65
   257
176
     1
 75
     1
176
     1
175
     1
176
     1
 42
1.0
176
     1
 92
        8
176
     1
 66
     8
424
  8421504
176
     1
 43
1.0
176
     1
 76
     1
176
     1
 77
     6
176
     1
 78
     2
176
     1
 67
     7
176
     1
 79
     5
176
     1
170
     0
176
     1
171
     0
176
     1
290
     0
176
     1
 93
        1
176
     1
 44
0.0
176
     1
173
     0
176
     1
  0
VISUALSTYLE
  5
34
102
{ACAD_REACTORS
330
2A
102
}
330
2A
100
AcDbVisualStyle
  2
Conceptual
 70
     9
177
     2
291
     0
 71
     3
176
     1
 72
     2
176
     1
 73
     0
176
     1
 90
        0
176
     1
 40
-0.6
176
     1
 41
-30.0
176
     1
 62
     5
 63
     7
421
 16777215
176
     1
 74
     2
176
     1
 91
        2
176
     1
 64
     7
176
     1
 65
   257
176
     1
 75
     1
176
     1
175
     1
176
     1
 42
40.0
176
     1
 92
        8
176
     1
 66
     7
176
     1
 43
1.0
176
     1
 76
     1
176
     1
 77
     6
176
     1
 78
     2
176
     1
 67
     7
176
     1
 79
     3
176
     1
170
     0
176
     1
171
     0
176
     1
290
     0
176
     1
 93
        1
176
     1
 44
0.0
176
     1
173
     0
176
     1
  0
VISUALSTYLE
  5
35
102
{ACAD_REACTORS
330
2A
102
}
330
2A
100
AcDbVisualStyle
  2
Dim
 70
    11
177
     2
291
     1
 71
     2
176
     1
 72
     2
176
     1
 73
     0
176
     1
 90
        0
176
     1
 40
-0.6
176
     1
 41
-30.0
176
     1
 62
     5
 63
     7
421
 16777215
176
     1
 74
     1
176
     1
 91
        4
176
     1
 64
     7
176
     1
 65
   257
176
     1
 75
     1
176
     1
175
     1
176
     1
 42
1.0
176
     1
 92
        8
176
     1
 66
     7
176
     1
 43
1.0
176
     1
 76
     1
176
     1
 77
     6
176
     1
 78
     2
176
     1
 67
     7
176
     1
 79
     5
176
     1
170
     0
176
     1
171
     0
176
     1
290
     0
176
     1
 93
        1
176
     1
 44
-50.0
176
     1
173
     0
176
     1
  0
VISUALSTYLE
  5
39
102
{ACAD_REACTORS
330
2A
102
}
330
2A
100
AcDbVisualStyle
  2
Facepattern
 70
    15
177
     2
291
     1
 71
     2
176
     1
 72
     2
176
     1
 73
     0
176
     1
 90
        0
176
     1
 40
-0.6
176
     1
 41
-30.0
176
     1
 62
     5
 63
     7
421
 16777215
176
     1
 74
     1
176
     1
 91
        4
176
     1
 64
     7
176
     1
 65
   257
176
     1
 75
     1
176
     1
175
     1
176
     1
 42
1.0
176
     1
 92
        8
176
     1
 66
     7
176
     1
 43
1.0
176
     1
 76
     1
176
     1
 77
     6
176
     1
 78
     2
176
     1
 67
     7
176
     1
 79
     5
176
     1
170
     0
176
     1
171
     0
176
     1
290
     0
176
     1
 93
        1
176
     1
 44
0.0
176
     1
173
     0
176
     1
  0
VISUALSTYLE
  5
2B
102
{ACAD_REACTORS
330
2A
102
}
330
2A
100
AcDbVisualStyle
  2
Flat
 70
     0
177
     2
291
     1
 71
     2
176
     1
 72
     1
176
     1
 73
     1
176
     1
 90
        2
176
     1
 40
-0.6
176
     1
 41
30.0
176
     1
 62
     5
 63
     7
421
 16777215
176
     1
 74
     0
176
     1
 91
        4
176
     1
 64
     7
176
     1
 65
   257
176
     1
 75
     1
176
     1
175
     1
176
     1
 42
1.0
176
     1
 92
        8
176
     1
 66
     7
176
     1
 43
1.0
176
     1
 76
     1
176
     1
 77
     6
176
     1
 78
     2
176
     1
 67
     7
176
     1
 79
     5
176
     1
170
     0
176
     1
171
     0
176
     1
290
     0
176
     1
 93
       13
176
     1
 44
0.0
176
     1
173
     0
176
     1
  0
VISUALSTYLE
  5
2C
102
{ACAD_REACTORS
330
2A
102
}
330
2A
100
AcDbVisualStyle
  2
FlatWithEdges
 70
     1
177
     2
291
     1
 71
     2
176
     1
 72
     1
176
     1
 73
     1
176
     1
 90
        2
176
     1
 40
-0.6
176
     1
 41
30.0
176
     1
 62
     5
 63
     7
421
 16777215
176
     1
 74
     1
176
     1
 91
        4
176
     1
 64
     7
176
     1
 65
   257
176
     1
 75
     1
176
     1
175
     1
176
     1
 42
1.0
176
     1
 92
        0
176
     1
 66
   257
176
     1
 43
1.0
176
     1
 76
     1
176
     1
 77
     6
176
     1
 78
     2
176
     1
 67
     7
176
     1
 79
     5
176
     1
170
     0
176
     1
171
     0
176
     1
290
     0
176
     1
 93
       13
176
     1
 44
0.0
176
     1
173
     0
176
     1
  0
VISUALSTYLE
  5
2D
102
{ACAD_REACTORS
330
2A
102
}
330
2A
100
AcDbVisualStyle
  2
Gouraud
 70
     2
177
     2
291
     1
 71
     2
176
     1
 72
     2
176
     1
 73
     1
176
     1
 90
        2
176
     1
 40
-0.6
176
     1
 41
30.0
176
     1
 62
     5
 63
     7
421
 16777215
176
     1
 74
     0
176
     1
 91
        4
176
     1
 64
     7
176
     1
 65
   257
176
     1
 75
     1
176
     1
175
     1
176
     1
 42
1.0
176
     1
 92
        0
176
     1
 66
     7
176
     1
 43
1.0
176
     1
 76
     1
176
     1
 77
     6
176
     1
 78
     2
176
     1
 67
     7
176
     1
 79
     5
176
     1
170
     0
176
     1
171
     0
176
     1
290
     0
176
     1
 93
       13
176
     1
 44
0.0
176
     1
173
     0
176
     1
  0
VISUALSTYLE
  5
2E
102
{ACAD_REACTORS
330
2A
102
}
330
2A
100
AcDbVisualStyle
  2
GouraudWithEdges
 70
     3
177
     2
291
     1
 71
     2
176
     1
 72
     2
176
     1
 73
     1
176
     1
 90
        2
176
     1
 40
-0.6
176
     1
 41
30.0
176
     1
 62
     5
 63
     7
421
 16777215
176
     1
 74
     1
176
     1
 91
        4
176
     1
 64
     7
176
     1
 65
   257
176
     1
 75
     1
176
     1
175
     1
176
     1
 42
1.0
176
     1
 92
        0
176
     1
 66
   257
176
     1
 43
1.0
176
     1
 76
     1
176
     1
 77
     6
176
     1
 78
     2
176
     1
 67
     7
176
     1
 79
     5
176
     1
170
     0
176
     1
171
     0
176
     1
290
     0
176
     1
 93
       13
176
     1
 44
0.0
176
     1
173
     0
176
     1
  0
VISUALSTYLE
  5
38
102
{ACAD_REACTORS
330
2A
102
}
330
2A
100
AcDbVisualStyle
  2
Linepattern
 70
    14
177
     2
291
     1
 71
     2
176
     1
 72
     2
176
     1
 73
     0
176
     1
 90
        0
176
     1
 40
-0.6
176
     1
 41
-30.0
176
     1
 62
     5
 63
     7
421
 16777215
176
     1
 74
     1
176
     1
 91
        4
176
     1
 64
     7
176
     1
 65
   257
176
     1
 75
     7
176
     1
175
     7
176
     1
 42
1.0
176
     1
 92
        8
176
     1
 66
     7
176
     1
 43
1.0
176
     1
 76
     1
176
     1
 77
     6
176
     1
 78
     2
176
     1
 67
     7
176
     1
 79
     5
176
     1
170
     0
176
     1
171
     0
176
     1
290
     0
176
     1
 93
        1
176
     1
 44
0.0
176
     1
173
     0
176
     1
  0
VISUALSTYLE
  5
33
102
{ACAD_REACTORS
330
2A
102
}
330
2A
100
AcDbVisualStyle
  2
Realistic
 70
     8
177
     2
291
     0
 71
     2
176
     1
 72
     2
176
     1
 73
     0
176
     1
 90
        0
176
     1
 40
-0.6
176
     1
 41
-30.0
176
     1
 62
     5
 63
     7
421
 16777215
176
     1
 74
     1
176
     1
 91
        0
176
     1
 64
     7
176
     1
 65
   257
176
     1
 75
     1
176
     1
175
     1
176
     1
 42
1.0
176
     1
 92
        8
176
     1
 66
     8
424
  7895160
176
     1
 43
1.0
176
     1
 76
     1
176
     1
 77
     6
176
     1
 78
     2
176
     1
 67
     7
176
     1
 79
     5
176
     1
170
     0
176
     1
171
     0
176
     1
290
     0
176
     1
 93
       13
176
     1
 44
0.0
176
     1
173
     0
176
     1
  0
VISUALSTYLE
  5
37
102
{ACAD_REACTORS
330
2A
102
}
330
2A
100
AcDbVisualStyle
  2
Thicken
 70
    13
177
     2
291
     1
 71
     2
176
     1
 72
     2
176
     1
 73
     0
176
     1
 90
        0
176
     1
 40
-0.6
176
     1
 41
-30.0
176
     1
 62
     5
 63
     7
421
 16777215
176
     1
 74
     1
176
     1
 91
        4
176
     1
 64
     7
176
     1
 65
   257
176
     1
 75
     1
176
     1
175
     1
176
     1
 42
1.0
176
     1
 92
       12
176
     1
 66
     7
176
     1
 43
1.0
176
     1
 76
     1
176
     1
 77
     6
176
     1
 78
     2
176
     1
 67
     7
176
     1
 79
     5
176
     1
170
     0
176
     1
171
     0
176
     1
290
     0
176
     1
 93
        1
176
     1
 44
0.0
176
     1
173
     0
176
     1
  0
ENDSEC
  0
EOF
