  0
SECTION
  2
HEADER
  9
$ACADVER
  1
AC1024
  9
$ACADMAINTVER
 70
     6
  9
$DWGCODEPAGE
  3
UNDEFINED
  9
$INSBASE
 10
0.0
 20
0.0
 30
0.0
  9
$EXTMIN
 10
1.000000000000000E+20
 20
1.000000000000000E+20
 30
1.000000000000000E+20
  9
$EXTMAX
 10
-1.000000000000000E+20
 20
-1.000000000000000E+20
 30
-1.000000000000000E+20
  9
$LIMMIN
 10
0.0
 20
0.0
  9
$LIMMAX
 10
12.0
 20
9.0
  9
$ORTHOMODE
 70
     0
  9
$REGENMODE
 70
     1
  9
$FILLMODE
 70
     1
  9
$QTEXTMODE
 70
     0
  9
$MIRRTEXT
 70
     1
  9
$LTSCALE
 40
1.0
  9
$ATTMODE
 70
     1
  9
$TEXTSIZE
 40
0.2
  9
$TRACEWID
 40
0.05
  9
$TEXTSTYLE
  7
Standard
  9
$CLAYER
  8
0
  9
$CELTYPE
  6
ByLayer
  9
$CECOLOR
 62
   256
  9
$CELTSCALE
 40
1.0
  9
$DISPSILH
 70
     0
  9
$DIMSCALE
 40
1.0
  9
$DIMASZ
 40
0.18
  9
$DIMEXO
 40
0.0625
  9
$DIMDLI
 40
0.38
  9
$DIMRND
 40
0.0
  9
$DIMDLE
 40
0.0
  9
$DIMEXE
 40
0.18
  9
$DIMTP
 40
0.0
  9
$DIMTM
 40
0.0
  9
$DIMTXT
 40
0.18
  9
$DIMCEN
 40
0.09
  9
$DIMTSZ
 40
0.0
  9
$DIMTOL
 70
     0
  9
$DIMLIM
 70
     0
  9
$DIMTIH
 70
     1
  9
$DIMTOH
 70
     1
  9
$DIMSE1
 70
     0
  9
$DIMSE2
 70
     0
  9
$DIMTAD
 70
     0
  9
$DIMZIN
 70
     0
  9
$DIMBLK
  1

  9
$DIMASO
 70
     1
  9
$DIMSHO
 70
     1
  9
$DIMPOST
  1

  9
$DIMAPOST
  1

  9
$DIMALT
 70
     0
  9
$DIMALTD
 70
     2
  9
$DIMALTF
 40
25.4
  9
$DIMLFAC
 40
1.0
  9
$DIMTOFL
 70
     0
  9
$DIMTVP
 40
0.0
  9
$DIMTIX
 70
     0
  9
$DIMSOXD
 70
     0
  9
$DIMSAH
 70
     0
  9
$DIMBLK1
  1

  9
$DIMBLK2
  1

  9
$DIMSTYLE
  2
Standard
  9
$DIMCLRD
 70
     0
  9
$DIMCLRE
 70
     0
  9
$DIMCLRT
 70
     0
  9
$DIMTFAC
 40
1.0
  9
$DIMGAP
 40
0.09
  9
$DIMJUST
 70
     0
  9
$DIMSD1
 70
     0
  9
$DIMSD2
 70
     0
  9
$DIMTOLJ
 70
     1
  9
$DIMTZIN
 70
     0
  9
$DIMALTZ
 70
     0
  9
$DIMALTTZ
 70
     0
  9
$DIMUPT
 70
     0
  9
$DIMDEC
 70
     4
  9
$DIMTDEC
 70
     4
  9
$DIMALTU
 70
     2
  9
$DIMALTTD
 70
     2
  9
$DIMTXSTY
  7
Standard
  9
$DIMAUNIT
 70
     0
  9
$DIMADEC
 70
     0
  9
$DIMALTRND
 40
0.0
  9
$DIMAZIN
 70
     0
  9
$DIMDSEP
 70
    46
  9
$DIMATFIT
 70
     3
  9
$DIMFRAC
 70
     0
  9
$DIMLDRBLK
  1

  9
$DIMLUNIT
 70
     2
  9
$DIMLWD
 70
    -2
  9
$DIMLWE
 70
    -2
  9
$DIMTMOVE
 70
     0
  9
$DIMFXL
 40
1.0
  9
$DIMFXLON
 70
     0
  9
$DIMJOGANG
 40
0.7853981633974483
  9
$DIMTFILL
 70
     0
  9
$DIMTFILLCLR
 70
     0
  9
$DIMARCSYM
 70
     0
  9
$DIMLTYPE
  6

  9
$DIMLTEX1
  6

  9
$DIMLTEX2
  6

  9
$DIMTXTDIRECTION
 70
     0
  9
$LUNITS
 70
     2
  9
$LUPREC
 70
     4
  9
$SKETCHINC
 40
0.1
  9
$FILLETRAD
 40
0.5
  9
$AUNITS
 70
     0
  9
$AUPREC
 70
     0
  9
$MENU
  1
.
  9
$ELEVATION
 40
0.0
  9
$PELEVATION
 40
0.0
  9
$THICKNESS
 40
0.0
  9
$LIMCHECK
 70
     0
  9
$CHAMFERA
 40
0.5
  9
$CHAMFERB
 40
0.5
  9
$CHAMFERC
 40
1.0
  9
$CHAMFERD
 40
0.0
  9
$SKPOLY
 70
     0
  9
$TDCREATE
 40
2458263.58275463
  9
$TDUCREATE
 40
2458263.20775463
  9
$TDUPDATE
 40
2458263.58275463
  9
$TDUUPDATE
 40
2458263.20775463
  9
$TDINDWG
 40
0.0000000116
  9
$TDUSRTIMER
 40
0.0000000116
  9
$USRTIMER
 70
     1
  9
$ANGBASE
 50
0.0
  9
$ANGDIR
 70
     0
  9
$PDMODE
 70
     0
  9
$PDSIZE
 40
0.0
  9
$PLINEWID
 40
0.0
  9
$SPLFRAME
 70
     0
  9
$SPLINETYPE
 70
     6
  9
$SPLINESEGS
 70
     8
  9
$HANDSEED
  5
D5
  9
$SURFTAB1
 70
     6
  9
$SURFTAB2
 70
     6
  9
$SURFTYPE
 70
     6
  9
$SURFU
 70
     6
  9
$SURFV
 70
     6
  9
$UCSBASE
  2

  9
$UCSNAME
  2

  9
$UCSORG
 10
0.0
 20
0.0
 30
0.0
  9
$UCSXDIR
 10
1.0
 20
0.0
 30
0.0
  9
$UCSYDIR
 10
0.0
 20
1.0
 30
0.0
  9
$UCSORTHOREF
  2

  9
$UCSORTHOVIEW
 70
     0
  9
$UCSORGTOP
 10
0.0
 20
0.0
 30
0.0
  9
$UCSORGBOTTOM
 10
0.0
 20
0.0
 30
0.0
  9
$UCSORGLEFT
 10
0.0
 20
0.0
 30
0.0
  9
$UCSORGRIGHT
 10
0.0
 20
0.0
 30
0.0
  9
$UCSORGFRONT
 10
0.0
 20
0.0
 30
0.0
  9
$UCSORGBACK
 10
0.0
 20
0.0
 30
0.0
  9
$PUCSBASE
  2

  9
$PUCSNAME
  2

  9
$PUCSORG
 10
0.0
 20
0.0
 30
0.0
  9
$PUCSXDIR
 10
1.0
 20
0.0
 30
0.0
  9
$PUCSYDIR
 10
0.0
 20
1.0
 30
0.0
  9
$PUCSORTHOREF
  2

  9
$PUCSORTHOVIEW
 70
     0
  9
$PUCSORGTOP
 10
0.0
 20
0.0
 30
0.0
  9
$PUCSORGBOTTOM
 10
0.0
 20
0.0
 30
0.0
  9
$PUCSORGLEFT
 10
0.0
 20
0.0
 30
0.0
  9
$PUCSORGRIGHT
 10
0.0
 20
0.0
 30
0.0
  9
$PUCSORGFRONT
 10
0.0
 20
0.0
 30
0.0
  9
$PUCSORGBACK
 10
0.0
 20
0.0
 30
0.0
  9
$USERI1
 70
     0
  9
$USERI2
 70
     0
  9
$USERI3
 70
     0
  9
$USERI4
 70
     0
  9
$USERI5
 70
     0
  9
$USERR1
 40
0.0
  9
$USERR2
 40
0.0
  9
$USERR3
 40
0.0
  9
$USERR4
 40
0.0
  9
$USERR5
 40
0.0
  9
$WORLDVIEW
 70
     1
  9
$SHADEDGE
 70
     3
  9
$SHADEDIF
 70
    70
  9
$TILEMODE
 70
     1
  9
$MAXACTVP
 70
    64
  9
$PINSBASE
 10
0.0
 20
0.0
 30
0.0
  9
$PLIMCHECK
 70
     0
  9
$PEXTMIN
 10
1.000000000000000E+20
 20
1.000000000000000E+20
 30
1.000000000000000E+20
  9
$PEXTMAX
 10
-1.000000000000000E+20
 20
-1.000000000000000E+20
 30
-1.000000000000000E+20
  9
$PLIMMIN
 10
0.0
 20
0.0
  9
$PLIMMAX
 10
12.0
 20
9.0
  9
$UNITMODE
 70
     0
  9
$VISRETAIN
 70
     1
  9
$PLINEGEN
 70
     0
  9
$PSLTSCALE
 70
     1
  9
$TREEDEPTH
 70
  3020
  9
$CMLSTYLE
  2
Standard
  9
$CMLJUST
 70
     0
  9
$CMLSCALE
 40
1.0
  9
$PROXYGRAPHICS
 70
     1
  9
$MEASUREMENT
 70
     0
  9
$CELWEIGHT
370
    -1
  9
$ENDCAPS
280
     0
  9
$JOINSTYLE
280
     0
  9
$LWDISPLAY
290
     1
  9
$INSUNITS
 70
     1
  9
$HYPERLINKBASE
  1

  9
$STYLESHEET
  1

  9
$XEDIT
290
     1
  9
$CEPSNTYPE
380
     0
  9
$PSTYLEMODE
290
     1
  9
$FINGERPRINTGUID
  2
{90FE6C46-E14F-8265-0E5B-58572CF06BFE}
  9
$VERSIONGUID
  2
{FAEB1C32-E019-11D5-929B-00C0DF256EC4}
  9
$EXTNAMES
290
     1
  9
$PSVPSCALE
 40
0.0
  9
$OLESTARTUP
290
     0
  9
$SORTENTS
280
   127
  9
$INDEXCTL
280
     0
  9
$HIDETEXT
280
     1
  9
$XCLIPFRAME
280
     2
  9
$HALOGAP
280
     0
  9
$OBSCOLOR
 70
   257
  9
$OBSLTYPE
280
     0
  9
$INTERSECTIONDISPLAY
280
     0
  9
$INTERSECTIONCOLOR
 70
   257
  9
$DIMASSOC
280
     2
  9
$PROJECTNAME
  1

  9
$CAMERADISPLAY
290
     0
  9
$LENSLENGTH
 40
50.0
  9
$CAMERAHEIGHT
 40
0.0
  9
$STEPSPERSEC
 40
2.0
  9
$STEPSIZE
 40
6.0
  9
$3DDWFPREC
 40
2.0
  9
$PSOLWIDTH
 40
0.25
  9
$PSOLHEIGHT
 40
4.0
  9
$LOFTANG1
 40
1.570796326794897
  9
$LOFTANG2
 40
1.570796326794897
  9
$LOFTMAG1
 40
0.0
  9
$LOFTMAG2
 40
0.0
  9
$LOFTPARAM
 70
     7
  9
$LOFTNORMALS
280
     1
  9
$LATITUDE
 40
37.795
  9
$LONGITUDE
 40
-122.394
  9
$NORTHDIRECTION
 40
0.0
  9
$TIMEZONE
 70
 -8000
  9
$LIGHTGLYPHDISPLAY
280
     1
  9
$TILEMODELIGHTSYNCH
280
     1
  9
$CMATERIAL
347
3C
  9
$SOLIDHIST
280
     1
  9
$SHOWHIST
280
     1
  9
$DWFFRAME
280
     2
  9
$DGNFRAME
280
     2
  9
$REALWORLDSCALE
290
     1
  9
$INTERFERECOLOR
 62
   256
  9
$CSHADOW
280
     0
  9
$SHADOWPLANELOCATION
 40
0.0
  0
ENDSEC
  0
SECTION
  2
CLASSES
  0
CLASS
  1
ACDBDICTIONARYWDFLT
  2
AcDbDictionaryWithDefault
  3
ObjectDBX Classes
 90
        0
 91
        4
280
     0
281
     0
  0
CLASS
  1
VISUALSTYLE
  2
AcDbVisualStyle
  3
ObjectDBX Classes
 90
     4095
 91
        4
280
     0
281
     0
  0
CLASS
  1
MATERIAL
  2
AcDbMaterial
  3
ObjectDBX Classes
 90
     1153
 91
        4
280
     0
281
     0
  0
CLASS
  1
SUN
  2
AcDbSun
  3
SCENEOE
 90
     1024
 91
        4
280
     0
281
     0
  0
ENDSEC
  0
SECTION
  2
TABLES
  0
TABLE
  2
VPORT
  5
8
330
0
100
AcDbSymbolTable
 70
     1
  0
VPORT
  5
29
330
8
100
AcDbSymbolTableRecord
100
AcDbViewportTableRecord
  2
*Active
 70
     0
 10
0.0
 20
0.0
 11
1.0
 21
1.0
 12
0.0
 22
0.0
 13
0.0
 23
0.0
 14
0.5
 24
0.5
 15
0.5
 25
0.5
 16
0.0
 26
0.0
 36
1.0
 17
105.0007777515277
 27
-148.5000416295416
 37
0.0
 40
297.0000832590831
 41
0.7070757462376333
 42
50.0
 43
0.0
 44
0.0
 50
0.0
 51
0.0
 71
     0
 72
   100
 73
     1
 74
     3
 75
     0
 76
     0
 77
     0
 78
     0
281
     0
 65
     1
110
0.0
120
0.0
130
0.0
111
1.0
121
0.0
131
0.0
112
0.0
122
1.0
132
0.0
 79
     0
146
0.0
 60
     3
 61
     5
292
     1
282
     1
141
0.0
142
0.0
 63
   250
361
3F
  0
ENDTAB
  0
TABLE
  2
LTYPE
  5
5
330
0
100
AcDbSymbolTable
 70
     1
  0
LTYPE
  5
14
330
5
100
AcDbSymbolTableRecord
100
AcDbLinetypeTableRecord
  2
ByBlock
 70
     0
  3

 72
    65
 73
     0
 40
0.0
  0
LTYPE
  5
15
330
5
100
AcDbSymbolTableRecord
100
AcDbLinetypeTableRecord
  2
ByLayer
 70
     0
  3

 72
    65
 73
     0
 40
0.0
  0
LTYPE
  5
16
330
5
100
AcDbSymbolTableRecord
100
AcDbLinetypeTableRecord
  2
Continuous
 70
     0
  3
Solid line
 72
    65
 73
     0
 40
0.0
  0
ENDTAB
  0
TABLE
  2
LAYER
  5
2
330
0
100
AcDbSymbolTable
 70
     2
  0
LAYER
  5
10
330
2
100
AcDbSymbolTableRecord
100
AcDbLayerTableRecord
  2
0
 70
     0
 62
     7
  6
Continuous
370
    -3
390
F
347
3E
  0
LAYER
  5
40
330
2
100
AcDbSymbolTableRecord
100
AcDbLayerTableRecord
  2
_U+30EC_U+30A4_U+30E4_U+30FC 1
 70
     0
 62
     7
  6
Continuous
370
    -3
390
F
347
3E
  0
ENDTAB
  0
TABLE
  2
STYLE
  5
3
330
0
100
AcDbSymbolTable
 70
     1
  0
STYLE
  5
11
330
3
100
AcDbSymbolTableRecord
100
AcDbTextStyleTableRecord
  2
Standard
 70
     0
 40
0.0
 41
1.0
 50
0.0
 71
     0
 42
0.2
  3
txt
  4

  0
ENDTAB
  0
TABLE
  2
VIEW
  5
6
330
0
100
AcDbSymbolTable
 70
     0
  0
ENDTAB
  0
TABLE
  2
UCS
  5
7
330
0
100
AcDbSymbolTable
 70
     0
  0
ENDTAB
  0
TABLE
  2
APPID
  5
9
330
0
100
AcDbSymbolTable
 70
     1
  0
APPID
  5
12
330
9
100
AcDbSymbolTableRecord
100
AcDbRegAppTableRecord
  2
ACAD
 70
     0
  0
ENDTAB
  0
TABLE
  2
DIMSTYLE
  5
A
330
0
100
AcDbSymbolTable
 70
     1
100
AcDbDimStyleTable
  0
DIMSTYLE
105
27
330
A
100
AcDbSymbolTableRecord
100
AcDbDimStyleTableRecord
  2
Standard
 70
     0
178
     0
340
11
  0
ENDTAB
  0
TABLE
  2
BLOCK_RECORD
  5
1
330
0
100
AcDbSymbolTable
 70
     7
  0
BLOCK_RECORD
  5
1F
330
1
100
AcDbSymbolTableRecord
100
AcDbBlockTableRecord
  2
*Model_Space
340
22
 70
     0
280
     1
281
     0
  0
BLOCK_RECORD
  5
1B
330
1
100
AcDbSymbolTableRecord
100
AcDbBlockTableRecord
  2
*Paper_Space
340
1E
 70
     0
280
     1
281
     0
  0
BLOCK_RECORD
  5
23
330
1
100
AcDbSymbolTableRecord
100
AcDbBlockTableRecord
  2
*Paper_Space0
340
26
 70
     0
280
     1
281
     0
  0
BLOCK_RECORD
  5
63
330
1
100
AcDbSymbolTableRecord
100
AcDbBlockTableRecord
  2
block 2
340
0
102
{BLKREFS
331
64
102
}
 70
     0
280
     1
281
     0
  0
BLOCK_RECORD
  5
73
330
1
100
AcDbSymbolTableRecord
100
AcDbBlockTableRecord
  2
block 3
340
0
102
{BLKREFS
331
74
102
}
 70
     0
280
     1
281
     0
  0
BLOCK_RECORD
  5
84
330
1
100
AcDbSymbolTableRecord
100
AcDbBlockTableRecord
  2
block 4
340
0
102
{BLKREFS
331
85
102
}
 70
     0
280
     1
281
     0
  0
BLOCK_RECORD
  5
92
330
1
100
AcDbSymbolTableRecord
100
AcDbBlockTableRecord
  2
block 5
340
0
102
{BLKREFS
331
93
102
}
 70
     0
280
     1
281
     0
  0
BLOCK_RECORD
  5
98
330
1
100
AcDbSymbolTableRecord
100
AcDbBlockTableRecord
  2
block 6
340
0
102
{BLKREFS
331
99
102
}
 70
     0
280
     1
281
     0
  0
BLOCK_RECORD
  5
B5
330
1
100
AcDbSymbolTableRecord
100
AcDbBlockTableRecord
  2
block 7
340
0
102
{BLKREFS
331
B6
102
}
 70
     0
280
     1
281
     0
  0
ENDTAB
  0
ENDSEC
  0
SECTION
  2
BLOCKS
  0
BLOCK
  5
20
330
1F
100
AcDbEntity
  8
0
100
AcDbBlockBegin
  2
*Model_Space
 70
     0
 10
0.0
 20
0.0
 30
0.0
  3
*Model_Space
  1

  0
ENDBLK
  5
21
330
1F
100
AcDbEntity
  8
0
100
AcDbBlockEnd
  0
BLOCK
  5
1C
330
1B
100
AcDbEntity
 67
     1
  8
0
100
AcDbBlockBegin
  2
*Paper_Space
 70
     0
 10
0.0
 20
0.0
 30
0.0
  3
*Paper_Space
  1

  0
ENDBLK
  5
1D
330
1B
100
AcDbEntity
 67
     1
  8
0
100
AcDbBlockEnd
  0
BLOCK
  5
24
330
23
100
AcDbEntity
  8
0
100
AcDbBlockBegin
  2
*Paper_Space0
 70
     0
 10
0.0
 20
0.0
 30
0.0
  3
*Paper_Space0
  1

  0
ENDBLK
  5
25
330
23
100
AcDbEntity
  8
0
100
AcDbBlockEnd
  0
BLOCK
  5
65
330
63
100
AcDbEntity
  8
0
100
AcDbBlockBegin
  2
block 2
 70
     0
 10
0.0
 20
0.0
 30
0.0
  3
block 2
  1

  0
SPLINE
  5
67
330
63
100
AcDbEntity
  8
_U+30EC_U+30A4_U+30E4_U+30FC 1
370
     0
100
AcDbSpline
210
0.0
220
0.0
230
1.0
 70
    11
 71
     3
 72
    26
 73
    22
 74
     0
 42
0.0000000001
 43
0.0000000001
 12
1.0
 22
0.0
 32
0.0
 13
1.0
 23
0.0
 33
0.0
 40
0.0
 40
0.0
 40
0.0
 40
0.0
 40
1.0
 40
1.0
 40
1.0
 40
2.0
 40
2.0
 40
2.0
 40
3.0
 40
3.0
 40
3.0
 40
4.0
 40
4.0
 40
4.0
 40
5.0
 40
5.0
 40
5.0
 40
6.0
 40
6.0
 40
6.0
 40
7.0
 40
7.0
 40
7.0
 40
7.0
 10
112.5609157704709
 20
-143.7104356194543
 30
0.0
 10
112.5609157704709
 20
-143.7104356194543
 30
0.0
 10
111.4564181578998
 20
-143.7104356194543
 30
0.0
 10
111.4564181578998
 20
-143.7104356194543
 30
0.0
 10
111.4564181578998
 20
-143.7104356194543
 30
0.0
 10
111.4564181578998
 20
-144.0404757669413
 30
0.0
 10
111.4564181578998
 20
-144.0404757669413
 30
0.0
 10
111.4564181578998
 20
-144.0404757669413
 30
0.0
 10
111.3086235615826
 20
-144.0404757669413
 30
0.0
 10
111.3086235615826
 20
-144.0404757669413
 30
0.0
 10
111.293809650996
 20
-143.7083685621632
 30
0.0
 10
111.1308566345437
 20
-143.6618597731123
 30
0.0
 10
111.0164794644334
 20
-143.6322319519392
 30
0.0
 10
111.0164794644334
 20
-143.6322319519392
 30
0.0
 10
111.0164794644334
 20
-143.4861599033646
 30
0.0
 10
111.0164794644334
 20
-143.4861599033646
 30
0.0
 10
111.0164794644334
 20
-143.4861599033646
 30
0.0
 10
112.5609157704709
 20
-143.4861599033646
 30
0.0
 10
112.5609157704709
 20
-143.4861599033646
 30
0.0
 10
112.5609157704709
 20
-143.4861599033646
 30
0.0
 10
112.5609157704709
 20
-143.7104356194543
 30
0.0
 10
112.5609157704709
 20
-143.7104356194543
 30
0.0
  0
HATCH
  5
68
330
63
100
AcDbEntity
  8
_U+30EC_U+30A4_U+30E4_U+30FC 1
 62
   179
420
  2234388
100
AcDbHatch
 10
0.0
 20
0.0
 30
0.0
210
0.0
220
0.0
230
1.0
  2
SOLID
 70
     1
 71
     0
 91
        1
 92
        1
 93
        1
 72
     4
 94
        3
 73
     0
 74
     1
 95
       26
 96
       22
 40
0.0
 40
0.0
 40
0.0
 40
0.0
 40
1.0
 40
1.0
 40
1.0
 40
2.0
 40
2.0
 40
2.0
 40
3.0
 40
3.0
 40
3.0
 40
4.0
 40
4.0
 40
4.0
 40
5.0
 40
5.0
 40
5.0
 40
6.0
 40
6.0
 40
6.0
 40
7.0
 40
7.0
 40
7.0
 40
7.0
 10
112.5609157704709
 20
-143.7104356194543
 10
112.5609157704709
 20
-143.7104356194543
 10
111.4564181578998
 20
-143.7104356194543
 10
111.4564181578998
 20
-143.7104356194543
 10
111.4564181578998
 20
-143.7104356194543
 10
111.4564181578998
 20
-144.0404757669413
 10
111.4564181578998
 20
-144.0404757669413
 10
111.4564181578998
 20
-144.0404757669413
 10
111.3086235615826
 20
-144.0404757669413
 10
111.3086235615826
 20
-144.0404757669413
 10
111.293809650996
 20
-143.7083685621632
 10
111.1308566345437
 20
-143.6618597731123
 10
111.0164794644334
 20
-143.6322319519392
 10
111.0164794644334
 20
-143.6322319519392
 10
111.0164794644334
 20
-143.4861599033646
 10
111.0164794644334
 20
-143.4861599033646
 10
111.0164794644334
 20
-143.4861599033646
 10
112.5609157704709
 20
-143.4861599033646
 10
112.5609157704709
 20
-143.4861599033646
 10
112.5609157704709
 20
-143.4861599033646
 10
112.5609157704709
 20
-143.7104356194543
 10
112.5609157704709
 20
-143.7104356194543
 97
        0
 97
        0
 75
     2
 76
     1
 98
        0
  0
POLYLINE
  5
69
330
63
100
AcDbEntity
  8
_U+30EC_U+30A4_U+30E4_U+30FC 1
370
     0
100
AcDb2dPolyline
 66
     1
 10
0.0
 20
0.0
 30
0.0
  0
VERTEX
  5
6A
330
69
100
AcDbEntity
  8
_U+30EC_U+30A4_U+30E4_U+30FC 1
370
     0
100
AcDbVertex
100
AcDb2dVertex
 10
112.5609157704709
 20
-142.9249538488174
 30
0.0
  0
VERTEX
  5
6B
330
69
100
AcDbEntity
  8
_U+30EC_U+30A4_U+30E4_U+30FC 1
370
     0
100
AcDbVertex
100
AcDb2dVertex
 10
112.3090792904991
 20
-142.9249538488174
 30
0.0
  0
VERTEX
  5
6C
330
69
100
AcDbEntity
  8
_U+30EC_U+30A4_U+30E4_U+30FC 1
370
     0
100
AcDbVertex
100
AcDb2dVertex
 10
112.3090792904991
 20
-142.6731173688456
 30
0.0
  0
VERTEX
  5
6D
330
69
100
AcDbEntity
  8
_U+30EC_U+30A4_U+30E4_U+30FC 1
370
     0
100
AcDbVertex
100
AcDb2dVertex
 10
112.5609157704709
 20
-142.6731173688456
 30
0.0
  0
VERTEX
  5
6E
330
69
100
AcDbEntity
  8
_U+30EC_U+30A4_U+30E4_U+30FC 1
370
     0
100
AcDbVertex
100
AcDb2dVertex
 10
112.5609157704709
 20
-142.9249538488174
 30
0.0
  0
SEQEND
  5
6F
330
69
100
AcDbEntity
  8
_U+30EC_U+30A4_U+30E4_U+30FC 1
370
     0
  0
HATCH
  5
70
330
63
100
AcDbEntity
  8
_U+30EC_U+30A4_U+30E4_U+30FC 1
 62
   179
420
  2234388
100
AcDbHatch
 10
0.0
 20
0.0
 30
0.0
210
0.0
220
0.0
230
1.0
  2
SOLID
 70
     1
 71
     0
 91
        1
 92
        1
 93
        4
 72
     1
 10
112.5609157704709
 20
-142.9249538488174
 11
112.3090792904991
 21
-142.9249538488174
 72
     1
 10
112.3090792904991
 20
-142.9249538488174
 11
112.3090792904991
 21
-142.6731173688456
 72
     1
 10
112.3090792904991
 20
-142.6731173688456
 11
112.5609157704709
 21
-142.6731173688456
 72
     1
 10
112.5609157704709
 20
-142.6731173688456
 11
112.5609157704709
 21
-142.9249538488174
 97
        0
 75
     2
 76
     1
 98
        0
  0
SPLINE
  5
71
330
63
100
AcDbEntity
  8
_U+30EC_U+30A4_U+30E4_U+30FC 1
370
     0
100
AcDbSpline
210
0.0
220
0.0
230
1.0
 70
    11
 71
     3
 72
    53
 73
    49
 74
     0
 42
0.0000000001
 43
0.0000000001
 12
1.0
 22
0.0
 32
0.0
 13
1.0
 23
0.0
 33
0.0
 40
0.0
 40
0.0
 40
0.0
 40
0.0
 40
1.0
 40
1.0
 40
1.0
 40
2.0
 40
2.0
 40
2.0
 40
3.0
 40
3.0
 40
3.0
 40
4.0
 40
4.0
 40
4.0
 40
5.0
 40
5.0
 40
5.0
 40
6.0
 40
6.0
 40
6.0
 40
7.0
 40
7.0
 40
7.0
 40
8.0
 40
8.0
 40
8.0
 40
9.0
 40
9.0
 40
9.0
 40
10.0
 40
10.0
 40
10.0
 40
11.0
 40
11.0
 40
11.0
 40
12.0
 40
12.0
 40
12.0
 40
13.0
 40
13.0
 40
13.0
 40
14.0
 40
14.0
 40
14.0
 40
15.0
 40
15.0
 40
15.0
 40
16.0
 40
16.0
 40
16.0
 40
16.0
 10
112.6115586741041
 20
-141.9558484888166
 30
0.0
 10
112.6115586741041
 20
-142.0340521563318
 30
0.0
 10
112.5946777062263
 20
-142.1356824731466
 30
0.0
 10
112.5312879492977
 20
-142.2373127899615
 30
0.0
 10
112.4210448937697
 20
-142.4106010928696
 30
0.0
 10
112.2901312653302
 20
-142.4319606848781
 30
0.0
 10
112.1822997766419
 20
-142.450908710047
 30
0.0
 10
112.1822997766419
 20
-142.450908710047
 30
0.0
 10
112.1822997766419
 20
-142.2287000512484
 30
0.0
 10
112.1822997766419
 20
-142.2287000512484
 30
0.0
 10
112.3810817861408
 20
-142.1739230330329
 30
0.0
 10
112.410709607314
 20
-142.0467990096272
 30
0.0
 10
112.410709607314
 20
-141.9537814315254
 30
0.0
 10
112.410709607314
 20
-141.8142550643728
 30
0.0
 10
112.3111463477903
 20
-141.6619818439248
 30
0.0
 10
112.0786024025359
 20
-141.6619818439248
 30
0.0
 10
111.8226318079818
 20
-141.6619818439248
 30
0.0
 10
111.7526963696313
 20
-141.8418158282548
 30
0.0
 10
111.7526963696313
 20
-141.9623941702386
 30
0.0
 10
111.7526963696313
 20
-141.9940890487029
 30
0.0
 10
111.7526963696313
 20
-142.1356824731466
 30
0.0
 10
111.8818874503282
 20
-142.2245659366661
 30
0.0
 10
111.8818874503282
 20
-142.2245659366661
 30
0.0
 10
111.8625949156107
 20
-142.4002658064138
 30
0.0
 10
111.8625949156107
 20
-142.4002658064138
 30
0.0
 10
111.8625949156107
 20
-142.4002658064138
 30
0.0
 10
111.0164794644334
 20
-142.2796874644301
 30
0.0
 10
111.0164794644334
 20
-142.2796874644301
 30
0.0
 10
111.0164794644334
 20
-142.2796874644301
 30
0.0
 10
111.0164794644334
 20
-141.5010958847636
 30
0.0
 10
111.0164794644334
 20
-141.5010958847636
 30
0.0
 10
111.0164794644334
 20
-141.5010958847636
 30
0.0
 10
111.21112735935
 20
-141.5010958847636
 30
0.0
 10
111.21112735935
 20
-141.5010958847636
 30
0.0
 10
111.21112735935
 20
-141.5010958847636
 30
0.0
 10
111.21112735935
 20
-142.1167344479778
 30
0.0
 10
111.21112735935
 20
-142.1167344479778
 30
0.0
 10
111.21112735935
 20
-142.1167344479778
 30
0.0
 10
111.6341850849387
 20
-142.1821912621975
 30
0.0
 10
111.6341850849387
 20
-142.1821912621975
 30
0.0
 10
111.6004231491832
 20
-142.1208685625601
 30
0.0
 10
111.5601155320058
 20
-142.0385307804626
 30
0.0
 10
111.5601155320058
 20
-141.92001949577
 30
0.0
 10
111.5601155320058
 20
-141.6661159585071
 30
0.0
 10
111.7464951977578
 20
-141.4290933891219
 30
0.0
 10
112.0593098678185
 20
-141.4290933891219
 30
0.0
 10
112.3769476715585
 20
-141.4290933891219
 30
0.0
 10
112.6115586741041
 20
-141.6533691052117
 30
0.0
 10
112.6115586741041
 20
-141.9558484888166
 30
0.0
  0
HATCH
  5
72
330
63
100
AcDbEntity
  8
_U+30EC_U+30A4_U+30E4_U+30FC 1
 62
   179
420
  2234388
100
AcDbHatch
 10
0.0
 20
0.0
 30
0.0
210
0.0
220
0.0
230
1.0
  2
SOLID
 70
     1
 71
     0
 91
        1
 92
        1
 93
        1
 72
     4
 94
        3
 73
     0
 74
     1
 95
       53
 96
       49
 40
0.0
 40
0.0
 40
0.0
 40
0.0
 40
1.0
 40
1.0
 40
1.0
 40
2.0
 40
2.0
 40
2.0
 40
3.0
 40
3.0
 40
3.0
 40
4.0
 40
4.0
 40
4.0
 40
5.0
 40
5.0
 40
5.0
 40
6.0
 40
6.0
 40
6.0
 40
7.0
 40
7.0
 40
7.0
 40
8.0
 40
8.0
 40
8.0
 40
9.0
 40
9.0
 40
9.0
 40
10.0
 40
10.0
 40
10.0
 40
11.0
 40
11.0
 40
11.0
 40
12.0
 40
12.0
 40
12.0
 40
13.0
 40
13.0
 40
13.0
 40
14.0
 40
14.0
 40
14.0
 40
15.0
 40
15.0
 40
15.0
 40
16.0
 40
16.0
 40
16.0
 40
16.0
 10
112.6115586741041
 20
-141.9558484888166
 10
112.6115586741041
 20
-142.0340521563318
 10
112.5946777062263
 20
-142.1356824731466
 10
112.5312879492977
 20
-142.2373127899615
 10
112.4210448937697
 20
-142.4106010928696
 10
112.2901312653302
 20
-142.4319606848781
 10
112.1822997766419
 20
-142.450908710047
 10
112.1822997766419
 20
-142.450908710047
 10
112.1822997766419
 20
-142.2287000512484
 10
112.1822997766419
 20
-142.2287000512484
 10
112.3810817861408
 20
-142.1739230330329
 10
112.410709607314
 20
-142.0467990096272
 10
112.410709607314
 20
-141.9537814315254
 10
112.410709607314
 20
-141.8142550643728
 10
112.3111463477903
 20
-141.6619818439248
 10
112.0786024025359
 20
-141.6619818439248
 10
111.8226318079818
 20
-141.6619818439248
 10
111.7526963696313
 20
-141.8418158282548
 10
111.7526963696313
 20
-141.9623941702386
 10
111.7526963696313
 20
-141.9940890487029
 10
111.7526963696313
 20
-142.1356824731466
 10
111.8818874503282
 20
-142.2245659366661
 10
111.8818874503282
 20
-142.2245659366661
 10
111.8625949156107
 20
-142.4002658064138
 10
111.8625949156107
 20
-142.4002658064138
 10
111.8625949156107
 20
-142.4002658064138
 10
111.0164794644334
 20
-142.2796874644301
 10
111.0164794644334
 20
-142.2796874644301
 10
111.0164794644334
 20
-142.2796874644301
 10
111.0164794644334
 20
-141.5010958847636
 10
111.0164794644334
 20
-141.5010958847636
 10
111.0164794644334
 20
-141.5010958847636
 10
111.21112735935
 20
-141.5010958847636
 10
111.21112735935
 20
-141.5010958847636
 10
111.21112735935
 20
-141.5010958847636
 10
111.21112735935
 20
-142.1167344479778
 10
111.21112735935
 20
-142.1167344479778
 10
111.21112735935
 20
-142.1167344479778
 10
111.6341850849387
 20
-142.1821912621975
 10
111.6341850849387
 20
-142.1821912621975
 10
111.6004231491832
 20
-142.1208685625601
 10
111.5601155320058
 20
-142.0385307804626
 10
111.5601155320058
 20
-141.92001949577
 10
111.5601155320058
 20
-141.6661159585071
 10
111.7464951977578
 20
-141.4290933891219
 10
112.0593098678185
 20
-141.4290933891219
 10
112.3769476715585
 20
-141.4290933891219
 10
112.6115586741041
 20
-141.6533691052117
 10
112.6115586741041
 20
-141.9558484888166
 97
        0
 97
        0
 75
     2
 76
     1
 98
        0
  0
ENDBLK
  5
66
330
63
100
AcDbEntity
  8
0
100
AcDbBlockEnd
  0
BLOCK
  5
75
330
73
100
AcDbEntity
  8
0
100
AcDbBlockBegin
  2
block 3
 70
     0
 10
0.0
 20
0.0
 30
0.0
  3
block 3
  1

  0
SPLINE
  5
77
330
73
100
AcDbEntity
  8
_U+30EC_U+30A4_U+30E4_U+30FC 1
370
     0
100
AcDbSpline
210
0.0
220
0.0
230
1.0
 70
    11
 71
     3
 72
    32
 73
    28
 74
     0
 42
0.0000000001
 43
0.0000000001
 12
1.0
 22
0.0
 32
0.0
 13
1.0
 23
0.0
 33
0.0
 40
0.0
 40
0.0
 40
0.0
 40
0.0
 40
1.0
 40
1.0
 40
1.0
 40
2.0
 40
2.0
 40
2.0
 40
3.0
 40
3.0
 40
3.0
 40
4.0
 40
4.0
 40
4.0
 40
5.0
 40
5.0
 40
5.0
 40
6.0
 40
6.0
 40
6.0
 40
7.0
 40
7.0
 40
7.0
 40
8.0
 40
8.0
 40
8.0
 40
9.0
 40
9.0
 40
9.0
 40
9.0
 10
115.49234751887
 20
-150.1090114642089
 30
0.0
 10
115.49234751887
 20
-150.6250867678993
 30
0.0
 10
114.9380316552933
 20
-150.6333549970639
 30
0.0
 10
114.7244357352078
 20
-150.6333549970639
 30
0.0
 10
114.493614337696
 20
-150.6333549970639
 30
0.0
 10
113.8462808960176
 20
-150.614406971895
 30
0.0
 10
113.8462808960176
 20
-150.0707709043226
 30
0.0
 10
113.8462808960176
 20
-149.8974826014145
 30
0.0
 10
113.9162163343682
 20
-149.6518472933162
 30
0.0
 10
114.2483235391463
 20
-149.6139512429785
 30
0.0
 10
114.2483235391463
 20
-149.6139512429785
 30
0.0
 10
114.2483235391463
 20
-149.8275471630639
 30
0.0
 10
114.2483235391463
 20
-149.8275471630639
 30
0.0
 10
114.1911349540911
 20
-149.8382269590682
 30
0.0
 10
114.0429958482254
 20
-149.8699218375325
 30
0.0
 10
114.0429958482254
 20
-150.0728379616137
 30
0.0
 10
114.0429958482254
 20
-150.3649820587629
 30
0.0
 10
114.3709689384212
 20
-150.4049451663918
 30
0.0
 10
114.576296629342
 20
-150.4176920196873
 30
0.0
 10
114.4980929618269
 20
-150.3246744415855
 30
0.0
 10
114.4388373194806
 20
-150.2568060605261
 30
0.0
 10
114.4388373194806
 20
-150.0749050189049
 30
0.0
 10
114.4388373194806
 20
-149.8950710345748
 30
0.0
 10
114.5466688081689
 20
-149.5925916509699
 30
0.0
 10
114.9528455658799
 20
-149.5925916509699
 30
0.0
 10
115.2722059173625
 20
-149.5925916509699
 30
0.0
 10
115.49234751887
 20
-149.7917181700174
 30
0.0
 10
115.49234751887
 20
-150.1090114642089
 30
0.0
  0
SPLINE
  5
78
330
73
100
AcDbEntity
  8
_U+30EC_U+30A4_U+30E4_U+30FC 1
370
     0
100
AcDbSpline
210
0.0
220
0.0
230
1.0
 70
    11
 71
     3
 72
    17
 73
    13
 74
     0
 42
0.0000000001
 43
0.0000000001
 12
1.0
 22
0.0
 32
0.0
 13
1.0
 23
0.0
 33
0.0
 40
0.0
 40
0.0
 40
0.0
 40
0.0
 40
1.0
 40
1.0
 40
1.0
 40
2.0
 40
2.0
 40
2.0
 40
3.0
 40
3.0
 40
3.0
 40
4.0
 40
4.0
 40
4.0
 40
4.0
 10
114.6334852143972
 20
-150.0917859867826
 30
0.0
 10
114.6334852143972
 20
-150.3543022627587
 30
0.0
 10
114.8450140771915
 20
-150.3921983130964
 30
0.0
 10
114.9611137950445
 20
-150.3921983130964
 30
0.0
 10
115.1368136647922
 20
-150.3921983130964
 30
0.0
 10
115.2997666812445
 20
-150.2971136777035
 30
0.0
 10
115.2997666812445
 20
-150.1131455787912
 30
0.0
 10
115.2997666812445
 20
-149.9925672368074
 30
0.0
 10
115.2405110388982
 20
-149.8168673670597
 30
0.0
 10
114.954912623171
 20
-149.8168673670597
 30
0.0
 10
114.7306369070812
 20
-149.8168673670597
 30
0.0
 10
114.6334852143972
 20
-149.9567382437608
 30
0.0
 10
114.6334852143972
 20
-150.0917859867826
 30
0.0
  0
HATCH
  5
79
330
73
100
AcDbEntity
  8
_U+30EC_U+30A4_U+30E4_U+30FC 1
 62
   179
420
  2234388
100
AcDbHatch
 10
0.0
 20
0.0
 30
0.0
210
0.0
220
0.0
230
1.0
  2
SOLID
 70
     1
 71
     0
 91
        2
 92
        1
 93
        1
 72
     4
 94
        3
 73
     0
 74
     1
 95
       32
 96
       28
 40
0.0
 40
0.0
 40
0.0
 40
0.0
 40
1.0
 40
1.0
 40
1.0
 40
2.0
 40
2.0
 40
2.0
 40
3.0
 40
3.0
 40
3.0
 40
4.0
 40
4.0
 40
4.0
 40
5.0
 40
5.0
 40
5.0
 40
6.0
 40
6.0
 40
6.0
 40
7.0
 40
7.0
 40
7.0
 40
8.0
 40
8.0
 40
8.0
 40
9.0
 40
9.0
 40
9.0
 40
9.0
 10
115.49234751887
 20
-150.1090114642089
 10
115.49234751887
 20
-150.6250867678993
 10
114.9380316552933
 20
-150.6333549970639
 10
114.7244357352078
 20
-150.6333549970639
 10
114.493614337696
 20
-150.6333549970639
 10
113.8462808960176
 20
-150.614406971895
 10
113.8462808960176
 20
-150.0707709043226
 10
113.8462808960176
 20
-149.8974826014145
 10
113.9162163343682
 20
-149.6518472933162
 10
114.2483235391463
 20
-149.6139512429785
 10
114.2483235391463
 20
-149.6139512429785
 10
114.2483235391463
 20
-149.8275471630639
 10
114.2483235391463
 20
-149.8275471630639
 10
114.1911349540911
 20
-149.8382269590682
 10
114.0429958482254
 20
-149.8699218375325
 10
114.0429958482254
 20
-150.0728379616137
 10
114.0429958482254
 20
-150.3649820587629
 10
114.3709689384212
 20
-150.4049451663918
 10
114.576296629342
 20
-150.4176920196873
 10
114.4980929618269
 20
-150.3246744415855
 10
114.4388373194806
 20
-150.2568060605261
 10
114.4388373194806
 20
-150.0749050189049
 10
114.4388373194806
 20
-149.8950710345748
 10
114.5466688081689
 20
-149.5925916509699
 10
114.9528455658799
 20
-149.5925916509699
 10
115.2722059173625
 20
-149.5925916509699
 10
115.49234751887
 20
-149.7917181700174
 10
115.49234751887
 20
-150.1090114642089
 97
        0
 97
        0
 92
        1
 93
        1
 72
     4
 94
        3
 73
     0
 74
     1
 95
       17
 96
       13
 40
0.0
 40
0.0
 40
0.0
 40
0.0
 40
1.0
 40
1.0
 40
1.0
 40
2.0
 40
2.0
 40
2.0
 40
3.0
 40
3.0
 40
3.0
 40
4.0
 40
4.0
 40
4.0
 40
4.0
 10
114.6334852143972
 20
-150.0917859867826
 10
114.6334852143972
 20
-150.3543022627587
 10
114.8450140771915
 20
-150.3921983130964
 10
114.9611137950445
 20
-150.3921983130964
 10
115.1368136647922
 20
-150.3921983130964
 10
115.2997666812445
 20
-150.2971136777035
 10
115.2997666812445
 20
-150.1131455787912
 10
115.2997666812445
 20
-149.9925672368074
 10
115.2405110388982
 20
-149.8168673670597
 10
114.954912623171
 20
-149.8168673670597
 10
114.7306369070812
 20
-149.8168673670597
 10
114.6334852143972
 20
-149.9567382437608
 10
114.6334852143972
 20
-150.0917859867826
 97
        0
 97
        0
 75
     2
 76
     1
 98
        0
  0
POLYLINE
  5
7A
330
73
100
AcDbEntity
  8
_U+30EC_U+30A4_U+30E4_U+30FC 1
370
     0
100
AcDb2dPolyline
 66
     1
 10
0.0
 20
0.0
 30
0.0
  0
VERTEX
  5
7B
330
7A
100
AcDbEntity
  8
_U+30EC_U+30A4_U+30E4_U+30FC 1
370
     0
100
AcDbVertex
100
AcDb2dVertex
 10
115.4413601056883
 20
-149.3762396544962
 30
0.0
  0
VERTEX
  5
7C
330
7A
100
AcDbEntity
  8
_U+30EC_U+30A4_U+30E4_U+30FC 1
370
     0
100
AcDbVertex
100
AcDb2dVertex
 10
115.189868135265
 20
-149.3762396544962
 30
0.0
  0
VERTEX
  5
7D
330
7A
100
AcDbEntity
  8
_U+30EC_U+30A4_U+30E4_U+30FC 1
370
     0
100
AcDbVertex
100
AcDb2dVertex
 10
115.189868135265
 20
-149.1244031745245
 30
0.0
  0
VERTEX
  5
7E
330
7A
100
AcDbEntity
  8
_U+30EC_U+30A4_U+30E4_U+30FC 1
370
     0
100
AcDbVertex
100
AcDb2dVertex
 10
115.4413601056883
 20
-149.1244031745245
 30
0.0
  0
VERTEX
  5
7F
330
7A
100
AcDbEntity
  8
_U+30EC_U+30A4_U+30E4_U+30FC 1
370
     0
100
AcDbVertex
100
AcDb2dVertex
 10
115.4413601056883
 20
-149.3762396544962
 30
0.0
  0
SEQEND
  5
80
330
7A
100
AcDbEntity
  8
_U+30EC_U+30A4_U+30E4_U+30FC 1
370
     0
  0
HATCH
  5
81
330
73
100
AcDbEntity
  8
_U+30EC_U+30A4_U+30E4_U+30FC 1
 62
   179
420
  2234388
100
AcDbHatch
 10
0.0
 20
0.0
 30
0.0
210
0.0
220
0.0
230
1.0
  2
SOLID
 70
     1
 71
     0
 91
        1
 92
        1
 93
        4
 72
     1
 10
115.4413601056883
 20
-149.3762396544962
 11
115.189868135265
 21
-149.3762396544962
 72
     1
 10
115.189868135265
 20
-149.3762396544962
 11
115.189868135265
 21
-149.1244031745245
 72
     1
 10
115.189868135265
 20
-149.1244031745245
 11
115.4413601056883
 21
-149.1244031745245
 72
     1
 10
115.4413601056883
 20
-149.1244031745245
 11
115.4413601056883
 21
-149.3762396544962
 97
        0
 75
     2
 76
     1
 98
        0
  0
SPLINE
  5
82
330
73
100
AcDbEntity
  8
_U+30EC_U+30A4_U+30E4_U+30FC 1
370
     0
100
AcDbSpline
210
0.0
220
0.0
230
1.0
 70
    11
 71
     3
 72
    53
 73
    49
 74
     0
 42
0.0000000001
 43
0.0000000001
 12
1.0
 22
0.0
 32
0.0
 13
1.0
 23
0.0
 33
0.0
 40
0.0
 40
0.0
 40
0.0
 40
0.0
 40
1.0
 40
1.0
 40
1.0
 40
2.0
 40
2.0
 40
2.0
 40
3.0
 40
3.0
 40
3.0
 40
4.0
 40
4.0
 40
4.0
 40
5.0
 40
5.0
 40
5.0
 40
6.0
 40
6.0
 40
6.0
 40
7.0
 40
7.0
 40
7.0
 40
8.0
 40
8.0
 40
8.0
 40
9.0
 40
9.0
 40
9.0
 40
10.0
 40
10.0
 40
10.0
 40
11.0
 40
11.0
 40
11.0
 40
12.0
 40
12.0
 40
12.0
 40
13.0
 40
13.0
 40
13.0
 40
14.0
 40
14.0
 40
14.0
 40
15.0
 40
15.0
 40
15.0
 40
16.0
 40
16.0
 40
16.0
 40
16.0
 10
115.49234751887
 20
-148.4071342944954
 30
0.0
 10
115.49234751887
 20
-148.4853379620106
 30
0.0
 10
115.4754665509923
 20
-148.5869682788255
 30
0.0
 10
115.4117322845151
 20
-148.6885985956403
 30
0.0
 10
115.3018337385357
 20
-148.8618868985484
 30
0.0
 10
115.1705756005476
 20
-148.883246490557
 30
0.0
 10
115.0627441118593
 20
-148.9021945157259
 30
0.0
 10
115.0627441118593
 20
-148.9021945157259
 30
0.0
 10
115.0627441118593
 20
-148.6799858569272
 30
0.0
 10
115.0627441118593
 20
-148.6799858569272
 30
0.0
 10
115.2615261213582
 20
-148.6252088387118
 30
0.0
 10
115.2911539425314
 20
-148.498084815306
 30
0.0
 10
115.2911539425314
 20
-148.4050672372043
 30
0.0
 10
115.2911539425314
 20
-148.2655408700517
 30
0.0
 10
115.1919351925562
 20
-148.1132676496036
 30
0.0
 10
114.9590467377533
 20
-148.1132676496036
 30
0.0
 10
114.7030761431992
 20
-148.1132676496036
 30
0.0
 10
114.6334852143972
 20
-148.2931016339337
 30
0.0
 10
114.6334852143972
 20
-148.4136799759174
 30
0.0
 10
114.6334852143972
 20
-148.4453748543817
 30
0.0
 10
114.6334852143972
 20
-148.5869682788255
 30
0.0
 10
114.7623317855455
 20
-148.6758517423449
 30
0.0
 10
114.7623317855455
 20
-148.6758517423449
 30
0.0
 10
114.7433837603767
 20
-148.8515516120927
 30
0.0
 10
114.7433837603767
 20
-148.8515516120927
 30
0.0
 10
114.7433837603767
 20
-148.8515516120927
 30
0.0
 10
113.8972683091993
 20
-148.7309732701089
 30
0.0
 10
113.8972683091993
 20
-148.7309732701089
 30
0.0
 10
113.8972683091993
 20
-148.7309732701089
 30
0.0
 10
113.8972683091993
 20
-147.9523816904425
 30
0.0
 10
113.8972683091993
 20
-147.9523816904425
 30
0.0
 10
113.8972683091993
 20
-147.9523816904425
 30
0.0
 10
114.0919162041159
 20
-147.9523816904425
 30
0.0
 10
114.0919162041159
 20
-147.9523816904425
 30
0.0
 10
114.0919162041159
 20
-147.9523816904425
 30
0.0
 10
114.0919162041159
 20
-148.5680202536566
 30
0.0
 10
114.0919162041159
 20
-148.5680202536566
 30
0.0
 10
114.0919162041159
 20
-148.5680202536566
 30
0.0
 10
114.5149739297046
 20
-148.6334770678764
 30
0.0
 10
114.5149739297046
 20
-148.6334770678764
 30
0.0
 10
114.4808674844006
 20
-148.5721543682389
 30
0.0
 10
114.4409043767717
 20
-148.4898165861414
 30
0.0
 10
114.4409043767717
 20
-148.3713053014488
 30
0.0
 10
114.4409043767717
 20
-148.1174017641859
 30
0.0
 10
114.6269395329752
 20
-147.8803791948008
 30
0.0
 10
114.9400987125844
 20
-147.8803791948008
 30
0.0
 10
115.2573920067759
 20
-147.8803791948008
 30
0.0
 10
115.49234751887
 20
-148.1046549108905
 30
0.0
 10
115.49234751887
 20
-148.4071342944954
 30
0.0
  0
HATCH
  5
83
330
73
100
AcDbEntity
  8
_U+30EC_U+30A4_U+30E4_U+30FC 1
 62
   179
420
  2234388
100
AcDbHatch
 10
0.0
 20
0.0
 30
0.0
210
0.0
220
0.0
230
1.0
  2
SOLID
 70
     1
 71
     0
 91
        1
 92
        1
 93
        1
 72
     4
 94
        3
 73
     0
 74
     1
 95
       53
 96
       49
 40
0.0
 40
0.0
 40
0.0
 40
0.0
 40
1.0
 40
1.0
 40
1.0
 40
2.0
 40
2.0
 40
2.0
 40
3.0
 40
3.0
 40
3.0
 40
4.0
 40
4.0
 40
4.0
 40
5.0
 40
5.0
 40
5.0
 40
6.0
 40
6.0
 40
6.0
 40
7.0
 40
7.0
 40
7.0
 40
8.0
 40
8.0
 40
8.0
 40
9.0
 40
9.0
 40
9.0
 40
10.0
 40
10.0
 40
10.0
 40
11.0
 40
11.0
 40
11.0
 40
12.0
 40
12.0
 40
12.0
 40
13.0
 40
13.0
 40
13.0
 40
14.0
 40
14.0
 40
14.0
 40
15.0
 40
15.0
 40
15.0
 40
16.0
 40
16.0
 40
16.0
 40
16.0
 10
115.49234751887
 20
-148.4071342944954
 10
115.49234751887
 20
-148.4853379620106
 10
115.4754665509923
 20
-148.5869682788255
 10
115.4117322845151
 20
-148.6885985956403
 10
115.3018337385357
 20
-148.8618868985484
 10
115.1705756005476
 20
-148.883246490557
 10
115.0627441118593
 20
-148.9021945157259
 10
115.0627441118593
 20
-148.9021945157259
 10
115.0627441118593
 20
-148.6799858569272
 10
115.0627441118593
 20
-148.6799858569272
 10
115.2615261213582
 20
-148.6252088387118
 10
115.2911539425314
 20
-148.498084815306
 10
115.2911539425314
 20
-148.4050672372043
 10
115.2911539425314
 20
-148.2655408700517
 10
115.1919351925562
 20
-148.1132676496036
 10
114.9590467377533
 20
-148.1132676496036
 10
114.7030761431992
 20
-148.1132676496036
 10
114.6334852143972
 20
-148.2931016339337
 10
114.6334852143972
 20
-148.4136799759174
 10
114.6334852143972
 20
-148.4453748543817
 10
114.6334852143972
 20
-148.5869682788255
 10
114.7623317855455
 20
-148.6758517423449
 10
114.7623317855455
 20
-148.6758517423449
 10
114.7433837603767
 20
-148.8515516120927
 10
114.7433837603767
 20
-148.8515516120927
 10
114.7433837603767
 20
-148.8515516120927
 10
113.8972683091993
 20
-148.7309732701089
 10
113.8972683091993
 20
-148.7309732701089
 10
113.8972683091993
 20
-148.7309732701089
 10
113.8972683091993
 20
-147.9523816904425
 10
113.8972683091993
 20
-147.9523816904425
 10
113.8972683091993
 20
-147.9523816904425
 10
114.0919162041159
 20
-147.9523816904425
 10
114.0919162041159
 20
-147.9523816904425
 10
114.0919162041159
 20
-147.9523816904425
 10
114.0919162041159
 20
-148.5680202536566
 10
114.0919162041159
 20
-148.5680202536566
 10
114.0919162041159
 20
-148.5680202536566
 10
114.5149739297046
 20
-148.6334770678764
 10
114.5149739297046
 20
-148.6334770678764
 10
114.4808674844006
 20
-148.5721543682389
 10
114.4409043767717
 20
-148.4898165861414
 10
114.4409043767717
 20
-148.3713053014488
 10
114.4409043767717
 20
-148.1174017641859
 10
114.6269395329752
 20
-147.8803791948008
 10
114.9400987125844
 20
-147.8803791948008
 10
115.2573920067759
 20
-147.8803791948008
 10
115.49234751887
 20
-148.1046549108905
 10
115.49234751887
 20
-148.4071342944954
 97
        0
 97
        0
 75
     2
 76
     1
 98
        0
  0
ENDBLK
  5
76
330
73
100
AcDbEntity
  8
0
100
AcDbBlockEnd
  0
BLOCK
  5
86
330
84
100
AcDbEntity
  8
0
100
AcDbBlockBegin
  2
block 4
 70
     0
 10
0.0
 20
0.0
 30
0.0
  3
block 4
  1

  0
SPLINE
  5
88
330
84
100
AcDbEntity
  8
_U+30EC_U+30A4_U+30E4_U+30FC 1
370
     0
100
AcDbSpline
210
0.0
220
0.0
230
1.0
 70
    11
 71
     3
 72
    26
 73
    22
 74
     0
 42
0.0000000001
 43
0.0000000001
 12
1.0
 22
0.0
 32
0.0
 13
1.0
 23
0.0
 33
0.0
 40
0.0
 40
0.0
 40
0.0
 40
0.0
 40
1.0
 40
1.0
 40
1.0
 40
2.0
 40
2.0
 40
2.0
 40
3.0
 40
3.0
 40
3.0
 40
4.0
 40
4.0
 40
4.0
 40
5.0
 40
5.0
 40
5.0
 40
6.0
 40
6.0
 40
6.0
 40
7.0
 40
7.0
 40
7.0
 40
7.0
 10
112.7955267730164
 20
-154.6279432122111
 30
0.0
 10
112.7955267730164
 20
-154.6279432122111
 30
0.0
 10
111.6913736699938
 20
-154.6279432122111
 30
0.0
 10
111.6913736699938
 20
-154.6279432122111
 30
0.0
 10
111.6913736699938
 20
-154.6279432122111
 30
0.0
 10
111.6913736699938
 20
-154.957983359698
 30
0.0
 10
111.6913736699938
 20
-154.957983359698
 30
0.0
 10
111.6913736699938
 20
-154.957983359698
 30
0.0
 10
111.5432345641281
 20
-154.957983359698
 30
0.0
 10
111.5432345641281
 20
-154.957983359698
 30
0.0
 10
111.5284206535415
 20
-154.6258761549199
 30
0.0
 10
111.3654676370892
 20
-154.579367365869
 30
0.0
 10
111.2514349765274
 20
-154.5497395446959
 30
0.0
 10
111.2514349765274
 20
-154.5497395446959
 30
0.0
 10
111.2514349765274
 20
-154.4036674961213
 30
0.0
 10
111.2514349765274
 20
-154.4036674961213
 30
0.0
 10
111.2514349765274
 20
-154.4036674961213
 30
0.0
 10
112.7955267730164
 20
-154.4036674961213
 30
0.0
 10
112.7955267730164
 20
-154.4036674961213
 30
0.0
 10
112.7955267730164
 20
-154.4036674961213
 30
0.0
 10
112.7955267730164
 20
-154.6279432122111
 30
0.0
 10
112.7955267730164
 20
-154.6279432122111
 30
0.0
  0
HATCH
  5
89
330
84
100
AcDbEntity
  8
_U+30EC_U+30A4_U+30E4_U+30FC 1
 62
   179
420
  2234388
100
AcDbHatch
 10
0.0
 20
0.0
 30
0.0
210
0.0
220
0.0
230
1.0
  2
SOLID
 70
     1
 71
     0
 91
        1
 92
        1
 93
        1
 72
     4
 94
        3
 73
     0
 74
     1
 95
       26
 96
       22
 40
0.0
 40
0.0
 40
0.0
 40
0.0
 40
1.0
 40
1.0
 40
1.0
 40
2.0
 40
2.0
 40
2.0
 40
3.0
 40
3.0
 40
3.0
 40
4.0
 40
4.0
 40
4.0
 40
5.0
 40
5.0
 40
5.0
 40
6.0
 40
6.0
 40
6.0
 40
7.0
 40
7.0
 40
7.0
 40
7.0
 10
112.7955267730164
 20
-154.6279432122111
 10
112.7955267730164
 20
-154.6279432122111
 10
111.6913736699938
 20
-154.6279432122111
 10
111.6913736699938
 20
-154.6279432122111
 10
111.6913736699938
 20
-154.6279432122111
 10
111.6913736699938
 20
-154.957983359698
 10
111.6913736699938
 20
-154.957983359698
 10
111.6913736699938
 20
-154.957983359698
 10
111.5432345641281
 20
-154.957983359698
 10
111.5432345641281
 20
-154.957983359698
 10
111.5284206535415
 20
-154.6258761549199
 10
111.3654676370892
 20
-154.579367365869
 10
111.2514349765274
 20
-154.5497395446959
 10
111.2514349765274
 20
-154.5497395446959
 10
111.2514349765274
 20
-154.4036674961213
 10
111.2514349765274
 20
-154.4036674961213
 10
111.2514349765274
 20
-154.4036674961213
 10
112.7955267730164
 20
-154.4036674961213
 10
112.7955267730164
 20
-154.4036674961213
 10
112.7955267730164
 20
-154.4036674961213
 10
112.7955267730164
 20
-154.6279432122111
 10
112.7955267730164
 20
-154.6279432122111
 97
        0
 97
        0
 75
     2
 76
     1
 98
        0
  0
ENDBLK
  5
87
330
84
100
AcDbEntity
  8
0
100
AcDbBlockEnd
  0
BLOCK
  5
94
330
92
100
AcDbEntity
  8
0
100
AcDbBlockBegin
  2
block 5
 70
     0
 10
0.0
 20
0.0
 30
0.0
  3
block 5
  1

  0
SPLINE
  5
96
330
92
100
AcDbEntity
  8
_U+30EC_U+30A4_U+30E4_U+30FC 1
370
     0
100
AcDbSpline
210
0.0
220
0.0
230
1.0
 70
    11
 71
     3
 72
    62
 73
    58
 74
     0
 42
0.0000000001
 43
0.0000000001
 12
1.0
 22
0.0
 32
0.0
 13
1.0
 23
0.0
 33
0.0
 40
0.0
 40
0.0
 40
0.0
 40
0.0
 40
1.0
 40
1.0
 40
1.0
 40
2.0
 40
2.0
 40
2.0
 40
3.0
 40
3.0
 40
3.0
 40
4.0
 40
4.0
 40
4.0
 40
5.0
 40
5.0
 40
5.0
 40
6.0
 40
6.0
 40
6.0
 40
7.0
 40
7.0
 40
7.0
 40
8.0
 40
8.0
 40
8.0
 40
9.0
 40
9.0
 40
9.0
 40
10.0
 40
10.0
 40
10.0
 40
11.0
 40
11.0
 40
11.0
 40
12.0
 40
12.0
 40
12.0
 40
13.0
 40
13.0
 40
13.0
 40
14.0
 40
14.0
 40
14.0
 40
15.0
 40
15.0
 40
15.0
 40
16.0
 40
16.0
 40
16.0
 40
17.0
 40
17.0
 40
17.0
 40
18.0
 40
18.0
 40
18.0
 40
19.0
 40
19.0
 40
19.0
 40
19.0
 10
95.64549693789418
 20
-140.410723163682
 30
0.0
 10
95.55006779295276
 20
-140.410723163682
 30
0.0
 10
95.33233775828498
 20
-140.3895358264478
 30
0.0
 10
95.20728079217041
 20
-140.20332841547
 30
0.0
 10
95.13355574878607
 20
-140.0911905574251
 30
0.0
 10
95.12907712465524
 20
-139.9917995526757
 30
0.0
 10
95.12494301007294
 20
-139.9072224585128
 30
0.0
 10
95.12494301007294
 20
-139.9072224585128
 30
0.0
 10
95.3450846115804
 20
-139.9072224585128
 30
0.0
 10
95.3450846115804
 20
-139.9072224585128
 30
0.0
 10
95.34715166887155
 20
-139.9812920114456
 30
0.0
 10
95.3574869553273
 20
-140.2160752687654
 30
0.0
 10
95.64101831376335
 20
-140.2160752687654
 30
0.0
 10
95.77847762362482
 20
-140.2160752687654
 30
0.0
 10
95.9310953536214
 20
-140.1463120851891
 30
0.0
 10
95.9310953536214
 20
-139.9177299997428
 30
0.0
 10
95.9310953536214
 20
-139.8014580271156
 30
0.0
 10
95.89285479373513
 20
-139.7527099259993
 30
0.0
 10
95.86115991527083
 20
-139.721015047535
 30
0.0
 10
95.78709036233795
 20
-139.6469454946022
 30
0.0
 10
95.6706461349365
 20
-139.634370896081
 30
0.0
 10
95.61586911672104
 20
-139.634370896081
 30
0.0
 10
95.59657658200364
 20
-139.634370896081
 30
0.0
 10
95.56074758895704
 20
-139.6364379533721
 30
0.0
 10
95.53318682507503
 20
-139.6405720679545
 30
0.0
 10
95.53318682507503
 20
-139.6405720679545
 30
0.0
 10
95.53318682507503
 20
-139.4459241730378
 30
0.0
 10
95.53318682507503
 20
-139.4459241730378
 30
0.0
 10
95.57142738496131
 20
-139.4522975996856
 30
0.0
 10
95.61345754988136
 20
-139.4545369117509
 30
0.0
 10
95.62000323130334
 20
-139.4545369117509
 30
0.0
 10
95.68546004552309
 20
-139.4545369117509
 30
0.0
 10
95.884242055022
 20
-139.4333495745167
 30
0.0
 10
95.884242055022
 20
-139.1963270051315
 30
0.0
 10
95.884242055022
 20
-139.0187323328668
 30
0.0
 10
95.7533284265825
 20
-138.9636108051029
 30
0.0
 10
95.64308537105451
 20
-138.9636108051029
 30
0.0
 10
95.37884654733585
 20
-138.9636108051029
 30
0.0
 10
95.37023380862273
 20
-139.1963270051315
 30
0.0
 10
95.36609969404043
 20
-139.2683295007732
 30
0.0
 10
95.36609969404043
 20
-139.2683295007732
 30
0.0
 10
95.16283906041069
 20
-139.2683295007732
 30
0.0
 10
95.16283906041069
 20
-139.2683295007732
 30
0.0
 10
95.1714517991238
 20
-139.1434447894329
 30
0.0
 10
95.19901256300581
 20
-138.7668958528951
 30
0.0
 10
95.65583222434994
 20
-138.7668958528951
 30
0.0
 10
95.8801079404397
 20
-138.7668958528951
 30
0.0
 10
96.12126462440719
 20
-138.8938476215265
 30
0.0
 10
96.12126462440719
 20
-139.1899535784838
 30
0.0
 10
96.12126462440719
 20
-139.3761609894615
 30
0.0
 10
96.0261799890143
 20
-139.4586710263333
 30
0.0
 10
95.92661672949058
 20
-139.5199937259707
 30
0.0
 10
95.98793942912802
 20
-139.5475544898527
 30
0.0
 10
96.16984047074921
 20
-139.6279974694333
 30
0.0
 10
96.16984047074921
 20
-139.9051554012216
 30
0.0
 10
96.16984047074921
 20
-140.2436360326474
 30
0.0
 10
95.92248261490828
 20
-140.410723163682
 30
0.0
 10
95.64549693789418
 20
-140.410723163682
 30
0.0
  0
HATCH
  5
97
330
92
100
AcDbEntity
  8
_U+30EC_U+30A4_U+30E4_U+30FC 1
 62
   179
420
  2234388
100
AcDbHatch
 10
0.0
 20
0.0
 30
0.0
210
0.0
220
0.0
230
1.0
  2
SOLID
 70
     1
 71
     0
 91
        1
 92
        1
 93
        1
 72
     4
 94
        3
 73
     0
 74
     1
 95
       62
 96
       58
 40
0.0
 40
0.0
 40
0.0
 40
0.0
 40
1.0
 40
1.0
 40
1.0
 40
2.0
 40
2.0
 40
2.0
 40
3.0
 40
3.0
 40
3.0
 40
4.0
 40
4.0
 40
4.0
 40
5.0
 40
5.0
 40
5.0
 40
6.0
 40
6.0
 40
6.0
 40
7.0
 40
7.0
 40
7.0
 40
8.0
 40
8.0
 40
8.0
 40
9.0
 40
9.0
 40
9.0
 40
10.0
 40
10.0
 40
10.0
 40
11.0
 40
11.0
 40
11.0
 40
12.0
 40
12.0
 40
12.0
 40
13.0
 40
13.0
 40
13.0
 40
14.0
 40
14.0
 40
14.0
 40
15.0
 40
15.0
 40
15.0
 40
16.0
 40
16.0
 40
16.0
 40
17.0
 40
17.0
 40
17.0
 40
18.0
 40
18.0
 40
18.0
 40
19.0
 40
19.0
 40
19.0
 40
19.0
 10
95.64549693789418
 20
-140.410723163682
 10
95.55006779295276
 20
-140.410723163682
 10
95.33233775828498
 20
-140.3895358264478
 10
95.20728079217041
 20
-140.20332841547
 10
95.13355574878607
 20
-140.0911905574251
 10
95.12907712465524
 20
-139.9917995526757
 10
95.12494301007294
 20
-139.9072224585128
 10
95.12494301007294
 20
-139.9072224585128
 10
95.3450846115804
 20
-139.9072224585128
 10
95.3450846115804
 20
-139.9072224585128
 10
95.34715166887155
 20
-139.9812920114456
 10
95.3574869553273
 20
-140.2160752687654
 10
95.64101831376335
 20
-140.2160752687654
 10
95.77847762362482
 20
-140.2160752687654
 10
95.9310953536214
 20
-140.1463120851891
 10
95.9310953536214
 20
-139.9177299997428
 10
95.9310953536214
 20
-139.8014580271156
 10
95.89285479373513
 20
-139.7527099259993
 10
95.86115991527083
 20
-139.721015047535
 10
95.78709036233795
 20
-139.6469454946022
 10
95.6706461349365
 20
-139.634370896081
 10
95.61586911672104
 20
-139.634370896081
 10
95.59657658200364
 20
-139.634370896081
 10
95.56074758895704
 20
-139.6364379533721
 10
95.53318682507503
 20
-139.6405720679545
 10
95.53318682507503
 20
-139.6405720679545
 10
95.53318682507503
 20
-139.4459241730378
 10
95.53318682507503
 20
-139.4459241730378
 10
95.57142738496131
 20
-139.4522975996856
 10
95.61345754988136
 20
-139.4545369117509
 10
95.62000323130334
 20
-139.4545369117509
 10
95.68546004552309
 20
-139.4545369117509
 10
95.884242055022
 20
-139.4333495745167
 10
95.884242055022
 20
-139.1963270051315
 10
95.884242055022
 20
-139.0187323328668
 10
95.7533284265825
 20
-138.9636108051029
 10
95.64308537105451
 20
-138.9636108051029
 10
95.37884654733585
 20
-138.9636108051029
 10
95.37023380862273
 20
-139.1963270051315
 10
95.36609969404043
 20
-139.2683295007732
 10
95.36609969404043
 20
-139.2683295007732
 10
95.16283906041069
 20
-139.2683295007732
 10
95.16283906041069
 20
-139.2683295007732
 10
95.1714517991238
 20
-139.1434447894329
 10
95.19901256300581
 20
-138.7668958528951
 10
95.65583222434994
 20
-138.7668958528951
 10
95.8801079404397
 20
-138.7668958528951
 10
96.12126462440719
 20
-138.8938476215265
 10
96.12126462440719
 20
-139.1899535784838
 10
96.12126462440719
 20
-139.3761609894615
 10
96.0261799890143
 20
-139.4586710263333
 10
95.92661672949058
 20
-139.5199937259707
 10
95.98793942912802
 20
-139.5475544898527
 10
96.16984047074921
 20
-139.6279974694333
 10
96.16984047074921
 20
-139.9051554012216
 10
96.16984047074921
 20
-140.2436360326474
 10
95.92248261490828
 20
-140.410723163682
 10
95.64549693789418
 20
-140.410723163682
 97
        0
 97
        0
 75
     2
 76
     1
 98
        0
  0
ENDBLK
  5
95
330
92
100
AcDbEntity
  8
0
100
AcDbBlockEnd
  0
BLOCK
  5
9A
330
98
100
AcDbEntity
  8
0
100
AcDbBlockBegin
  2
block 6
 70
     0
 10
0.0
 20
0.0
 30
0.0
  3
block 6
  1

  0
SPLINE
  5
9C
330
98
100
AcDbEntity
  8
_U+30EC_U+30A4_U+30E4_U+30FC 1
370
     0
100
AcDbSpline
210
0.0
220
0.0
230
1.0
 70
    11
 71
     3
 72
    26
 73
    22
 74
     0
 42
0.0000000001
 43
0.0000000001
 12
1.0
 22
0.0
 32
0.0
 13
1.0
 23
0.0
 33
0.0
 40
0.0
 40
0.0
 40
0.0
 40
0.0
 40
1.0
 40
1.0
 40
1.0
 40
2.0
 40
2.0
 40
2.0
 40
3.0
 40
3.0
 40
3.0
 40
4.0
 40
4.0
 40
4.0
 40
5.0
 40
5.0
 40
5.0
 40
6.0
 40
6.0
 40
6.0
 40
7.0
 40
7.0
 40
7.0
 40
7.0
 10
101.0746229130994
 20
-158.6859211842869
 30
0.0
 10
101.0746229130994
 20
-158.6859211842869
 30
0.0
 10
101.0746229130994
 20
-157.5814235717158
 30
0.0
 10
101.0746229130994
 20
-157.5814235717158
 30
0.0
 10
101.0746229130994
 20
-157.5814235717158
 30
0.0
 10
100.7445827656125
 20
-157.5814235717158
 30
0.0
 10
100.7445827656125
 20
-157.5814235717158
 30
0.0
 10
100.7445827656125
 20
-157.5814235717158
 30
0.0
 10
100.7445827656125
 20
-157.43328446585
 30
0.0
 10
100.7445827656125
 20
-157.43328446585
 30
0.0
 10
101.0766899703906
 20
-157.418815064812
 30
0.0
 10
101.1231987594414
 20
-157.2558620483597
 30
0.0
 10
101.1528265806146
 20
-157.1414848782494
 30
0.0
 10
101.1528265806146
 20
-157.1414848782494
 30
0.0
 10
101.2988986291892
 20
-157.1414848782494
 30
0.0
 10
101.2988986291892
 20
-157.1414848782494
 30
0.0
 10
101.2988986291892
 20
-157.1414848782494
 30
0.0
 10
101.2988986291892
 20
-158.6859211842869
 30
0.0
 10
101.2988986291892
 20
-158.6859211842869
 30
0.0
 10
101.2988986291892
 20
-158.6859211842869
 30
0.0
 10
101.0746229130994
 20
-158.6859211842869
 30
0.0
 10
101.0746229130994
 20
-158.6859211842869
 30
0.0
  0
HATCH
  5
9D
330
98
100
AcDbEntity
  8
_U+30EC_U+30A4_U+30E4_U+30FC 1
 62
   179
420
  2234388
100
AcDbHatch
 10
0.0
 20
0.0
 30
0.0
210
0.0
220
0.0
230
1.0
  2
SOLID
 70
     1
 71
     0
 91
        1
 92
        1
 93
        1
 72
     4
 94
        3
 73
     0
 74
     1
 95
       26
 96
       22
 40
0.0
 40
0.0
 40
0.0
 40
0.0
 40
1.0
 40
1.0
 40
1.0
 40
2.0
 40
2.0
 40
2.0
 40
3.0
 40
3.0
 40
3.0
 40
4.0
 40
4.0
 40
4.0
 40
5.0
 40
5.0
 40
5.0
 40
6.0
 40
6.0
 40
6.0
 40
7.0
 40
7.0
 40
7.0
 40
7.0
 10
101.0746229130994
 20
-158.6859211842869
 10
101.0746229130994
 20
-158.6859211842869
 10
101.0746229130994
 20
-157.5814235717158
 10
101.0746229130994
 20
-157.5814235717158
 10
101.0746229130994
 20
-157.5814235717158
 10
100.7445827656125
 20
-157.5814235717158
 10
100.7445827656125
 20
-157.5814235717158
 10
100.7445827656125
 20
-157.5814235717158
 10
100.7445827656125
 20
-157.43328446585
 10
100.7445827656125
 20
-157.43328446585
 10
101.0766899703906
 20
-157.418815064812
 10
101.1231987594414
 20
-157.2558620483597
 10
101.1528265806146
 20
-157.1414848782494
 10
101.1528265806146
 20
-157.1414848782494
 10
101.2988986291892
 20
-157.1414848782494
 10
101.2988986291892
 20
-157.1414848782494
 10
101.2988986291892
 20
-157.1414848782494
 10
101.2988986291892
 20
-158.6859211842869
 10
101.2988986291892
 20
-158.6859211842869
 10
101.2988986291892
 20
-158.6859211842869
 10
101.0746229130994
 20
-158.6859211842869
 10
101.0746229130994
 20
-158.6859211842869
 97
        0
 97
        0
 75
     2
 76
     1
 98
        0
  0
SPLINE
  5
9E
330
98
100
AcDbEntity
  8
_U+30EC_U+30A4_U+30E4_U+30FC 1
370
     0
100
AcDbSpline
210
0.0
220
0.0
230
1.0
 70
    11
 71
     3
 72
    53
 73
    49
 74
     0
 42
0.0000000001
 43
0.0000000001
 12
1.0
 22
0.0
 32
0.0
 13
1.0
 23
0.0
 33
0.0
 40
0.0
 40
0.0
 40
0.0
 40
0.0
 40
1.0
 40
1.0
 40
1.0
 40
2.0
 40
2.0
 40
2.0
 40
3.0
 40
3.0
 40
3.0
 40
4.0
 40
4.0
 40
4.0
 40
5.0
 40
5.0
 40
5.0
 40
6.0
 40
6.0
 40
6.0
 40
7.0
 40
7.0
 40
7.0
 40
8.0
 40
8.0
 40
8.0
 40
9.0
 40
9.0
 40
9.0
 40
10.0
 40
10.0
 40
10.0
 40
11.0
 40
11.0
 40
11.0
 40
12.0
 40
12.0
 40
12.0
 40
13.0
 40
13.0
 40
13.0
 40
14.0
 40
14.0
 40
14.0
 40
15.0
 40
15.0
 40
15.0
 40
16.0
 40
16.0
 40
16.0
 40
16.0
 10
102.2810953520339
 20
-158.73656408792
 30
0.0
 10
102.2028916845187
 20
-158.73656408792
 30
0.0
 10
102.1012613677039
 20
-158.7196831200423
 30
0.0
 10
101.999631050889
 20
-158.6562933631137
 30
0.0
 10
101.8263427479809
 20
-158.5460503075857
 30
0.0
 10
101.8049831559724
 20
-158.4151366791462
 30
0.0
 10
101.7860351308035
 20
-158.3073051904579
 30
0.0
 10
101.7860351308035
 20
-158.3073051904579
 30
0.0
 10
102.0082437896021
 20
-158.3073051904579
 30
0.0
 10
102.0082437896021
 20
-158.3073051904579
 30
0.0
 10
102.0630208078176
 20
-158.5060871999568
 30
0.0
 10
102.1901448312233
 20
-158.53571502113
 30
0.0
 10
102.283162409325
 20
-158.53571502113
 30
0.0
 10
102.4226887764777
 20
-158.53571502113
 30
0.0
 10
102.5749619969257
 20
-158.4361517616063
 30
0.0
 10
102.5749619969257
 20
-158.2036078163519
 30
0.0
 10
102.5749619969257
 20
-157.9476372217978
 30
0.0
 10
102.3951280125957
 20
-157.8777017834472
 30
0.0
 10
102.2745496706119
 20
-157.8777017834472
 30
0.0
 10
102.2428547921476
 20
-157.8777017834472
 30
0.0
 10
102.1012613677039
 20
-157.8777017834472
 30
0.0
 10
102.0123779041844
 20
-158.0068928641441
 30
0.0
 10
102.0123779041844
 20
-158.0068928641441
 30
0.0
 10
101.8366780344367
 20
-157.9876003294267
 30
0.0
 10
101.8366780344367
 20
-157.9876003294267
 30
0.0
 10
101.8366780344367
 20
-157.9876003294267
 30
0.0
 10
101.9572563764204
 20
-157.1414848782494
 30
0.0
 10
101.9572563764204
 20
-157.1414848782494
 30
0.0
 10
101.9572563764204
 20
-157.1414848782494
 30
0.0
 10
102.7358479560869
 20
-157.1414848782494
 30
0.0
 10
102.7358479560869
 20
-157.1414848782494
 30
0.0
 10
102.7358479560869
 20
-157.1414848782494
 30
0.0
 10
102.7358479560869
 20
-157.336132773166
 30
0.0
 10
102.7358479560869
 20
-157.336132773166
 30
0.0
 10
102.7358479560869
 20
-157.336132773166
 30
0.0
 10
102.1202093928727
 20
-157.336132773166
 30
0.0
 10
102.1202093928727
 20
-157.336132773166
 30
0.0
 10
102.1202093928727
 20
-157.336132773166
 30
0.0
 10
102.054752578653
 20
-157.7591904987547
 30
0.0
 10
102.054752578653
 20
-157.7591904987547
 30
0.0
 10
102.1160752782904
 20
-157.7254285629992
 30
0.0
 10
102.1984130603879
 20
-157.6851209458218
 30
0.0
 10
102.3169243450805
 20
-157.6851209458218
 30
0.0
 10
102.5708278823434
 20
-157.6851209458218
 30
0.0
 10
102.8078504517286
 20
-157.8715006115738
 30
0.0
 10
102.8078504517286
 20
-158.1843152816345
 30
0.0
 10
102.8078504517286
 20
-158.5019530853745
 30
0.0
 10
102.5835747356388
 20
-158.73656408792
 30
0.0
 10
102.2810953520339
 20
-158.73656408792
 30
0.0
  0
HATCH
  5
9F
330
98
100
AcDbEntity
  8
_U+30EC_U+30A4_U+30E4_U+30FC 1
 62
   179
420
  2234388
100
AcDbHatch
 10
0.0
 20
0.0
 30
0.0
210
0.0
220
0.0
230
1.0
  2
SOLID
 70
     1
 71
     0
 91
        1
 92
        1
 93
        1
 72
     4
 94
        3
 73
     0
 74
     1
 95
       53
 96
       49
 40
0.0
 40
0.0
 40
0.0
 40
0.0
 40
1.0
 40
1.0
 40
1.0
 40
2.0
 40
2.0
 40
2.0
 40
3.0
 40
3.0
 40
3.0
 40
4.0
 40
4.0
 40
4.0
 40
5.0
 40
5.0
 40
5.0
 40
6.0
 40
6.0
 40
6.0
 40
7.0
 40
7.0
 40
7.0
 40
8.0
 40
8.0
 40
8.0
 40
9.0
 40
9.0
 40
9.0
 40
10.0
 40
10.0
 40
10.0
 40
11.0
 40
11.0
 40
11.0
 40
12.0
 40
12.0
 40
12.0
 40
13.0
 40
13.0
 40
13.0
 40
14.0
 40
14.0
 40
14.0
 40
15.0
 40
15.0
 40
15.0
 40
16.0
 40
16.0
 40
16.0
 40
16.0
 10
102.2810953520339
 20
-158.73656408792
 10
102.2028916845187
 20
-158.73656408792
 10
102.1012613677039
 20
-158.7196831200423
 10
101.999631050889
 20
-158.6562933631137
 10
101.8263427479809
 20
-158.5460503075857
 10
101.8049831559724
 20
-158.4151366791462
 10
101.7860351308035
 20
-158.3073051904579
 10
101.7860351308035
 20
-158.3073051904579
 10
102.0082437896021
 20
-158.3073051904579
 10
102.0082437896021
 20
-158.3073051904579
 10
102.0630208078176
 20
-158.5060871999568
 10
102.1901448312233
 20
-158.53571502113
 10
102.283162409325
 20
-158.53571502113
 10
102.4226887764777
 20
-158.53571502113
 10
102.5749619969257
 20
-158.4361517616063
 10
102.5749619969257
 20
-158.2036078163519
 10
102.5749619969257
 20
-157.9476372217978
 10
102.3951280125957
 20
-157.8777017834472
 10
102.2745496706119
 20
-157.8777017834472
 10
102.2428547921476
 20
-157.8777017834472
 10
102.1012613677039
 20
-157.8777017834472
 10
102.0123779041844
 20
-158.0068928641441
 10
102.0123779041844
 20
-158.0068928641441
 10
101.8366780344367
 20
-157.9876003294267
 10
101.8366780344367
 20
-157.9876003294267
 10
101.8366780344367
 20
-157.9876003294267
 10
101.9572563764204
 20
-157.1414848782494
 10
101.9572563764204
 20
-157.1414848782494
 10
101.9572563764204
 20
-157.1414848782494
 10
102.7358479560869
 20
-157.1414848782494
 10
102.7358479560869
 20
-157.1414848782494
 10
102.7358479560869
 20
-157.1414848782494
 10
102.7358479560869
 20
-157.336132773166
 10
102.7358479560869
 20
-157.336132773166
 10
102.7358479560869
 20
-157.336132773166
 10
102.1202093928727
 20
-157.336132773166
 10
102.1202093928727
 20
-157.336132773166
 10
102.1202093928727
 20
-157.336132773166
 10
102.054752578653
 20
-157.7591904987547
 10
102.054752578653
 20
-157.7591904987547
 10
102.1160752782904
 20
-157.7254285629992
 10
102.1984130603879
 20
-157.6851209458218
 10
102.3169243450805
 20
-157.6851209458218
 10
102.5708278823434
 20
-157.6851209458218
 10
102.8078504517286
 20
-157.8715006115738
 10
102.8078504517286
 20
-158.1843152816345
 10
102.8078504517286
 20
-158.5019530853745
 10
102.5835747356388
 20
-158.73656408792
 10
102.2810953520339
 20
-158.73656408792
 97
        0
 97
        0
 75
     2
 76
     1
 98
        0
  0
ENDBLK
  5
9B
330
98
100
AcDbEntity
  8
0
100
AcDbBlockEnd
  0
BLOCK
  5
B7
330
B5
100
AcDbEntity
  8
0
100
AcDbBlockBegin
  2
block 7
 70
     0
 10
0.0
 20
0.0
 30
0.0
  3
block 7
  1

  0
SPLINE
  5
B9
330
B5
100
AcDbEntity
  8
_U+30EC_U+30A4_U+30E4_U+30FC 1
370
     0
100
AcDbSpline
210
0.0
220
0.0
230
1.0
 70
    11
 71
     3
 72
    26
 73
    22
 74
     0
 42
0.0000000001
 43
0.0000000001
 12
1.0
 22
0.0
 32
0.0
 13
1.0
 23
0.0
 33
0.0
 40
0.0
 40
0.0
 40
0.0
 40
0.0
 40
1.0
 40
1.0
 40
1.0
 40
2.0
 40
2.0
 40
2.0
 40
3.0
 40
3.0
 40
3.0
 40
4.0
 40
4.0
 40
4.0
 40
5.0
 40
5.0
 40
5.0
 40
6.0
 40
6.0
 40
6.0
 40
7.0
 40
7.0
 40
7.0
 40
7.0
 10
100.2233398186942
 20
-143.1652492589135
 30
0.0
 10
100.2233398186942
 20
-143.1652492589135
 30
0.0
 10
100.2233398186942
 20
-142.0609239011167
 30
0.0
 10
100.2233398186942
 20
-142.0609239011167
 30
0.0
 10
100.2233398186942
 20
-142.0609239011167
 30
0.0
 10
99.89329967120723
 20
-142.0609239011167
 30
0.0
 10
99.89329967120723
 20
-142.0609239011167
 30
0.0
 10
99.89329967120723
 20
-142.0609239011167
 30
0.0
 10
99.89329967120723
 20
-141.9129570500252
 30
0.0
 10
99.89329967120723
 20
-141.9129570500252
 30
0.0
 10
100.2254068759853
 20
-141.8981431394387
 30
0.0
 10
100.2719156650362
 20
-141.7351901229864
 30
0.0
 10
100.3015434862093
 20
-141.6209852076503
 30
0.0
 10
100.3015434862093
 20
-141.6209852076503
 30
0.0
 10
100.4476155347839
 20
-141.6209852076503
 30
0.0
 10
100.4476155347839
 20
-141.6209852076503
 30
0.0
 10
100.4476155347839
 20
-141.6209852076503
 30
0.0
 10
100.4476155347839
 20
-143.1652492589135
 30
0.0
 10
100.4476155347839
 20
-143.1652492589135
 30
0.0
 10
100.4476155347839
 20
-143.1652492589135
 30
0.0
 10
100.2233398186942
 20
-143.1652492589135
 30
0.0
 10
100.2233398186942
 20
-143.1652492589135
 30
0.0
  0
HATCH
  5
BA
330
B5
100
AcDbEntity
  8
_U+30EC_U+30A4_U+30E4_U+30FC 1
 62
   179
420
  2234388
100
AcDbHatch
 10
0.0
 20
0.0
 30
0.0
210
0.0
220
0.0
230
1.0
  2
SOLID
 70
     1
 71
     0
 91
        1
 92
        1
 93
        1
 72
     4
 94
        3
 73
     0
 74
     1
 95
       26
 96
       22
 40
0.0
 40
0.0
 40
0.0
 40
0.0
 40
1.0
 40
1.0
 40
1.0
 40
2.0
 40
2.0
 40
2.0
 40
3.0
 40
3.0
 40
3.0
 40
4.0
 40
4.0
 40
4.0
 40
5.0
 40
5.0
 40
5.0
 40
6.0
 40
6.0
 40
6.0
 40
7.0
 40
7.0
 40
7.0
 40
7.0
 10
100.2233398186942
 20
-143.1652492589135
 10
100.2233398186942
 20
-143.1652492589135
 10
100.2233398186942
 20
-142.0609239011167
 10
100.2233398186942
 20
-142.0609239011167
 10
100.2233398186942
 20
-142.0609239011167
 10
99.89329967120723
 20
-142.0609239011167
 10
99.89329967120723
 20
-142.0609239011167
 10
99.89329967120723
 20
-142.0609239011167
 10
99.89329967120723
 20
-141.9129570500252
 10
99.89329967120723
 20
-141.9129570500252
 10
100.2254068759853
 20
-141.8981431394387
 10
100.2719156650362
 20
-141.7351901229864
 10
100.3015434862093
 20
-141.6209852076503
 10
100.3015434862093
 20
-141.6209852076503
 10
100.4476155347839
 20
-141.6209852076503
 10
100.4476155347839
 20
-141.6209852076503
 10
100.4476155347839
 20
-141.6209852076503
 10
100.4476155347839
 20
-143.1652492589135
 10
100.4476155347839
 20
-143.1652492589135
 10
100.4476155347839
 20
-143.1652492589135
 10
100.2233398186942
 20
-143.1652492589135
 10
100.2233398186942
 20
-143.1652492589135
 97
        0
 97
        0
 75
     2
 76
     1
 98
        0
  0
POLYLINE
  5
BB
330
B5
100
AcDbEntity
  8
_U+30EC_U+30A4_U+30E4_U+30FC 1
370
     0
100
AcDb2dPolyline
 66
     1
 10
0.0
 20
0.0
 30
0.0
  0
VERTEX
  5
BC
330
BB
100
AcDbEntity
  8
_U+30EC_U+30A4_U+30E4_U+30FC 1
370
     0
100
AcDbVertex
100
AcDb2dVertex
 10
101.0088215893311
 20
-143.1652492589135
 30
0.0
  0
VERTEX
  5
BD
330
BB
100
AcDbEntity
  8
_U+30EC_U+30A4_U+30E4_U+30FC 1
370
     0
100
AcDbVertex
100
AcDb2dVertex
 10
101.0088215893311
 20
-142.9135850337161
 30
0.0
  0
VERTEX
  5
BE
330
BB
100
AcDbEntity
  8
_U+30EC_U+30A4_U+30E4_U+30FC 1
370
     0
100
AcDbVertex
100
AcDb2dVertex
 10
101.2606580693029
 20
-142.9135850337161
 30
0.0
  0
VERTEX
  5
BF
330
BB
100
AcDbEntity
  8
_U+30EC_U+30A4_U+30E4_U+30FC 1
370
     0
100
AcDbVertex
100
AcDb2dVertex
 10
101.2606580693029
 20
-143.1652492589135
 30
0.0
  0
VERTEX
  5
C0
330
BB
100
AcDbEntity
  8
_U+30EC_U+30A4_U+30E4_U+30FC 1
370
     0
100
AcDbVertex
100
AcDb2dVertex
 10
101.0088215893311
 20
-143.1652492589135
 30
0.0
  0
SEQEND
  5
C1
330
BB
100
AcDbEntity
  8
_U+30EC_U+30A4_U+30E4_U+30FC 1
370
     0
  0
HATCH
  5
C2
330
B5
100
AcDbEntity
  8
_U+30EC_U+30A4_U+30E4_U+30FC 1
 62
   179
420
  2234388
100
AcDbHatch
 10
0.0
 20
0.0
 30
0.0
210
0.0
220
0.0
230
1.0
  2
SOLID
 70
     1
 71
     0
 91
        1
 92
        1
 93
        4
 72
     1
 10
101.0088215893311
 20
-143.1652492589135
 11
101.0088215893311
 21
-142.9135850337161
 72
     1
 10
101.0088215893311
 20
-142.9135850337161
 11
101.2606580693029
 21
-142.9135850337161
 72
     1
 10
101.2606580693029
 20
-142.9135850337161
 11
101.2606580693029
 21
-143.1652492589135
 72
     1
 10
101.2606580693029
 20
-143.1652492589135
 11
101.0088215893311
 21
-143.1652492589135
 97
        0
 75
     2
 76
     1
 98
        0
  0
SPLINE
  5
C3
330
B5
100
AcDbEntity
  8
_U+30EC_U+30A4_U+30E4_U+30FC 1
370
     0
100
AcDbSpline
210
0.0
220
0.0
230
1.0
 70
    11
 71
     3
 72
    53
 73
    49
 74
     0
 42
0.0000000001
 43
0.0000000001
 12
1.0
 22
0.0
 32
0.0
 13
1.0
 23
0.0
 33
0.0
 40
0.0
 40
0.0
 40
0.0
 40
0.0
 40
1.0
 40
1.0
 40
1.0
 40
2.0
 40
2.0
 40
2.0
 40
3.0
 40
3.0
 40
3.0
 40
4.0
 40
4.0
 40
4.0
 40
5.0
 40
5.0
 40
5.0
 40
6.0
 40
6.0
 40
6.0
 40
7.0
 40
7.0
 40
7.0
 40
8.0
 40
8.0
 40
8.0
 40
9.0
 40
9.0
 40
9.0
 40
10.0
 40
10.0
 40
10.0
 40
11.0
 40
11.0
 40
11.0
 40
12.0
 40
12.0
 40
12.0
 40
13.0
 40
13.0
 40
13.0
 40
14.0
 40
14.0
 40
14.0
 40
15.0
 40
15.0
 40
15.0
 40
16.0
 40
16.0
 40
16.0
 40
16.0
 10
101.9779269493319
 20
-143.216064417321
 30
0.0
 10
101.8997232818167
 20
-143.216064417321
 30
0.0
 10
101.7980929650019
 20
-143.199011194669
 30
0.0
 10
101.696462648187
 20
-143.1356214377404
 30
0.0
 10
101.5231743452789
 20
-143.0255506369867
 30
0.0
 10
101.5018147532704
 20
-142.8944647537729
 30
0.0
 10
101.4828667281015
 20
-142.7866332650846
 30
0.0
 10
101.4828667281015
 20
-142.7866332650846
 30
0.0
 10
101.7050753869001
 20
-142.7866332650846
 30
0.0
 10
101.7050753869001
 20
-142.7866332650846
 30
0.0
 10
101.7598524051156
 20
-142.9854152745835
 30
0.0
 10
101.8869764285213
 20
-143.0150430957567
 30
0.0
 10
101.9799940066231
 20
-143.0150430957567
 30
0.0
 10
102.1195203737757
 20
-143.0150430957567
 30
0.0
 10
102.2717935942237
 20
-142.9156520910072
 30
0.0
 10
102.2717935942237
 20
-142.6829358909786
 30
0.0
 10
102.2717935942237
 20
-142.4269652964245
 30
0.0
 10
102.0919596098937
 20
-142.3572021128482
 30
0.0
 10
101.9713812679099
 20
-142.3572021128482
 30
0.0
 10
101.9396863894456
 20
-142.3572021128482
 30
0.0
 10
101.7980929650019
 20
-142.3572021128482
 30
0.0
 10
101.7092095014824
 20
-142.4862209387708
 30
0.0
 10
101.7092095014824
 20
-142.4862209387708
 30
0.0
 10
101.5335096317347
 20
-142.4671006588277
 30
0.0
 10
101.5335096317347
 20
-142.4671006588277
 30
0.0
 10
101.5335096317347
 20
-142.4671006588277
 30
0.0
 10
101.6540879737184
 20
-141.6209852076503
 30
0.0
 10
101.6540879737184
 20
-141.6209852076503
 30
0.0
 10
101.6540879737184
 20
-141.6209852076503
 30
0.0
 10
102.4326795533849
 20
-141.6209852076503
 30
0.0
 10
102.4326795533849
 20
-141.6209852076503
 30
0.0
 10
102.4326795533849
 20
-141.6209852076503
 30
0.0
 10
102.4326795533849
 20
-141.8156331025669
 30
0.0
 10
102.4326795533849
 20
-141.8156331025669
 30
0.0
 10
102.4326795533849
 20
-141.8156331025669
 30
0.0
 10
101.8170409901707
 20
-141.8156331025669
 30
0.0
 10
101.8170409901707
 20
-141.8156331025669
 30
0.0
 10
101.8170409901707
 20
-141.8156331025669
 30
0.0
 10
101.751584175951
 20
-142.2386908281556
 30
0.0
 10
101.751584175951
 20
-142.2386908281556
 30
0.0
 10
101.8129068755884
 20
-142.2047566376259
 30
0.0
 10
101.8952446576859
 20
-142.1646212752227
 30
0.0
 10
102.0137559423785
 20
-142.1646212752227
 30
0.0
 10
102.2676594796414
 20
-142.1646212752227
 30
0.0
 10
102.5046820490266
 20
-142.3508286862005
 30
0.0
 10
102.5046820490266
 20
-142.6638156110354
 30
0.0
 10
102.5046820490266
 20
-142.9812811600012
 30
0.0
 10
102.2804063329368
 20
-143.216064417321
 30
0.0
 10
101.9779269493319
 20
-143.216064417321
 30
0.0
  0
HATCH
  5
C4
330
B5
100
AcDbEntity
  8
_U+30EC_U+30A4_U+30E4_U+30FC 1
 62
   179
420
  2234388
100
AcDbHatch
 10
0.0
 20
0.0
 30
0.0
210
0.0
220
0.0
230
1.0
  2
SOLID
 70
     1
 71
     0
 91
        1
 92
        1
 93
        1
 72
     4
 94
        3
 73
     0
 74
     1
 95
       53
 96
       49
 40
0.0
 40
0.0
 40
0.0
 40
0.0
 40
1.0
 40
1.0
 40
1.0
 40
2.0
 40
2.0
 40
2.0
 40
3.0
 40
3.0
 40
3.0
 40
4.0
 40
4.0
 40
4.0
 40
5.0
 40
5.0
 40
5.0
 40
6.0
 40
6.0
 40
6.0
 40
7.0
 40
7.0
 40
7.0
 40
8.0
 40
8.0
 40
8.0
 40
9.0
 40
9.0
 40
9.0
 40
10.0
 40
10.0
 40
10.0
 40
11.0
 40
11.0
 40
11.0
 40
12.0
 40
12.0
 40
12.0
 40
13.0
 40
13.0
 40
13.0
 40
14.0
 40
14.0
 40
14.0
 40
15.0
 40
15.0
 40
15.0
 40
16.0
 40
16.0
 40
16.0
 40
16.0
 10
101.9779269493319
 20
-143.216064417321
 10
101.8997232818167
 20
-143.216064417321
 10
101.7980929650019
 20
-143.199011194669
 10
101.696462648187
 20
-143.1356214377404
 10
101.5231743452789
 20
-143.0255506369867
 10
101.5018147532704
 20
-142.8944647537729
 10
101.4828667281015
 20
-142.7866332650846
 10
101.4828667281015
 20
-142.7866332650846
 10
101.7050753869001
 20
-142.7866332650846
 10
101.7050753869001
 20
-142.7866332650846
 10
101.7598524051156
 20
-142.9854152745835
 10
101.8869764285213
 20
-143.0150430957567
 10
101.9799940066231
 20
-143.0150430957567
 10
102.1195203737757
 20
-143.0150430957567
 10
102.2717935942237
 20
-142.9156520910072
 10
102.2717935942237
 20
-142.6829358909786
 10
102.2717935942237
 20
-142.4269652964245
 10
102.0919596098937
 20
-142.3572021128482
 10
101.9713812679099
 20
-142.3572021128482
 10
101.9396863894456
 20
-142.3572021128482
 10
101.7980929650019
 20
-142.3572021128482
 10
101.7092095014824
 20
-142.4862209387708
 10
101.7092095014824
 20
-142.4862209387708
 10
101.5335096317347
 20
-142.4671006588277
 10
101.5335096317347
 20
-142.4671006588277
 10
101.5335096317347
 20
-142.4671006588277
 10
101.6540879737184
 20
-141.6209852076503
 10
101.6540879737184
 20
-141.6209852076503
 10
101.6540879737184
 20
-141.6209852076503
 10
102.4326795533849
 20
-141.6209852076503
 10
102.4326795533849
 20
-141.6209852076503
 10
102.4326795533849
 20
-141.6209852076503
 10
102.4326795533849
 20
-141.8156331025669
 10
102.4326795533849
 20
-141.8156331025669
 10
102.4326795533849
 20
-141.8156331025669
 10
101.8170409901707
 20
-141.8156331025669
 10
101.8170409901707
 20
-141.8156331025669
 10
101.8170409901707
 20
-141.8156331025669
 10
101.751584175951
 20
-142.2386908281556
 10
101.751584175951
 20
-142.2386908281556
 10
101.8129068755884
 20
-142.2047566376259
 10
101.8952446576859
 20
-142.1646212752227
 10
102.0137559423785
 20
-142.1646212752227
 10
102.2676594796414
 20
-142.1646212752227
 10
102.5046820490266
 20
-142.3508286862005
 10
102.5046820490266
 20
-142.6638156110354
 10
102.5046820490266
 20
-142.9812811600012
 10
102.2804063329368
 20
-143.216064417321
 10
101.9779269493319
 20
-143.216064417321
 97
        0
 97
        0
 75
     2
 76
     1
 98
        0
  0
SPLINE
  5
C5
330
B5
100
AcDbEntity
  8
_U+30EC_U+30A4_U+30E4_U+30FC 1
370
     0
100
AcDbSpline
210
0.0
220
0.0
230
1.0
 70
    11
 71
     3
 72
    44
 73
    40
 74
     0
 42
0.0000000001
 43
0.0000000001
 12
1.0
 22
0.0
 32
0.0
 13
1.0
 23
0.0
 33
0.0
 40
0.0
 40
0.0
 40
0.0
 40
0.0
 40
1.0
 40
1.0
 40
1.0
 40
2.0
 40
2.0
 40
2.0
 40
3.0
 40
3.0
 40
3.0
 40
4.0
 40
4.0
 40
4.0
 40
5.0
 40
5.0
 40
5.0
 40
6.0
 40
6.0
 40
6.0
 40
7.0
 40
7.0
 40
7.0
 40
8.0
 40
8.0
 40
8.0
 40
9.0
 40
9.0
 40
9.0
 40
10.0
 40
10.0
 40
10.0
 40
11.0
 40
11.0
 40
11.0
 40
12.0
 40
12.0
 40
12.0
 40
13.0
 40
13.0
 40
13.0
 40
13.0
 10
103.6877278386614
 20
-143.1652492589135
 30
0.0
 10
103.6646456989102
 20
-143.1208075271538
 30
0.0
 10
103.6432861069017
 20
-143.0679253114552
 30
0.0
 10
103.6412190496105
 20
-142.8372761687178
 30
0.0
 10
103.6370849350282
 20
-142.5940524274591
 30
0.0
 10
103.5778292926819
 20
-142.5242892438828
 30
0.0
 10
103.400062365643
 20
-142.5242892438828
 30
0.0
 10
103.400062365643
 20
-142.5242892438828
 30
0.0
 10
102.9918185506409
 20
-142.5242892438828
 30
0.0
 10
102.9918185506409
 20
-142.5242892438828
 30
0.0
 10
102.9918185506409
 20
-142.5242892438828
 30
0.0
 10
102.9918185506409
 20
-143.1652492589135
 30
0.0
 10
102.9918185506409
 20
-143.1652492589135
 30
0.0
 10
102.9918185506409
 20
-143.1652492589135
 30
0.0
 10
102.7568630385469
 20
-143.1652492589135
 30
0.0
 10
102.7568630385469
 20
-143.1652492589135
 30
0.0
 10
102.7568630385469
 20
-143.1652492589135
 30
0.0
 10
102.7568630385469
 20
-141.6209852076503
 30
0.0
 10
102.7568630385469
 20
-141.6209852076503
 30
0.0
 10
102.7568630385469
 20
-141.6209852076503
 30
0.0
 10
103.4317572441073
 20
-141.6209852076503
 30
0.0
 10
103.4317572441073
 20
-141.6209852076503
 30
0.0
 10
103.7387152518431
 20
-141.6209852076503
 30
0.0
 10
103.9058023828777
 20
-141.7922064532672
 30
0.0
 10
103.9058023828777
 20
-142.0483493025956
 30
0.0
 10
103.9058023828777
 20
-142.0989922062287
 30
0.0
 10
103.8971896441646
 20
-142.1815022431005
 30
0.0
 10
103.8527479124049
 20
-142.261945222681
 30
0.0
 10
103.7934922700586
 20
-142.3656425967871
 30
0.0
 10
103.7280354558388
 20
-142.3845906219559
 30
0.0
 10
103.6667127562014
 20
-142.4014715898337
 30
0.0
 10
103.8041720660628
 20
-142.4438462643022
 30
0.0
 10
103.8716959375737
 20
-142.4925943654185
 30
0.0
 10
103.8761745617046
 20
-142.8076483475446
 30
0.0
 10
103.8803086762869
 20
-143.0784328526853
 30
0.0
 10
103.9161376693335
 20
-143.1102999859238
 30
0.0
 10
103.9840060503929
 20
-143.1652492589135
 30
0.0
 10
103.9840060503929
 20
-143.1652492589135
 30
0.0
 10
103.6877278386614
 20
-143.1652492589135
 30
0.0
 10
103.6877278386614
 20
-143.1652492589135
 30
0.0
  0
SPLINE
  5
C6
330
B5
100
AcDbEntity
  8
_U+30EC_U+30A4_U+30E4_U+30FC 1
370
     0
100
AcDbSpline
210
0.0
220
0.0
230
1.0
 70
    11
 71
     3
 72
    20
 73
    16
 74
     0
 42
0.0000000001
 43
0.0000000001
 12
1.0
 22
0.0
 32
0.0
 13
1.0
 23
0.0
 33
0.0
 40
0.0
 40
0.0
 40
0.0
 40
0.0
 40
1.0
 40
1.0
 40
1.0
 40
2.0
 40
2.0
 40
2.0
 40
3.0
 40
3.0
 40
3.0
 40
4.0
 40
4.0
 40
4.0
 40
5.0
 40
5.0
 40
5.0
 40
5.0
 10
103.4362358682382
 20
-141.8325140704447
 30
0.0
 10
103.4362358682382
 20
-141.8325140704447
 30
0.0
 10
102.9918185506409
 20
-141.8325140704447
 30
0.0
 10
102.9918185506409
 20
-141.8325140704447
 30
0.0
 10
102.9918185506409
 20
-141.8325140704447
 30
0.0
 10
102.9918185506409
 20
-142.3127603810885
 30
0.0
 10
102.9918185506409
 20
-142.3127603810885
 30
0.0
 10
102.9918185506409
 20
-142.3127603810885
 30
0.0
 10
103.4338243013985
 20
-142.3127603810885
 30
0.0
 10
103.4338243013985
 20
-142.3127603810885
 30
0.0
 10
103.5333875609222
 20
-142.3127603810885
 30
0.0
 10
103.6687798134925
 20
-142.2366237708645
 30
0.0
 10
103.6687798134925
 20
-142.0652302704733
 30
0.0
 10
103.6687798134925
 20
-141.9868543481838
 30
0.0
 10
103.6350178777371
 20
-141.8325140704447
 30
0.0
 10
103.4362358682382
 20
-141.8325140704447
 30
0.0
  0
HATCH
  5
C7
330
B5
100
AcDbEntity
  8
_U+30EC_U+30A4_U+30E4_U+30FC 1
 62
   179
420
  2234388
100
AcDbHatch
 10
0.0
 20
0.0
 30
0.0
210
0.0
220
0.0
230
1.0
  2
SOLID
 70
     1
 71
     0
 91
        2
 92
        1
 93
        1
 72
     4
 94
        3
 73
     0
 74
     1
 95
       44
 96
       40
 40
0.0
 40
0.0
 40
0.0
 40
0.0
 40
1.0
 40
1.0
 40
1.0
 40
2.0
 40
2.0
 40
2.0
 40
3.0
 40
3.0
 40
3.0
 40
4.0
 40
4.0
 40
4.0
 40
5.0
 40
5.0
 40
5.0
 40
6.0
 40
6.0
 40
6.0
 40
7.0
 40
7.0
 40
7.0
 40
8.0
 40
8.0
 40
8.0
 40
9.0
 40
9.0
 40
9.0
 40
10.0
 40
10.0
 40
10.0
 40
11.0
 40
11.0
 40
11.0
 40
12.0
 40
12.0
 40
12.0
 40
13.0
 40
13.0
 40
13.0
 40
13.0
 10
103.6877278386614
 20
-143.1652492589135
 10
103.6646456989102
 20
-143.1208075271538
 10
103.6432861069017
 20
-143.0679253114552
 10
103.6412190496105
 20
-142.8372761687178
 10
103.6370849350282
 20
-142.5940524274591
 10
103.5778292926819
 20
-142.5242892438828
 10
103.400062365643
 20
-142.5242892438828
 10
103.400062365643
 20
-142.5242892438828
 10
102.9918185506409
 20
-142.5242892438828
 10
102.9918185506409
 20
-142.5242892438828
 10
102.9918185506409
 20
-142.5242892438828
 10
102.9918185506409
 20
-143.1652492589135
 10
102.9918185506409
 20
-143.1652492589135
 10
102.9918185506409
 20
-143.1652492589135
 10
102.7568630385469
 20
-143.1652492589135
 10
102.7568630385469
 20
-143.1652492589135
 10
102.7568630385469
 20
-143.1652492589135
 10
102.7568630385469
 20
-141.6209852076503
 10
102.7568630385469
 20
-141.6209852076503
 10
102.7568630385469
 20
-141.6209852076503
 10
103.4317572441073
 20
-141.6209852076503
 10
103.4317572441073
 20
-141.6209852076503
 10
103.7387152518431
 20
-141.6209852076503
 10
103.9058023828777
 20
-141.7922064532672
 10
103.9058023828777
 20
-142.0483493025956
 10
103.9058023828777
 20
-142.0989922062287
 10
103.8971896441646
 20
-142.1815022431005
 10
103.8527479124049
 20
-142.261945222681
 10
103.7934922700586
 20
-142.3656425967871
 10
103.7280354558388
 20
-142.3845906219559
 10
103.6667127562014
 20
-142.4014715898337
 10
103.8041720660628
 20
-142.4438462643022
 10
103.8716959375737
 20
-142.4925943654185
 10
103.8761745617046
 20
-142.8076483475446
 10
103.8803086762869
 20
-143.0784328526853
 10
103.9161376693335
 20
-143.1102999859238
 10
103.9840060503929
 20
-143.1652492589135
 10
103.9840060503929
 20
-143.1652492589135
 10
103.6877278386614
 20
-143.1652492589135
 10
103.6877278386614
 20
-143.1652492589135
 97
        0
 97
        0
 92
        1
 93
        1
 72
     4
 94
        3
 73
     0
 74
     1
 95
       20
 96
       16
 40
0.0
 40
0.0
 40
0.0
 40
0.0
 40
1.0
 40
1.0
 40
1.0
 40
2.0
 40
2.0
 40
2.0
 40
3.0
 40
3.0
 40
3.0
 40
4.0
 40
4.0
 40
4.0
 40
5.0
 40
5.0
 40
5.0
 40
5.0
 10
103.4362358682382
 20
-141.8325140704447
 10
103.4362358682382
 20
-141.8325140704447
 10
102.9918185506409
 20
-141.8325140704447
 10
102.9918185506409
 20
-141.8325140704447
 10
102.9918185506409
 20
-141.8325140704447
 10
102.9918185506409
 20
-142.3127603810885
 10
102.9918185506409
 20
-142.3127603810885
 10
102.9918185506409
 20
-142.3127603810885
 10
103.4338243013985
 20
-142.3127603810885
 10
103.4338243013985
 20
-142.3127603810885
 10
103.5333875609222
 20
-142.3127603810885
 10
103.6687798134925
 20
-142.2366237708645
 10
103.6687798134925
 20
-142.0652302704733
 10
103.6687798134925
 20
-141.9868543481838
 10
103.6350178777371
 20
-141.8325140704447
 10
103.4362358682382
 20
-141.8325140704447
 97
        0
 97
        0
 75
     2
 76
     1
 98
        0
  0
ENDBLK
  5
B8
330
B5
100
AcDbEntity
  8
0
100
AcDbBlockEnd
  0
ENDSEC
  0
SECTION
  2
ENTITIES
  0
POLYLINE
  5
41
330
1F
100
AcDbEntity
  8
_U+30EC_U+30A4_U+30E4_U+30FC 1
 62
   179
420
  2234388
370
     9
100
AcDb2dPolyline
 66
     1
 10
0.0
 20
0.0
 30
0.0
  0
VERTEX
  5
42
330
41
100
AcDbEntity
  8
_U+30EC_U+30A4_U+30E4_U+30FC 1
 62
   179
420
  2234388
370
     9
100
AcDbVertex
100
AcDb2dVertex
 10
110.8285279738662
 20
-152.6010858790047
 30
0.0
  0
VERTEX
  5
43
330
41
100
AcDbEntity
  8
_U+30EC_U+30A4_U+30E4_U+30FC 1
 62
   179
420
  2234388
370
     9
100
AcDbVertex
100
AcDb2dVertex
 10
113.2884445754919
 20
-152.6010858790047
 30
0.0
  0
SEQEND
  5
44
330
41
100
AcDbEntity
  8
_U+30EC_U+30A4_U+30E4_U+30FC 1
 62
   179
420
  2234388
370
     9
  0
SPLINE
  5
45
330
1F
100
AcDbEntity
  8
_U+30EC_U+30A4_U+30E4_U+30FC 1
 62
   179
420
  2234388
370
     9
100
AcDbSpline
210
0.0
220
0.0
230
1.0
 70
    11
 71
     3
 72
    17
 73
    13
 74
     0
 42
0.0000000001
 43
0.0000000001
 12
1.0
 22
0.0
 32
0.0
 13
1.0
 23
0.0
 33
0.0
 40
0.0
 40
0.0
 40
0.0
 40
0.0
 40
1.0
 40
1.0
 40
1.0
 40
2.0
 40
2.0
 40
2.0
 40
3.0
 40
3.0
 40
3.0
 40
4.0
 40
4.0
 40
4.0
 40
4.0
 10
97.21658967024914
 20
-141.6386197901654
 30
0.0
 10
97.21658967024914
 20
-141.5836059216354
 30
0.0
 10
97.17178189709378
 20
-141.5387981484803
 30
0.0
 10
97.11674649671691
 20
-141.5387981484803
 30
0.0
 10
97.06171109634005
 20
-141.5387981484803
 30
0.0
 10
97.01691408910841
 20
-141.5836059216354
 30
0.0
 10
97.01691408910841
 20
-141.6386197901654
 30
0.0
 10
97.01691408910841
 20
-141.6936551905423
 30
0.0
 10
97.06171109634005
 20
-141.7384629636973
 30
0.0
 10
97.11674649671691
 20
-141.7384629636973
 30
0.0
 10
97.17178189709378
 20
-141.7384629636973
 30
0.0
 10
97.21658967024914
 20
-141.6936551905423
 30
0.0
 10
97.21658967024914
 20
-141.6386197901654
 30
0.0
  0
SPLINE
  5
46
330
1F
100
AcDbEntity
  8
_U+30EC_U+30A4_U+30E4_U+30FC 1
 62
   179
420
  2234388
370
     9
100
AcDbSpline
210
0.0
220
0.0
230
1.0
 70
    11
 71
     3
 72
    17
 73
    13
 74
     0
 42
0.0000000001
 43
0.0000000001
 12
1.0
 22
0.0
 32
0.0
 13
1.0
 23
0.0
 33
0.0
 40
0.0
 40
0.0
 40
0.0
 40
0.0
 40
1.0
 40
1.0
 40
1.0
 40
2.0
 40
2.0
 40
2.0
 40
3.0
 40
3.0
 40
3.0
 40
4.0
 40
4.0
 40
4.0
 40
4.0
 10
94.21590073667281
 20
-141.6386197901654
 30
0.0
 10
94.21590073667281
 20
-141.5836059216354
 30
0.0
 10
94.17109296351778
 20
-141.5387981484803
 30
0.0
 10
94.11605756314091
 20
-141.5387981484803
 30
0.0
 10
94.06102216276405
 20
-141.5387981484803
 30
0.0
 10
94.01622515553241
 20
-141.5836059216354
 30
0.0
 10
94.01622515553241
 20
-141.6386197901654
 30
0.0
 10
94.01622515553241
 20
-141.6936551905423
 30
0.0
 10
94.06102216276405
 20
-141.7384629636973
 30
0.0
 10
94.11605756314091
 20
-141.7384629636973
 30
0.0
 10
94.17109296351778
 20
-141.7384629636973
 30
0.0
 10
94.21590073667281
 20
-141.6936551905423
 30
0.0
 10
94.21590073667281
 20
-141.6386197901654
 30
0.0
  0
SPLINE
  5
47
330
1F
100
AcDbEntity
  8
_U+30EC_U+30A4_U+30E4_U+30FC 1
 62
   179
420
  2234388
370
     9
100
AcDbSpline
210
0.0
220
0.0
230
1.0
 70
    11
 71
     3
 72
    17
 73
    13
 74
     0
 42
0.0000000001
 43
0.0000000001
 12
1.0
 22
0.0
 32
0.0
 13
1.0
 23
0.0
 33
0.0
 40
0.0
 40
0.0
 40
0.0
 40
0.0
 40
1.0
 40
1.0
 40
1.0
 40
2.0
 40
2.0
 40
2.0
 40
3.0
 40
3.0
 40
3.0
 40
4.0
 40
4.0
 40
4.0
 40
4.0
 10
112.058416296177
 20
-146.1012242269838
 30
0.0
 10
112.058416296177
 20
-146.0458443170584
 30
0.0
 10
112.013608523022
 20
-146.0014025852987
 30
0.0
 10
111.9585731226451
 20
-146.0014025852987
 30
0.0
 10
111.9035377222683
 20
-146.0014025852987
 30
0.0
 10
111.8587407150366
 20
-146.0458443170584
 30
0.0
 10
111.8587407150366
 20
-146.1012242269838
 30
0.0
 10
111.8587407150366
 20
-146.1562596273607
 30
0.0
 10
111.9035377222683
 20
-146.2010674005157
 30
0.0
 10
111.9585731226451
 20
-146.2010674005157
 30
0.0
 10
112.013608523022
 20
-146.2010674005157
 30
0.0
 10
112.058416296177
 20
-146.1562596273607
 30
0.0
 10
112.058416296177
 20
-146.1012242269838
 30
0.0
  0
SPLINE
  5
48
330
1F
100
AcDbEntity
  8
_U+30EC_U+30A4_U+30E4_U+30FC 1
 62
   179
420
  2234388
370
     9
100
AcDbSpline
210
0.0
220
0.0
230
1.0
 70
    11
 71
     3
 72
    17
 73
    13
 74
     0
 42
0.0000000001
 43
0.0000000001
 12
1.0
 22
0.0
 32
0.0
 13
1.0
 23
0.0
 33
0.0
 40
0.0
 40
0.0
 40
0.0
 40
0.0
 40
1.0
 40
1.0
 40
1.0
 40
2.0
 40
2.0
 40
2.0
 40
3.0
 40
3.0
 40
3.0
 40
4.0
 40
4.0
 40
4.0
 40
4.0
 10
112.058416296177
 20
-144.6010358660853
 30
0.0
 10
112.058416296177
 20
-144.5456559561599
 30
0.0
 10
112.013608523022
 20
-144.5008481830046
 30
0.0
 10
111.9585731226451
 20
-144.5008481830046
 30
0.0
 10
111.9035377222683
 20
-144.5008481830046
 30
0.0
 10
111.8587407150366
 20
-144.5456559561599
 30
0.0
 10
111.8587407150366
 20
-144.6010358660853
 30
0.0
 10
111.8587407150366
 20
-144.6560712664622
 30
0.0
 10
111.9035377222683
 20
-144.7008790396169
 30
0.0
 10
111.9585731226451
 20
-144.7008790396169
 30
0.0
 10
112.013608523022
 20
-144.7008790396169
 30
0.0
 10
112.058416296177
 20
-144.6560712664622
 30
0.0
 10
112.058416296177
 20
-144.6010358660853
 30
0.0
  0
POLYLINE
  5
49
330
1F
100
AcDbEntity
  8
_U+30EC_U+30A4_U+30E4_U+30FC 1
 62
   179
420
  2234388
370
     9
100
AcDb2dPolyline
 66
     1
 10
0.0
 20
0.0
 30
0.0
  0
VERTEX
  5
4A
330
49
100
AcDbEntity
  8
_U+30EC_U+30A4_U+30E4_U+30FC 1
 62
   179
420
  2234388
370
     9
100
AcDbVertex
100
AcDb2dVertex
 10
111.9585085271048
 20
-144.6010358660853
 30
0.0
  0
VERTEX
  5
4B
330
49
100
AcDbEntity
  8
_U+30EC_U+30A4_U+30E4_U+30FC 1
 62
   179
420
  2234388
370
     9
100
AcDbVertex
100
AcDb2dVertex
 10
111.9585085271048
 20
-152.7008213933027
 30
0.0
  0
SEQEND
  5
4C
330
49
100
AcDbEntity
  8
_U+30EC_U+30A4_U+30E4_U+30FC 1
 62
   179
420
  2234388
370
     9
  0
POLYLINE
  5
4D
330
1F
100
AcDbEntity
  8
_U+30EC_U+30A4_U+30E4_U+30FC 1
 62
   179
420
  2234388
370
     9
100
AcDb2dPolyline
 66
     1
 10
0.0
 20
0.0
 30
0.0
  0
VERTEX
  5
4E
330
4D
100
AcDbEntity
  8
_U+30EC_U+30A4_U+30E4_U+30FC 1
 62
   179
420
  2234388
370
     9
100
AcDbVertex
100
AcDb2dVertex
 10
111.9585085271048
 20
-152.600956687924
 30
0.0
  0
VERTEX
  5
4F
330
4D
100
AcDbEntity
  8
_U+30EC_U+30A4_U+30E4_U+30FC 1
 62
   179
420
  2234388
370
     9
100
AcDbVertex
100
AcDb2dVertex
 10
111.9585085271048
 20
-153.6007449295903
 30
0.0
  0
SEQEND
  5
50
330
4D
100
AcDbEntity
  8
_U+30EC_U+30A4_U+30E4_U+30FC 1
 62
   179
420
  2234388
370
     9
  0
POLYLINE
  5
51
330
1F
100
AcDbEntity
  8
_U+30EC_U+30A4_U+30E4_U+30FC 1
 62
   179
420
  2234388
370
     9
100
AcDb2dPolyline
 66
     1
 10
0.0
 20
0.0
 30
0.0
  0
VERTEX
  5
52
330
51
100
AcDbEntity
  8
_U+30EC_U+30A4_U+30E4_U+30FC 1
 62
   179
420
  2234388
370
     9
100
AcDbVertex
100
AcDb2dVertex
 10
97.69167910358816
 20
-144.6010358660853
 30
0.0
  0
VERTEX
  5
53
330
51
100
AcDbEntity
  8
_U+30EC_U+30A4_U+30E4_U+30FC 1
 62
   179
420
  2234388
370
     9
100
AcDbVertex
100
AcDb2dVertex
 10
113.288336916258
 20
-144.6010358660853
 30
0.0
  0
SEQEND
  5
54
330
51
100
AcDbEntity
  8
_U+30EC_U+30A4_U+30E4_U+30FC 1
 62
   179
420
  2234388
370
     9
  0
POLYLINE
  5
55
330
1F
100
AcDbEntity
  8
_U+30EC_U+30A4_U+30E4_U+30FC 1
 62
   179
420
  2234388
370
     9
100
AcDb2dPolyline
 66
     1
 10
0.0
 20
0.0
 30
0.0
  0
VERTEX
  5
56
330
55
100
AcDbEntity
  8
_U+30EC_U+30A4_U+30E4_U+30FC 1
 62
   179
420
  2234388
370
     9
100
AcDbVertex
100
AcDb2dVertex
 10
97.69167910358816
 20
-146.1012242269838
 30
0.0
  0
VERTEX
  5
57
330
55
100
AcDbEntity
  8
_U+30EC_U+30A4_U+30E4_U+30FC 1
 62
   179
420
  2234388
370
     9
100
AcDbVertex
100
AcDb2dVertex
 10
113.288336916258
 20
-146.1012242269838
 30
0.0
  0
SEQEND
  5
58
330
55
100
AcDbEntity
  8
_U+30EC_U+30A4_U+30E4_U+30FC 1
 62
   179
420
  2234388
370
     9
  0
SPLINE
  5
59
330
1F
100
AcDbEntity
  8
_U+30EC_U+30A4_U+30E4_U+30FC 1
370
     0
100
AcDbSpline
210
0.0
220
0.0
230
1.0
 70
    11
 71
     3
 72
    17
 73
    13
 74
     0
 42
0.0000000001
 43
0.0000000001
 12
1.0
 22
0.0
 32
0.0
 13
1.0
 23
0.0
 33
0.0
 40
0.0
 40
0.0
 40
0.0
 40
0.0
 40
1.0
 40
1.0
 40
1.0
 40
2.0
 40
2.0
 40
2.0
 40
3.0
 40
3.0
 40
3.0
 40
4.0
 40
4.0
 40
4.0
 40
4.0
 10
112.058416296177
 20
-152.6010858790047
 30
0.0
 10
112.058416296177
 20
-152.5457059690793
 30
0.0
 10
112.013608523022
 20
-152.5012642373196
 30
0.0
 10
111.9585731226451
 20
-152.5012642373196
 30
0.0
 10
111.9035377222683
 20
-152.5012642373196
 30
0.0
 10
111.8587407150366
 20
-152.5457059690793
 30
0.0
 10
111.8587407150366
 20
-152.6010858790047
 30
0.0
 10
111.8587407150366
 20
-152.6561212793816
 30
0.0
 10
111.9035377222683
 20
-152.7009290525366
 30
0.0
 10
111.9585731226451
 20
-152.7009290525366
 30
0.0
 10
112.013608523022
 20
-152.7009290525366
 30
0.0
 10
112.058416296177
 20
-152.6561212793816
 30
0.0
 10
112.058416296177
 20
-152.6010858790047
 30
0.0
  0
HATCH
  5
5A
330
1F
100
AcDbEntity
  8
_U+30EC_U+30A4_U+30E4_U+30FC 1
 62
   179
420
  2234388
100
AcDbHatch
 10
0.0
 20
0.0
 30
0.0
210
0.0
220
0.0
230
1.0
  2
SOLID
 70
     1
 71
     0
 91
        1
 92
        1
 93
        2
 72
     4
 94
        3
 73
     0
 74
     0
 95
       17
 96
       13
 40
0.0
 40
0.0
 40
0.0
 40
0.0
 40
0.3527777776895833
 40
0.3527777776895833
 40
0.3527777776895833
 40
0.7055555553791667
 40
0.7055555553791667
 40
0.7055555553791667
 40
1.05833333306875
 40
1.05833333306875
 40
1.05833333306875
 40
1.411111110758333
 40
1.411111110758333
 40
1.411111110758333
 40
1.411111110758333
 10
112.058416296177
 20
-152.6010858790047
 10
112.058416296177
 20
-152.5457059690793
 10
112.013608523022
 20
-152.5012642373196
 10
111.9585731226451
 20
-152.5012642373196
 10
111.9035377222683
 20
-152.5012642373196
 10
111.8587407150366
 20
-152.5457059690793
 10
111.8587407150366
 20
-152.6010858790047
 10
111.8587407150366
 20
-152.6561212793816
 10
111.9035377222683
 20
-152.7009290525366
 10
111.9585731226451
 20
-152.7009290525366
 10
112.013608523022
 20
-152.7009290525366
 10
112.058416296177
 20
-152.6561212793816
 10
112.058416296177
 20
-152.6010858790047
 97
        0
 72
     1
 10
112.058416296177
 20
-152.6010858790047
 11
112.058416296177
 21
-152.6010858790047
 97
        0
 75
     2
 76
     1
 98
        0
  0
SPLINE
  5
5B
330
1F
100
AcDbEntity
  8
_U+30EC_U+30A4_U+30E4_U+30FC 1
 62
   179
420
  2234388
370
     9
100
AcDbSpline
210
0.0
220
0.0
230
1.0
 70
    11
 71
     3
 72
    17
 73
    13
 74
     0
 42
0.0000000001
 43
0.0000000001
 12
1.0
 22
0.0
 32
0.0
 13
1.0
 23
0.0
 33
0.0
 40
0.0
 40
0.0
 40
0.0
 40
0.0
 40
1.0
 40
1.0
 40
1.0
 40
2.0
 40
2.0
 40
2.0
 40
3.0
 40
3.0
 40
3.0
 40
4.0
 40
4.0
 40
4.0
 40
4.0
 10
112.058416296177
 20
-152.6010858790047
 30
0.0
 10
112.058416296177
 20
-152.5457059690793
 30
0.0
 10
112.013608523022
 20
-152.5012642373196
 30
0.0
 10
111.9585731226451
 20
-152.5012642373196
 30
0.0
 10
111.9035377222683
 20
-152.5012642373196
 30
0.0
 10
111.8587407150366
 20
-152.5457059690793
 30
0.0
 10
111.8587407150366
 20
-152.6010858790047
 30
0.0
 10
111.8587407150366
 20
-152.6561212793816
 30
0.0
 10
111.9035377222683
 20
-152.7009290525366
 30
0.0
 10
111.9585731226451
 20
-152.7009290525366
 30
0.0
 10
112.013608523022
 20
-152.7009290525366
 30
0.0
 10
112.058416296177
 20
-152.6561212793816
 30
0.0
 10
112.058416296177
 20
-152.6010858790047
 30
0.0
  0
SPLINE
  5
5C
330
1F
100
AcDbEntity
  8
_U+30EC_U+30A4_U+30E4_U+30FC 1
370
     0
100
AcDbSpline
210
0.0
220
0.0
230
1.0
 70
    11
 71
     3
 72
    17
 73
    13
 74
     0
 42
0.0000000001
 43
0.0000000001
 12
1.0
 22
0.0
 32
0.0
 13
1.0
 23
0.0
 33
0.0
 40
0.0
 40
0.0
 40
0.0
 40
0.0
 40
1.0
 40
1.0
 40
1.0
 40
2.0
 40
2.0
 40
2.0
 40
3.0
 40
3.0
 40
3.0
 40
4.0
 40
4.0
 40
4.0
 40
4.0
 10
112.058416296177
 20
-153.601067907292
 30
0.0
 10
112.058416296177
 20
-153.5456879973666
 30
0.0
 10
112.013608523022
 20
-153.5012462656069
 30
0.0
 10
111.9585731226451
 20
-153.5012462656069
 30
0.0
 10
111.9035377222683
 20
-153.5012462656069
 30
0.0
 10
111.8587407150366
 20
-153.5456879973666
 30
0.0
 10
111.8587407150366
 20
-153.601067907292
 30
0.0
 10
111.8587407150366
 20
-153.6561033076689
 30
0.0
 10
111.9035377222683
 20
-153.7009110808239
 30
0.0
 10
111.9585731226451
 20
-153.7009110808239
 30
0.0
 10
112.013608523022
 20
-153.7009110808239
 30
0.0
 10
112.058416296177
 20
-153.6561033076689
 30
0.0
 10
112.058416296177
 20
-153.601067907292
 30
0.0
  0
HATCH
  5
5D
330
1F
100
AcDbEntity
  8
_U+30EC_U+30A4_U+30E4_U+30FC 1
 62
   179
420
  2234388
100
AcDbHatch
 10
0.0
 20
0.0
 30
0.0
210
0.0
220
0.0
230
1.0
  2
SOLID
 70
     1
 71
     0
 91
        1
 92
        1
 93
        2
 72
     4
 94
        3
 73
     0
 74
     0
 95
       17
 96
       13
 40
0.0
 40
0.0
 40
0.0
 40
0.0
 40
0.3527777776895833
 40
0.3527777776895833
 40
0.3527777776895833
 40
0.7055555553791667
 40
0.7055555553791667
 40
0.7055555553791667
 40
1.05833333306875
 40
1.05833333306875
 40
1.05833333306875
 40
1.411111110758333
 40
1.411111110758333
 40
1.411111110758333
 40
1.411111110758333
 10
112.058416296177
 20
-153.601067907292
 10
112.058416296177
 20
-153.5456879973666
 10
112.013608523022
 20
-153.5012462656069
 10
111.9585731226451
 20
-153.5012462656069
 10
111.9035377222683
 20
-153.5012462656069
 10
111.8587407150366
 20
-153.5456879973666
 10
111.8587407150366
 20
-153.601067907292
 10
111.8587407150366
 20
-153.6561033076689
 10
111.9035377222683
 20
-153.7009110808239
 10
111.9585731226451
 20
-153.7009110808239
 10
112.013608523022
 20
-153.7009110808239
 10
112.058416296177
 20
-153.6561033076689
 10
112.058416296177
 20
-153.601067907292
 97
        0
 72
     1
 10
112.058416296177
 20
-153.601067907292
 11
112.058416296177
 21
-153.601067907292
 97
        0
 75
     2
 76
     1
 98
        0
  0
SPLINE
  5
5E
330
1F
100
AcDbEntity
  8
_U+30EC_U+30A4_U+30E4_U+30FC 1
 62
   179
420
  2234388
370
     9
100
AcDbSpline
210
0.0
220
0.0
230
1.0
 70
    11
 71
     3
 72
    17
 73
    13
 74
     0
 42
0.0000000001
 43
0.0000000001
 12
1.0
 22
0.0
 32
0.0
 13
1.0
 23
0.0
 33
0.0
 40
0.0
 40
0.0
 40
0.0
 40
0.0
 40
1.0
 40
1.0
 40
1.0
 40
2.0
 40
2.0
 40
2.0
 40
3.0
 40
3.0
 40
3.0
 40
4.0
 40
4.0
 40
4.0
 40
4.0
 10
112.058416296177
 20
-153.601067907292
 30
0.0
 10
112.058416296177
 20
-153.5456879973666
 30
0.0
 10
112.013608523022
 20
-153.5012462656069
 30
0.0
 10
111.9585731226451
 20
-153.5012462656069
 30
0.0
 10
111.9035377222683
 20
-153.5012462656069
 30
0.0
 10
111.8587407150366
 20
-153.5456879973666
 30
0.0
 10
111.8587407150366
 20
-153.601067907292
 30
0.0
 10
111.8587407150366
 20
-153.6561033076689
 30
0.0
 10
111.9035377222683
 20
-153.7009110808239
 30
0.0
 10
111.9585731226451
 20
-153.7009110808239
 30
0.0
 10
112.013608523022
 20
-153.7009110808239
 30
0.0
 10
112.058416296177
 20
-153.6561033076689
 30
0.0
 10
112.058416296177
 20
-153.601067907292
 30
0.0
  0
POLYLINE
  5
5F
330
1F
100
AcDbEntity
  8
_U+30EC_U+30A4_U+30E4_U+30FC 1
 62
   179
420
  2234388
370
     9
100
AcDb2dPolyline
 66
     1
 10
0.0
 20
0.0
 30
0.0
  0
VERTEX
  5
60
330
5F
100
AcDbEntity
  8
_U+30EC_U+30A4_U+30E4_U+30FC 1
 62
   179
420
  2234388
370
     9
100
AcDbVertex
100
AcDb2dVertex
 10
110.8285279738662
 20
-153.601067907292
 30
0.0
  0
VERTEX
  5
61
330
5F
100
AcDbEntity
  8
_U+30EC_U+30A4_U+30E4_U+30FC 1
 62
   179
420
  2234388
370
     9
100
AcDbVertex
100
AcDb2dVertex
 10
113.2884445754919
 20
-153.601067907292
 30
0.0
  0
SEQEND
  5
62
330
5F
100
AcDbEntity
  8
_U+30EC_U+30A4_U+30E4_U+30FC 1
 62
   179
420
  2234388
370
     9
  0
INSERT
  5
64
330
1F
100
AcDbEntity
  8
_U+30EC_U+30A4_U+30E4_U+30FC 1
100
AcDbBlockReference
  2
block 2
 10
0.0
 20
0.0
 30
0.0
  0
INSERT
  5
74
330
1F
100
AcDbEntity
  8
_U+30EC_U+30A4_U+30E4_U+30FC 1
100
AcDbBlockReference
  2
block 3
 10
0.0
 20
0.0
 30
0.0
  0
INSERT
  5
85
330
1F
100
AcDbEntity
  8
_U+30EC_U+30A4_U+30E4_U+30FC 1
100
AcDbBlockReference
  2
block 4
 10
0.0
 20
0.0
 30
0.0
  0
POLYLINE
  5
8A
330
1F
100
AcDbEntity
  8
_U+30EC_U+30A4_U+30E4_U+30FC 1
 62
   179
420
  2234388
370
     9
100
AcDb2dPolyline
 66
     1
 10
0.0
 20
0.0
 30
0.0
  0
VERTEX
  5
8B
330
8A
100
AcDbEntity
  8
_U+30EC_U+30A4_U+30E4_U+30FC 1
 62
   179
420
  2234388
370
     9
100
AcDbVertex
100
AcDb2dVertex
 10
94.11599296760056
 20
-140.1786313872101
 30
0.0
  0
VERTEX
  5
8C
330
8A
100
AcDbEntity
  8
_U+30EC_U+30A4_U+30E4_U+30FC 1
 62
   179
420
  2234388
370
     9
100
AcDbVertex
100
AcDb2dVertex
 10
94.11599296760056
 20
-142.639269305703
 30
0.0
  0
SEQEND
  5
8D
330
8A
100
AcDbEntity
  8
_U+30EC_U+30A4_U+30E4_U+30FC 1
 62
   179
420
  2234388
370
     9
  0
POLYLINE
  5
8E
330
1F
100
AcDbEntity
  8
_U+30EC_U+30A4_U+30E4_U+30FC 1
 62
   179
420
  2234388
370
     9
100
AcDb2dPolyline
 66
     1
 10
0.0
 20
0.0
 30
0.0
  0
VERTEX
  5
8F
330
8E
100
AcDbEntity
  8
_U+30EC_U+30A4_U+30E4_U+30FC 1
 62
   179
420
  2234388
370
     9
100
AcDbVertex
100
AcDb2dVertex
 10
97.11669266709995
 20
-140.1786313872101
 30
0.0
  0
VERTEX
  5
90
330
8E
100
AcDbEntity
  8
_U+30EC_U+30A4_U+30E4_U+30FC 1
 62
   179
420
  2234388
370
     9
100
AcDbVertex
100
AcDb2dVertex
 10
97.11669266709995
 20
-142.639269305703
 30
0.0
  0
SEQEND
  5
91
330
8E
100
AcDbEntity
  8
_U+30EC_U+30A4_U+30E4_U+30FC 1
 62
   179
420
  2234388
370
     9
  0
INSERT
  5
93
330
1F
100
AcDbEntity
  8
_U+30EC_U+30A4_U+30E4_U+30FC 1
100
AcDbBlockReference
  2
block 5
 10
0.0
 20
0.0
 30
0.0
  0
INSERT
  5
99
330
1F
100
AcDbEntity
  8
_U+30EC_U+30A4_U+30E4_U+30FC 1
100
AcDbBlockReference
  2
block 6
 10
0.0
 20
0.0
 30
0.0
  0
POLYLINE
  5
A0
330
1F
100
AcDbEntity
  8
_U+30EC_U+30A4_U+30E4_U+30FC 1
 62
   179
420
  2234388
370
     9
100
AcDb2dPolyline
 66
     1
 10
0.0
 20
0.0
 30
0.0
  0
VERTEX
  5
A1
330
A0
100
AcDbEntity
  8
_U+30EC_U+30A4_U+30E4_U+30FC 1
 62
   179
420
  2234388
370
     9
100
AcDbVertex
100
AcDb2dVertex
 10
97.11633739162836
 20
-141.6386197901654
 30
0.0
  0
VERTEX
  5
A2
330
A0
100
AcDbEntity
  8
_U+30EC_U+30A4_U+30E4_U+30FC 1
 62
   179
420
  2234388
370
     9
100
AcDbVertex
100
AcDb2dVertex
 10
94.11596066983039
 20
-141.6386197901654
 30
0.0
  0
SEQEND
  5
A3
330
A0
100
AcDbEntity
  8
_U+30EC_U+30A4_U+30E4_U+30FC 1
 62
   179
420
  2234388
370
     9
  0
SPLINE
  5
A4
330
1F
100
AcDbEntity
  8
_U+30EC_U+30A4_U+30E4_U+30FC 1
 62
   179
420
  2234388
370
     9
100
AcDbSpline
210
0.0
220
0.0
230
1.0
 70
    11
 71
     3
 72
    17
 73
    13
 74
     0
 42
0.0000000001
 43
0.0000000001
 12
1.0
 22
0.0
 32
0.0
 13
1.0
 23
0.0
 33
0.0
 40
0.0
 40
0.0
 40
0.0
 40
0.0
 40
1.0
 40
1.0
 40
1.0
 40
2.0
 40
2.0
 40
2.0
 40
3.0
 40
3.0
 40
3.0
 40
4.0
 40
4.0
 40
4.0
 40
4.0
 10
109.216546264471
 20
-156.1668027699318
 30
0.0
 10
109.216546264471
 20
-156.2218381703087
 30
0.0
 10
109.171738491316
 20
-156.2666459434637
 30
0.0
 10
109.1167030909391
 20
-156.2666459434637
 30
0.0
 10
109.0616676905623
 20
-156.2666459434637
 30
0.0
 10
109.0168706833306
 20
-156.2218381703087
 30
0.0
 10
109.0168706833306
 20
-156.1668027699318
 30
0.0
 10
109.0168706833306
 20
-156.1117889014018
 30
0.0
 10
109.0616676905623
 20
-156.0669811282467
 30
0.0
 10
109.1167030909391
 20
-156.0669811282467
 30
0.0
 10
109.171738491316
 20
-156.0669811282467
 30
0.0
 10
109.216546264471
 20
-156.1117889014018
 30
0.0
 10
109.216546264471
 20
-156.1668027699318
 30
0.0
  0
SPLINE
  5
A5
330
1F
100
AcDbEntity
  8
_U+30EC_U+30A4_U+30E4_U+30FC 1
 62
   179
420
  2234388
370
     9
100
AcDbSpline
210
0.0
220
0.0
230
1.0
 70
    11
 71
     3
 72
    17
 73
    13
 74
     0
 42
0.0000000001
 43
0.0000000001
 12
1.0
 22
0.0
 32
0.0
 13
1.0
 23
0.0
 33
0.0
 40
0.0
 40
0.0
 40
0.0
 40
0.0
 40
1.0
 40
1.0
 40
1.0
 40
2.0
 40
2.0
 40
2.0
 40
3.0
 40
3.0
 40
3.0
 40
4.0
 40
4.0
 40
4.0
 40
4.0
 10
94.21590073667281
 20
-156.1668027699318
 30
0.0
 10
94.21590073667281
 20
-156.2218381703087
 30
0.0
 10
94.17109296351778
 20
-156.2666459434637
 30
0.0
 10
94.11605756314091
 20
-156.2666459434637
 30
0.0
 10
94.06102216276405
 20
-156.2666459434637
 30
0.0
 10
94.01622515553241
 20
-156.2218381703087
 30
0.0
 10
94.01622515553241
 20
-156.1668027699318
 30
0.0
 10
94.01622515553241
 20
-156.1117889014018
 30
0.0
 10
94.06102216276405
 20
-156.0669811282467
 30
0.0
 10
94.11605756314091
 20
-156.0669811282467
 30
0.0
 10
94.17109296351778
 20
-156.0669811282467
 30
0.0
 10
94.21590073667281
 20
-156.1117889014018
 30
0.0
 10
94.21590073667281
 20
-156.1668027699318
 30
0.0
  0
POLYLINE
  5
A6
330
1F
100
AcDbEntity
  8
_U+30EC_U+30A4_U+30E4_U+30FC 1
 62
   179
420
  2234388
370
     9
100
AcDb2dPolyline
 66
     1
 10
0.0
 20
0.0
 30
0.0
  0
VERTEX
  5
A7
330
A6
100
AcDbEntity
  8
_U+30EC_U+30A4_U+30E4_U+30FC 1
 62
   179
420
  2234388
370
     9
100
AcDbVertex
100
AcDb2dVertex
 10
94.11599296760056
 20
-157.6267911728872
 30
0.0
  0
VERTEX
  5
A8
330
A6
100
AcDbEntity
  8
_U+30EC_U+30A4_U+30E4_U+30FC 1
 62
   179
420
  2234388
370
     9
100
AcDbVertex
100
AcDb2dVertex
 10
94.11599296760056
 20
-155.166174786241
 30
0.0
  0
SEQEND
  5
A9
330
A6
100
AcDbEntity
  8
_U+30EC_U+30A4_U+30E4_U+30FC 1
 62
   179
420
  2234388
370
     9
  0
POLYLINE
  5
AA
330
1F
100
AcDbEntity
  8
_U+30EC_U+30A4_U+30E4_U+30FC 1
 62
   179
420
  2234388
370
     9
100
AcDb2dPolyline
 66
     1
 10
0.0
 20
0.0
 30
0.0
  0
VERTEX
  5
AB
330
AA
100
AcDbEntity
  8
_U+30EC_U+30A4_U+30E4_U+30FC 1
 62
   179
420
  2234388
370
     9
100
AcDbVertex
100
AcDb2dVertex
 10
109.1166384953988
 20
-157.6267911728872
 30
0.0
  0
VERTEX
  5
AC
330
AA
100
AcDbEntity
  8
_U+30EC_U+30A4_U+30E4_U+30FC 1
 62
   179
420
  2234388
370
     9
100
AcDbVertex
100
AcDb2dVertex
 10
109.1166384953988
 20
-155.166174786241
 30
0.0
  0
SEQEND
  5
AD
330
AA
100
AcDbEntity
  8
_U+30EC_U+30A4_U+30E4_U+30FC 1
 62
   179
420
  2234388
370
     9
  0
POLYLINE
  5
AE
330
1F
100
AcDbEntity
  8
_U+30EC_U+30A4_U+30E4_U+30FC 1
 62
   179
420
  2234388
370
     9
100
AcDb2dPolyline
 66
     1
 10
0.0
 20
0.0
 30
0.0
  0
VERTEX
  5
AF
330
AE
100
AcDbEntity
  8
_U+30EC_U+30A4_U+30E4_U+30FC 1
 62
   179
420
  2234388
370
     9
100
AcDbVertex
100
AcDb2dVertex
 10
109.1162832199269
 20
-156.1668027699318
 30
0.0
  0
VERTEX
  5
B0
330
AE
100
AcDbEntity
  8
_U+30EC_U+30A4_U+30E4_U+30FC 1
 62
   179
420
  2234388
370
     9
100
AcDbVertex
100
AcDb2dVertex
 10
94.11580994690291
 20
-156.1668027699318
 30
0.0
  0
SEQEND
  5
B1
330
AE
100
AcDbEntity
  8
_U+30EC_U+30A4_U+30E4_U+30FC 1
 62
   179
420
  2234388
370
     9
  0
SPLINE
  5
B2
330
1F
100
AcDbEntity
  8
_U+30EC_U+30A4_U+30E4_U+30FC 1
370
     0
100
AcDbSpline
210
0.0
220
0.0
230
1.0
 70
    11
 71
     3
 72
    41
 73
    37
 74
     0
 42
0.0000000001
 43
0.0000000001
 12
1.0
 22
0.0
 32
0.0
 13
1.0
 23
0.0
 33
0.0
 40
0.0
 40
0.0
 40
0.0
 40
0.0
 40
1.0
 40
1.0
 40
1.0
 40
2.0
 40
2.0
 40
2.0
 40
3.0
 40
3.0
 40
3.0
 40
4.0
 40
4.0
 40
4.0
 40
5.0
 40
5.0
 40
5.0
 40
6.0
 40
6.0
 40
6.0
 40
7.0
 40
7.0
 40
7.0
 40
8.0
 40
8.0
 40
8.0
 40
9.0
 40
9.0
 40
9.0
 40
10.0
 40
10.0
 40
10.0
 40
11.0
 40
11.0
 40
11.0
 40
12.0
 40
12.0
 40
12.0
 40
12.0
 10
108.5130685323064
 20
-152.6010858790047
 30
0.0
 10
108.5130685323064
 20
-152.6010858790047
 30
0.0
 10
95.0161425882794
 20
-152.6010858790047
 30
0.0
 10
95.0161425882794
 20
-152.6010858790047
 30
0.0
 10
95.0161425882794
 20
-152.6010858790047
 30
0.0
 10
95.0161425882794
 20
-152.6007413694562
 30
0.0
 10
95.0161425882794
 20
-152.6007413694562
 30
0.0
 10
95.0161425882794
 20
-152.6007413694562
 30
0.0
 10
95.0161425882794
 20
-146.100815121895
 30
0.0
 10
95.0161425882794
 20
-146.100815121895
 30
0.0
 10
95.0161425882794
 20
-146.100815121895
 30
0.0
 10
97.01638655886222
 20
-146.100815121895
 30
0.0
 10
97.01638655886222
 20
-146.100815121895
 30
0.0
 10
97.01638655886222
 20
-146.100815121895
 30
0.0
 10
97.1155191814503
 20
-144.6011650571657
 30
0.0
 10
95.81482338099421
 20
-144.6011650571657
 30
0.0
 10
95.81482338099421
 20
-144.6011650571657
 30
0.0
 10
94.0160098370649
 20
-144.6011650571657
 30
0.0
 10
94.0160098370649
 20
-144.6011650571657
 30
0.0
 10
94.0160098370649
 20
-144.6011650571657
 30
0.0
 10
94.0160098370649
 20
-145.1010484120754
 30
0.0
 10
94.0160098370649
 20
-145.1010484120754
 30
0.0
 10
94.0160098370649
 20
-145.1010484120754
 30
0.0
 10
94.0160098370649
 20
-153.1009907657612
 30
0.0
 10
94.0160098370649
 20
-153.1009907657612
 30
0.0
 10
94.0160098370649
 20
-153.1009907657612
 30
0.0
 10
94.0160098370649
 20
-153.600874120671
 30
0.0
 10
94.0160098370649
 20
-153.600874120671
 30
0.0
 10
94.0160098370649
 20
-153.600874120671
 30
0.0
 10
109.0164723441652
 20
-153.600874120671
 30
0.0
 10
109.0164723441652
 20
-153.600874120671
 30
0.0
 10
109.0164723441652
 20
-153.600874120671
 30
0.0
 10
109.0164723441652
 20
-153.1009907657612
 30
0.0
 10
109.0164723441652
 20
-153.1009907657612
 30
0.0
 10
109.0164723441652
 20
-153.1009907657612
 30
0.0
 10
108.9981379766296
 20
-152.6010858790047
 30
0.0
 10
108.5130685323064
 20
-152.6010858790047
 30
0.0
  0
HATCH
  5
B3
330
1F
100
AcDbEntity
  8
_U+30EC_U+30A4_U+30E4_U+30FC 1
 62
     9
420
 13224394
100
AcDbHatch
 10
0.0
 20
0.0
 30
0.0
210
0.0
220
0.0
230
1.0
  2
SOLID
 70
     1
 71
     0
 91
        1
 92
        1
 93
        2
 72
     4
 94
        3
 73
     0
 74
     0
 95
       41
 96
       37
 40
0.0
 40
0.0
 40
0.0
 40
0.0
 40
0.3527777776895833
 40
0.3527777776895833
 40
0.3527777776895833
 40
0.7055555553791667
 40
0.7055555553791667
 40
0.7055555553791667
 40
1.05833333306875
 40
1.05833333306875
 40
1.05833333306875
 40
1.411111110758333
 40
1.411111110758333
 40
1.411111110758333
 40
1.763888888447917
 40
1.763888888447917
 40
1.763888888447917
 40
2.1166666661375
 40
2.1166666661375
 40
2.1166666661375
 40
2.469444443827083
 40
2.469444443827083
 40
2.469444443827083
 40
2.822222221516667
 40
2.822222221516667
 40
2.822222221516667
 40
3.17499999920625
 40
3.17499999920625
 40
3.17499999920625
 40
3.527777776895833
 40
3.527777776895833
 40
3.527777776895833
 40
3.880555554585417
 40
3.880555554585417
 40
3.880555554585417
 40
4.233333332275
 40
4.233333332275
 40
4.233333332275
 40
4.233333332275
 10
108.5130685323064
 20
-152.6010858790047
 10
108.5130685323064
 20
-152.6010858790047
 10
95.0161425882794
 20
-152.6010858790047
 10
95.0161425882794
 20
-152.6010858790047
 10
95.0161425882794
 20
-152.6010858790047
 10
95.0161425882794
 20
-152.6007413694562
 10
95.0161425882794
 20
-152.6007413694562
 10
95.0161425882794
 20
-152.6007413694562
 10
95.0161425882794
 20
-146.100815121895
 10
95.0161425882794
 20
-146.100815121895
 10
95.0161425882794
 20
-146.100815121895
 10
97.01638655886222
 20
-146.100815121895
 10
97.01638655886222
 20
-146.100815121895
 10
97.01638655886222
 20
-146.100815121895
 10
97.1155191814503
 20
-144.6011650571657
 10
95.81482338099421
 20
-144.6011650571657
 10
95.81482338099421
 20
-144.6011650571657
 10
94.0160098370649
 20
-144.6011650571657
 10
94.0160098370649
 20
-144.6011650571657
 10
94.0160098370649
 20
-144.6011650571657
 10
94.0160098370649
 20
-145.1010484120754
 10
94.0160098370649
 20
-145.1010484120754
 10
94.0160098370649
 20
-145.1010484120754
 10
94.0160098370649
 20
-153.1009907657612
 10
94.0160098370649
 20
-153.1009907657612
 10
94.0160098370649
 20
-153.1009907657612
 10
94.0160098370649
 20
-153.600874120671
 10
94.0160098370649
 20
-153.600874120671
 10
94.0160098370649
 20
-153.600874120671
 10
109.0164723441652
 20
-153.600874120671
 10
109.0164723441652
 20
-153.600874120671
 10
109.0164723441652
 20
-153.600874120671
 10
109.0164723441652
 20
-153.1009907657612
 10
109.0164723441652
 20
-153.1009907657612
 10
109.0164723441652
 20
-153.1009907657612
 10
108.9981379766296
 20
-152.6010858790047
 10
108.5130685323064
 20
-152.6010858790047
 97
        0
 72
     1
 10
108.5130685323064
 20
-152.6010858790047
 11
108.5130685323064
 21
-152.6010858790047
 97
        0
 75
     2
 76
     1
 98
        0
  0
SPLINE
  5
B4
330
1F
100
AcDbEntity
  8
_U+30EC_U+30A4_U+30E4_U+30FC 1
 62
   179
420
  2234388
370
    25
100
AcDbSpline
210
0.0
220
0.0
230
1.0
 70
    11
 71
     3
 72
    41
 73
    37
 74
     0
 42
0.0000000001
 43
0.0000000001
 12
1.0
 22
0.0
 32
0.0
 13
1.0
 23
0.0
 33
0.0
 40
0.0
 40
0.0
 40
0.0
 40
0.0
 40
1.0
 40
1.0
 40
1.0
 40
2.0
 40
2.0
 40
2.0
 40
3.0
 40
3.0
 40
3.0
 40
4.0
 40
4.0
 40
4.0
 40
5.0
 40
5.0
 40
5.0
 40
6.0
 40
6.0
 40
6.0
 40
7.0
 40
7.0
 40
7.0
 40
8.0
 40
8.0
 40
8.0
 40
9.0
 40
9.0
 40
9.0
 40
10.0
 40
10.0
 40
10.0
 40
11.0
 40
11.0
 40
11.0
 40
12.0
 40
12.0
 40
12.0
 40
12.0
 10
108.5130685323064
 20
-152.6010858790047
 30
0.0
 10
108.5130685323064
 20
-152.6010858790047
 30
0.0
 10
95.0161425882794
 20
-152.6010858790047
 30
0.0
 10
95.0161425882794
 20
-152.6010858790047
 30
0.0
 10
95.0161425882794
 20
-152.6010858790047
 30
0.0
 10
95.0161425882794
 20
-152.6007413694562
 30
0.0
 10
95.0161425882794
 20
-152.6007413694562
 30
0.0
 10
95.0161425882794
 20
-152.6007413694562
 30
0.0
 10
95.0161425882794
 20
-146.100815121895
 30
0.0
 10
95.0161425882794
 20
-146.100815121895
 30
0.0
 10
95.0161425882794
 20
-146.100815121895
 30
0.0
 10
97.01638655886222
 20
-146.100815121895
 30
0.0
 10
97.01638655886222
 20
-146.100815121895
 30
0.0
 10
97.01638655886222
 20
-146.100815121895
 30
0.0
 10
97.1155191814503
 20
-144.6011650571657
 30
0.0
 10
95.81482338099421
 20
-144.6011650571657
 30
0.0
 10
95.81482338099421
 20
-144.6011650571657
 30
0.0
 10
94.0160098370649
 20
-144.6011650571657
 30
0.0
 10
94.0160098370649
 20
-144.6011650571657
 30
0.0
 10
94.0160098370649
 20
-144.6011650571657
 30
0.0
 10
94.0160098370649
 20
-145.1010484120754
 30
0.0
 10
94.0160098370649
 20
-145.1010484120754
 30
0.0
 10
94.0160098370649
 20
-145.1010484120754
 30
0.0
 10
94.0160098370649
 20
-153.1009907657612
 30
0.0
 10
94.0160098370649
 20
-153.1009907657612
 30
0.0
 10
94.0160098370649
 20
-153.1009907657612
 30
0.0
 10
94.0160098370649
 20
-153.600874120671
 30
0.0
 10
94.0160098370649
 20
-153.600874120671
 30
0.0
 10
94.0160098370649
 20
-153.600874120671
 30
0.0
 10
109.0164723441652
 20
-153.600874120671
 30
0.0
 10
109.0164723441652
 20
-153.600874120671
 30
0.0
 10
109.0164723441652
 20
-153.600874120671
 30
0.0
 10
109.0164723441652
 20
-153.1009907657612
 30
0.0
 10
109.0164723441652
 20
-153.1009907657612
 30
0.0
 10
109.0164723441652
 20
-153.1009907657612
 30
0.0
 10
108.9981379766296
 20
-152.6010858790047
 30
0.0
 10
108.5130685323064
 20
-152.6010858790047
 30
0.0
  0
INSERT
  5
B6
330
1F
100
AcDbEntity
  8
_U+30EC_U+30A4_U+30E4_U+30FC 1
100
AcDbBlockReference
  2
block 7
 10
0.0
 20
0.0
 30
0.0
  0
POLYLINE
  5
C8
330
1F
100
AcDbEntity
  8
_U+30EC_U+30A4_U+30E4_U+30FC 1
 62
   179
420
  2234388
370
     9
100
AcDb2dPolyline
 66
     1
 10
0.0
 20
0.0
 30
0.0
  0
VERTEX
  5
C9
330
C8
100
AcDbEntity
  8
_U+30EC_U+30A4_U+30E4_U+30FC 1
 62
   179
420
  2234388
370
     9
100
AcDbVertex
100
AcDb2dVertex
 10
96.98954711184746
 20
-144.0379350090212
 30
0.0
  0
VERTEX
  5
CA
330
C8
100
AcDbEntity
  8
_U+30EC_U+30A4_U+30E4_U+30FC 1
 62
   179
420
  2234388
370
     9
100
AcDbVertex
100
AcDb2dVertex
 10
99.47662613818966
 20
-142.4074143795457
 30
0.0
  0
SEQEND
  5
CB
330
C8
100
AcDbEntity
  8
_U+30EC_U+30A4_U+30E4_U+30FC 1
 62
   179
420
  2234388
370
     9
  0
POLYLINE
  5
CC
330
1F
100
AcDbEntity
  8
_U+30EC_U+30A4_U+30E4_U+30FC 1
370
     0
100
AcDb2dPolyline
 66
     1
 10
0.0
 20
0.0
 30
0.0
  0
VERTEX
  5
CD
330
CC
100
AcDbEntity
  8
_U+30EC_U+30A4_U+30E4_U+30FC 1
370
     0
100
AcDbVertex
100
AcDb2dVertex
 10
96.99783687285884
 20
-143.689355941454
 30
0.0
  0
VERTEX
  5
CE
330
CC
100
AcDbEntity
  8
_U+30EC_U+30A4_U+30E4_U+30FC 1
370
     0
100
AcDbVertex
100
AcDb2dVertex
 10
96.2506494917251
 20
-144.5268586539182
 30
0.0
  0
VERTEX
  5
CF
330
CC
100
AcDbEntity
  8
_U+30EC_U+30A4_U+30E4_U+30FC 1
370
     0
100
AcDbVertex
100
AcDb2dVertex
 10
97.31638978008714
 20
-144.1751359367213
 30
0.0
  0
VERTEX
  5
D0
330
CC
100
AcDbEntity
  8
_U+30EC_U+30A4_U+30E4_U+30FC 1
370
     0
100
AcDbVertex
100
AcDb2dVertex
 10
96.99783687285884
 20
-143.689355941454
 30
0.0
  0
SEQEND
  5
D2
330
CC
100
AcDbEntity
  8
_U+30EC_U+30A4_U+30E4_U+30FC 1
370
     0
  0
HATCH
  5
D1
330
1F
100
AcDbEntity
  8
_U+30EC_U+30A4_U+30E4_U+30FC 1
 62
   179
420
  2234388
100
AcDbHatch
 10
0.0
 20
0.0
 30
0.0
210
0.0
220
0.0
230
1.0
  2
SOLID
 70
     1
 71
     0
 91
        1
 92
        1
 93
        3
 72
     1
 10
96.99783687285884
 20
-143.689355941454
 11
96.2506494917251
 21
-144.5268586539182
 72
     1
 10
96.2506494917251
 20
-144.5268586539182
 11
97.31638978008714
 21
-144.1751359367213
 72
     1
 10
97.31638978008714
 20
-144.1751359367213
 11
96.99783687285884
 21
-143.689355941454
 97
        0
 75
     2
 76
     1
 98
        0
  0
ENDSEC
  0
SECTION
  2
OBJECTS
  0
DICTIONARY
  5
C
330
0
100
AcDbDictionary
281
     1
  3
ACAD_GROUP
350
D
  3
ACAD_LAYOUT
350
1A
  3
ACAD_MATERIAL
350
3B
  3
ACAD_MLEADERSTYLE
350
D4
  3
ACAD_MLINESTYLE
350
17
  3
ACAD_PLOTSETTINGS
350
19
  3
ACAD_PLOTSTYLENAME
350
E
  3
ACAD_TABLESTYLE
350
D3
  3
ACAD_VISUALSTYLE
350
2A
  0
SUN
  5
3F
330
29
100
AcDbSun
 90
        1
290
     0
 63
     7
421
 16777215
 40
1.0
291
     1
 91
  2455826
 92
 54000000
292
     0
 70
     2
 71
   256
280
     1
  0
DICTIONARY
  5
D
102
{ACAD_REACTORS
330
C
102
}
330
C
100
AcDbDictionary
281
     1
  0
DICTIONARY
  5
1A
102
{ACAD_REACTORS
330
C
102
}
330
C
100
AcDbDictionary
281
     1
  3
Layout1
350
1E
  3
Layout2
350
26
  3
Model
350
22
  0
DICTIONARY
  5
3B
102
{ACAD_REACTORS
330
C
102
}
330
C
100
AcDbDictionary
281
     1
  3
ByBlock
350
3D
  3
ByLayer
350
3C
  3
Global
350
3E
  0
DICTIONARY
  5
D4
102
{ACAD_REACTORS
330
C
102
}
330
C
100
AcDbDictionary
281
     1
  0
DICTIONARY
  5
17
102
{ACAD_REACTORS
330
C
102
}
330
C
100
AcDbDictionary
281
     1
  3
Standard
350
18
  0
DICTIONARY
  5
19
102
{ACAD_REACTORS
330
C
102
}
330
C
100
AcDbDictionary
281
     1
  0
ACDBDICTIONARYWDFLT
  5
E
102
{ACAD_REACTORS
330
C
102
}
330
C
100
AcDbDictionary
281
     1
  3
Normal
350
F
100
AcDbDictionaryWithDefault
340
F
  0
DICTIONARY
  5
D3
102
{ACAD_REACTORS
330
C
102
}
330
C
100
AcDbDictionary
281
     1
  0
DICTIONARY
  5
2A
102
{ACAD_REACTORS
330
C
102
}
330
C
100
AcDbDictionary
281
     1
  3
2dWireframe
350
2F
  3
3D Hidden
350
31
  3
3dWireframe
350
30
  3
Basic
350
32
  3
Brighten
350
36
  3
ColorChange
350
3A
  3
Conceptual
350
34
  3
Dim
350
35
  3
Facepattern
350
39
  3
Flat
350
2B
  3
FlatWithEdges
350
2C
  3
Gouraud
350
2D
  3
GouraudWithEdges
350
2E
  3
Linepattern
350
38
  3
Realistic
350
33
  3
Thicken
350
37
  0
LAYOUT
  5
1E
102
{ACAD_REACTORS
330
1A
102
}
330
1A
100
AcDbPlotSettings
  1

  2
none_device
  4

  6

 40
0.0
 41
0.0
 42
0.0
 43
0.0
 44
0.0
 45
0.0
 46
0.0
 47
0.0
 48
0.0
 49
0.0
140
0.0
141
0.0
142
1.0
143
1.0
 70
   688
 72
     0
 73
     0
 74
     5
  7

 75
    16
 76
     0
 77
     2
 78
   300
147
1.0
148
0.0
149
0.0
100
AcDbLayout
  1
Layout1
 70
     1
 71
     1
 10
0.0
 20
0.0
 11
12.0
 21
9.0
 12
0.0
 22
0.0
 32
0.0
 14
1.000000000000000E+20
 24
1.000000000000000E+20
 34
1.000000000000000E+20
 15
-1.000000000000000E+20
 25
-1.000000000000000E+20
 35
-1.000000000000000E+20
146
0.0
 13
0.0
 23
0.0
 33
0.0
 16
1.0
 26
0.0
 36
0.0
 17
0.0
 27
1.0
 37
0.0
 76
     0
330
1B
  0
LAYOUT
  5
26
102
{ACAD_REACTORS
330
1A
102
}
330
1A
100
AcDbPlotSettings
  1

  2
none_device
  4

  6

 40
0.0
 41
0.0
 42
0.0
 43
0.0
 44
0.0
 45
0.0
 46
0.0
 47
0.0
 48
0.0
 49
0.0
140
0.0
141
0.0
142
1.0
143
1.0
 70
   688
 72
     0
 73
     0
 74
     5
  7

 75
    16
 76
     0
 77
     2
 78
   300
147
1.0
148
0.0
149
0.0
100
AcDbLayout
  1
Layout2
 70
     1
 71
     2
 10
0.0
 20
0.0
 11
0.0
 21
0.0
 12
0.0
 22
0.0
 32
0.0
 14
0.0
 24
0.0
 34
0.0
 15
0.0
 25
0.0
 35
0.0
146
0.0
 13
0.0
 23
0.0
 33
0.0
 16
1.0
 26
0.0
 36
0.0
 17
0.0
 27
1.0
 37
0.0
 76
     0
330
23
  0
LAYOUT
  5
22
102
{ACAD_REACTORS
330
1A
102
}
330
1A
100
AcDbPlotSettings
  1

  2
none_device
  4

  6

 40
0.0
 41
0.0
 42
0.0
 43
0.0
 44
0.0
 45
0.0
 46
0.0
 47
0.0
 48
0.0
 49
0.0
140
0.0
141
0.0
142
1.0
143
1.0
 70
  1712
 72
     0
 73
     0
 74
     0
  7

 75
     0
 76
     0
 77
     2
 78
   300
147
1.0
148
0.0
149
0.0
100
AcDbLayout
  1
Model
 70
     1
 71
     0
 10
0.0
 20
0.0
 11
12.0
 21
9.0
 12
0.0
 22
0.0
 32
0.0
 14
1.000000000000000E+20
 24
1.000000000000000E+20
 34
1.000000000000000E+20
 15
-1.000000000000000E+20
 25
-1.000000000000000E+20
 35
-1.000000000000000E+20
146
0.0
 13
0.0
 23
0.0
 33
0.0
 16
1.0
 26
0.0
 36
0.0
 17
0.0
 27
1.0
 37
0.0
 76
     0
330
1F
331
29
  0
MATERIAL
  5
3D
102
{ACAD_REACTORS
330
3B
102
}
330
3B
100
AcDbMaterial
  1
ByBlock
 72
     1
 94
      127
  0
MATERIAL
  5
3C
102
{ACAD_REACTORS
330
3B
102
}
330
3B
100
AcDbMaterial
  1
ByLayer
 72
     1
 94
      127
  0
MATERIAL
  5
3E
102
{ACAD_REACTORS
330
3B
102
}
330
3B
100
AcDbMaterial
  1
Global
 72
     1
 94
      127
  0
MLINESTYLE
  5
18
102
{ACAD_REACTORS
330
17
102
}
330
17
100
AcDbMlineStyle
  2
Standard
 70
     0
  3

 62
   256
 51
90.0
 52
90.0
 71
     2
 49
0.5
 62
   256
  6
BYLAYER
 49
-0.5
 62
   256
  6
BYLAYER
  0
ACDBPLACEHOLDER
  5
F
102
{ACAD_REACTORS
330
E
102
}
330
E
  0
VISUALSTYLE
  5
2F
102
{ACAD_REACTORS
330
2A
102
}
330
2A
100
AcDbVisualStyle
  2
2dWireframe
 70
     4
177
     2
291
     0
 71
     0
176
     1
 72
     2
176
     1
 73
     0
176
     1
 90
        0
176
     1
 40
-0.6
176
     1
 41
-30.0
176
     1
 62
     5
 63
     7
421
 16777215
176
     1
 74
     1
176
     1
 91
        4
176
     1
 64
     7
176
     1
 65
   257
176
     1
 75
     1
176
     1
175
     1
176
     1
 42
1.0
176
     1
 92
        0
176
     1
 66
   257
176
     1
 43
1.0
176
     1
 76
     1
176
     1
 77
     6
176
     1
 78
     2
176
     1
 67
     7
176
     1
 79
     5
176
     1
170
     0
176
     1
171
     0
176
     1
290
     0
176
     1
 93
        1
176
     1
 44
0.0
176
     1
173
     0
176
     1
  0
VISUALSTYLE
  5
31
102
{ACAD_REACTORS
330
2A
102
}
330
2A
100
AcDbVisualStyle
  2
3D Hidden
 70
     6
177
     2
291
     0
 71
     1
176
     1
 72
     2
176
     1
 73
     2
176
     1
 90
        0
176
     1
 40
-0.6
176
     1
 41
-30.0
176
     1
 62
     5
 63
     7
421
 16777215
176
     1
 74
     2
176
     1
 91
        2
176
     1
 64
     7
176
     1
 65
   257
176
     1
 75
     2
176
     1
175
     1
176
     1
 42
40.0
176
     1
 92
        0
176
     1
 66
   257
176
     1
 43
1.0
176
     1
 76
     1
176
     1
 77
     6
176
     1
 78
     2
176
     1
 67
     7
176
     1
 79
     3
176
     1
170
     0
176
     1
171
     0
176
     1
290
     0
176
     1
 93
        1
176
     1
 44
0.0
176
     1
173
     0
176
     1
  0
VISUALSTYLE
  5
30
102
{ACAD_REACTORS
330
2A
102
}
330
2A
100
AcDbVisualStyle
  2
3dWireframe
 70
     5
177
     2
291
     0
 71
     0
176
     1
 72
     2
176
     1
 73
     0
176
     1
 90
        0
176
     1
 40
-0.6
176
     1
 41
-30.0
176
     1
 62
     5
 63
     7
421
 16777215
176
     1
 74
     1
176
     1
 91
        4
176
     1
 64
     7
176
     1
 65
   257
176
     1
 75
     1
176
     1
175
     1
176
     1
 42
1.0
176
     1
 92
        0
176
     1
 66
   257
176
     1
 43
1.0
176
     1
 76
     1
176
     1
 77
     6
176
     1
 78
     2
176
     1
 67
     7
176
     1
 79
     5
176
     1
170
     0
176
     1
171
     0
176
     1
290
     0
176
     1
 93
        1
176
     1
 44
0.0
176
     1
173
     0
176
     1
  0
VISUALSTYLE
  5
32
102
{ACAD_REACTORS
330
2A
102
}
330
2A
100
AcDbVisualStyle
  2
Basic
 70
     7
177
     2
291
     1
 71
     1
176
     1
 72
     0
176
     1
 73
     1
176
     1
 90
        0
176
     1
 40
-0.6
176
     1
 41
-30.0
176
     1
 62
     5
 63
     7
421
 16777215
176
     1
 74
     0
176
     1
 91
        4
176
     1
 64
     7
176
     1
 65
   257
176
     1
 75
     1
176
     1
175
     1
176
     1
 42
1.0
176
     1
 92
        8
176
     1
 66
     7
176
     1
 43
1.0
176
     1
 76
     1
176
     1
 77
     6
176
     1
 78
     2
176
     1
 67
     7
176
     1
 79
     5
176
     1
170
     0
176
     1
171
     0
176
     1
290
     0
176
     1
 93
        1
176
     1
 44
0.0
176
     1
173
     0
176
     1
  0
VISUALSTYLE
  5
36
102
{ACAD_REACTORS
330
2A
102
}
330
2A
100
AcDbVisualStyle
  2
Brighten
 70
    12
177
     2
291
     1
 71
     2
176
     1
 72
     2
176
     1
 73
     0
176
     1
 90
        0
176
     1
 40
-0.6
176
     1
 41
-30.0
176
     1
 62
     5
 63
     7
421
 16777215
176
     1
 74
     1
176
     1
 91
        4
176
     1
 64
     7
176
     1
 65
   257
176
     1
 75
     1
176
     1
175
     1
176
     1
 42
1.0
176
     1
 92
        8
176
     1
 66
     7
176
     1
 43
1.0
176
     1
 76
     1
176
     1
 77
     6
176
     1
 78
     2
176
     1
 67
     7
176
     1
 79
     5
176
     1
170
     0
176
     1
171
     0
176
     1
290
     0
176
     1
 93
        1
176
     1
 44
50.0
176
     1
173
     0
176
     1
  0
VISUALSTYLE
  5
3A
102
{ACAD_REACTORS
330
2A
102
}
330
2A
100
AcDbVisualStyle
  2
ColorChange
 70
    16
177
     2
291
     1
 71
     2
176
     1
 72
     2
176
     1
 73
     3
176
     1
 90
        0
176
     1
 40
-0.6
176
     1
 41
-30.0
176
     1
 62
     5
 63
     8
421
  8421504
176
     1
 74
     1
176
     1
 91
        4
176
     1
 64
     7
176
     1
 65
   257
176
     1
 75
     1
176
     1
175
     1
176
     1
 42
1.0
176
     1
 92
        8
176
     1
 66
     8
424
  8421504
176
     1
 43
1.0
176
     1
 76
     1
176
     1
 77
     6
176
     1
 78
     2
176
     1
 67
     7
176
     1
 79
     5
176
     1
170
     0
176
     1
171
     0
176
     1
290
     0
176
     1
 93
        1
176
     1
 44
0.0
176
     1
173
     0
176
     1
  0
VISUALSTYLE
  5
34
102
{ACAD_REACTORS
330
2A
102
}
330
2A
100
AcDbVisualStyle
  2
Conceptual
 70
     9
177
     2
291
     0
 71
     3
176
     1
 72
     2
176
     1
 73
     0
176
     1
 90
        0
176
     1
 40
-0.6
176
     1
 41
-30.0
176
     1
 62
     5
 63
     7
421
 16777215
176
     1
 74
     2
176
     1
 91
        2
176
     1
 64
     7
176
     1
 65
   257
176
     1
 75
     1
176
     1
175
     1
176
     1
 42
40.0
176
     1
 92
        8
176
     1
 66
     7
176
     1
 43
1.0
176
     1
 76
     1
176
     1
 77
     6
176
     1
 78
     2
176
     1
 67
     7
176
     1
 79
     3
176
     1
170
     0
176
     1
171
     0
176
     1
290
     0
176
     1
 93
        1
176
     1
 44
0.0
176
     1
173
     0
176
     1
  0
VISUALSTYLE
  5
35
102
{ACAD_REACTORS
330
2A
102
}
330
2A
100
AcDbVisualStyle
  2
Dim
 70
    11
177
     2
291
     1
 71
     2
176
     1
 72
     2
176
     1
 73
     0
176
     1
 90
        0
176
     1
 40
-0.6
176
     1
 41
-30.0
176
     1
 62
     5
 63
     7
421
 16777215
176
     1
 74
     1
176
     1
 91
        4
176
     1
 64
     7
176
     1
 65
   257
176
     1
 75
     1
176
     1
175
     1
176
     1
 42
1.0
176
     1
 92
        8
176
     1
 66
     7
176
     1
 43
1.0
176
     1
 76
     1
176
     1
 77
     6
176
     1
 78
     2
176
     1
 67
     7
176
     1
 79
     5
176
     1
170
     0
176
     1
171
     0
176
     1
290
     0
176
     1
 93
        1
176
     1
 44
-50.0
176
     1
173
     0
176
     1
  0
VISUALSTYLE
  5
39
102
{ACAD_REACTORS
330
2A
102
}
330
2A
100
AcDbVisualStyle
  2
Facepattern
 70
    15
177
     2
291
     1
 71
     2
176
     1
 72
     2
176
     1
 73
     0
176
     1
 90
        0
176
     1
 40
-0.6
176
     1
 41
-30.0
176
     1
 62
     5
 63
     7
421
 16777215
176
     1
 74
     1
176
     1
 91
        4
176
     1
 64
     7
176
     1
 65
   257
176
     1
 75
     1
176
     1
175
     1
176
     1
 42
1.0
176
     1
 92
        8
176
     1
 66
     7
176
     1
 43
1.0
176
     1
 76
     1
176
     1
 77
     6
176
     1
 78
     2
176
     1
 67
     7
176
     1
 79
     5
176
     1
170
     0
176
     1
171
     0
176
     1
290
     0
176
     1
 93
        1
176
     1
 44
0.0
176
     1
173
     0
176
     1
  0
VISUALSTYLE
  5
2B
102
{ACAD_REACTORS
330
2A
102
}
330
2A
100
AcDbVisualStyle
  2
Flat
 70
     0
177
     2
291
     1
 71
     2
176
     1
 72
     1
176
     1
 73
     1
176
     1
 90
        2
176
     1
 40
-0.6
176
     1
 41
30.0
176
     1
 62
     5
 63
     7
421
 16777215
176
     1
 74
     0
176
     1
 91
        4
176
     1
 64
     7
176
     1
 65
   257
176
     1
 75
     1
176
     1
175
     1
176
     1
 42
1.0
176
     1
 92
        8
176
     1
 66
     7
176
     1
 43
1.0
176
     1
 76
     1
176
     1
 77
     6
176
     1
 78
     2
176
     1
 67
     7
176
     1
 79
     5
176
     1
170
     0
176
     1
171
     0
176
     1
290
     0
176
     1
 93
       13
176
     1
 44
0.0
176
     1
173
     0
176
     1
  0
VISUALSTYLE
  5
2C
102
{ACAD_REACTORS
330
2A
102
}
330
2A
100
AcDbVisualStyle
  2
FlatWithEdges
 70
     1
177
     2
291
     1
 71
     2
176
     1
 72
     1
176
     1
 73
     1
176
     1
 90
        2
176
     1
 40
-0.6
176
     1
 41
30.0
176
     1
 62
     5
 63
     7
421
 16777215
176
     1
 74
     1
176
     1
 91
        4
176
     1
 64
     7
176
     1
 65
   257
176
     1
 75
     1
176
     1
175
     1
176
     1
 42
1.0
176
     1
 92
        0
176
     1
 66
   257
176
     1
 43
1.0
176
     1
 76
     1
176
     1
 77
     6
176
     1
 78
     2
176
     1
 67
     7
176
     1
 79
     5
176
     1
170
     0
176
     1
171
     0
176
     1
290
     0
176
     1
 93
       13
176
     1
 44
0.0
176
     1
173
     0
176
     1
  0
VISUALSTYLE
  5
2D
102
{ACAD_REACTORS
330
2A
102
}
330
2A
100
AcDbVisualStyle
  2
Gouraud
 70
     2
177
     2
291
     1
 71
     2
176
     1
 72
     2
176
     1
 73
     1
176
     1
 90
        2
176
     1
 40
-0.6
176
     1
 41
30.0
176
     1
 62
     5
 63
     7
421
 16777215
176
     1
 74
     0
176
     1
 91
        4
176
     1
 64
     7
176
     1
 65
   257
176
     1
 75
     1
176
     1
175
     1
176
     1
 42
1.0
176
     1
 92
        0
176
     1
 66
     7
176
     1
 43
1.0
176
     1
 76
     1
176
     1
 77
     6
176
     1
 78
     2
176
     1
 67
     7
176
     1
 79
     5
176
     1
170
     0
176
     1
171
     0
176
     1
290
     0
176
     1
 93
       13
176
     1
 44
0.0
176
     1
173
     0
176
     1
  0
VISUALSTYLE
  5
2E
102
{ACAD_REACTORS
330
2A
102
}
330
2A
100
AcDbVisualStyle
  2
GouraudWithEdges
 70
     3
177
     2
291
     1
 71
     2
176
     1
 72
     2
176
     1
 73
     1
176
     1
 90
        2
176
     1
 40
-0.6
176
     1
 41
30.0
176
     1
 62
     5
 63
     7
421
 16777215
176
     1
 74
     1
176
     1
 91
        4
176
     1
 64
     7
176
     1
 65
   257
176
     1
 75
     1
176
     1
175
     1
176
     1
 42
1.0
176
     1
 92
        0
176
     1
 66
   257
176
     1
 43
1.0
176
     1
 76
     1
176
     1
 77
     6
176
     1
 78
     2
176
     1
 67
     7
176
     1
 79
     5
176
     1
170
     0
176
     1
171
     0
176
     1
290
     0
176
     1
 93
       13
176
     1
 44
0.0
176
     1
173
     0
176
     1
  0
VISUALSTYLE
  5
38
102
{ACAD_REACTORS
330
2A
102
}
330
2A
100
AcDbVisualStyle
  2
Linepattern
 70
    14
177
     2
291
     1
 71
     2
176
     1
 72
     2
176
     1
 73
     0
176
     1
 90
        0
176
     1
 40
-0.6
176
     1
 41
-30.0
176
     1
 62
     5
 63
     7
421
 16777215
176
     1
 74
     1
176
     1
 91
        4
176
     1
 64
     7
176
     1
 65
   257
176
     1
 75
     7
176
     1
175
     7
176
     1
 42
1.0
176
     1
 92
        8
176
     1
 66
     7
176
     1
 43
1.0
176
     1
 76
     1
176
     1
 77
     6
176
     1
 78
     2
176
     1
 67
     7
176
     1
 79
     5
176
     1
170
     0
176
     1
171
     0
176
     1
290
     0
176
     1
 93
        1
176
     1
 44
0.0
176
     1
173
     0
176
     1
  0
VISUALSTYLE
  5
33
102
{ACAD_REACTORS
330
2A
102
}
330
2A
100
AcDbVisualStyle
  2
Realistic
 70
     8
177
     2
291
     0
 71
     2
176
     1
 72
     2
176
     1
 73
     0
176
     1
 90
        0
176
     1
 40
-0.6
176
     1
 41
-30.0
176
     1
 62
     5
 63
     7
421
 16777215
176
     1
 74
     1
176
     1
 91
        0
176
     1
 64
     7
176
     1
 65
   257
176
     1
 75
     1
176
     1
175
     1
176
     1
 42
1.0
176
     1
 92
        8
176
     1
 66
     8
424
  7895160
176
     1
 43
1.0
176
     1
 76
     1
176
     1
 77
     6
176
     1
 78
     2
176
     1
 67
     7
176
     1
 79
     5
176
     1
170
     0
176
     1
171
     0
176
     1
290
     0
176
     1
 93
       13
176
     1
 44
0.0
176
     1
173
     0
176
     1
  0
VISUALSTYLE
  5
37
102
{ACAD_REACTORS
330
2A
102
}
330
2A
100
AcDbVisualStyle
  2
Thicken
 70
    13
177
     2
291
     1
 71
     2
176
     1
 72
     2
176
     1
 73
     0
176
     1
 90
        0
176
     1
 40
-0.6
176
     1
 41
-30.0
176
     1
 62
     5
 63
     7
421
 16777215
176
     1
 74
     1
176
     1
 91
        4
176
     1
 64
     7
176
     1
 65
   257
176
     1
 75
     1
176
     1
175
     1
176
     1
 42
1.0
176
     1
 92
       12
176
     1
 66
     7
176
     1
 43
1.0
176
     1
 76
     1
176
     1
 77
     6
176
     1
 78
     2
176
     1
 67
     7
176
     1
 79
     5
176
     1
170
     0
176
     1
171
     0
176
     1
290
     0
176
     1
 93
        1
176
     1
 44
0.0
176
     1
173
     0
176
     1
  0
ENDSEC
  0
EOF
