  0
SECTION
  2
HEADER
  9
$ACADVER
  1
AC1024
  9
$ACADMAINTVER
 70
     6
  9
$DWGCODEPAGE
  3
UNDEFINED
  9
$INSBASE
 10
0.0
 20
0.0
 30
0.0
  9
$EXTMIN
 10
1.000000000000000E+20
 20
1.000000000000000E+20
 30
1.000000000000000E+20
  9
$EXTMAX
 10
-1.000000000000000E+20
 20
-1.000000000000000E+20
 30
-1.000000000000000E+20
  9
$LIMMIN
 10
0.0
 20
0.0
  9
$LIMMAX
 10
12.0
 20
9.0
  9
$ORTHOMODE
 70
     0
  9
$REGENMODE
 70
     1
  9
$FILLMODE
 70
     1
  9
$QTEXTMODE
 70
     0
  9
$MIRRTEXT
 70
     1
  9
$LTSCALE
 40
1.0
  9
$ATTMODE
 70
     1
  9
$TEXTSIZE
 40
0.2
  9
$TRACEWID
 40
0.05
  9
$TEXTSTYLE
  7
Standard
  9
$CLAYER
  8
0
  9
$CELTYPE
  6
ByLayer
  9
$CECOLOR
 62
   256
  9
$CELTSCALE
 40
1.0
  9
$DISPSILH
 70
     0
  9
$DIMSCALE
 40
1.0
  9
$DIMASZ
 40
0.18
  9
$DIMEXO
 40
0.0625
  9
$DIMDLI
 40
0.38
  9
$DIMRND
 40
0.0
  9
$DIMDLE
 40
0.0
  9
$DIMEXE
 40
0.18
  9
$DIMTP
 40
0.0
  9
$DIMTM
 40
0.0
  9
$DIMTXT
 40
0.18
  9
$DIMCEN
 40
0.09
  9
$DIMTSZ
 40
0.0
  9
$DIMTOL
 70
     0
  9
$DIMLIM
 70
     0
  9
$DIMTIH
 70
     1
  9
$DIMTOH
 70
     1
  9
$DIMSE1
 70
     0
  9
$DIMSE2
 70
     0
  9
$DIMTAD
 70
     0
  9
$DIMZIN
 70
     0
  9
$DIMBLK
  1

  9
$DIMASO
 70
     1
  9
$DIMSHO
 70
     1
  9
$DIMPOST
  1

  9
$DIMAPOST
  1

  9
$DIMALT
 70
     0
  9
$DIMALTD
 70
     2
  9
$DIMALTF
 40
25.4
  9
$DIMLFAC
 40
1.0
  9
$DIMTOFL
 70
     0
  9
$DIMTVP
 40
0.0
  9
$DIMTIX
 70
     0
  9
$DIMSOXD
 70
     0
  9
$DIMSAH
 70
     0
  9
$DIMBLK1
  1

  9
$DIMBLK2
  1

  9
$DIMSTYLE
  2
Standard
  9
$DIMCLRD
 70
     0
  9
$DIMCLRE
 70
     0
  9
$DIMCLRT
 70
     0
  9
$DIMTFAC
 40
1.0
  9
$DIMGAP
 40
0.09
  9
$DIMJUST
 70
     0
  9
$DIMSD1
 70
     0
  9
$DIMSD2
 70
     0
  9
$DIMTOLJ
 70
     1
  9
$DIMTZIN
 70
     0
  9
$DIMALTZ
 70
     0
  9
$DIMALTTZ
 70
     0
  9
$DIMUPT
 70
     0
  9
$DIMDEC
 70
     4
  9
$DIMTDEC
 70
     4
  9
$DIMALTU
 70
     2
  9
$DIMALTTD
 70
     2
  9
$DIMTXSTY
  7
Standard
  9
$DIMAUNIT
 70
     0
  9
$DIMADEC
 70
     0
  9
$DIMALTRND
 40
0.0
  9
$DIMAZIN
 70
     0
  9
$DIMDSEP
 70
    46
  9
$DIMATFIT
 70
     3
  9
$DIMFRAC
 70
     0
  9
$DIMLDRBLK
  1

  9
$DIMLUNIT
 70
     2
  9
$DIMLWD
 70
    -2
  9
$DIMLWE
 70
    -2
  9
$DIMTMOVE
 70
     0
  9
$DIMFXL
 40
1.0
  9
$DIMFXLON
 70
     0
  9
$DIMJOGANG
 40
0.7853981633974483
  9
$DIMTFILL
 70
     0
  9
$DIMTFILLCLR
 70
     0
  9
$DIMARCSYM
 70
     0
  9
$DIMLTYPE
  6

  9
$DIMLTEX1
  6

  9
$DIMLTEX2
  6

  9
$DIMTXTDIRECTION
 70
     0
  9
$LUNITS
 70
     2
  9
$LUPREC
 70
     4
  9
$SKETCHINC
 40
0.1
  9
$FILLETRAD
 40
0.5
  9
$AUNITS
 70
     0
  9
$AUPREC
 70
     0
  9
$MENU
  1
.
  9
$ELEVATION
 40
0.0
  9
$PELEVATION
 40
0.0
  9
$THICKNESS
 40
0.0
  9
$LIMCHECK
 70
     0
  9
$CHAMFERA
 40
0.5
  9
$CHAMFERB
 40
0.5
  9
$CHAMFERC
 40
1.0
  9
$CHAMFERD
 40
0.0
  9
$SKPOLY
 70
     0
  9
$TDCREATE
 40
2458263.582708322
  9
$TDUCREATE
 40
2458263.207708333
  9
$TDUPDATE
 40
2458263.582708322
  9
$TDUUPDATE
 40
2458263.207708333
  9
$TDINDWG
 40
0.0000000116
  9
$TDUSRTIMER
 40
0.0000000116
  9
$USRTIMER
 70
     1
  9
$ANGBASE
 50
0.0
  9
$ANGDIR
 70
     0
  9
$PDMODE
 70
     0
  9
$PDSIZE
 40
0.0
  9
$PLINEWID
 40
0.0
  9
$SPLFRAME
 70
     0
  9
$SPLINETYPE
 70
     6
  9
$SPLINESEGS
 70
     8
  9
$HANDSEED
  5
E7
  9
$SURFTAB1
 70
     6
  9
$SURFTAB2
 70
     6
  9
$SURFTYPE
 70
     6
  9
$SURFU
 70
     6
  9
$SURFV
 70
     6
  9
$UCSBASE
  2

  9
$UCSNAME
  2

  9
$UCSORG
 10
0.0
 20
0.0
 30
0.0
  9
$UCSXDIR
 10
1.0
 20
0.0
 30
0.0
  9
$UCSYDIR
 10
0.0
 20
1.0
 30
0.0
  9
$UCSORTHOREF
  2

  9
$UCSORTHOVIEW
 70
     0
  9
$UCSORGTOP
 10
0.0
 20
0.0
 30
0.0
  9
$UCSORGBOTTOM
 10
0.0
 20
0.0
 30
0.0
  9
$UCSORGLEFT
 10
0.0
 20
0.0
 30
0.0
  9
$UCSORGRIGHT
 10
0.0
 20
0.0
 30
0.0
  9
$UCSORGFRONT
 10
0.0
 20
0.0
 30
0.0
  9
$UCSORGBACK
 10
0.0
 20
0.0
 30
0.0
  9
$PUCSBASE
  2

  9
$PUCSNAME
  2

  9
$PUCSORG
 10
0.0
 20
0.0
 30
0.0
  9
$PUCSXDIR
 10
1.0
 20
0.0
 30
0.0
  9
$PUCSYDIR
 10
0.0
 20
1.0
 30
0.0
  9
$PUCSORTHOREF
  2

  9
$PUCSORTHOVIEW
 70
     0
  9
$PUCSORGTOP
 10
0.0
 20
0.0
 30
0.0
  9
$PUCSORGBOTTOM
 10
0.0
 20
0.0
 30
0.0
  9
$PUCSORGLEFT
 10
0.0
 20
0.0
 30
0.0
  9
$PUCSORGRIGHT
 10
0.0
 20
0.0
 30
0.0
  9
$PUCSORGFRONT
 10
0.0
 20
0.0
 30
0.0
  9
$PUCSORGBACK
 10
0.0
 20
0.0
 30
0.0
  9
$USERI1
 70
     0
  9
$USERI2
 70
     0
  9
$USERI3
 70
     0
  9
$USERI4
 70
     0
  9
$USERI5
 70
     0
  9
$USERR1
 40
0.0
  9
$USERR2
 40
0.0
  9
$USERR3
 40
0.0
  9
$USERR4
 40
0.0
  9
$USERR5
 40
0.0
  9
$WORLDVIEW
 70
     1
  9
$SHADEDGE
 70
     3
  9
$SHADEDIF
 70
    70
  9
$TILEMODE
 70
     1
  9
$MAXACTVP
 70
    64
  9
$PINSBASE
 10
0.0
 20
0.0
 30
0.0
  9
$PLIMCHECK
 70
     0
  9
$PEXTMIN
 10
1.000000000000000E+20
 20
1.000000000000000E+20
 30
1.000000000000000E+20
  9
$PEXTMAX
 10
-1.000000000000000E+20
 20
-1.000000000000000E+20
 30
-1.000000000000000E+20
  9
$PLIMMIN
 10
0.0
 20
0.0
  9
$PLIMMAX
 10
12.0
 20
9.0
  9
$UNITMODE
 70
     0
  9
$VISRETAIN
 70
     1
  9
$PLINEGEN
 70
     0
  9
$PSLTSCALE
 70
     1
  9
$TREEDEPTH
 70
  3020
  9
$CMLSTYLE
  2
Standard
  9
$CMLJUST
 70
     0
  9
$CMLSCALE
 40
1.0
  9
$PROXYGRAPHICS
 70
     1
  9
$MEASUREMENT
 70
     0
  9
$CELWEIGHT
370
    -1
  9
$ENDCAPS
280
     0
  9
$JOINSTYLE
280
     0
  9
$LWDISPLAY
290
     1
  9
$INSUNITS
 70
     1
  9
$HYPERLINKBASE
  1

  9
$STYLESHEET
  1

  9
$XEDIT
290
     1
  9
$CEPSNTYPE
380
     0
  9
$PSTYLEMODE
290
     1
  9
$FINGERPRINTGUID
  2
{A8304E1E-F160-6910-7D68-56FA6E76E264}
  9
$VERSIONGUID
  2
{FAEB1C32-E019-11D5-929B-00C0DF256EC4}
  9
$EXTNAMES
290
     1
  9
$PSVPSCALE
 40
0.0
  9
$OLESTARTUP
290
     0
  9
$SORTENTS
280
   127
  9
$INDEXCTL
280
     0
  9
$HIDETEXT
280
     1
  9
$XCLIPFRAME
280
     2
  9
$HALOGAP
280
     0
  9
$OBSCOLOR
 70
   257
  9
$OBSLTYPE
280
     0
  9
$INTERSECTIONDISPLAY
280
     0
  9
$INTERSECTIONCOLOR
 70
   257
  9
$DIMASSOC
280
     2
  9
$PROJECTNAME
  1

  9
$CAMERADISPLAY
290
     0
  9
$LENSLENGTH
 40
50.0
  9
$CAMERAHEIGHT
 40
0.0
  9
$STEPSPERSEC
 40
2.0
  9
$STEPSIZE
 40
6.0
  9
$3DDWFPREC
 40
2.0
  9
$PSOLWIDTH
 40
0.25
  9
$PSOLHEIGHT
 40
4.0
  9
$LOFTANG1
 40
1.570796326794897
  9
$LOFTANG2
 40
1.570796326794897
  9
$LOFTMAG1
 40
0.0
  9
$LOFTMAG2
 40
0.0
  9
$LOFTPARAM
 70
     7
  9
$LOFTNORMALS
280
     1
  9
$LATITUDE
 40
37.795
  9
$LONGITUDE
 40
-122.394
  9
$NORTHDIRECTION
 40
0.0
  9
$TIMEZONE
 70
 -8000
  9
$LIGHTGLYPHDISPLAY
280
     1
  9
$TILEMODELIGHTSYNCH
280
     1
  9
$CMATERIAL
347
3C
  9
$SOLIDHIST
280
     1
  9
$SHOWHIST
280
     1
  9
$DWFFRAME
280
     2
  9
$DGNFRAME
280
     2
  9
$REALWORLDSCALE
290
     1
  9
$INTERFERECOLOR
 62
   256
  9
$CSHADOW
280
     0
  9
$SHADOWPLANELOCATION
 40
0.0
  0
ENDSEC
  0
SECTION
  2
CLASSES
  0
CLASS
  1
ACDBDICTIONARYWDFLT
  2
AcDbDictionaryWithDefault
  3
ObjectDBX Classes
 90
        0
 91
        4
280
     0
281
     0
  0
CLASS
  1
VISUALSTYLE
  2
AcDbVisualStyle
  3
ObjectDBX Classes
 90
     4095
 91
        4
280
     0
281
     0
  0
CLASS
  1
MATERIAL
  2
AcDbMaterial
  3
ObjectDBX Classes
 90
     1153
 91
        4
280
     0
281
     0
  0
CLASS
  1
SUN
  2
AcDbSun
  3
SCENEOE
 90
     1024
 91
        4
280
     0
281
     0
  0
ENDSEC
  0
SECTION
  2
TABLES
  0
TABLE
  2
VPORT
  5
8
330
0
100
AcDbSymbolTable
 70
     1
  0
VPORT
  5
29
330
8
100
AcDbSymbolTableRecord
100
AcDbViewportTableRecord
  2
*Active
 70
     0
 10
0.0
 20
0.0
 11
1.0
 21
1.0
 12
0.0
 22
0.0
 13
0.0
 23
0.0
 14
0.5
 24
0.5
 15
0.5
 25
0.5
 16
0.0
 26
0.0
 36
1.0
 17
105.0007777515277
 27
-148.5000416295416
 37
0.0
 40
297.0000832590831
 41
0.7070757462376333
 42
50.0
 43
0.0
 44
0.0
 50
0.0
 51
0.0
 71
     0
 72
   100
 73
     1
 74
     3
 75
     0
 76
     0
 77
     0
 78
     0
281
     0
 65
     1
110
0.0
120
0.0
130
0.0
111
1.0
121
0.0
131
0.0
112
0.0
122
1.0
132
0.0
 79
     0
146
0.0
 60
     3
 61
     5
292
     1
282
     1
141
0.0
142
0.0
 63
   250
361
3F
  0
ENDTAB
  0
TABLE
  2
LTYPE
  5
5
330
0
100
AcDbSymbolTable
 70
     1
  0
LTYPE
  5
14
330
5
100
AcDbSymbolTableRecord
100
AcDbLinetypeTableRecord
  2
ByBlock
 70
     0
  3

 72
    65
 73
     0
 40
0.0
  0
LTYPE
  5
15
330
5
100
AcDbSymbolTableRecord
100
AcDbLinetypeTableRecord
  2
ByLayer
 70
     0
  3

 72
    65
 73
     0
 40
0.0
  0
LTYPE
  5
16
330
5
100
AcDbSymbolTableRecord
100
AcDbLinetypeTableRecord
  2
Continuous
 70
     0
  3
Solid line
 72
    65
 73
     0
 40
0.0
  0
ENDTAB
  0
TABLE
  2
LAYER
  5
2
330
0
100
AcDbSymbolTable
 70
     2
  0
LAYER
  5
10
330
2
100
AcDbSymbolTableRecord
100
AcDbLayerTableRecord
  2
0
 70
     0
 62
     7
  6
Continuous
370
    -3
390
F
347
3E
  0
LAYER
  5
40
330
2
100
AcDbSymbolTableRecord
100
AcDbLayerTableRecord
  2
_U+30EC_U+30A4_U+30E4_U+30FC 1
 70
     0
 62
     7
  6
Continuous
370
    -3
390
F
347
3E
  0
ENDTAB
  0
TABLE
  2
STYLE
  5
3
330
0
100
AcDbSymbolTable
 70
     1
  0
STYLE
  5
11
330
3
100
AcDbSymbolTableRecord
100
AcDbTextStyleTableRecord
  2
Standard
 70
     0
 40
0.0
 41
1.0
 50
0.0
 71
     0
 42
0.2
  3
txt
  4

  0
ENDTAB
  0
TABLE
  2
VIEW
  5
6
330
0
100
AcDbSymbolTable
 70
     0
  0
ENDTAB
  0
TABLE
  2
UCS
  5
7
330
0
100
AcDbSymbolTable
 70
     0
  0
ENDTAB
  0
TABLE
  2
APPID
  5
9
330
0
100
AcDbSymbolTable
 70
     1
  0
APPID
  5
12
330
9
100
AcDbSymbolTableRecord
100
AcDbRegAppTableRecord
  2
ACAD
 70
     0
  0
ENDTAB
  0
TABLE
  2
DIMSTYLE
  5
A
330
0
100
AcDbSymbolTable
 70
     1
100
AcDbDimStyleTable
  0
DIMSTYLE
105
27
330
A
100
AcDbSymbolTableRecord
100
AcDbDimStyleTableRecord
  2
Standard
 70
     0
178
     0
340
11
  0
ENDTAB
  0
TABLE
  2
BLOCK_RECORD
  5
1
330
0
100
AcDbSymbolTable
 70
     7
  0
BLOCK_RECORD
  5
1F
330
1
100
AcDbSymbolTableRecord
100
AcDbBlockTableRecord
  2
*Model_Space
340
22
 70
     0
280
     1
281
     0
  0
BLOCK_RECORD
  5
1B
330
1
100
AcDbSymbolTableRecord
100
AcDbBlockTableRecord
  2
*Paper_Space
340
1E
 70
     0
280
     1
281
     0
  0
BLOCK_RECORD
  5
23
330
1
100
AcDbSymbolTableRecord
100
AcDbBlockTableRecord
  2
*Paper_Space0
340
26
 70
     0
280
     1
281
     0
  0
BLOCK_RECORD
  5
63
330
1
100
AcDbSymbolTableRecord
100
AcDbBlockTableRecord
  2
block 2
340
0
102
{BLKREFS
331
64
102
}
 70
     0
280
     1
281
     0
  0
BLOCK_RECORD
  5
73
330
1
100
AcDbSymbolTableRecord
100
AcDbBlockTableRecord
  2
block 3
340
0
102
{BLKREFS
331
74
102
}
 70
     0
280
     1
281
     0
  0
BLOCK_RECORD
  5
96
330
1
100
AcDbSymbolTableRecord
100
AcDbBlockTableRecord
  2
block 4
340
0
102
{BLKREFS
331
97
102
}
 70
     0
280
     1
281
     0
  0
BLOCK_RECORD
  5
A4
330
1
100
AcDbSymbolTableRecord
100
AcDbBlockTableRecord
  2
block 5
340
0
102
{BLKREFS
331
A5
102
}
 70
     0
280
     1
281
     0
  0
BLOCK_RECORD
  5
AA
330
1
100
AcDbSymbolTableRecord
100
AcDbBlockTableRecord
  2
block 6
340
0
102
{BLKREFS
331
AB
102
}
 70
     0
280
     1
281
     0
  0
BLOCK_RECORD
  5
C7
330
1
100
AcDbSymbolTableRecord
100
AcDbBlockTableRecord
  2
block 7
340
0
102
{BLKREFS
331
C8
102
}
 70
     0
280
     1
281
     0
  0
ENDTAB
  0
ENDSEC
  0
SECTION
  2
BLOCKS
  0
BLOCK
  5
20
330
1F
100
AcDbEntity
  8
0
100
AcDbBlockBegin
  2
*Model_Space
 70
     0
 10
0.0
 20
0.0
 30
0.0
  3
*Model_Space
  1

  0
ENDBLK
  5
21
330
1F
100
AcDbEntity
  8
0
100
AcDbBlockEnd
  0
BLOCK
  5
1C
330
1B
100
AcDbEntity
 67
     1
  8
0
100
AcDbBlockBegin
  2
*Paper_Space
 70
     0
 10
0.0
 20
0.0
 30
0.0
  3
*Paper_Space
  1

  0
ENDBLK
  5
1D
330
1B
100
AcDbEntity
 67
     1
  8
0
100
AcDbBlockEnd
  0
BLOCK
  5
24
330
23
100
AcDbEntity
  8
0
100
AcDbBlockBegin
  2
*Paper_Space0
 70
     0
 10
0.0
 20
0.0
 30
0.0
  3
*Paper_Space0
  1

  0
ENDBLK
  5
25
330
23
100
AcDbEntity
  8
0
100
AcDbBlockEnd
  0
BLOCK
  5
65
330
63
100
AcDbEntity
  8
0
100
AcDbBlockBegin
  2
block 2
 70
     0
 10
0.0
 20
0.0
 30
0.0
  3
block 2
  1

  0
SPLINE
  5
67
330
63
100
AcDbEntity
  8
_U+30EC_U+30A4_U+30E4_U+30FC 1
370
     0
100
AcDbSpline
210
0.0
220
0.0
230
1.0
 70
    11
 71
     3
 72
    26
 73
    22
 74
     0
 42
0.0000000001
 43
0.0000000001
 12
1.0
 22
0.0
 32
0.0
 13
1.0
 23
0.0
 33
0.0
 40
0.0
 40
0.0
 40
0.0
 40
0.0
 40
1.0
 40
1.0
 40
1.0
 40
2.0
 40
2.0
 40
2.0
 40
3.0
 40
3.0
 40
3.0
 40
4.0
 40
4.0
 40
4.0
 40
5.0
 40
5.0
 40
5.0
 40
6.0
 40
6.0
 40
6.0
 40
7.0
 40
7.0
 40
7.0
 40
7.0
 10
112.479611517019
 20
-144.6518079607989
 30
0.0
 10
112.479611517019
 20
-144.6518079607989
 30
0.0
 10
111.3754584139964
 20
-144.6518079607989
 30
0.0
 10
111.3754584139964
 20
-144.6518079607989
 30
0.0
 10
111.3754584139964
 20
-144.6518079607989
 30
0.0
 10
111.3754584139964
 20
-144.9818481082858
 30
0.0
 10
111.3754584139964
 20
-144.9818481082858
 30
0.0
 10
111.3754584139964
 20
-144.9818481082858
 30
0.0
 10
111.2273193081307
 20
-144.9818481082858
 30
0.0
 10
111.2273193081307
 20
-144.9818481082858
 30
0.0
 10
111.2125053975441
 20
-144.6497409035077
 30
0.0
 10
111.0498968906403
 20
-144.6032321144568
 30
0.0
 10
110.93551972053
 20
-144.5736042932837
 30
0.0
 10
110.93551972053
 20
-144.5736042932837
 30
0.0
 10
110.93551972053
 20
-144.4275322447091
 30
0.0
 10
110.93551972053
 20
-144.4275322447091
 30
0.0
 10
110.93551972053
 20
-144.4275322447091
 30
0.0
 10
112.479611517019
 20
-144.4275322447091
 30
0.0
 10
112.479611517019
 20
-144.4275322447091
 30
0.0
 10
112.479611517019
 20
-144.4275322447091
 30
0.0
 10
112.479611517019
 20
-144.6518079607989
 30
0.0
 10
112.479611517019
 20
-144.6518079607989
 30
0.0
  0
HATCH
  5
68
330
63
100
AcDbEntity
  8
_U+30EC_U+30A4_U+30E4_U+30FC 1
 62
   179
420
  2234388
100
AcDbHatch
 10
0.0
 20
0.0
 30
0.0
210
0.0
220
0.0
230
1.0
  2
SOLID
 70
     1
 71
     0
 91
        1
 92
        1
 93
        1
 72
     4
 94
        3
 73
     0
 74
     1
 95
       26
 96
       22
 40
0.0
 40
0.0
 40
0.0
 40
0.0
 40
1.0
 40
1.0
 40
1.0
 40
2.0
 40
2.0
 40
2.0
 40
3.0
 40
3.0
 40
3.0
 40
4.0
 40
4.0
 40
4.0
 40
5.0
 40
5.0
 40
5.0
 40
6.0
 40
6.0
 40
6.0
 40
7.0
 40
7.0
 40
7.0
 40
7.0
 10
112.479611517019
 20
-144.6518079607989
 10
112.479611517019
 20
-144.6518079607989
 10
111.3754584139964
 20
-144.6518079607989
 10
111.3754584139964
 20
-144.6518079607989
 10
111.3754584139964
 20
-144.6518079607989
 10
111.3754584139964
 20
-144.9818481082858
 10
111.3754584139964
 20
-144.9818481082858
 10
111.3754584139964
 20
-144.9818481082858
 10
111.2273193081307
 20
-144.9818481082858
 10
111.2273193081307
 20
-144.9818481082858
 10
111.2125053975441
 20
-144.6497409035077
 10
111.0498968906403
 20
-144.6032321144568
 10
110.93551972053
 20
-144.5736042932837
 10
110.93551972053
 20
-144.5736042932837
 10
110.93551972053
 20
-144.4275322447091
 10
110.93551972053
 20
-144.4275322447091
 10
110.93551972053
 20
-144.4275322447091
 10
112.479611517019
 20
-144.4275322447091
 10
112.479611517019
 20
-144.4275322447091
 10
112.479611517019
 20
-144.4275322447091
 10
112.479611517019
 20
-144.6518079607989
 10
112.479611517019
 20
-144.6518079607989
 97
        0
 97
        0
 75
     2
 76
     1
 98
        0
  0
POLYLINE
  5
69
330
63
100
AcDbEntity
  8
_U+30EC_U+30A4_U+30E4_U+30FC 1
370
     0
100
AcDb2dPolyline
 66
     1
 10
0.0
 20
0.0
 30
0.0
  0
VERTEX
  5
6A
330
69
100
AcDbEntity
  8
_U+30EC_U+30A4_U+30E4_U+30FC 1
370
     0
100
AcDbVertex
100
AcDb2dVertex
 10
112.479611517019
 20
-143.8663261901619
 30
0.0
  0
VERTEX
  5
6B
330
69
100
AcDbEntity
  8
_U+30EC_U+30A4_U+30E4_U+30FC 1
370
     0
100
AcDbVertex
100
AcDb2dVertex
 10
112.2281195465957
 20
-143.8663261901619
 30
0.0
  0
VERTEX
  5
6C
330
69
100
AcDbEntity
  8
_U+30EC_U+30A4_U+30E4_U+30FC 1
370
     0
100
AcDbVertex
100
AcDb2dVertex
 10
112.2281195465957
 20
-143.6146619649644
 30
0.0
  0
VERTEX
  5
6D
330
69
100
AcDbEntity
  8
_U+30EC_U+30A4_U+30E4_U+30FC 1
370
     0
100
AcDbVertex
100
AcDb2dVertex
 10
112.479611517019
 20
-143.6146619649644
 30
0.0
  0
VERTEX
  5
6E
330
69
100
AcDbEntity
  8
_U+30EC_U+30A4_U+30E4_U+30FC 1
370
     0
100
AcDbVertex
100
AcDb2dVertex
 10
112.479611517019
 20
-143.8663261901619
 30
0.0
  0
SEQEND
  5
6F
330
69
100
AcDbEntity
  8
_U+30EC_U+30A4_U+30E4_U+30FC 1
370
     0
  0
HATCH
  5
70
330
63
100
AcDbEntity
  8
_U+30EC_U+30A4_U+30E4_U+30FC 1
 62
   179
420
  2234388
100
AcDbHatch
 10
0.0
 20
0.0
 30
0.0
210
0.0
220
0.0
230
1.0
  2
SOLID
 70
     1
 71
     0
 91
        1
 92
        1
 93
        4
 72
     1
 10
112.479611517019
 20
-143.8663261901619
 11
112.2281195465957
 21
-143.8663261901619
 72
     1
 10
112.2281195465957
 20
-143.8663261901619
 11
112.2281195465957
 21
-143.6146619649644
 72
     1
 10
112.2281195465957
 20
-143.6146619649644
 11
112.479611517019
 21
-143.6146619649644
 72
     1
 10
112.479611517019
 20
-143.6146619649644
 11
112.479611517019
 21
-143.8663261901619
 97
        0
 75
     2
 76
     1
 98
        0
  0
SPLINE
  5
71
330
63
100
AcDbEntity
  8
_U+30EC_U+30A4_U+30E4_U+30FC 1
370
     0
100
AcDbSpline
210
0.0
220
0.0
230
1.0
 70
    11
 71
     3
 72
    53
 73
    49
 74
     0
 42
0.0000000001
 43
0.0000000001
 12
1.0
 22
0.0
 32
0.0
 13
1.0
 23
0.0
 33
0.0
 40
0.0
 40
0.0
 40
0.0
 40
0.0
 40
1.0
 40
1.0
 40
1.0
 40
2.0
 40
2.0
 40
2.0
 40
3.0
 40
3.0
 40
3.0
 40
4.0
 40
4.0
 40
4.0
 40
5.0
 40
5.0
 40
5.0
 40
6.0
 40
6.0
 40
6.0
 40
7.0
 40
7.0
 40
7.0
 40
8.0
 40
8.0
 40
8.0
 40
9.0
 40
9.0
 40
9.0
 40
10.0
 40
10.0
 40
10.0
 40
11.0
 40
11.0
 40
11.0
 40
12.0
 40
12.0
 40
12.0
 40
13.0
 40
13.0
 40
13.0
 40
14.0
 40
14.0
 40
14.0
 40
15.0
 40
15.0
 40
15.0
 40
16.0
 40
16.0
 40
16.0
 40
16.0
 10
112.5305989302007
 20
-142.8970485753869
 30
0.0
 10
112.5305989302007
 20
-142.9754244976763
 30
0.0
 10
112.513717962323
 20
-143.0768825597169
 30
0.0
 10
112.4499836958458
 20
-143.1785128765318
 30
0.0
 10
112.3400851498664
 20
-143.3519734342141
 30
0.0
 10
112.2088270118784
 20
-143.3731607714484
 30
0.0
 10
112.1013400327386
 20
-143.3921087966173
 30
0.0
 10
112.1013400327386
 20
-143.3921087966173
 30
0.0
 10
112.1013400327386
 20
-143.1700723925929
 30
0.0
 10
112.1013400327386
 20
-143.1700723925929
 30
0.0
 10
112.2997775326889
 20
-143.1149508648289
 30
0.0
 10
112.3294053538621
 20
-142.9879990961975
 30
0.0
 10
112.3294053538621
 20
-142.8949815180957
 30
0.0
 10
112.3294053538621
 20
-142.7554551509431
 30
0.0
 10
112.2301866038869
 20
-142.6030096757208
 30
0.0
 10
111.997298149084
 20
-142.6030096757208
 30
0.0
 10
111.7416720640785
 20
-142.6030096757208
 30
0.0
 10
111.6717366257279
 20
-142.7828436600508
 30
0.0
 10
111.6717366257279
 20
-142.9034220020346
 30
0.0
 10
111.6717366257279
 20
-142.9351168804989
 30
0.0
 10
111.6717366257279
 20
-143.0768825597169
 30
0.0
 10
111.8009277064248
 20
-143.1657660232363
 30
0.0
 10
111.8009277064248
 20
-143.1657660232363
 30
0.0
 10
111.7816351717074
 20
-143.3412936382098
 30
0.0
 10
111.7816351717074
 20
-143.3412936382098
 30
0.0
 10
111.7816351717074
 20
-143.3412936382098
 30
0.0
 10
110.93551972053
 20
-143.2207152962261
 30
0.0
 10
110.93551972053
 20
-143.2207152962261
 30
0.0
 10
110.93551972053
 20
-143.2207152962261
 30
0.0
 10
110.93551972053
 20
-142.4422959713339
 30
0.0
 10
110.93551972053
 20
-142.4422959713339
 30
0.0
 10
110.93551972053
 20
-142.4422959713339
 30
0.0
 10
111.1301676154466
 20
-142.4422959713339
 30
0.0
 10
111.1301676154466
 20
-142.4422959713339
 30
0.0
 10
111.1301676154466
 20
-142.4422959713339
 30
0.0
 10
111.1301676154466
 20
-143.057934534548
 30
0.0
 10
111.1301676154466
 20
-143.057934534548
 30
0.0
 10
111.1301676154466
 20
-143.057934534548
 30
0.0
 10
111.5532253410353
 20
-143.1233913487678
 30
0.0
 10
111.5532253410353
 20
-143.1233913487678
 30
0.0
 10
111.5191188957313
 20
-143.0620686491303
 30
0.0
 10
111.4791557881024
 20
-142.9795586122586
 30
0.0
 10
111.4791557881024
 20
-142.8612195823403
 30
0.0
 10
111.4791557881024
 20
-142.6073160450773
 30
0.0
 10
111.6651909443059
 20
-142.3702934756922
 30
0.0
 10
111.9783501239151
 20
-142.3702934756922
 30
0.0
 10
112.2956434181066
 20
-142.3702934756922
 30
0.0
 10
112.5305989302007
 20
-142.5945691917819
 30
0.0
 10
112.5305989302007
 20
-142.8970485753869
 30
0.0
  0
HATCH
  5
72
330
63
100
AcDbEntity
  8
_U+30EC_U+30A4_U+30E4_U+30FC 1
 62
   179
420
  2234388
100
AcDbHatch
 10
0.0
 20
0.0
 30
0.0
210
0.0
220
0.0
230
1.0
  2
SOLID
 70
     1
 71
     0
 91
        1
 92
        1
 93
        1
 72
     4
 94
        3
 73
     0
 74
     1
 95
       53
 96
       49
 40
0.0
 40
0.0
 40
0.0
 40
0.0
 40
1.0
 40
1.0
 40
1.0
 40
2.0
 40
2.0
 40
2.0
 40
3.0
 40
3.0
 40
3.0
 40
4.0
 40
4.0
 40
4.0
 40
5.0
 40
5.0
 40
5.0
 40
6.0
 40
6.0
 40
6.0
 40
7.0
 40
7.0
 40
7.0
 40
8.0
 40
8.0
 40
8.0
 40
9.0
 40
9.0
 40
9.0
 40
10.0
 40
10.0
 40
10.0
 40
11.0
 40
11.0
 40
11.0
 40
12.0
 40
12.0
 40
12.0
 40
13.0
 40
13.0
 40
13.0
 40
14.0
 40
14.0
 40
14.0
 40
15.0
 40
15.0
 40
15.0
 40
16.0
 40
16.0
 40
16.0
 40
16.0
 10
112.5305989302007
 20
-142.8970485753869
 10
112.5305989302007
 20
-142.9754244976763
 10
112.513717962323
 20
-143.0768825597169
 10
112.4499836958458
 20
-143.1785128765318
 10
112.3400851498664
 20
-143.3519734342141
 10
112.2088270118784
 20
-143.3731607714484
 10
112.1013400327386
 20
-143.3921087966173
 10
112.1013400327386
 20
-143.3921087966173
 10
112.1013400327386
 20
-143.1700723925929
 10
112.1013400327386
 20
-143.1700723925929
 10
112.2997775326889
 20
-143.1149508648289
 10
112.3294053538621
 20
-142.9879990961975
 10
112.3294053538621
 20
-142.8949815180957
 10
112.3294053538621
 20
-142.7554551509431
 10
112.2301866038869
 20
-142.6030096757208
 10
111.997298149084
 20
-142.6030096757208
 10
111.7416720640785
 20
-142.6030096757208
 10
111.6717366257279
 20
-142.7828436600508
 10
111.6717366257279
 20
-142.9034220020346
 10
111.6717366257279
 20
-142.9351168804989
 10
111.6717366257279
 20
-143.0768825597169
 10
111.8009277064248
 20
-143.1657660232363
 10
111.8009277064248
 20
-143.1657660232363
 10
111.7816351717074
 20
-143.3412936382098
 10
111.7816351717074
 20
-143.3412936382098
 10
111.7816351717074
 20
-143.3412936382098
 10
110.93551972053
 20
-143.2207152962261
 10
110.93551972053
 20
-143.2207152962261
 10
110.93551972053
 20
-143.2207152962261
 10
110.93551972053
 20
-142.4422959713339
 10
110.93551972053
 20
-142.4422959713339
 10
110.93551972053
 20
-142.4422959713339
 10
111.1301676154466
 20
-142.4422959713339
 10
111.1301676154466
 20
-142.4422959713339
 10
111.1301676154466
 20
-142.4422959713339
 10
111.1301676154466
 20
-143.057934534548
 10
111.1301676154466
 20
-143.057934534548
 10
111.1301676154466
 20
-143.057934534548
 10
111.5532253410353
 20
-143.1233913487678
 10
111.5532253410353
 20
-143.1233913487678
 10
111.5191188957313
 20
-143.0620686491303
 10
111.4791557881024
 20
-142.9795586122586
 10
111.4791557881024
 20
-142.8612195823403
 10
111.4791557881024
 20
-142.6073160450773
 10
111.6651909443059
 20
-142.3702934756922
 10
111.9783501239151
 20
-142.3702934756922
 10
112.2956434181066
 20
-142.3702934756922
 10
112.5305989302007
 20
-142.5945691917819
 10
112.5305989302007
 20
-142.8970485753869
 97
        0
 97
        0
 75
     2
 76
     1
 98
        0
  0
ENDBLK
  5
66
330
63
100
AcDbEntity
  8
0
100
AcDbBlockEnd
  0
BLOCK
  5
75
330
73
100
AcDbEntity
  8
0
100
AcDbBlockBegin
  2
block 3
 70
     0
 10
0.0
 20
0.0
 30
0.0
  3
block 3
  1

  0
POLYLINE
  5
77
330
73
100
AcDbEntity
  8
_U+30EC_U+30A4_U+30E4_U+30FC 1
370
     0
100
AcDb2dPolyline
 66
     1
 10
0.0
 20
0.0
 30
0.0
  0
VERTEX
  5
78
330
77
100
AcDbEntity
  8
_U+30EC_U+30A4_U+30E4_U+30FC 1
370
     0
100
AcDbVertex
100
AcDb2dVertex
 10
115.0134792464202
 20
-149.8230685389331
 30
0.0
  0
VERTEX
  5
79
330
77
100
AcDbEntity
  8
_U+30EC_U+30A4_U+30E4_U+30FC 1
370
     0
100
AcDbVertex
100
AcDb2dVertex
 10
115.3604003617849
 20
-149.8230685389331
 30
0.0
  0
VERTEX
  5
7A
330
77
100
AcDbEntity
  8
_U+30EC_U+30A4_U+30E4_U+30FC 1
370
     0
100
AcDbVertex
100
AcDb2dVertex
 10
115.3604003617849
 20
-150.0407985736009
 30
0.0
  0
VERTEX
  5
7B
330
77
100
AcDbEntity
  8
_U+30EC_U+30A4_U+30E4_U+30FC 1
370
     0
100
AcDbVertex
100
AcDb2dVertex
 10
115.0134792464202
 20
-150.0407985736009
 30
0.0
  0
VERTEX
  5
7C
330
77
100
AcDbEntity
  8
_U+30EC_U+30A4_U+30E4_U+30FC 1
370
     0
100
AcDbVertex
100
AcDb2dVertex
 10
115.0134792464202
 20
-150.6967447539925
 30
0.0
  0
VERTEX
  5
7D
330
77
100
AcDbEntity
  8
_U+30EC_U+30A4_U+30E4_U+30FC 1
370
     0
100
AcDbVertex
100
AcDb2dVertex
 10
114.7892035303305
 20
-150.6967447539925
 30
0.0
  0
VERTEX
  5
7E
330
77
100
AcDbEntity
  8
_U+30EC_U+30A4_U+30E4_U+30FC 1
370
     0
100
AcDbVertex
100
AcDb2dVertex
 10
113.8163085652959
 20
-150.0173719243012
 30
0.0
  0
VERTEX
  5
7F
330
77
100
AcDbEntity
  8
_U+30EC_U+30A4_U+30E4_U+30FC 1
370
     0
100
AcDbVertex
100
AcDb2dVertex
 10
113.8163085652959
 20
-149.8230685389331
 30
0.0
  0
VERTEX
  5
80
330
77
100
AcDbEntity
  8
_U+30EC_U+30A4_U+30E4_U+30FC 1
370
     0
100
AcDbVertex
100
AcDb2dVertex
 10
114.8146972369213
 20
-149.8230685389331
 30
0.0
  0
VERTEX
  5
81
330
77
100
AcDbEntity
  8
_U+30EC_U+30A4_U+30E4_U+30FC 1
370
     0
100
AcDbVertex
100
AcDb2dVertex
 10
114.8146972369213
 20
-149.6156737907211
 30
0.0
  0
VERTEX
  5
82
330
77
100
AcDbEntity
  8
_U+30EC_U+30A4_U+30E4_U+30FC 1
370
     0
100
AcDbVertex
100
AcDb2dVertex
 10
115.0134792464202
 20
-149.6156737907211
 30
0.0
  0
VERTEX
  5
83
330
77
100
AcDbEntity
  8
_U+30EC_U+30A4_U+30E4_U+30FC 1
370
     0
100
AcDbVertex
100
AcDb2dVertex
 10
115.0134792464202
 20
-149.8230685389331
 30
0.0
  0
SEQEND
  5
84
330
77
100
AcDbEntity
  8
_U+30EC_U+30A4_U+30E4_U+30FC 1
370
     0
  0
POLYLINE
  5
85
330
73
100
AcDbEntity
  8
_U+30EC_U+30A4_U+30E4_U+30FC 1
370
     0
100
AcDb2dPolyline
 66
     1
 10
0.0
 20
0.0
 30
0.0
  0
VERTEX
  5
86
330
85
100
AcDbEntity
  8
_U+30EC_U+30A4_U+30E4_U+30FC 1
370
     0
100
AcDbVertex
100
AcDb2dVertex
 10
114.1587510565298
 20
-150.0407985736009
 30
0.0
  0
VERTEX
  5
87
330
85
100
AcDbEntity
  8
_U+30EC_U+30A4_U+30E4_U+30FC 1
370
     0
100
AcDbVertex
100
AcDb2dVertex
 10
114.8146972369213
 20
-150.497618234945
 30
0.0
  0
VERTEX
  5
88
330
85
100
AcDbEntity
  8
_U+30EC_U+30A4_U+30E4_U+30FC 1
370
     0
100
AcDbVertex
100
AcDb2dVertex
 10
114.8146972369213
 20
-150.0407985736009
 30
0.0
  0
VERTEX
  5
89
330
85
100
AcDbEntity
  8
_U+30EC_U+30A4_U+30E4_U+30FC 1
370
     0
100
AcDbVertex
100
AcDb2dVertex
 10
114.1587510565298
 20
-150.0407985736009
 30
0.0
  0
SEQEND
  5
8A
330
85
100
AcDbEntity
  8
_U+30EC_U+30A4_U+30E4_U+30FC 1
370
     0
  0
HATCH
  5
8B
330
73
100
AcDbEntity
  8
_U+30EC_U+30A4_U+30E4_U+30FC 1
 62
   179
420
  2234388
100
AcDbHatch
 10
0.0
 20
0.0
 30
0.0
210
0.0
220
0.0
230
1.0
  2
SOLID
 70
     1
 71
     0
 91
        2
 92
        1
 93
       11
 72
     1
 10
115.0134792464202
 20
-149.8230685389331
 11
115.3604003617849
 21
-149.8230685389331
 72
     1
 10
115.3604003617849
 20
-149.8230685389331
 11
115.3604003617849
 21
-150.0407985736009
 72
     1
 10
115.3604003617849
 20
-150.0407985736009
 11
115.0134792464202
 21
-150.0407985736009
 72
     1
 10
115.0134792464202
 20
-150.0407985736009
 11
115.0134792464202
 21
-150.6967447539925
 72
     1
 10
115.0134792464202
 20
-150.6967447539925
 11
114.7892035303305
 21
-150.6967447539925
 72
     1
 10
114.7892035303305
 20
-150.6967447539925
 11
113.8163085652959
 21
-150.0173719243012
 72
     1
 10
113.8163085652959
 20
-150.0173719243012
 11
113.8163085652959
 21
-149.8230685389331
 72
     1
 10
113.8163085652959
 20
-149.8230685389331
 11
114.8146972369213
 21
-149.8230685389331
 72
     1
 10
114.8146972369213
 20
-149.8230685389331
 11
114.8146972369213
 21
-149.6156737907211
 72
     1
 10
114.8146972369213
 20
-149.6156737907211
 11
115.0134792464202
 21
-149.6156737907211
 72
     1
 10
115.0134792464202
 20
-149.6156737907211
 11
115.0134792464202
 21
-149.8230685389331
 97
        0
 92
        1
 93
        3
 72
     1
 10
114.1587510565298
 20
-150.0407985736009
 11
114.8146972369213
 21
-150.497618234945
 72
     1
 10
114.8146972369213
 20
-150.497618234945
 11
114.8146972369213
 21
-150.0407985736009
 72
     1
 10
114.8146972369213
 20
-150.0407985736009
 11
114.1587510565298
 21
-150.0407985736009
 97
        0
 75
     2
 76
     1
 98
        0
  0
POLYLINE
  5
8C
330
73
100
AcDbEntity
  8
_U+30EC_U+30A4_U+30E4_U+30FC 1
370
     0
100
AcDb2dPolyline
 66
     1
 10
0.0
 20
0.0
 30
0.0
  0
VERTEX
  5
8D
330
8C
100
AcDbEntity
  8
_U+30EC_U+30A4_U+30E4_U+30FC 1
370
     0
100
AcDbVertex
100
AcDb2dVertex
 10
115.3604003617849
 20
-149.4179253098677
 30
0.0
  0
VERTEX
  5
8E
330
8C
100
AcDbEntity
  8
_U+30EC_U+30A4_U+30E4_U+30FC 1
370
     0
100
AcDbVertex
100
AcDb2dVertex
 10
115.1089083913617
 20
-149.4179253098677
 30
0.0
  0
VERTEX
  5
8F
330
8C
100
AcDbEntity
  8
_U+30EC_U+30A4_U+30E4_U+30FC 1
370
     0
100
AcDbVertex
100
AcDb2dVertex
 10
115.1089083913617
 20
-149.1664333394445
 30
0.0
  0
VERTEX
  5
90
330
8C
100
AcDbEntity
  8
_U+30EC_U+30A4_U+30E4_U+30FC 1
370
     0
100
AcDbVertex
100
AcDb2dVertex
 10
115.3604003617849
 20
-149.1664333394445
 30
0.0
  0
VERTEX
  5
91
330
8C
100
AcDbEntity
  8
_U+30EC_U+30A4_U+30E4_U+30FC 1
370
     0
100
AcDbVertex
100
AcDb2dVertex
 10
115.3604003617849
 20
-149.4179253098677
 30
0.0
  0
SEQEND
  5
92
330
8C
100
AcDbEntity
  8
_U+30EC_U+30A4_U+30E4_U+30FC 1
370
     0
  0
HATCH
  5
93
330
73
100
AcDbEntity
  8
_U+30EC_U+30A4_U+30E4_U+30FC 1
 62
   179
420
  2234388
100
AcDbHatch
 10
0.0
 20
0.0
 30
0.0
210
0.0
220
0.0
230
1.0
  2
SOLID
 70
     1
 71
     0
 91
        1
 92
        1
 93
        4
 72
     1
 10
115.3604003617849
 20
-149.4179253098677
 11
115.1089083913617
 21
-149.4179253098677
 72
     1
 10
115.1089083913617
 20
-149.4179253098677
 11
115.1089083913617
 21
-149.1664333394445
 72
     1
 10
115.1089083913617
 20
-149.1664333394445
 11
115.3604003617849
 21
-149.1664333394445
 72
     1
 10
115.3604003617849
 20
-149.1664333394445
 11
115.3604003617849
 21
-149.4179253098677
 97
        0
 75
     2
 76
     1
 98
        0
  0
SPLINE
  5
94
330
73
100
AcDbEntity
  8
_U+30EC_U+30A4_U+30E4_U+30FC 1
370
     0
100
AcDbSpline
210
0.0
220
0.0
230
1.0
 70
    11
 71
     3
 72
    53
 73
    49
 74
     0
 42
0.0000000001
 43
0.0000000001
 12
1.0
 22
0.0
 32
0.0
 13
1.0
 23
0.0
 33
0.0
 40
0.0
 40
0.0
 40
0.0
 40
0.0
 40
1.0
 40
1.0
 40
1.0
 40
2.0
 40
2.0
 40
2.0
 40
3.0
 40
3.0
 40
3.0
 40
4.0
 40
4.0
 40
4.0
 40
5.0
 40
5.0
 40
5.0
 40
6.0
 40
6.0
 40
6.0
 40
7.0
 40
7.0
 40
7.0
 40
8.0
 40
8.0
 40
8.0
 40
9.0
 40
9.0
 40
9.0
 40
10.0
 40
10.0
 40
10.0
 40
11.0
 40
11.0
 40
11.0
 40
12.0
 40
12.0
 40
12.0
 40
13.0
 40
13.0
 40
13.0
 40
14.0
 40
14.0
 40
14.0
 40
15.0
 40
15.0
 40
15.0
 40
16.0
 40
16.0
 40
16.0
 40
16.0
 10
115.4113877749666
 20
-148.448819949867
 30
0.0
 10
115.4113877749666
 20
-148.5271958721564
 30
0.0
 10
115.3941622975403
 20
-148.628653934197
 30
0.0
 10
115.3307725406118
 20
-148.7302842510119
 30
0.0
 10
115.2208739946323
 20
-148.9039170634685
 30
0.0
 10
115.0896158566443
 20
-148.9249321459285
 30
0.0
 10
114.981784367956
 20
-148.9438801710974
 30
0.0
 10
114.981784367956
 20
-148.9438801710974
 30
0.0
 10
114.981784367956
 20
-148.721843767073
 30
0.0
 10
114.981784367956
 20
-148.721843767073
 30
0.0
 10
115.1805663774549
 20
-148.666722239309
 30
0.0
 10
115.210194198628
 20
-148.5397704706776
 30
0.0
 10
115.210194198628
 20
-148.4467528925758
 30
0.0
 10
115.210194198628
 20
-148.3072265254232
 30
0.0
 10
115.1109754486528
 20
-148.1547810502009
 30
0.0
 10
114.8780869938499
 20
-148.1547810502009
 30
0.0
 10
114.6221163992959
 20
-148.1547810502009
 30
0.0
 10
114.5525254704938
 20
-148.3346150345309
 30
0.0
 10
114.5525254704938
 20
-148.4551933765147
 30
0.0
 10
114.5525254704938
 20
-148.486888254979
 30
0.0
 10
114.5525254704938
 20
-148.628653934197
 30
0.0
 10
114.6813720416422
 20
-148.7175373977165
 30
0.0
 10
114.6813720416422
 20
-148.7175373977165
 30
0.0
 10
114.6624240164733
 20
-148.8928927579157
 30
0.0
 10
114.6624240164733
 20
-148.8928927579157
 30
0.0
 10
114.6624240164733
 20
-148.8928927579157
 30
0.0
 10
113.8163085652959
 20
-148.7724866707062
 30
0.0
 10
113.8163085652959
 20
-148.7724866707062
 30
0.0
 10
113.8163085652959
 20
-148.7724866707062
 30
0.0
 10
113.8163085652959
 20
-147.994067345814
 30
0.0
 10
113.8163085652959
 20
-147.994067345814
 30
0.0
 10
113.8163085652959
 20
-147.994067345814
 30
0.0
 10
114.0109564602125
 20
-147.994067345814
 30
0.0
 10
114.0109564602125
 20
-147.994067345814
 30
0.0
 10
114.0109564602125
 20
-147.994067345814
 30
0.0
 10
114.0109564602125
 20
-148.6097059090281
 30
0.0
 10
114.0109564602125
 20
-148.6097059090281
 30
0.0
 10
114.0109564602125
 20
-148.6097059090281
 30
0.0
 10
114.4340141858012
 20
-148.6751627232479
 30
0.0
 10
114.4340141858012
 20
-148.6751627232479
 30
0.0
 10
114.3999077404973
 20
-148.6138400236104
 30
0.0
 10
114.3599446328683
 20
-148.5313299867387
 30
0.0
 10
114.3599446328683
 20
-148.4129909568204
 30
0.0
 10
114.3599446328683
 20
-148.1590874195575
 30
0.0
 10
114.5459797890719
 20
-147.9220648501723
 30
0.0
 10
114.8591389686811
 20
-147.9220648501723
 30
0.0
 10
115.1764322628726
 20
-147.9220648501723
 30
0.0
 10
115.4113877749666
 20
-148.146340566262
 30
0.0
 10
115.4113877749666
 20
-148.448819949867
 30
0.0
  0
HATCH
  5
95
330
73
100
AcDbEntity
  8
_U+30EC_U+30A4_U+30E4_U+30FC 1
 62
   179
420
  2234388
100
AcDbHatch
 10
0.0
 20
0.0
 30
0.0
210
0.0
220
0.0
230
1.0
  2
SOLID
 70
     1
 71
     0
 91
        1
 92
        1
 93
        1
 72
     4
 94
        3
 73
     0
 74
     1
 95
       53
 96
       49
 40
0.0
 40
0.0
 40
0.0
 40
0.0
 40
1.0
 40
1.0
 40
1.0
 40
2.0
 40
2.0
 40
2.0
 40
3.0
 40
3.0
 40
3.0
 40
4.0
 40
4.0
 40
4.0
 40
5.0
 40
5.0
 40
5.0
 40
6.0
 40
6.0
 40
6.0
 40
7.0
 40
7.0
 40
7.0
 40
8.0
 40
8.0
 40
8.0
 40
9.0
 40
9.0
 40
9.0
 40
10.0
 40
10.0
 40
10.0
 40
11.0
 40
11.0
 40
11.0
 40
12.0
 40
12.0
 40
12.0
 40
13.0
 40
13.0
 40
13.0
 40
14.0
 40
14.0
 40
14.0
 40
15.0
 40
15.0
 40
15.0
 40
16.0
 40
16.0
 40
16.0
 40
16.0
 10
115.4113877749666
 20
-148.448819949867
 10
115.4113877749666
 20
-148.5271958721564
 10
115.3941622975403
 20
-148.628653934197
 10
115.3307725406118
 20
-148.7302842510119
 10
115.2208739946323
 20
-148.9039170634685
 10
115.0896158566443
 20
-148.9249321459285
 10
114.981784367956
 20
-148.9438801710974
 10
114.981784367956
 20
-148.9438801710974
 10
114.981784367956
 20
-148.721843767073
 10
114.981784367956
 20
-148.721843767073
 10
115.1805663774549
 20
-148.666722239309
 10
115.210194198628
 20
-148.5397704706776
 10
115.210194198628
 20
-148.4467528925758
 10
115.210194198628
 20
-148.3072265254232
 10
115.1109754486528
 20
-148.1547810502009
 10
114.8780869938499
 20
-148.1547810502009
 10
114.6221163992959
 20
-148.1547810502009
 10
114.5525254704938
 20
-148.3346150345309
 10
114.5525254704938
 20
-148.4551933765147
 10
114.5525254704938
 20
-148.486888254979
 10
114.5525254704938
 20
-148.628653934197
 10
114.6813720416422
 20
-148.7175373977165
 10
114.6813720416422
 20
-148.7175373977165
 10
114.6624240164733
 20
-148.8928927579157
 10
114.6624240164733
 20
-148.8928927579157
 10
114.6624240164733
 20
-148.8928927579157
 10
113.8163085652959
 20
-148.7724866707062
 10
113.8163085652959
 20
-148.7724866707062
 10
113.8163085652959
 20
-148.7724866707062
 10
113.8163085652959
 20
-147.994067345814
 10
113.8163085652959
 20
-147.994067345814
 10
113.8163085652959
 20
-147.994067345814
 10
114.0109564602125
 20
-147.994067345814
 10
114.0109564602125
 20
-147.994067345814
 10
114.0109564602125
 20
-147.994067345814
 10
114.0109564602125
 20
-148.6097059090281
 10
114.0109564602125
 20
-148.6097059090281
 10
114.0109564602125
 20
-148.6097059090281
 10
114.4340141858012
 20
-148.6751627232479
 10
114.4340141858012
 20
-148.6751627232479
 10
114.3999077404973
 20
-148.6138400236104
 10
114.3599446328683
 20
-148.5313299867387
 10
114.3599446328683
 20
-148.4129909568204
 10
114.3599446328683
 20
-148.1590874195575
 10
114.5459797890719
 20
-147.9220648501723
 10
114.8591389686811
 20
-147.9220648501723
 10
115.1764322628726
 20
-147.9220648501723
 10
115.4113877749666
 20
-148.146340566262
 10
115.4113877749666
 20
-148.448819949867
 97
        0
 97
        0
 75
     2
 76
     1
 98
        0
  0
ENDBLK
  5
76
330
73
100
AcDbEntity
  8
0
100
AcDbBlockEnd
  0
BLOCK
  5
98
330
96
100
AcDbEntity
  8
0
100
AcDbBlockBegin
  2
block 4
 70
     0
 10
0.0
 20
0.0
 30
0.0
  3
block 4
  1

  0
SPLINE
  5
9A
330
96
100
AcDbEntity
  8
_U+30EC_U+30A4_U+30E4_U+30FC 1
370
     0
100
AcDbSpline
210
0.0
220
0.0
230
1.0
 70
    11
 71
     3
 72
    26
 73
    22
 74
     0
 42
0.0000000001
 43
0.0000000001
 12
1.0
 22
0.0
 32
0.0
 13
1.0
 23
0.0
 33
0.0
 40
0.0
 40
0.0
 40
0.0
 40
0.0
 40
1.0
 40
1.0
 40
1.0
 40
2.0
 40
2.0
 40
2.0
 40
3.0
 40
3.0
 40
3.0
 40
4.0
 40
4.0
 40
4.0
 40
5.0
 40
5.0
 40
5.0
 40
6.0
 40
6.0
 40
6.0
 40
7.0
 40
7.0
 40
7.0
 40
7.0
 10
112.714567029113
 20
-153.5692653695938
 30
0.0
 10
112.714567029113
 20
-153.5692653695938
 30
0.0
 10
111.6104139260905
 20
-153.5692653695938
 30
0.0
 10
111.6104139260905
 20
-153.5692653695938
 30
0.0
 10
111.6104139260905
 20
-153.5692653695938
 30
0.0
 10
111.6104139260905
 20
-153.8993055170807
 30
0.0
 10
111.6104139260905
 20
-153.8993055170807
 30
0.0
 10
111.6104139260905
 20
-153.8993055170807
 30
0.0
 10
111.4622748202247
 20
-153.8993055170807
 30
0.0
 10
111.4622748202247
 20
-153.8993055170807
 30
0.0
 10
111.4474609096381
 20
-153.5671983123027
 30
0.0
 10
111.2845078931858
 20
-153.5203450137033
 30
0.0
 10
111.1704752326241
 20
-153.4907171925301
 30
0.0
 10
111.1704752326241
 20
-153.4907171925301
 30
0.0
 10
111.1704752326241
 20
-153.3446451439555
 30
0.0
 10
111.1704752326241
 20
-153.3446451439555
 30
0.0
 10
111.1704752326241
 20
-153.3446451439555
 30
0.0
 10
112.714567029113
 20
-153.3446451439555
 30
0.0
 10
112.714567029113
 20
-153.3446451439555
 30
0.0
 10
112.714567029113
 20
-153.3446451439555
 30
0.0
 10
112.714567029113
 20
-153.5692653695938
 30
0.0
 10
112.714567029113
 20
-153.5692653695938
 30
0.0
  0
HATCH
  5
9B
330
96
100
AcDbEntity
  8
_U+30EC_U+30A4_U+30E4_U+30FC 1
 62
   179
420
  2234388
100
AcDbHatch
 10
0.0
 20
0.0
 30
0.0
210
0.0
220
0.0
230
1.0
  2
SOLID
 70
     1
 71
     0
 91
        1
 92
        1
 93
        1
 72
     4
 94
        3
 73
     0
 74
     1
 95
       26
 96
       22
 40
0.0
 40
0.0
 40
0.0
 40
0.0
 40
1.0
 40
1.0
 40
1.0
 40
2.0
 40
2.0
 40
2.0
 40
3.0
 40
3.0
 40
3.0
 40
4.0
 40
4.0
 40
4.0
 40
5.0
 40
5.0
 40
5.0
 40
6.0
 40
6.0
 40
6.0
 40
7.0
 40
7.0
 40
7.0
 40
7.0
 10
112.714567029113
 20
-153.5692653695938
 10
112.714567029113
 20
-153.5692653695938
 10
111.6104139260905
 20
-153.5692653695938
 10
111.6104139260905
 20
-153.5692653695938
 10
111.6104139260905
 20
-153.5692653695938
 10
111.6104139260905
 20
-153.8993055170807
 10
111.6104139260905
 20
-153.8993055170807
 10
111.6104139260905
 20
-153.8993055170807
 10
111.4622748202247
 20
-153.8993055170807
 10
111.4622748202247
 20
-153.8993055170807
 10
111.4474609096381
 20
-153.5671983123027
 10
111.2845078931858
 20
-153.5203450137033
 10
111.1704752326241
 20
-153.4907171925301
 10
111.1704752326241
 20
-153.4907171925301
 10
111.1704752326241
 20
-153.3446451439555
 10
111.1704752326241
 20
-153.3446451439555
 10
111.1704752326241
 20
-153.3446451439555
 10
112.714567029113
 20
-153.3446451439555
 10
112.714567029113
 20
-153.3446451439555
 10
112.714567029113
 20
-153.3446451439555
 10
112.714567029113
 20
-153.5692653695938
 10
112.714567029113
 20
-153.5692653695938
 97
        0
 97
        0
 75
     2
 76
     1
 98
        0
  0
ENDBLK
  5
99
330
96
100
AcDbEntity
  8
0
100
AcDbBlockEnd
  0
BLOCK
  5
A6
330
A4
100
AcDbEntity
  8
0
100
AcDbBlockBegin
  2
block 5
 70
     0
 10
0.0
 20
0.0
 30
0.0
  3
block 5
  1

  0
SPLINE
  5
A8
330
A4
100
AcDbEntity
  8
_U+30EC_U+30A4_U+30E4_U+30FC 1
370
     0
100
AcDbSpline
210
0.0
220
0.0
230
1.0
 70
    11
 71
     3
 72
    62
 73
    58
 74
     0
 42
0.0000000001
 43
0.0000000001
 12
1.0
 22
0.0
 32
0.0
 13
1.0
 23
0.0
 33
0.0
 40
0.0
 40
0.0
 40
0.0
 40
0.0
 40
1.0
 40
1.0
 40
1.0
 40
2.0
 40
2.0
 40
2.0
 40
3.0
 40
3.0
 40
3.0
 40
4.0
 40
4.0
 40
4.0
 40
5.0
 40
5.0
 40
5.0
 40
6.0
 40
6.0
 40
6.0
 40
7.0
 40
7.0
 40
7.0
 40
8.0
 40
8.0
 40
8.0
 40
9.0
 40
9.0
 40
9.0
 40
10.0
 40
10.0
 40
10.0
 40
11.0
 40
11.0
 40
11.0
 40
12.0
 40
12.0
 40
12.0
 40
13.0
 40
13.0
 40
13.0
 40
14.0
 40
14.0
 40
14.0
 40
15.0
 40
15.0
 40
15.0
 40
16.0
 40
16.0
 40
16.0
 40
17.0
 40
17.0
 40
17.0
 40
18.0
 40
18.0
 40
18.0
 40
19.0
 40
19.0
 40
19.0
 40
19.0
 10
95.5650539583136
 20
-141.3522677598008
 30
0.0
 10
95.46979706814645
 20
-141.3522677598008
 30
0.0
 10
95.2518947787044
 20
-141.3310804225665
 30
0.0
 10
95.12718232213835
 20
-141.1448730115888
 30
0.0
 10
95.05311276920547
 20
-141.0327351535439
 30
0.0
 10
95.04880639984891
 20
-140.9333441487944
 30
0.0
 10
95.04467228526661
 20
-140.8487670546316
 30
0.0
 10
95.04467228526661
 20
-140.8487670546316
 30
0.0
 10
95.26464163199982
 20
-140.8487670546316
 30
0.0
 10
95.26464163199982
 20
-140.8487670546316
 30
0.0
 10
95.26670868929097
 20
-140.9228366075644
 30
0.0
 10
95.27738848529523
 20
-141.1576198648842
 30
0.0
 10
95.56074758895704
 20
-141.1576198648842
 30
0.0
 10
95.69837915359277
 20
-141.1576198648842
 30
0.0
 10
95.85065237404082
 20
-141.0878566813079
 30
0.0
 10
95.85065237404082
 20
-140.8592745958616
 30
0.0
 10
95.85065237404082
 20
-140.7430026232344
 30
0.0
 10
95.8125840689288
 20
-140.6942545221181
 30
0.0
 10
95.7808891904645
 20
-140.6625596436538
 30
0.0
 10
95.70681963753164
 20
-140.5884900907209
 30
0.0
 10
95.59037541013019
 20
-140.5759154921998
 30
0.0
 10
95.53542613714045
 20
-140.5759154921998
 30
0.0
 10
95.51647811197158
 20
-140.5759154921998
 30
0.0
 10
95.48047686415072
 20
-140.5779825494909
 30
0.0
 10
95.45291610026872
 20
-140.5821166640732
 30
0.0
 10
95.45291610026872
 20
-140.5821166640732
 30
0.0
 10
95.45291610026872
 20
-140.3874687691566
 30
0.0
 10
95.45291610026872
 20
-140.3874687691566
 30
0.0
 10
95.49098440538073
 20
-140.3938421958043
 30
0.0
 10
95.5333590798493
 20
-140.3960815078697
 30
0.0
 10
95.53973250649702
 20
-140.3960815078697
 30
0.0
 10
95.60518932071676
 20
-140.3960815078697
 30
0.0
 10
95.80414358498994
 20
-140.3748941706355
 30
0.0
 10
95.80414358498994
 20
-140.1378716012503
 30
0.0
 10
95.80414358498994
 20
-139.9602769289856
 30
0.0
 10
95.67288544700192
 20
-139.9051554012216
 30
0.0
 10
95.56298690102246
 20
-139.9051554012216
 30
0.0
 10
95.29857582252953
 20
-139.9051554012216
 30
0.0
 10
95.2899630838164
 20
-140.1378716012503
 30
0.0
 10
95.2858289692341
 20
-140.209874096892
 30
0.0
 10
95.2858289692341
 20
-140.209874096892
 30
0.0
 10
95.08274059037862
 20
-140.209874096892
 30
0.0
 10
95.08274059037862
 20
-140.209874096892
 30
0.0
 10
95.09118107431749
 20
-140.0849893855517
 30
0.0
 10
95.11874183819948
 20
-139.7084404490139
 30
0.0
 10
95.57556149954361
 20
-139.7084404490139
 30
0.0
 10
95.79983721563337
 20
-139.7084404490139
 30
0.0
 10
96.04099389960086
 20
-139.8353922176453
 30
0.0
 10
96.04099389960086
 20
-140.1314981746025
 30
0.0
 10
96.04099389960086
 20
-140.3177055855803
 30
0.0
 10
95.94590926420797
 20
-140.400215622452
 30
0.0
 10
95.84634600468425
 20
-140.4615383220895
 30
0.0
 10
95.90784095909596
 20
-140.4890990859715
 30
0.0
 10
96.08974200071715
 20
-140.5695420655521
 30
0.0
 10
96.08974200071715
 20
-140.8466999973404
 30
0.0
 10
96.08974200071715
 20
-141.1851806287662
 30
0.0
 10
95.84221189010195
 20
-141.3522677598008
 30
0.0
 10
95.5650539583136
 20
-141.3522677598008
 30
0.0
  0
HATCH
  5
A9
330
A4
100
AcDbEntity
  8
_U+30EC_U+30A4_U+30E4_U+30FC 1
 62
   179
420
  2234388
100
AcDbHatch
 10
0.0
 20
0.0
 30
0.0
210
0.0
220
0.0
230
1.0
  2
SOLID
 70
     1
 71
     0
 91
        1
 92
        1
 93
        1
 72
     4
 94
        3
 73
     0
 74
     1
 95
       62
 96
       58
 40
0.0
 40
0.0
 40
0.0
 40
0.0
 40
1.0
 40
1.0
 40
1.0
 40
2.0
 40
2.0
 40
2.0
 40
3.0
 40
3.0
 40
3.0
 40
4.0
 40
4.0
 40
4.0
 40
5.0
 40
5.0
 40
5.0
 40
6.0
 40
6.0
 40
6.0
 40
7.0
 40
7.0
 40
7.0
 40
8.0
 40
8.0
 40
8.0
 40
9.0
 40
9.0
 40
9.0
 40
10.0
 40
10.0
 40
10.0
 40
11.0
 40
11.0
 40
11.0
 40
12.0
 40
12.0
 40
12.0
 40
13.0
 40
13.0
 40
13.0
 40
14.0
 40
14.0
 40
14.0
 40
15.0
 40
15.0
 40
15.0
 40
16.0
 40
16.0
 40
16.0
 40
17.0
 40
17.0
 40
17.0
 40
18.0
 40
18.0
 40
18.0
 40
19.0
 40
19.0
 40
19.0
 40
19.0
 10
95.5650539583136
 20
-141.3522677598008
 10
95.46979706814645
 20
-141.3522677598008
 10
95.2518947787044
 20
-141.3310804225665
 10
95.12718232213835
 20
-141.1448730115888
 10
95.05311276920547
 20
-141.0327351535439
 10
95.04880639984891
 20
-140.9333441487944
 10
95.04467228526661
 20
-140.8487670546316
 10
95.04467228526661
 20
-140.8487670546316
 10
95.26464163199982
 20
-140.8487670546316
 10
95.26464163199982
 20
-140.8487670546316
 10
95.26670868929097
 20
-140.9228366075644
 10
95.27738848529523
 20
-141.1576198648842
 10
95.56074758895704
 20
-141.1576198648842
 10
95.69837915359277
 20
-141.1576198648842
 10
95.85065237404082
 20
-141.0878566813079
 10
95.85065237404082
 20
-140.8592745958616
 10
95.85065237404082
 20
-140.7430026232344
 10
95.8125840689288
 20
-140.6942545221181
 10
95.7808891904645
 20
-140.6625596436538
 10
95.70681963753164
 20
-140.5884900907209
 10
95.59037541013019
 20
-140.5759154921998
 10
95.53542613714045
 20
-140.5759154921998
 10
95.51647811197158
 20
-140.5759154921998
 10
95.48047686415072
 20
-140.5779825494909
 10
95.45291610026872
 20
-140.5821166640732
 10
95.45291610026872
 20
-140.5821166640732
 10
95.45291610026872
 20
-140.3874687691566
 10
95.45291610026872
 20
-140.3874687691566
 10
95.49098440538073
 20
-140.3938421958043
 10
95.5333590798493
 20
-140.3960815078697
 10
95.53973250649702
 20
-140.3960815078697
 10
95.60518932071676
 20
-140.3960815078697
 10
95.80414358498994
 20
-140.3748941706355
 10
95.80414358498994
 20
-140.1378716012503
 10
95.80414358498994
 20
-139.9602769289856
 10
95.67288544700192
 20
-139.9051554012216
 10
95.56298690102246
 20
-139.9051554012216
 10
95.29857582252953
 20
-139.9051554012216
 10
95.2899630838164
 20
-140.1378716012503
 10
95.2858289692341
 20
-140.209874096892
 10
95.2858289692341
 20
-140.209874096892
 10
95.08274059037862
 20
-140.209874096892
 10
95.08274059037862
 20
-140.209874096892
 10
95.09118107431749
 20
-140.0849893855517
 10
95.11874183819948
 20
-139.7084404490139
 10
95.57556149954361
 20
-139.7084404490139
 10
95.79983721563337
 20
-139.7084404490139
 10
96.04099389960086
 20
-139.8353922176453
 10
96.04099389960086
 20
-140.1314981746025
 10
96.04099389960086
 20
-140.3177055855803
 10
95.94590926420797
 20
-140.400215622452
 10
95.84634600468425
 20
-140.4615383220895
 10
95.90784095909596
 20
-140.4890990859715
 10
96.08974200071715
 20
-140.5695420655521
 10
96.08974200071715
 20
-140.8466999973404
 10
96.08974200071715
 20
-141.1851806287662
 10
95.84221189010195
 20
-141.3522677598008
 10
95.5650539583136
 20
-141.3522677598008
 97
        0
 97
        0
 75
     2
 76
     1
 98
        0
  0
ENDBLK
  5
A7
330
A4
100
AcDbEntity
  8
0
100
AcDbBlockEnd
  0
BLOCK
  5
AC
330
AA
100
AcDbEntity
  8
0
100
AcDbBlockBegin
  2
block 6
 70
     0
 10
0.0
 20
0.0
 30
0.0
  3
block 6
  1

  0
SPLINE
  5
AE
330
AA
100
AcDbEntity
  8
_U+30EC_U+30A4_U+30E4_U+30FC 1
370
     0
100
AcDbSpline
210
0.0
220
0.0
230
1.0
 70
    11
 71
     3
 72
    26
 73
    22
 74
     0
 42
0.0000000001
 43
0.0000000001
 12
1.0
 22
0.0
 32
0.0
 13
1.0
 23
0.0
 33
0.0
 40
0.0
 40
0.0
 40
0.0
 40
0.0
 40
1.0
 40
1.0
 40
1.0
 40
2.0
 40
2.0
 40
2.0
 40
3.0
 40
3.0
 40
3.0
 40
4.0
 40
4.0
 40
4.0
 40
5.0
 40
5.0
 40
5.0
 40
6.0
 40
6.0
 40
6.0
 40
7.0
 40
7.0
 40
7.0
 40
7.0
 10
100.9943521882931
 20
-157.6272433416696
 30
0.0
 10
100.9943521882931
 20
-157.6272433416696
 30
0.0
 10
100.9943521882931
 20
-156.5227457290985
 30
0.0
 10
100.9943521882931
 20
-156.5227457290985
 30
0.0
 10
100.9943521882931
 20
-156.5227457290985
 30
0.0
 10
100.6643120408062
 20
-156.5227457290985
 30
0.0
 10
100.6643120408062
 20
-156.5227457290985
 30
0.0
 10
100.6643120408062
 20
-156.5227457290985
 30
0.0
 10
100.6643120408062
 20
-156.3746066232328
 30
0.0
 10
100.6643120408062
 20
-156.3746066232328
 30
0.0
 10
100.9964192455842
 20
-156.3601372221947
 30
0.0
 10
101.0429280346351
 20
-156.1971842057424
 30
0.0
 10
101.0725558558083
 20
-156.0828070356321
 30
0.0
 10
101.0725558558083
 20
-156.0828070356321
 30
0.0
 10
101.2186279043828
 20
-156.0828070356321
 30
0.0
 10
101.2186279043828
 20
-156.0828070356321
 30
0.0
 10
101.2186279043828
 20
-156.0828070356321
 30
0.0
 10
101.2186279043828
 20
-157.6272433416696
 30
0.0
 10
101.2186279043828
 20
-157.6272433416696
 30
0.0
 10
101.2186279043828
 20
-157.6272433416696
 30
0.0
 10
100.9943521882931
 20
-157.6272433416696
 30
0.0
 10
100.9943521882931
 20
-157.6272433416696
 30
0.0
  0
HATCH
  5
AF
330
AA
100
AcDbEntity
  8
_U+30EC_U+30A4_U+30E4_U+30FC 1
 62
   179
420
  2234388
100
AcDbHatch
 10
0.0
 20
0.0
 30
0.0
210
0.0
220
0.0
230
1.0
  2
SOLID
 70
     1
 71
     0
 91
        1
 92
        1
 93
        1
 72
     4
 94
        3
 73
     0
 74
     1
 95
       26
 96
       22
 40
0.0
 40
0.0
 40
0.0
 40
0.0
 40
1.0
 40
1.0
 40
1.0
 40
2.0
 40
2.0
 40
2.0
 40
3.0
 40
3.0
 40
3.0
 40
4.0
 40
4.0
 40
4.0
 40
5.0
 40
5.0
 40
5.0
 40
6.0
 40
6.0
 40
6.0
 40
7.0
 40
7.0
 40
7.0
 40
7.0
 10
100.9943521882931
 20
-157.6272433416696
 10
100.9943521882931
 20
-157.6272433416696
 10
100.9943521882931
 20
-156.5227457290985
 10
100.9943521882931
 20
-156.5227457290985
 10
100.9943521882931
 20
-156.5227457290985
 10
100.6643120408062
 20
-156.5227457290985
 10
100.6643120408062
 20
-156.5227457290985
 10
100.6643120408062
 20
-156.5227457290985
 10
100.6643120408062
 20
-156.3746066232328
 10
100.6643120408062
 20
-156.3746066232328
 10
100.9964192455842
 20
-156.3601372221947
 10
101.0429280346351
 20
-156.1971842057424
 10
101.0725558558083
 20
-156.0828070356321
 10
101.0725558558083
 20
-156.0828070356321
 10
101.2186279043828
 20
-156.0828070356321
 10
101.2186279043828
 20
-156.0828070356321
 10
101.2186279043828
 20
-156.0828070356321
 10
101.2186279043828
 20
-157.6272433416696
 10
101.2186279043828
 20
-157.6272433416696
 10
101.2186279043828
 20
-157.6272433416696
 10
100.9943521882931
 20
-157.6272433416696
 10
100.9943521882931
 20
-157.6272433416696
 97
        0
 97
        0
 75
     2
 76
     1
 98
        0
  0
SPLINE
  5
B0
330
AA
100
AcDbEntity
  8
_U+30EC_U+30A4_U+30E4_U+30FC 1
370
     0
100
AcDbSpline
210
0.0
220
0.0
230
1.0
 70
    11
 71
     3
 72
    53
 73
    49
 74
     0
 42
0.0000000001
 43
0.0000000001
 12
1.0
 22
0.0
 32
0.0
 13
1.0
 23
0.0
 33
0.0
 40
0.0
 40
0.0
 40
0.0
 40
0.0
 40
1.0
 40
1.0
 40
1.0
 40
2.0
 40
2.0
 40
2.0
 40
3.0
 40
3.0
 40
3.0
 40
4.0
 40
4.0
 40
4.0
 40
5.0
 40
5.0
 40
5.0
 40
6.0
 40
6.0
 40
6.0
 40
7.0
 40
7.0
 40
7.0
 40
8.0
 40
8.0
 40
8.0
 40
9.0
 40
9.0
 40
9.0
 40
10.0
 40
10.0
 40
10.0
 40
11.0
 40
11.0
 40
11.0
 40
12.0
 40
12.0
 40
12.0
 40
13.0
 40
13.0
 40
13.0
 40
14.0
 40
14.0
 40
14.0
 40
15.0
 40
15.0
 40
15.0
 40
16.0
 40
16.0
 40
16.0
 40
16.0
 10
102.2008246272276
 20
-157.6778862453027
 30
0.0
 10
102.1224487049381
 20
-157.6778862453027
 30
0.0
 10
102.0209906428975
 20
-157.661005277425
 30
0.0
 10
101.9193603260827
 20
-157.5976155204964
 30
0.0
 10
101.7458997684003
 20
-157.4873724649684
 30
0.0
 10
101.7247124311661
 20
-157.356458836529
 30
0.0
 10
101.7057644059972
 20
-157.2486273478406
 30
0.0
 10
101.7057644059972
 20
-157.2486273478406
 30
0.0
 10
101.9278008100215
 20
-157.2486273478406
 30
0.0
 10
101.9278008100215
 20
-157.2486273478406
 30
0.0
 10
101.9829223377855
 20
-157.4474093573396
 30
0.0
 10
102.109874106417
 20
-157.4770371785127
 30
0.0
 10
102.2028916845187
 20
-157.4770371785127
 30
0.0
 10
102.3424180516713
 20
-157.4770371785127
 30
0.0
 10
102.4948635268937
 20
-157.377473918989
 30
0.0
 10
102.4948635268937
 20
-157.1449299737346
 30
0.0
 10
102.4948635268937
 20
-156.8889593791805
 30
0.0
 10
102.3150295425636
 20
-156.81902394083
 30
0.0
 10
102.1944512005799
 20
-156.81902394083
 30
0.0
 10
102.1627563221156
 20
-156.81902394083
 30
0.0
 10
102.0209906428975
 20
-156.81902394083
 30
0.0
 10
101.9321071793781
 20
-156.9482150215268
 30
0.0
 10
101.9321071793781
 20
-156.9482150215268
 30
0.0
 10
101.7565795644046
 20
-156.9289224868095
 30
0.0
 10
101.7565795644046
 20
-156.9289224868095
 30
0.0
 10
101.7565795644046
 20
-156.9289224868095
 30
0.0
 10
101.8771579063883
 20
-156.0828070356321
 30
0.0
 10
101.8771579063883
 20
-156.0828070356321
 30
0.0
 10
101.8771579063883
 20
-156.0828070356321
 30
0.0
 10
102.6555772312806
 20
-156.0828070356321
 30
0.0
 10
102.6555772312806
 20
-156.0828070356321
 30
0.0
 10
102.6555772312806
 20
-156.0828070356321
 30
0.0
 10
102.6555772312806
 20
-156.2774549305487
 30
0.0
 10
102.6555772312806
 20
-156.2774549305487
 30
0.0
 10
102.6555772312806
 20
-156.2774549305487
 30
0.0
 10
102.0399386680664
 20
-156.2774549305487
 30
0.0
 10
102.0399386680664
 20
-156.2774549305487
 30
0.0
 10
102.0399386680664
 20
-156.2774549305487
 30
0.0
 10
101.9744818538467
 20
-156.7005126561374
 30
0.0
 10
101.9744818538467
 20
-156.7005126561374
 30
0.0
 10
102.0358045534841
 20
-156.6667507203819
 30
0.0
 10
102.1183145903558
 20
-156.6264431032045
 30
0.0
 10
102.2366536202742
 20
-156.6264431032045
 30
0.0
 10
102.4905571575371
 20
-156.6264431032045
 30
0.0
 10
102.7275797269223
 20
-156.8128227689565
 30
0.0
 10
102.7275797269223
 20
-157.1256374390172
 30
0.0
 10
102.7275797269223
 20
-157.4432752427572
 30
0.0
 10
102.5033040108325
 20
-157.6778862453027
 30
0.0
 10
102.2008246272276
 20
-157.6778862453027
 30
0.0
  0
HATCH
  5
B1
330
AA
100
AcDbEntity
  8
_U+30EC_U+30A4_U+30E4_U+30FC 1
 62
   179
420
  2234388
100
AcDbHatch
 10
0.0
 20
0.0
 30
0.0
210
0.0
220
0.0
230
1.0
  2
SOLID
 70
     1
 71
     0
 91
        1
 92
        1
 93
        1
 72
     4
 94
        3
 73
     0
 74
     1
 95
       53
 96
       49
 40
0.0
 40
0.0
 40
0.0
 40
0.0
 40
1.0
 40
1.0
 40
1.0
 40
2.0
 40
2.0
 40
2.0
 40
3.0
 40
3.0
 40
3.0
 40
4.0
 40
4.0
 40
4.0
 40
5.0
 40
5.0
 40
5.0
 40
6.0
 40
6.0
 40
6.0
 40
7.0
 40
7.0
 40
7.0
 40
8.0
 40
8.0
 40
8.0
 40
9.0
 40
9.0
 40
9.0
 40
10.0
 40
10.0
 40
10.0
 40
11.0
 40
11.0
 40
11.0
 40
12.0
 40
12.0
 40
12.0
 40
13.0
 40
13.0
 40
13.0
 40
14.0
 40
14.0
 40
14.0
 40
15.0
 40
15.0
 40
15.0
 40
16.0
 40
16.0
 40
16.0
 40
16.0
 10
102.2008246272276
 20
-157.6778862453027
 10
102.1224487049381
 20
-157.6778862453027
 10
102.0209906428975
 20
-157.661005277425
 10
101.9193603260827
 20
-157.5976155204964
 10
101.7458997684003
 20
-157.4873724649684
 10
101.7247124311661
 20
-157.356458836529
 10
101.7057644059972
 20
-157.2486273478406
 10
101.7057644059972
 20
-157.2486273478406
 10
101.9278008100215
 20
-157.2486273478406
 10
101.9278008100215
 20
-157.2486273478406
 10
101.9829223377855
 20
-157.4474093573396
 10
102.109874106417
 20
-157.4770371785127
 10
102.2028916845187
 20
-157.4770371785127
 10
102.3424180516713
 20
-157.4770371785127
 10
102.4948635268937
 20
-157.377473918989
 10
102.4948635268937
 20
-157.1449299737346
 10
102.4948635268937
 20
-156.8889593791805
 10
102.3150295425636
 20
-156.81902394083
 10
102.1944512005799
 20
-156.81902394083
 10
102.1627563221156
 20
-156.81902394083
 10
102.0209906428975
 20
-156.81902394083
 10
101.9321071793781
 20
-156.9482150215268
 10
101.9321071793781
 20
-156.9482150215268
 10
101.7565795644046
 20
-156.9289224868095
 10
101.7565795644046
 20
-156.9289224868095
 10
101.7565795644046
 20
-156.9289224868095
 10
101.8771579063883
 20
-156.0828070356321
 10
101.8771579063883
 20
-156.0828070356321
 10
101.8771579063883
 20
-156.0828070356321
 10
102.6555772312806
 20
-156.0828070356321
 10
102.6555772312806
 20
-156.0828070356321
 10
102.6555772312806
 20
-156.0828070356321
 10
102.6555772312806
 20
-156.2774549305487
 10
102.6555772312806
 20
-156.2774549305487
 10
102.6555772312806
 20
-156.2774549305487
 10
102.0399386680664
 20
-156.2774549305487
 10
102.0399386680664
 20
-156.2774549305487
 10
102.0399386680664
 20
-156.2774549305487
 10
101.9744818538467
 20
-156.7005126561374
 10
101.9744818538467
 20
-156.7005126561374
 10
102.0358045534841
 20
-156.6667507203819
 10
102.1183145903558
 20
-156.6264431032045
 10
102.2366536202742
 20
-156.6264431032045
 10
102.4905571575371
 20
-156.6264431032045
 10
102.7275797269223
 20
-156.8128227689565
 10
102.7275797269223
 20
-157.1256374390172
 10
102.7275797269223
 20
-157.4432752427572
 10
102.5033040108325
 20
-157.6778862453027
 10
102.2008246272276
 20
-157.6778862453027
 97
        0
 97
        0
 75
     2
 76
     1
 98
        0
  0
ENDBLK
  5
AD
330
AA
100
AcDbEntity
  8
0
100
AcDbBlockEnd
  0
BLOCK
  5
C9
330
C7
100
AcDbEntity
  8
0
100
AcDbBlockBegin
  2
block 7
 70
     0
 10
0.0
 20
0.0
 30
0.0
  3
block 7
  1

  0
SPLINE
  5
CB
330
C7
100
AcDbEntity
  8
_U+30EC_U+30A4_U+30E4_U+30FC 1
370
     0
100
AcDbSpline
210
0.0
220
0.0
230
1.0
 70
    11
 71
     3
 72
    26
 73
    22
 74
     0
 42
0.0000000001
 43
0.0000000001
 12
1.0
 22
0.0
 32
0.0
 13
1.0
 23
0.0
 33
0.0
 40
0.0
 40
0.0
 40
0.0
 40
0.0
 40
1.0
 40
1.0
 40
1.0
 40
2.0
 40
2.0
 40
2.0
 40
3.0
 40
3.0
 40
3.0
 40
4.0
 40
4.0
 40
4.0
 40
5.0
 40
5.0
 40
5.0
 40
6.0
 40
6.0
 40
6.0
 40
7.0
 40
7.0
 40
7.0
 40
7.0
 10
100.1425523295651
 20
-144.1069661098066
 30
0.0
 10
100.1425523295651
 20
-144.1069661098066
 30
0.0
 10
100.1425523295651
 20
-143.0026407520098
 30
0.0
 10
100.1425523295651
 20
-143.0026407520098
 30
0.0
 10
100.1425523295651
 20
-143.0026407520098
 30
0.0
 10
99.81251218207812
 20
-143.0026407520098
 30
0.0
 10
99.81251218207812
 20
-143.0026407520098
 30
0.0
 10
99.81251218207812
 20
-143.0026407520098
 30
0.0
 10
99.81251218207812
 20
-142.854501646144
 30
0.0
 10
99.81251218207812
 20
-142.854501646144
 30
0.0
 10
100.1446193868562
 20
-142.8398599903317
 30
0.0
 10
100.1911281759071
 20
-142.6769069738794
 30
0.0
 10
100.2207559970802
 20
-142.5627020585434
 30
0.0
 10
100.2207559970802
 20
-142.5627020585434
 30
0.0
 10
100.3668280456548
 20
-142.5627020585434
 30
0.0
 10
100.3668280456548
 20
-142.5627020585434
 30
0.0
 10
100.3668280456548
 20
-142.5627020585434
 30
0.0
 10
100.3668280456548
 20
-144.1069661098066
 30
0.0
 10
100.3668280456548
 20
-144.1069661098066
 30
0.0
 10
100.3668280456548
 20
-144.1069661098066
 30
0.0
 10
100.1425523295651
 20
-144.1069661098066
 30
0.0
 10
100.1425523295651
 20
-144.1069661098066
 30
0.0
  0
HATCH
  5
CC
330
C7
100
AcDbEntity
  8
_U+30EC_U+30A4_U+30E4_U+30FC 1
 62
   179
420
  2234388
100
AcDbHatch
 10
0.0
 20
0.0
 30
0.0
210
0.0
220
0.0
230
1.0
  2
SOLID
 70
     1
 71
     0
 91
        1
 92
        1
 93
        1
 72
     4
 94
        3
 73
     0
 74
     1
 95
       26
 96
       22
 40
0.0
 40
0.0
 40
0.0
 40
0.0
 40
1.0
 40
1.0
 40
1.0
 40
2.0
 40
2.0
 40
2.0
 40
3.0
 40
3.0
 40
3.0
 40
4.0
 40
4.0
 40
4.0
 40
5.0
 40
5.0
 40
5.0
 40
6.0
 40
6.0
 40
6.0
 40
7.0
 40
7.0
 40
7.0
 40
7.0
 10
100.1425523295651
 20
-144.1069661098066
 10
100.1425523295651
 20
-144.1069661098066
 10
100.1425523295651
 20
-143.0026407520098
 10
100.1425523295651
 20
-143.0026407520098
 10
100.1425523295651
 20
-143.0026407520098
 10
99.81251218207812
 20
-143.0026407520098
 10
99.81251218207812
 20
-143.0026407520098
 10
99.81251218207812
 20
-143.0026407520098
 10
99.81251218207812
 20
-142.854501646144
 10
99.81251218207812
 20
-142.854501646144
 10
100.1446193868562
 20
-142.8398599903317
 10
100.1911281759071
 20
-142.6769069738794
 10
100.2207559970802
 20
-142.5627020585434
 10
100.2207559970802
 20
-142.5627020585434
 10
100.3668280456548
 20
-142.5627020585434
 10
100.3668280456548
 20
-142.5627020585434
 10
100.3668280456548
 20
-142.5627020585434
 10
100.3668280456548
 20
-144.1069661098066
 10
100.3668280456548
 20
-144.1069661098066
 10
100.3668280456548
 20
-144.1069661098066
 10
100.1425523295651
 20
-144.1069661098066
 10
100.1425523295651
 20
-144.1069661098066
 97
        0
 97
        0
 75
     2
 76
     1
 98
        0
  0
POLYLINE
  5
CD
330
C7
100
AcDbEntity
  8
_U+30EC_U+30A4_U+30E4_U+30FC 1
370
     0
100
AcDb2dPolyline
 66
     1
 10
0.0
 20
0.0
 30
0.0
  0
VERTEX
  5
CE
330
CD
100
AcDbEntity
  8
_U+30EC_U+30A4_U+30E4_U+30FC 1
370
     0
100
AcDbVertex
100
AcDb2dVertex
 10
100.928034100202
 20
-144.1069661098066
 30
0.0
  0
VERTEX
  5
CF
330
CD
100
AcDbEntity
  8
_U+30EC_U+30A4_U+30E4_U+30FC 1
370
     0
100
AcDbVertex
100
AcDb2dVertex
 10
100.928034100202
 20
-143.8553018846091
 30
0.0
  0
VERTEX
  5
D0
330
CD
100
AcDbEntity
  8
_U+30EC_U+30A4_U+30E4_U+30FC 1
370
     0
100
AcDbVertex
100
AcDb2dVertex
 10
101.1796983253995
 20
-143.8553018846091
 30
0.0
  0
VERTEX
  5
D1
330
CD
100
AcDbEntity
  8
_U+30EC_U+30A4_U+30E4_U+30FC 1
370
     0
100
AcDbVertex
100
AcDb2dVertex
 10
101.1796983253995
 20
-144.1069661098066
 30
0.0
  0
VERTEX
  5
D2
330
CD
100
AcDbEntity
  8
_U+30EC_U+30A4_U+30E4_U+30FC 1
370
     0
100
AcDbVertex
100
AcDb2dVertex
 10
100.928034100202
 20
-144.1069661098066
 30
0.0
  0
SEQEND
  5
D3
330
CD
100
AcDbEntity
  8
_U+30EC_U+30A4_U+30E4_U+30FC 1
370
     0
  0
HATCH
  5
D4
330
C7
100
AcDbEntity
  8
_U+30EC_U+30A4_U+30E4_U+30FC 1
 62
   179
420
  2234388
100
AcDbHatch
 10
0.0
 20
0.0
 30
0.0
210
0.0
220
0.0
230
1.0
  2
SOLID
 70
     1
 71
     0
 91
        1
 92
        1
 93
        4
 72
     1
 10
100.928034100202
 20
-144.1069661098066
 11
100.928034100202
 21
-143.8553018846091
 72
     1
 10
100.928034100202
 20
-143.8553018846091
 11
101.1796983253995
 21
-143.8553018846091
 72
     1
 10
101.1796983253995
 20
-143.8553018846091
 11
101.1796983253995
 21
-144.1069661098066
 72
     1
 10
101.1796983253995
 20
-144.1069661098066
 11
100.928034100202
 21
-144.1069661098066
 97
        0
 75
     2
 76
     1
 98
        0
  0
SPLINE
  5
D5
330
C7
100
AcDbEntity
  8
_U+30EC_U+30A4_U+30E4_U+30FC 1
370
     0
100
AcDbSpline
210
0.0
220
0.0
230
1.0
 70
    11
 71
     3
 72
    53
 73
    49
 74
     0
 42
0.0000000001
 43
0.0000000001
 12
1.0
 22
0.0
 32
0.0
 13
1.0
 23
0.0
 33
0.0
 40
0.0
 40
0.0
 40
0.0
 40
0.0
 40
1.0
 40
1.0
 40
1.0
 40
2.0
 40
2.0
 40
2.0
 40
3.0
 40
3.0
 40
3.0
 40
4.0
 40
4.0
 40
4.0
 40
5.0
 40
5.0
 40
5.0
 40
6.0
 40
6.0
 40
6.0
 40
7.0
 40
7.0
 40
7.0
 40
8.0
 40
8.0
 40
8.0
 40
9.0
 40
9.0
 40
9.0
 40
10.0
 40
10.0
 40
10.0
 40
11.0
 40
11.0
 40
11.0
 40
12.0
 40
12.0
 40
12.0
 40
13.0
 40
13.0
 40
13.0
 40
14.0
 40
14.0
 40
14.0
 40
15.0
 40
15.0
 40
15.0
 40
16.0
 40
16.0
 40
16.0
 40
16.0
 10
101.8973117149771
 20
-144.157781268214
 30
0.0
 10
101.8189357926876
 20
-144.157781268214
 30
0.0
 10
101.717477730647
 20
-144.1409003003363
 30
0.0
 10
101.6158474138322
 20
-144.0773382886335
 30
0.0
 10
101.4423868561498
 20
-143.9672674878797
 30
0.0
 10
101.4211995189155
 20
-143.836181604666
 30
0.0
 10
101.4022514937467
 20
-143.7283501159776
 30
0.0
 10
101.4022514937467
 20
-143.7283501159776
 30
0.0
 10
101.624287897771
 20
-143.7283501159776
 30
0.0
 10
101.624287897771
 20
-143.7283501159776
 30
0.0
 10
101.679409425535
 20
-143.9271321254766
 30
0.0
 10
101.8063611941665
 20
-143.9567599466497
 30
0.0
 10
101.8993787722682
 20
-143.9567599466497
 30
0.0
 10
102.0389051394208
 20
-143.9567599466497
 30
0.0
 10
102.1913506146431
 20
-143.8573689419002
 30
0.0
 10
102.1913506146431
 20
-143.6246527418716
 30
0.0
 10
102.1913506146431
 20
-143.3686821473176
 30
0.0
 10
102.0115166303131
 20
-143.2989189637412
 30
0.0
 10
101.8909382883294
 20
-143.2989189637412
 30
0.0
 10
101.8592434098651
 20
-143.2989189637412
 30
0.0
 10
101.717477730647
 20
-143.2989189637412
 30
0.0
 10
101.6285942671276
 20
-143.4279377896638
 30
0.0
 10
101.6285942671276
 20
-143.4279377896638
 30
0.0
 10
101.4530666521541
 20
-143.4088175097207
 30
0.0
 10
101.4530666521541
 20
-143.4088175097207
 30
0.0
 10
101.4530666521541
 20
-143.4088175097207
 30
0.0
 10
101.5736449941378
 20
-142.5627020585434
 30
0.0
 10
101.5736449941378
 20
-142.5627020585434
 30
0.0
 10
101.5736449941378
 20
-142.5627020585434
 30
0.0
 10
102.35206431903
 20
-142.5627020585434
 30
0.0
 10
102.35206431903
 20
-142.5627020585434
 30
0.0
 10
102.35206431903
 20
-142.5627020585434
 30
0.0
 10
102.35206431903
 20
-142.75734995346
 30
0.0
 10
102.35206431903
 20
-142.75734995346
 30
0.0
 10
102.35206431903
 20
-142.75734995346
 30
0.0
 10
101.7364257558159
 20
-142.75734995346
 30
0.0
 10
101.7364257558159
 20
-142.75734995346
 30
0.0
 10
101.7364257558159
 20
-142.75734995346
 30
0.0
 10
101.6709689415962
 20
-143.1804076790486
 30
0.0
 10
101.6709689415962
 20
-143.1804076790486
 30
0.0
 10
101.7322916412336
 20
-143.146473488519
 30
0.0
 10
101.8148016781053
 20
-143.1063381261158
 30
0.0
 10
101.9331407080237
 20
-143.1063381261158
 30
0.0
 10
102.1870442452866
 20
-143.1063381261158
 30
0.0
 10
102.4240668146718
 20
-143.2925455370935
 30
0.0
 10
102.4240668146718
 20
-143.6055324619285
 30
0.0
 10
102.4240668146718
 20
-143.9229980108942
 30
0.0
 10
102.199791098582
 20
-144.157781268214
 30
0.0
 10
101.8973117149771
 20
-144.157781268214
 30
0.0
  0
HATCH
  5
D6
330
C7
100
AcDbEntity
  8
_U+30EC_U+30A4_U+30E4_U+30FC 1
 62
   179
420
  2234388
100
AcDbHatch
 10
0.0
 20
0.0
 30
0.0
210
0.0
220
0.0
230
1.0
  2
SOLID
 70
     1
 71
     0
 91
        1
 92
        1
 93
        1
 72
     4
 94
        3
 73
     0
 74
     1
 95
       53
 96
       49
 40
0.0
 40
0.0
 40
0.0
 40
0.0
 40
1.0
 40
1.0
 40
1.0
 40
2.0
 40
2.0
 40
2.0
 40
3.0
 40
3.0
 40
3.0
 40
4.0
 40
4.0
 40
4.0
 40
5.0
 40
5.0
 40
5.0
 40
6.0
 40
6.0
 40
6.0
 40
7.0
 40
7.0
 40
7.0
 40
8.0
 40
8.0
 40
8.0
 40
9.0
 40
9.0
 40
9.0
 40
10.0
 40
10.0
 40
10.0
 40
11.0
 40
11.0
 40
11.0
 40
12.0
 40
12.0
 40
12.0
 40
13.0
 40
13.0
 40
13.0
 40
14.0
 40
14.0
 40
14.0
 40
15.0
 40
15.0
 40
15.0
 40
16.0
 40
16.0
 40
16.0
 40
16.0
 10
101.8973117149771
 20
-144.157781268214
 10
101.8189357926876
 20
-144.157781268214
 10
101.717477730647
 20
-144.1409003003363
 10
101.6158474138322
 20
-144.0773382886335
 10
101.4423868561498
 20
-143.9672674878797
 10
101.4211995189155
 20
-143.836181604666
 10
101.4022514937467
 20
-143.7283501159776
 10
101.4022514937467
 20
-143.7283501159776
 10
101.624287897771
 20
-143.7283501159776
 10
101.624287897771
 20
-143.7283501159776
 10
101.679409425535
 20
-143.9271321254766
 10
101.8063611941665
 20
-143.9567599466497
 10
101.8993787722682
 20
-143.9567599466497
 10
102.0389051394208
 20
-143.9567599466497
 10
102.1913506146431
 20
-143.8573689419002
 10
102.1913506146431
 20
-143.6246527418716
 10
102.1913506146431
 20
-143.3686821473176
 10
102.0115166303131
 20
-143.2989189637412
 10
101.8909382883294
 20
-143.2989189637412
 10
101.8592434098651
 20
-143.2989189637412
 10
101.717477730647
 20
-143.2989189637412
 10
101.6285942671276
 20
-143.4279377896638
 10
101.6285942671276
 20
-143.4279377896638
 10
101.4530666521541
 20
-143.4088175097207
 10
101.4530666521541
 20
-143.4088175097207
 10
101.4530666521541
 20
-143.4088175097207
 10
101.5736449941378
 20
-142.5627020585434
 10
101.5736449941378
 20
-142.5627020585434
 10
101.5736449941378
 20
-142.5627020585434
 10
102.35206431903
 20
-142.5627020585434
 10
102.35206431903
 20
-142.5627020585434
 10
102.35206431903
 20
-142.5627020585434
 10
102.35206431903
 20
-142.75734995346
 10
102.35206431903
 20
-142.75734995346
 10
102.35206431903
 20
-142.75734995346
 10
101.7364257558159
 20
-142.75734995346
 10
101.7364257558159
 20
-142.75734995346
 10
101.7364257558159
 20
-142.75734995346
 10
101.6709689415962
 20
-143.1804076790486
 10
101.6709689415962
 20
-143.1804076790486
 10
101.7322916412336
 20
-143.146473488519
 10
101.8148016781053
 20
-143.1063381261158
 10
101.9331407080237
 20
-143.1063381261158
 10
102.1870442452866
 20
-143.1063381261158
 10
102.4240668146718
 20
-143.2925455370935
 10
102.4240668146718
 20
-143.6055324619285
 10
102.4240668146718
 20
-143.9229980108942
 10
102.199791098582
 20
-144.157781268214
 10
101.8973117149771
 20
-144.157781268214
 97
        0
 97
        0
 75
     2
 76
     1
 98
        0
  0
SPLINE
  5
D7
330
C7
100
AcDbEntity
  8
_U+30EC_U+30A4_U+30E4_U+30FC 1
370
     0
100
AcDbSpline
210
0.0
220
0.0
230
1.0
 70
    11
 71
     3
 72
    44
 73
    40
 74
     0
 42
0.0000000001
 43
0.0000000001
 12
1.0
 22
0.0
 32
0.0
 13
1.0
 23
0.0
 33
0.0
 40
0.0
 40
0.0
 40
0.0
 40
0.0
 40
1.0
 40
1.0
 40
1.0
 40
2.0
 40
2.0
 40
2.0
 40
3.0
 40
3.0
 40
3.0
 40
4.0
 40
4.0
 40
4.0
 40
5.0
 40
5.0
 40
5.0
 40
6.0
 40
6.0
 40
6.0
 40
7.0
 40
7.0
 40
7.0
 40
8.0
 40
8.0
 40
8.0
 40
9.0
 40
9.0
 40
9.0
 40
10.0
 40
10.0
 40
10.0
 40
11.0
 40
11.0
 40
11.0
 40
12.0
 40
12.0
 40
12.0
 40
13.0
 40
13.0
 40
13.0
 40
13.0
 10
103.6072848590808
 20
-144.1069661098066
 30
0.0
 10
103.5838582097811
 20
-144.0625243780469
 30
0.0
 10
103.5628431273211
 20
-144.0096421623483
 30
0.0
 10
103.5606038152557
 20
-143.7789930196108
 30
0.0
 10
103.5564697006734
 20
-143.5357692783522
 30
0.0
 10
103.4972140583271
 20
-143.4660060947759
 30
0.0
 10
103.3194471312882
 20
-143.4660060947759
 30
0.0
 10
103.3194471312882
 20
-143.4660060947759
 30
0.0
 10
102.9112033162861
 20
-143.4660060947759
 30
0.0
 10
102.9112033162861
 20
-143.4660060947759
 30
0.0
 10
102.9112033162861
 20
-143.4660060947759
 30
0.0
 10
102.9112033162861
 20
-144.1069661098066
 30
0.0
 10
102.9112033162861
 20
-144.1069661098066
 30
0.0
 10
102.9112033162861
 20
-144.1069661098066
 30
0.0
 10
102.6764200589663
 20
-144.1069661098066
 30
0.0
 10
102.6764200589663
 20
-144.1069661098066
 30
0.0
 10
102.6764200589663
 20
-144.1069661098066
 30
0.0
 10
102.6764200589663
 20
-142.5627020585434
 30
0.0
 10
102.6764200589663
 20
-142.5627020585434
 30
0.0
 10
102.6764200589663
 20
-142.5627020585434
 30
0.0
 10
103.3511420097525
 20
-142.5627020585434
 30
0.0
 10
103.3511420097525
 20
-142.5627020585434
 30
0.0
 10
103.657927762714
 20
-142.5627020585434
 30
0.0
 10
103.8251871485229
 20
-142.7339233041603
 30
0.0
 10
103.8251871485229
 20
-142.9898938987143
 30
0.0
 10
103.8251871485229
 20
-143.0407090571218
 30
0.0
 10
103.8165744098097
 20
-143.1232190939935
 30
0.0
 10
103.77213267805
 20
-143.2036620735741
 30
0.0
 10
103.713049290478
 20
-143.3073594476801
 30
0.0
 10
103.647420221484
 20
-143.326307472849
 30
0.0
 10
103.5860975218465
 20
-143.3431884407267
 30
0.0
 10
103.723556831708
 20
-143.3855631151953
 30
0.0
 10
103.7912529579932
 20
-143.4343112163116
 30
0.0
 10
103.7955593273497
 20
-143.7493651984377
 30
0.0
 10
103.799693441932
 20
-144.0201497035783
 30
0.0
 10
103.8356946897529
 20
-144.0520168368169
 30
0.0
 10
103.903390816038
 20
-144.1069661098066
 30
0.0
 10
103.903390816038
 20
-144.1069661098066
 30
0.0
 10
103.6072848590808
 20
-144.1069661098066
 30
0.0
 10
103.6072848590808
 20
-144.1069661098066
 30
0.0
  0
SPLINE
  5
D8
330
C7
100
AcDbEntity
  8
_U+30EC_U+30A4_U+30E4_U+30FC 1
370
     0
100
AcDbSpline
210
0.0
220
0.0
230
1.0
 70
    11
 71
     3
 72
    20
 73
    16
 74
     0
 42
0.0000000001
 43
0.0000000001
 12
1.0
 22
0.0
 32
0.0
 13
1.0
 23
0.0
 33
0.0
 40
0.0
 40
0.0
 40
0.0
 40
0.0
 40
1.0
 40
1.0
 40
1.0
 40
2.0
 40
2.0
 40
2.0
 40
3.0
 40
3.0
 40
3.0
 40
4.0
 40
4.0
 40
4.0
 40
5.0
 40
5.0
 40
5.0
 40
5.0
 10
103.3554483791091
 20
-142.7742309213377
 30
0.0
 10
103.3554483791091
 20
-142.7742309213377
 30
0.0
 10
102.9112033162861
 20
-142.7742309213377
 30
0.0
 10
102.9112033162861
 20
-142.7742309213377
 30
0.0
 10
102.9112033162861
 20
-142.7742309213377
 30
0.0
 10
102.9112033162861
 20
-143.2544772319815
 30
0.0
 10
102.9112033162861
 20
-143.2544772319815
 30
0.0
 10
102.9112033162861
 20
-143.2544772319815
 30
0.0
 10
103.3533813218179
 20
-143.2544772319815
 30
0.0
 10
103.3533813218179
 20
-143.2544772319815
 30
0.0
 10
103.4527723265674
 20
-143.2544772319815
 30
0.0
 10
103.5881645791377
 20
-143.1783406217575
 30
0.0
 10
103.5881645791377
 20
-143.0069471213663
 30
0.0
 10
103.5881645791377
 20
-142.9285711990769
 30
0.0
 10
103.5544026433822
 20
-142.7742309213377
 30
0.0
 10
103.3554483791091
 20
-142.7742309213377
 30
0.0
  0
HATCH
  5
D9
330
C7
100
AcDbEntity
  8
_U+30EC_U+30A4_U+30E4_U+30FC 1
 62
   179
420
  2234388
100
AcDbHatch
 10
0.0
 20
0.0
 30
0.0
210
0.0
220
0.0
230
1.0
  2
SOLID
 70
     1
 71
     0
 91
        2
 92
        1
 93
        1
 72
     4
 94
        3
 73
     0
 74
     1
 95
       44
 96
       40
 40
0.0
 40
0.0
 40
0.0
 40
0.0
 40
1.0
 40
1.0
 40
1.0
 40
2.0
 40
2.0
 40
2.0
 40
3.0
 40
3.0
 40
3.0
 40
4.0
 40
4.0
 40
4.0
 40
5.0
 40
5.0
 40
5.0
 40
6.0
 40
6.0
 40
6.0
 40
7.0
 40
7.0
 40
7.0
 40
8.0
 40
8.0
 40
8.0
 40
9.0
 40
9.0
 40
9.0
 40
10.0
 40
10.0
 40
10.0
 40
11.0
 40
11.0
 40
11.0
 40
12.0
 40
12.0
 40
12.0
 40
13.0
 40
13.0
 40
13.0
 40
13.0
 10
103.6072848590808
 20
-144.1069661098066
 10
103.5838582097811
 20
-144.0625243780469
 10
103.5628431273211
 20
-144.0096421623483
 10
103.5606038152557
 20
-143.7789930196108
 10
103.5564697006734
 20
-143.5357692783522
 10
103.4972140583271
 20
-143.4660060947759
 10
103.3194471312882
 20
-143.4660060947759
 10
103.3194471312882
 20
-143.4660060947759
 10
102.9112033162861
 20
-143.4660060947759
 10
102.9112033162861
 20
-143.4660060947759
 10
102.9112033162861
 20
-143.4660060947759
 10
102.9112033162861
 20
-144.1069661098066
 10
102.9112033162861
 20
-144.1069661098066
 10
102.9112033162861
 20
-144.1069661098066
 10
102.6764200589663
 20
-144.1069661098066
 10
102.6764200589663
 20
-144.1069661098066
 10
102.6764200589663
 20
-144.1069661098066
 10
102.6764200589663
 20
-142.5627020585434
 10
102.6764200589663
 20
-142.5627020585434
 10
102.6764200589663
 20
-142.5627020585434
 10
103.3511420097525
 20
-142.5627020585434
 10
103.3511420097525
 20
-142.5627020585434
 10
103.657927762714
 20
-142.5627020585434
 10
103.8251871485229
 20
-142.7339233041603
 10
103.8251871485229
 20
-142.9898938987143
 10
103.8251871485229
 20
-143.0407090571218
 10
103.8165744098097
 20
-143.1232190939935
 10
103.77213267805
 20
-143.2036620735741
 10
103.713049290478
 20
-143.3073594476801
 10
103.647420221484
 20
-143.326307472849
 10
103.5860975218465
 20
-143.3431884407267
 10
103.723556831708
 20
-143.3855631151953
 10
103.7912529579932
 20
-143.4343112163116
 10
103.7955593273497
 20
-143.7493651984377
 10
103.799693441932
 20
-144.0201497035783
 10
103.8356946897529
 20
-144.0520168368169
 10
103.903390816038
 20
-144.1069661098066
 10
103.903390816038
 20
-144.1069661098066
 10
103.6072848590808
 20
-144.1069661098066
 10
103.6072848590808
 20
-144.1069661098066
 97
        0
 97
        0
 92
        1
 93
        1
 72
     4
 94
        3
 73
     0
 74
     1
 95
       20
 96
       16
 40
0.0
 40
0.0
 40
0.0
 40
0.0
 40
1.0
 40
1.0
 40
1.0
 40
2.0
 40
2.0
 40
2.0
 40
3.0
 40
3.0
 40
3.0
 40
4.0
 40
4.0
 40
4.0
 40
5.0
 40
5.0
 40
5.0
 40
5.0
 10
103.3554483791091
 20
-142.7742309213377
 10
103.3554483791091
 20
-142.7742309213377
 10
102.9112033162861
 20
-142.7742309213377
 10
102.9112033162861
 20
-142.7742309213377
 10
102.9112033162861
 20
-142.7742309213377
 10
102.9112033162861
 20
-143.2544772319815
 10
102.9112033162861
 20
-143.2544772319815
 10
102.9112033162861
 20
-143.2544772319815
 10
103.3533813218179
 20
-143.2544772319815
 10
103.3533813218179
 20
-143.2544772319815
 10
103.4527723265674
 20
-143.2544772319815
 10
103.5881645791377
 20
-143.1783406217575
 10
103.5881645791377
 20
-143.0069471213663
 10
103.5881645791377
 20
-142.9285711990769
 10
103.5544026433822
 20
-142.7742309213377
 10
103.3554483791091
 20
-142.7742309213377
 97
        0
 97
        0
 75
     2
 76
     1
 98
        0
  0
ENDBLK
  5
CA
330
C7
100
AcDbEntity
  8
0
100
AcDbBlockEnd
  0
ENDSEC
  0
SECTION
  2
ENTITIES
  0
POLYLINE
  5
41
330
1F
100
AcDbEntity
  8
_U+30EC_U+30A4_U+30E4_U+30FC 1
 62
   179
420
  2234388
370
     9
100
AcDb2dPolyline
 66
     1
 10
0.0
 20
0.0
 30
0.0
  0
VERTEX
  5
42
330
41
100
AcDbEntity
  8
_U+30EC_U+30A4_U+30E4_U+30FC 1
 62
   179
420
  2234388
370
     9
100
AcDbVertex
100
AcDb2dVertex
 10
110.7475682299629
 20
-151.5427525459359
 30
0.0
  0
VERTEX
  5
43
330
41
100
AcDbEntity
  8
_U+30EC_U+30A4_U+30E4_U+30FC 1
 62
   179
420
  2234388
370
     9
100
AcDbVertex
100
AcDb2dVertex
 10
113.2074848315885
 20
-151.5427525459359
 30
0.0
  0
SEQEND
  5
44
330
41
100
AcDbEntity
  8
_U+30EC_U+30A4_U+30E4_U+30FC 1
 62
   179
420
  2234388
370
     9
  0
SPLINE
  5
45
330
1F
100
AcDbEntity
  8
_U+30EC_U+30A4_U+30E4_U+30FC 1
 62
   179
420
  2234388
370
     9
100
AcDbSpline
210
0.0
220
0.0
230
1.0
 70
    11
 71
     3
 72
    17
 73
    13
 74
     0
 42
0.0000000001
 43
0.0000000001
 12
1.0
 22
0.0
 32
0.0
 13
1.0
 23
0.0
 33
0.0
 40
0.0
 40
0.0
 40
0.0
 40
0.0
 40
1.0
 40
1.0
 40
1.0
 40
2.0
 40
2.0
 40
2.0
 40
3.0
 40
3.0
 40
3.0
 40
4.0
 40
4.0
 40
4.0
 40
4.0
 10
97.13562992634576
 20
-142.5803581729053
 30
0.0
 10
97.13562992634576
 20
-142.5253443043752
 30
0.0
 10
97.0908221531904
 20
-142.4805365312201
 30
0.0
 10
97.03579213577524
 20
-142.4805365312201
 30
0.0
 10
96.98075673539837
 20
-142.4805365312201
 30
0.0
 10
96.93595434520503
 20
-142.5253443043752
 30
0.0
 10
96.93595434520503
 20
-142.5803581729053
 30
0.0
 10
96.93595434520503
 20
-142.6353935732821
 30
0.0
 10
96.98075673539837
 20
-142.6802013464372
 30
0.0
 10
97.03579213577524
 20
-142.6802013464372
 30
0.0
 10
97.0908221531904
 20
-142.6802013464372
 30
0.0
 10
97.13562992634576
 20
-142.6353935732821
 30
0.0
 10
97.13562992634576
 20
-142.5803581729053
 30
0.0
  0
SPLINE
  5
46
330
1F
100
AcDbEntity
  8
_U+30EC_U+30A4_U+30E4_U+30FC 1
 62
   179
420
  2234388
370
     9
100
AcDbSpline
210
0.0
220
0.0
230
1.0
 70
    11
 71
     3
 72
    17
 73
    13
 74
     0
 42
0.0000000001
 43
0.0000000001
 12
1.0
 22
0.0
 32
0.0
 13
1.0
 23
0.0
 33
0.0
 40
0.0
 40
0.0
 40
0.0
 40
0.0
 40
1.0
 40
1.0
 40
1.0
 40
2.0
 40
2.0
 40
2.0
 40
3.0
 40
3.0
 40
3.0
 40
4.0
 40
4.0
 40
4.0
 40
4.0
 10
94.1349732905396
 20
-142.5803581729053
 30
0.0
 10
94.1349732905396
 20
-142.5253443043752
 30
0.0
 10
94.0901655173849
 20
-142.4805365312201
 30
0.0
 10
94.03513549996941
 20
-142.4805365312201
 30
0.0
 10
93.98010009959255
 20
-142.4805365312201
 30
0.0
 10
93.93529770939921
 20
-142.5253443043752
 30
0.0
 10
93.93529770939921
 20
-142.5803581729053
 30
0.0
 10
93.93529770939921
 20
-142.6353935732821
 30
0.0
 10
93.98010009959255
 20
-142.6802013464372
 30
0.0
 10
94.03513549996941
 20
-142.6802013464372
 30
0.0
 10
94.0901655173849
 20
-142.6802013464372
 30
0.0
 10
94.1349732905396
 20
-142.6353935732821
 30
0.0
 10
94.1349732905396
 20
-142.5803581729053
 30
0.0
  0
SPLINE
  5
47
330
1F
100
AcDbEntity
  8
_U+30EC_U+30A4_U+30E4_U+30FC 1
 62
   179
420
  2234388
370
     9
100
AcDbSpline
210
0.0
220
0.0
230
1.0
 70
    11
 71
     3
 72
    17
 73
    13
 74
     0
 42
0.0000000001
 43
0.0000000001
 12
1.0
 22
0.0
 32
0.0
 13
1.0
 23
0.0
 33
0.0
 40
0.0
 40
0.0
 40
0.0
 40
0.0
 40
1.0
 40
1.0
 40
1.0
 40
2.0
 40
2.0
 40
2.0
 40
3.0
 40
3.0
 40
3.0
 40
4.0
 40
4.0
 40
4.0
 40
4.0
 10
111.9774565522737
 20
-147.0429626097236
 30
0.0
 10
111.9774565522737
 20
-146.9875826997983
 30
0.0
 10
111.9326487791186
 20
-146.9431409680385
 30
0.0
 10
111.8776133787418
 20
-146.9431409680385
 30
0.0
 10
111.8225779783649
 20
-146.9431409680385
 30
0.0
 10
111.7777809711333
 20
-146.9875826997983
 30
0.0
 10
111.7777809711333
 20
-147.0429626097236
 30
0.0
 10
111.7777809711333
 20
-147.0979980101005
 30
0.0
 10
111.8225779783649
 20
-147.1428057832555
 30
0.0
 10
111.8776133787418
 20
-147.1428057832555
 30
0.0
 10
111.9326487791186
 20
-147.1428057832555
 30
0.0
 10
111.9774565522737
 20
-147.0979980101005
 30
0.0
 10
111.9774565522737
 20
-147.0429626097236
 30
0.0
  0
SPLINE
  5
48
330
1F
100
AcDbEntity
  8
_U+30EC_U+30A4_U+30E4_U+30FC 1
 62
   179
420
  2234388
370
     9
100
AcDbSpline
210
0.0
220
0.0
230
1.0
 70
    11
 71
     3
 72
    17
 73
    13
 74
     0
 42
0.0000000001
 43
0.0000000001
 12
1.0
 22
0.0
 32
0.0
 13
1.0
 23
0.0
 33
0.0
 40
0.0
 40
0.0
 40
0.0
 40
0.0
 40
1.0
 40
1.0
 40
1.0
 40
2.0
 40
2.0
 40
2.0
 40
3.0
 40
3.0
 40
3.0
 40
4.0
 40
4.0
 40
4.0
 40
4.0
 10
111.9774565522737
 20
-145.5427742488248
 30
0.0
 10
111.9774565522737
 20
-145.4873943388994
 30
0.0
 10
111.9326487791186
 20
-145.4425865657447
 30
0.0
 10
111.8776133787418
 20
-145.4425865657447
 30
0.0
 10
111.8225779783649
 20
-145.4425865657447
 30
0.0
 10
111.7777809711333
 20
-145.4873943388994
 30
0.0
 10
111.7777809711333
 20
-145.5427742488248
 30
0.0
 10
111.7777809711333
 20
-145.5978096492017
 30
0.0
 10
111.8225779783649
 20
-145.6426174223567
 30
0.0
 10
111.8776133787418
 20
-145.6426174223567
 30
0.0
 10
111.9326487791186
 20
-145.6426174223567
 30
0.0
 10
111.9774565522737
 20
-145.5978096492017
 30
0.0
 10
111.9774565522737
 20
-145.5427742488248
 30
0.0
  0
POLYLINE
  5
49
330
1F
100
AcDbEntity
  8
_U+30EC_U+30A4_U+30E4_U+30FC 1
 62
   179
420
  2234388
370
     9
100
AcDb2dPolyline
 66
     1
 10
0.0
 20
0.0
 30
0.0
  0
VERTEX
  5
4A
330
49
100
AcDbEntity
  8
_U+30EC_U+30A4_U+30E4_U+30FC 1
 62
   179
420
  2234388
370
     9
100
AcDbVertex
100
AcDb2dVertex
 10
111.8775487832014
 20
-145.5427742488248
 30
0.0
  0
VERTEX
  5
4B
330
49
100
AcDbEntity
  8
_U+30EC_U+30A4_U+30E4_U+30FC 1
 62
   179
420
  2234388
370
     9
100
AcDbVertex
100
AcDb2dVertex
 10
111.8775487832014
 20
-151.6426603150082
 30
0.0
  0
SEQEND
  5
4C
330
49
100
AcDbEntity
  8
_U+30EC_U+30A4_U+30E4_U+30FC 1
 62
   179
420
  2234388
370
     9
  0
POLYLINE
  5
4D
330
1F
100
AcDbEntity
  8
_U+30EC_U+30A4_U+30E4_U+30FC 1
 62
   179
420
  2234388
370
     9
100
AcDb2dPolyline
 66
     1
 10
0.0
 20
0.0
 30
0.0
  0
VERTEX
  5
4E
330
4D
100
AcDbEntity
  8
_U+30EC_U+30A4_U+30E4_U+30FC 1
 62
   179
420
  2234388
370
     9
100
AcDbVertex
100
AcDb2dVertex
 10
111.8775487832014
 20
-151.5426233548552
 30
0.0
  0
VERTEX
  5
4F
330
4D
100
AcDbEntity
  8
_U+30EC_U+30A4_U+30E4_U+30FC 1
 62
   179
420
  2234388
370
     9
100
AcDbVertex
100
AcDb2dVertex
 10
111.8775487832014
 20
-152.5424115965215
 30
0.0
  0
SEQEND
  5
50
330
4D
100
AcDbEntity
  8
_U+30EC_U+30A4_U+30E4_U+30FC 1
 62
   179
420
  2234388
370
     9
  0
POLYLINE
  5
51
330
1F
100
AcDbEntity
  8
_U+30EC_U+30A4_U+30E4_U+30FC 1
 62
   179
420
  2234388
370
     9
100
AcDb2dPolyline
 66
     1
 10
0.0
 20
0.0
 30
0.0
  0
VERTEX
  5
52
330
51
100
AcDbEntity
  8
_U+30EC_U+30A4_U+30E4_U+30FC 1
 62
   179
420
  2234388
370
     9
100
AcDbVertex
100
AcDb2dVertex
 10
97.61071935968478
 20
-145.5427742488248
 30
0.0
  0
VERTEX
  5
53
330
51
100
AcDbEntity
  8
_U+30EC_U+30A4_U+30E4_U+30FC 1
 62
   179
420
  2234388
370
     9
100
AcDbVertex
100
AcDb2dVertex
 10
113.2073771723546
 20
-145.5427742488248
 30
0.0
  0
SEQEND
  5
54
330
51
100
AcDbEntity
  8
_U+30EC_U+30A4_U+30E4_U+30FC 1
 62
   179
420
  2234388
370
     9
  0
POLYLINE
  5
55
330
1F
100
AcDbEntity
  8
_U+30EC_U+30A4_U+30E4_U+30FC 1
 62
   179
420
  2234388
370
     9
100
AcDb2dPolyline
 66
     1
 10
0.0
 20
0.0
 30
0.0
  0
VERTEX
  5
56
330
55
100
AcDbEntity
  8
_U+30EC_U+30A4_U+30E4_U+30FC 1
 62
   179
420
  2234388
370
     9
100
AcDbVertex
100
AcDb2dVertex
 10
97.61071935968478
 20
-147.0429626097236
 30
0.0
  0
VERTEX
  5
57
330
55
100
AcDbEntity
  8
_U+30EC_U+30A4_U+30E4_U+30FC 1
 62
   179
420
  2234388
370
     9
100
AcDbVertex
100
AcDb2dVertex
 10
113.2073771723546
 20
-147.0429626097236
 30
0.0
  0
SEQEND
  5
58
330
55
100
AcDbEntity
  8
_U+30EC_U+30A4_U+30E4_U+30FC 1
 62
   179
420
  2234388
370
     9
  0
SPLINE
  5
59
330
1F
100
AcDbEntity
  8
_U+30EC_U+30A4_U+30E4_U+30FC 1
370
     0
100
AcDbSpline
210
0.0
220
0.0
230
1.0
 70
    11
 71
     3
 72
    17
 73
    13
 74
     0
 42
0.0000000001
 43
0.0000000001
 12
1.0
 22
0.0
 32
0.0
 13
1.0
 23
0.0
 33
0.0
 40
0.0
 40
0.0
 40
0.0
 40
0.0
 40
1.0
 40
1.0
 40
1.0
 40
2.0
 40
2.0
 40
2.0
 40
3.0
 40
3.0
 40
3.0
 40
4.0
 40
4.0
 40
4.0
 40
4.0
 10
111.9774565522737
 20
-151.5427525459359
 30
0.0
 10
111.9774565522737
 20
-151.4873726360105
 30
0.0
 10
111.9326487791186
 20
-151.4429309042508
 30
0.0
 10
111.8776133787418
 20
-151.4429309042508
 30
0.0
 10
111.8225779783649
 20
-151.4429309042508
 30
0.0
 10
111.7777809711333
 20
-151.4873726360105
 30
0.0
 10
111.7777809711333
 20
-151.5427525459359
 30
0.0
 10
111.7777809711333
 20
-151.5977879463128
 30
0.0
 10
111.8225779783649
 20
-151.6425957194678
 30
0.0
 10
111.8776133787418
 20
-151.6425957194678
 30
0.0
 10
111.9326487791186
 20
-151.6425957194678
 30
0.0
 10
111.9774565522737
 20
-151.5977879463128
 30
0.0
 10
111.9774565522737
 20
-151.5427525459359
 30
0.0
  0
HATCH
  5
5A
330
1F
100
AcDbEntity
  8
_U+30EC_U+30A4_U+30E4_U+30FC 1
 62
   179
420
  2234388
100
AcDbHatch
 10
0.0
 20
0.0
 30
0.0
210
0.0
220
0.0
230
1.0
  2
SOLID
 70
     1
 71
     0
 91
        1
 92
        1
 93
        2
 72
     4
 94
        3
 73
     0
 74
     0
 95
       17
 96
       13
 40
0.0
 40
0.0
 40
0.0
 40
0.0
 40
0.3527777776895833
 40
0.3527777776895833
 40
0.3527777776895833
 40
0.7055555553791667
 40
0.7055555553791667
 40
0.7055555553791667
 40
1.05833333306875
 40
1.05833333306875
 40
1.05833333306875
 40
1.411111110758333
 40
1.411111110758333
 40
1.411111110758333
 40
1.411111110758333
 10
111.9774565522737
 20
-151.5427525459359
 10
111.9774565522737
 20
-151.4873726360105
 10
111.9326487791186
 20
-151.4429309042508
 10
111.8776133787418
 20
-151.4429309042508
 10
111.8225779783649
 20
-151.4429309042508
 10
111.7777809711333
 20
-151.4873726360105
 10
111.7777809711333
 20
-151.5427525459359
 10
111.7777809711333
 20
-151.5977879463128
 10
111.8225779783649
 20
-151.6425957194678
 10
111.8776133787418
 20
-151.6425957194678
 10
111.9326487791186
 20
-151.6425957194678
 10
111.9774565522737
 20
-151.5977879463128
 10
111.9774565522737
 20
-151.5427525459359
 97
        0
 72
     1
 10
111.9774565522737
 20
-151.5427525459359
 11
111.9774565522737
 21
-151.5427525459359
 97
        0
 75
     2
 76
     1
 98
        0
  0
SPLINE
  5
5B
330
1F
100
AcDbEntity
  8
_U+30EC_U+30A4_U+30E4_U+30FC 1
 62
   179
420
  2234388
370
     9
100
AcDbSpline
210
0.0
220
0.0
230
1.0
 70
    11
 71
     3
 72
    17
 73
    13
 74
     0
 42
0.0000000001
 43
0.0000000001
 12
1.0
 22
0.0
 32
0.0
 13
1.0
 23
0.0
 33
0.0
 40
0.0
 40
0.0
 40
0.0
 40
0.0
 40
1.0
 40
1.0
 40
1.0
 40
2.0
 40
2.0
 40
2.0
 40
3.0
 40
3.0
 40
3.0
 40
4.0
 40
4.0
 40
4.0
 40
4.0
 10
111.9774565522737
 20
-151.5427525459359
 30
0.0
 10
111.9774565522737
 20
-151.4873726360105
 30
0.0
 10
111.9326487791186
 20
-151.4429309042508
 30
0.0
 10
111.8776133787418
 20
-151.4429309042508
 30
0.0
 10
111.8225779783649
 20
-151.4429309042508
 30
0.0
 10
111.7777809711333
 20
-151.4873726360105
 30
0.0
 10
111.7777809711333
 20
-151.5427525459359
 30
0.0
 10
111.7777809711333
 20
-151.5977879463128
 30
0.0
 10
111.8225779783649
 20
-151.6425957194678
 30
0.0
 10
111.8776133787418
 20
-151.6425957194678
 30
0.0
 10
111.9326487791186
 20
-151.6425957194678
 30
0.0
 10
111.9774565522737
 20
-151.5977879463128
 30
0.0
 10
111.9774565522737
 20
-151.5427525459359
 30
0.0
  0
SPLINE
  5
5C
330
1F
100
AcDbEntity
  8
_U+30EC_U+30A4_U+30E4_U+30FC 1
370
     0
100
AcDbSpline
210
0.0
220
0.0
230
1.0
 70
    11
 71
     3
 72
    17
 73
    13
 74
     0
 42
0.0000000001
 43
0.0000000001
 12
1.0
 22
0.0
 32
0.0
 13
1.0
 23
0.0
 33
0.0
 40
0.0
 40
0.0
 40
0.0
 40
0.0
 40
1.0
 40
1.0
 40
1.0
 40
2.0
 40
2.0
 40
2.0
 40
3.0
 40
3.0
 40
3.0
 40
4.0
 40
4.0
 40
4.0
 40
4.0
 10
111.9774565522737
 20
-152.5427345742233
 30
0.0
 10
111.9774565522737
 20
-152.4873546642979
 30
0.0
 10
111.9326487791186
 20
-152.4429129325381
 30
0.0
 10
111.8776133787418
 20
-152.4429129325381
 30
0.0
 10
111.8225779783649
 20
-152.4429129325381
 30
0.0
 10
111.7777809711333
 20
-152.4873546642979
 30
0.0
 10
111.7777809711333
 20
-152.5427345742233
 30
0.0
 10
111.7777809711333
 20
-152.5977699746001
 30
0.0
 10
111.8225779783649
 20
-152.6425777477552
 30
0.0
 10
111.8776133787418
 20
-152.6425777477552
 30
0.0
 10
111.9326487791186
 20
-152.6425777477552
 30
0.0
 10
111.9774565522737
 20
-152.5977699746001
 30
0.0
 10
111.9774565522737
 20
-152.5427345742233
 30
0.0
  0
HATCH
  5
5D
330
1F
100
AcDbEntity
  8
_U+30EC_U+30A4_U+30E4_U+30FC 1
 62
   179
420
  2234388
100
AcDbHatch
 10
0.0
 20
0.0
 30
0.0
210
0.0
220
0.0
230
1.0
  2
SOLID
 70
     1
 71
     0
 91
        1
 92
        1
 93
        2
 72
     4
 94
        3
 73
     0
 74
     0
 95
       17
 96
       13
 40
0.0
 40
0.0
 40
0.0
 40
0.0
 40
0.3527777776895833
 40
0.3527777776895833
 40
0.3527777776895833
 40
0.7055555553791667
 40
0.7055555553791667
 40
0.7055555553791667
 40
1.05833333306875
 40
1.05833333306875
 40
1.05833333306875
 40
1.411111110758333
 40
1.411111110758333
 40
1.411111110758333
 40
1.411111110758333
 10
111.9774565522737
 20
-152.5427345742233
 10
111.9774565522737
 20
-152.4873546642979
 10
111.9326487791186
 20
-152.4429129325381
 10
111.8776133787418
 20
-152.4429129325381
 10
111.8225779783649
 20
-152.4429129325381
 10
111.7777809711333
 20
-152.4873546642979
 10
111.7777809711333
 20
-152.5427345742233
 10
111.7777809711333
 20
-152.5977699746001
 10
111.8225779783649
 20
-152.6425777477552
 10
111.8776133787418
 20
-152.6425777477552
 10
111.9326487791186
 20
-152.6425777477552
 10
111.9774565522737
 20
-152.5977699746001
 10
111.9774565522737
 20
-152.5427345742233
 97
        0
 72
     1
 10
111.9774565522737
 20
-152.5427345742233
 11
111.9774565522737
 21
-152.5427345742233
 97
        0
 75
     2
 76
     1
 98
        0
  0
SPLINE
  5
5E
330
1F
100
AcDbEntity
  8
_U+30EC_U+30A4_U+30E4_U+30FC 1
 62
   179
420
  2234388
370
     9
100
AcDbSpline
210
0.0
220
0.0
230
1.0
 70
    11
 71
     3
 72
    17
 73
    13
 74
     0
 42
0.0000000001
 43
0.0000000001
 12
1.0
 22
0.0
 32
0.0
 13
1.0
 23
0.0
 33
0.0
 40
0.0
 40
0.0
 40
0.0
 40
0.0
 40
1.0
 40
1.0
 40
1.0
 40
2.0
 40
2.0
 40
2.0
 40
3.0
 40
3.0
 40
3.0
 40
4.0
 40
4.0
 40
4.0
 40
4.0
 10
111.9774565522737
 20
-152.5427345742233
 30
0.0
 10
111.9774565522737
 20
-152.4873546642979
 30
0.0
 10
111.9326487791186
 20
-152.4429129325381
 30
0.0
 10
111.8776133787418
 20
-152.4429129325381
 30
0.0
 10
111.8225779783649
 20
-152.4429129325381
 30
0.0
 10
111.7777809711333
 20
-152.4873546642979
 30
0.0
 10
111.7777809711333
 20
-152.5427345742233
 30
0.0
 10
111.7777809711333
 20
-152.5977699746001
 30
0.0
 10
111.8225779783649
 20
-152.6425777477552
 30
0.0
 10
111.8776133787418
 20
-152.6425777477552
 30
0.0
 10
111.9326487791186
 20
-152.6425777477552
 30
0.0
 10
111.9774565522737
 20
-152.5977699746001
 30
0.0
 10
111.9774565522737
 20
-152.5427345742233
 30
0.0
  0
POLYLINE
  5
5F
330
1F
100
AcDbEntity
  8
_U+30EC_U+30A4_U+30E4_U+30FC 1
 62
   179
420
  2234388
370
     9
100
AcDb2dPolyline
 66
     1
 10
0.0
 20
0.0
 30
0.0
  0
VERTEX
  5
60
330
5F
100
AcDbEntity
  8
_U+30EC_U+30A4_U+30E4_U+30FC 1
 62
   179
420
  2234388
370
     9
100
AcDbVertex
100
AcDb2dVertex
 10
110.7475682299629
 20
-152.5427345742233
 30
0.0
  0
VERTEX
  5
61
330
5F
100
AcDbEntity
  8
_U+30EC_U+30A4_U+30E4_U+30FC 1
 62
   179
420
  2234388
370
     9
100
AcDbVertex
100
AcDb2dVertex
 10
113.2074848315885
 20
-152.5427345742233
 30
0.0
  0
SEQEND
  5
62
330
5F
100
AcDbEntity
  8
_U+30EC_U+30A4_U+30E4_U+30FC 1
 62
   179
420
  2234388
370
     9
  0
INSERT
  5
64
330
1F
100
AcDbEntity
  8
_U+30EC_U+30A4_U+30E4_U+30FC 1
100
AcDbBlockReference
  2
block 2
 10
0.0
 20
0.0
 30
0.0
  0
INSERT
  5
74
330
1F
100
AcDbEntity
  8
_U+30EC_U+30A4_U+30E4_U+30FC 1
100
AcDbBlockReference
  2
block 3
 10
0.0
 20
0.0
 30
0.0
  0
INSERT
  5
97
330
1F
100
AcDbEntity
  8
_U+30EC_U+30A4_U+30E4_U+30FC 1
100
AcDbBlockReference
  2
block 4
 10
0.0
 20
0.0
 30
0.0
  0
POLYLINE
  5
9C
330
1F
100
AcDbEntity
  8
_U+30EC_U+30A4_U+30E4_U+30FC 1
 62
   179
420
  2234388
370
     9
100
AcDb2dPolyline
 66
     1
 10
0.0
 20
0.0
 30
0.0
  0
VERTEX
  5
9D
330
9C
100
AcDbEntity
  8
_U+30EC_U+30A4_U+30E4_U+30FC 1
 62
   179
420
  2234388
370
     9
100
AcDbVertex
100
AcDb2dVertex
 10
94.0350332236972
 20
-141.1202836425632
 30
0.0
  0
VERTEX
  5
9E
330
9C
100
AcDbEntity
  8
_U+30EC_U+30A4_U+30E4_U+30FC 1
 62
   179
420
  2234388
370
     9
100
AcDbVertex
100
AcDb2dVertex
 10
94.0350332236972
 20
-143.5809215610557
 30
0.0
  0
SEQEND
  5
9F
330
9C
100
AcDbEntity
  8
_U+30EC_U+30A4_U+30E4_U+30FC 1
 62
   179
420
  2234388
370
     9
  0
POLYLINE
  5
A0
330
1F
100
AcDbEntity
  8
_U+30EC_U+30A4_U+30E4_U+30FC 1
 62
   179
420
  2234388
370
     9
100
AcDb2dPolyline
 66
     1
 10
0.0
 20
0.0
 30
0.0
  0
VERTEX
  5
A1
330
A0
100
AcDbEntity
  8
_U+30EC_U+30A4_U+30E4_U+30FC 1
 62
   179
420
  2234388
370
     9
100
AcDbVertex
100
AcDb2dVertex
 10
97.03572754023489
 20
-141.1202836425632
 30
0.0
  0
VERTEX
  5
A2
330
A0
100
AcDbEntity
  8
_U+30EC_U+30A4_U+30E4_U+30FC 1
 62
   179
420
  2234388
370
     9
100
AcDbVertex
100
AcDb2dVertex
 10
97.03572754023489
 20
-143.5809215610557
 30
0.0
  0
SEQEND
  5
A3
330
A0
100
AcDbEntity
  8
_U+30EC_U+30A4_U+30E4_U+30FC 1
 62
   179
420
  2234388
370
     9
  0
INSERT
  5
A5
330
1F
100
AcDbEntity
  8
_U+30EC_U+30A4_U+30E4_U+30FC 1
100
AcDbBlockReference
  2
block 5
 10
0.0
 20
0.0
 30
0.0
  0
INSERT
  5
AB
330
1F
100
AcDbEntity
  8
_U+30EC_U+30A4_U+30E4_U+30FC 1
100
AcDbBlockReference
  2
block 6
 10
0.0
 20
0.0
 30
0.0
  0
POLYLINE
  5
B2
330
1F
100
AcDbEntity
  8
_U+30EC_U+30A4_U+30E4_U+30FC 1
 62
   179
420
  2234388
370
     9
100
AcDb2dPolyline
 66
     1
 10
0.0
 20
0.0
 30
0.0
  0
VERTEX
  5
B3
330
B2
100
AcDbEntity
  8
_U+30EC_U+30A4_U+30E4_U+30FC 1
 62
   179
420
  2234388
370
     9
100
AcDbVertex
100
AcDb2dVertex
 10
97.03537226476297
 20
-142.5803581729053
 30
0.0
  0
VERTEX
  5
B4
330
B2
100
AcDbEntity
  8
_U+30EC_U+30A4_U+30E4_U+30FC 1
 62
   179
420
  2234388
370
     9
100
AcDbVertex
100
AcDb2dVertex
 10
94.03499554296532
 20
-142.5803581729053
 30
0.0
  0
SEQEND
  5
B5
330
B2
100
AcDbEntity
  8
_U+30EC_U+30A4_U+30E4_U+30FC 1
 62
   179
420
  2234388
370
     9
  0
SPLINE
  5
B6
330
1F
100
AcDbEntity
  8
_U+30EC_U+30A4_U+30E4_U+30FC 1
 62
   179
420
  2234388
370
     9
100
AcDbSpline
210
0.0
220
0.0
230
1.0
 70
    11
 71
     3
 72
    17
 73
    13
 74
     0
 42
0.0000000001
 43
0.0000000001
 12
1.0
 22
0.0
 32
0.0
 13
1.0
 23
0.0
 33
0.0
 40
0.0
 40
0.0
 40
0.0
 40
0.0
 40
1.0
 40
1.0
 40
1.0
 40
2.0
 40
2.0
 40
2.0
 40
3.0
 40
3.0
 40
3.0
 40
4.0
 40
4.0
 40
4.0
 40
4.0
 10
109.1355757546443
 20
-155.1084694368631
 30
0.0
 10
109.1355757546443
 20
-155.1635048372399
 30
0.0
 10
109.0907679814893
 20
-155.208312610395
 30
0.0
 10
109.0357325811124
 20
-155.208312610395
 30
0.0
 10
108.9806971807355
 20
-155.208312610395
 30
0.0
 10
108.9359001735039
 20
-155.1635048372399
 30
0.0
 10
108.9359001735039
 20
-155.1084694368631
 30
0.0
 10
108.9359001735039
 20
-155.053455568333
 30
0.0
 10
108.9806971807355
 20
-155.008647795178
 30
0.0
 10
109.0357325811124
 20
-155.008647795178
 30
0.0
 10
109.0907679814893
 20
-155.008647795178
 30
0.0
 10
109.1355757546443
 20
-155.053455568333
 30
0.0
 10
109.1355757546443
 20
-155.1084694368631
 30
0.0
  0
SPLINE
  5
B7
330
1F
100
AcDbEntity
  8
_U+30EC_U+30A4_U+30E4_U+30FC 1
 62
   179
420
  2234388
370
     9
100
AcDbSpline
210
0.0
220
0.0
230
1.0
 70
    11
 71
     3
 72
    17
 73
    13
 74
     0
 42
0.0000000001
 43
0.0000000001
 12
1.0
 22
0.0
 32
0.0
 13
1.0
 23
0.0
 33
0.0
 40
0.0
 40
0.0
 40
0.0
 40
0.0
 40
1.0
 40
1.0
 40
1.0
 40
2.0
 40
2.0
 40
2.0
 40
3.0
 40
3.0
 40
3.0
 40
4.0
 40
4.0
 40
4.0
 40
4.0
 10
94.1349732905396
 20
-155.1084694368631
 30
0.0
 10
94.1349732905396
 20
-155.1635048372399
 30
0.0
 10
94.0901655173849
 20
-155.208312610395
 30
0.0
 10
94.03513549996941
 20
-155.208312610395
 30
0.0
 10
93.98010009959255
 20
-155.208312610395
 30
0.0
 10
93.93529770939921
 20
-155.1635048372399
 30
0.0
 10
93.93529770939921
 20
-155.1084694368631
 30
0.0
 10
93.93529770939921
 20
-155.053455568333
 30
0.0
 10
93.98010009959255
 20
-155.008647795178
 30
0.0
 10
94.03513549996941
 20
-155.008647795178
 30
0.0
 10
94.0901655173849
 20
-155.008647795178
 30
0.0
 10
94.1349732905396
 20
-155.053455568333
 30
0.0
 10
94.1349732905396
 20
-155.1084694368631
 30
0.0
  0
POLYLINE
  5
B8
330
1F
100
AcDbEntity
  8
_U+30EC_U+30A4_U+30E4_U+30FC 1
 62
   179
420
  2234388
370
     9
100
AcDb2dPolyline
 66
     1
 10
0.0
 20
0.0
 30
0.0
  0
VERTEX
  5
B9
330
B8
100
AcDbEntity
  8
_U+30EC_U+30A4_U+30E4_U+30FC 1
 62
   179
420
  2234388
370
     9
100
AcDbVertex
100
AcDb2dVertex
 10
94.0350332236972
 20
-156.5684578398184
 30
0.0
  0
VERTEX
  5
BA
330
B8
100
AcDbEntity
  8
_U+30EC_U+30A4_U+30E4_U+30FC 1
 62
   179
420
  2234388
370
     9
100
AcDbVertex
100
AcDb2dVertex
 10
94.0350332236972
 20
-154.1078414531723
 30
0.0
  0
SEQEND
  5
BB
330
B8
100
AcDbEntity
  8
_U+30EC_U+30A4_U+30E4_U+30FC 1
 62
   179
420
  2234388
370
     9
  0
POLYLINE
  5
BC
330
1F
100
AcDbEntity
  8
_U+30EC_U+30A4_U+30E4_U+30FC 1
 62
   179
420
  2234388
370
     9
100
AcDb2dPolyline
 66
     1
 10
0.0
 20
0.0
 30
0.0
  0
VERTEX
  5
BD
330
BC
100
AcDbEntity
  8
_U+30EC_U+30A4_U+30E4_U+30FC 1
 62
   179
420
  2234388
370
     9
100
AcDbVertex
100
AcDb2dVertex
 10
109.0356787514954
 20
-156.5684578398184
 30
0.0
  0
VERTEX
  5
BE
330
BC
100
AcDbEntity
  8
_U+30EC_U+30A4_U+30E4_U+30FC 1
 62
   179
420
  2234388
370
     9
100
AcDbVertex
100
AcDb2dVertex
 10
109.0356787514954
 20
-154.1078414531723
 30
0.0
  0
SEQEND
  5
BF
330
BC
100
AcDbEntity
  8
_U+30EC_U+30A4_U+30E4_U+30FC 1
 62
   179
420
  2234388
370
     9
  0
POLYLINE
  5
C0
330
1F
100
AcDbEntity
  8
_U+30EC_U+30A4_U+30E4_U+30FC 1
 62
   179
420
  2234388
370
     9
100
AcDb2dPolyline
 66
     1
 10
0.0
 20
0.0
 30
0.0
  0
VERTEX
  5
C1
330
C0
100
AcDbEntity
  8
_U+30EC_U+30A4_U+30E4_U+30FC 1
 62
   179
420
  2234388
370
     9
100
AcDbVertex
100
AcDb2dVertex
 10
109.0353557737937
 20
-155.1084694368631
 30
0.0
  0
VERTEX
  5
C2
330
C0
100
AcDbEntity
  8
_U+30EC_U+30A4_U+30E4_U+30FC 1
 62
   179
420
  2234388
370
     9
100
AcDbVertex
100
AcDb2dVertex
 10
94.03488788373141
 20
-155.1084694368631
 30
0.0
  0
SEQEND
  5
C3
330
C0
100
AcDbEntity
  8
_U+30EC_U+30A4_U+30E4_U+30FC 1
 62
   179
420
  2234388
370
     9
  0
SPLINE
  5
C4
330
1F
100
AcDbEntity
  8
_U+30EC_U+30A4_U+30E4_U+30FC 1
370
     0
100
AcDbSpline
210
0.0
220
0.0
230
1.0
 70
    11
 71
     3
 72
    41
 73
    37
 74
     0
 42
0.0000000001
 43
0.0000000001
 12
1.0
 22
0.0
 32
0.0
 13
1.0
 23
0.0
 33
0.0
 40
0.0
 40
0.0
 40
0.0
 40
0.0
 40
1.0
 40
1.0
 40
1.0
 40
2.0
 40
2.0
 40
2.0
 40
3.0
 40
3.0
 40
3.0
 40
4.0
 40
4.0
 40
4.0
 40
5.0
 40
5.0
 40
5.0
 40
6.0
 40
6.0
 40
6.0
 40
7.0
 40
7.0
 40
7.0
 40
8.0
 40
8.0
 40
8.0
 40
9.0
 40
9.0
 40
9.0
 40
10.0
 40
10.0
 40
10.0
 40
11.0
 40
11.0
 40
11.0
 40
12.0
 40
12.0
 40
12.0
 40
12.0
 10
108.432108788403
 20
-151.5427525459359
 30
0.0
 10
108.432108788403
 20
-151.5427525459359
 30
0.0
 10
94.93518284437602
 20
-151.5427525459359
 30
0.0
 10
94.93518284437602
 20
-151.5427525459359
 30
0.0
 10
94.93518284437602
 20
-151.5427525459359
 30
0.0
 10
94.93518284437602
 20
-151.5424080363874
 30
0.0
 10
94.93518284437602
 20
-151.5424080363874
 30
0.0
 10
94.93518284437602
 20
-151.5424080363874
 30
0.0
 10
94.93518284437602
 20
-147.042725759409
 30
0.0
 10
94.93518284437602
 20
-147.042725759409
 30
0.0
 10
94.93518284437602
 20
-147.042725759409
 30
0.0
 10
96.93543219792055
 20
-147.042725759409
 30
0.0
 10
96.93543219792055
 20
-147.042725759409
 30
0.0
 10
96.93543219792055
 20
-147.042725759409
 30
0.0
 10
97.03456482050862
 20
-145.5427096532845
 30
0.0
 10
95.73386902005254
 20
-145.5427096532845
 30
0.0
 10
95.73386902005254
 20
-145.5427096532845
 30
0.0
 10
93.9350554761229
 20
-145.5427096532845
 30
0.0
 10
93.9350554761229
 20
-145.5427096532845
 30
0.0
 10
93.9350554761229
 20
-145.5427096532845
 30
0.0
 10
93.9350554761229
 20
-146.042614540041
 30
0.0
 10
93.9350554761229
 20
-146.042614540041
 30
0.0
 10
93.9350554761229
 20
-146.042614540041
 30
0.0
 10
93.9350554761229
 20
-152.0426574326925
 30
0.0
 10
93.9350554761229
 20
-152.0426574326925
 30
0.0
 10
93.9350554761229
 20
-152.0426574326925
 30
0.0
 10
93.9350554761229
 20
-152.5425407876022
 30
0.0
 10
93.9350554761229
 20
-152.5425407876022
 30
0.0
 10
93.9350554761229
 20
-152.5425407876022
 30
0.0
 10
108.9355126002618
 20
-152.5425407876022
 30
0.0
 10
108.9355126002618
 20
-152.5425407876022
 30
0.0
 10
108.9355126002618
 20
-152.5425407876022
 30
0.0
 10
108.9355126002618
 20
-152.0426574326925
 30
0.0
 10
108.9355126002618
 20
-152.0426574326925
 30
0.0
 10
108.9355126002618
 20
-152.0426574326925
 30
0.0
 10
108.9171782327262
 20
-151.5427525459359
 30
0.0
 10
108.432108788403
 20
-151.5427525459359
 30
0.0
  0
HATCH
  5
C5
330
1F
100
AcDbEntity
  8
_U+30EC_U+30A4_U+30E4_U+30FC 1
 62
     9
420
 13224394
100
AcDbHatch
 10
0.0
 20
0.0
 30
0.0
210
0.0
220
0.0
230
1.0
  2
SOLID
 70
     1
 71
     0
 91
        1
 92
        1
 93
        2
 72
     4
 94
        3
 73
     0
 74
     0
 95
       41
 96
       37
 40
0.0
 40
0.0
 40
0.0
 40
0.0
 40
0.3527777776895833
 40
0.3527777776895833
 40
0.3527777776895833
 40
0.7055555553791667
 40
0.7055555553791667
 40
0.7055555553791667
 40
1.05833333306875
 40
1.05833333306875
 40
1.05833333306875
 40
1.411111110758333
 40
1.411111110758333
 40
1.411111110758333
 40
1.763888888447917
 40
1.763888888447917
 40
1.763888888447917
 40
2.1166666661375
 40
2.1166666661375
 40
2.1166666661375
 40
2.469444443827083
 40
2.469444443827083
 40
2.469444443827083
 40
2.822222221516667
 40
2.822222221516667
 40
2.822222221516667
 40
3.17499999920625
 40
3.17499999920625
 40
3.17499999920625
 40
3.527777776895833
 40
3.527777776895833
 40
3.527777776895833
 40
3.880555554585417
 40
3.880555554585417
 40
3.880555554585417
 40
4.233333332275
 40
4.233333332275
 40
4.233333332275
 40
4.233333332275
 10
108.432108788403
 20
-151.5427525459359
 10
108.432108788403
 20
-151.5427525459359
 10
94.93518284437602
 20
-151.5427525459359
 10
94.93518284437602
 20
-151.5427525459359
 10
94.93518284437602
 20
-151.5427525459359
 10
94.93518284437602
 20
-151.5424080363874
 10
94.93518284437602
 20
-151.5424080363874
 10
94.93518284437602
 20
-151.5424080363874
 10
94.93518284437602
 20
-147.042725759409
 10
94.93518284437602
 20
-147.042725759409
 10
94.93518284437602
 20
-147.042725759409
 10
96.93543219792055
 20
-147.042725759409
 10
96.93543219792055
 20
-147.042725759409
 10
96.93543219792055
 20
-147.042725759409
 10
97.03456482050862
 20
-145.5427096532845
 10
95.73386902005254
 20
-145.5427096532845
 10
95.73386902005254
 20
-145.5427096532845
 10
93.9350554761229
 20
-145.5427096532845
 10
93.9350554761229
 20
-145.5427096532845
 10
93.9350554761229
 20
-145.5427096532845
 10
93.9350554761229
 20
-146.042614540041
 10
93.9350554761229
 20
-146.042614540041
 10
93.9350554761229
 20
-146.042614540041
 10
93.9350554761229
 20
-152.0426574326925
 10
93.9350554761229
 20
-152.0426574326925
 10
93.9350554761229
 20
-152.0426574326925
 10
93.9350554761229
 20
-152.5425407876022
 10
93.9350554761229
 20
-152.5425407876022
 10
93.9350554761229
 20
-152.5425407876022
 10
108.9355126002618
 20
-152.5425407876022
 10
108.9355126002618
 20
-152.5425407876022
 10
108.9355126002618
 20
-152.5425407876022
 10
108.9355126002618
 20
-152.0426574326925
 10
108.9355126002618
 20
-152.0426574326925
 10
108.9355126002618
 20
-152.0426574326925
 10
108.9171782327262
 20
-151.5427525459359
 10
108.432108788403
 20
-151.5427525459359
 97
        0
 72
     1
 10
108.432108788403
 20
-151.5427525459359
 11
108.432108788403
 21
-151.5427525459359
 97
        0
 75
     2
 76
     1
 98
        0
  0
SPLINE
  5
C6
330
1F
100
AcDbEntity
  8
_U+30EC_U+30A4_U+30E4_U+30FC 1
 62
   179
420
  2234388
370
    25
100
AcDbSpline
210
0.0
220
0.0
230
1.0
 70
    11
 71
     3
 72
    41
 73
    37
 74
     0
 42
0.0000000001
 43
0.0000000001
 12
1.0
 22
0.0
 32
0.0
 13
1.0
 23
0.0
 33
0.0
 40
0.0
 40
0.0
 40
0.0
 40
0.0
 40
1.0
 40
1.0
 40
1.0
 40
2.0
 40
2.0
 40
2.0
 40
3.0
 40
3.0
 40
3.0
 40
4.0
 40
4.0
 40
4.0
 40
5.0
 40
5.0
 40
5.0
 40
6.0
 40
6.0
 40
6.0
 40
7.0
 40
7.0
 40
7.0
 40
8.0
 40
8.0
 40
8.0
 40
9.0
 40
9.0
 40
9.0
 40
10.0
 40
10.0
 40
10.0
 40
11.0
 40
11.0
 40
11.0
 40
12.0
 40
12.0
 40
12.0
 40
12.0
 10
108.432108788403
 20
-151.5427525459359
 30
0.0
 10
108.432108788403
 20
-151.5427525459359
 30
0.0
 10
94.93518284437602
 20
-151.5427525459359
 30
0.0
 10
94.93518284437602
 20
-151.5427525459359
 30
0.0
 10
94.93518284437602
 20
-151.5427525459359
 30
0.0
 10
94.93518284437602
 20
-151.5424080363874
 30
0.0
 10
94.93518284437602
 20
-151.5424080363874
 30
0.0
 10
94.93518284437602
 20
-151.5424080363874
 30
0.0
 10
94.93518284437602
 20
-147.042725759409
 30
0.0
 10
94.93518284437602
 20
-147.042725759409
 30
0.0
 10
94.93518284437602
 20
-147.042725759409
 30
0.0
 10
96.93543219792055
 20
-147.042725759409
 30
0.0
 10
96.93543219792055
 20
-147.042725759409
 30
0.0
 10
96.93543219792055
 20
-147.042725759409
 30
0.0
 10
97.03456482050862
 20
-145.5427096532845
 30
0.0
 10
95.73386902005254
 20
-145.5427096532845
 30
0.0
 10
95.73386902005254
 20
-145.5427096532845
 30
0.0
 10
93.9350554761229
 20
-145.5427096532845
 30
0.0
 10
93.9350554761229
 20
-145.5427096532845
 30
0.0
 10
93.9350554761229
 20
-145.5427096532845
 30
0.0
 10
93.9350554761229
 20
-146.042614540041
 30
0.0
 10
93.9350554761229
 20
-146.042614540041
 30
0.0
 10
93.9350554761229
 20
-146.042614540041
 30
0.0
 10
93.9350554761229
 20
-152.0426574326925
 30
0.0
 10
93.9350554761229
 20
-152.0426574326925
 30
0.0
 10
93.9350554761229
 20
-152.0426574326925
 30
0.0
 10
93.9350554761229
 20
-152.5425407876022
 30
0.0
 10
93.9350554761229
 20
-152.5425407876022
 30
0.0
 10
93.9350554761229
 20
-152.5425407876022
 30
0.0
 10
108.9355126002618
 20
-152.5425407876022
 30
0.0
 10
108.9355126002618
 20
-152.5425407876022
 30
0.0
 10
108.9355126002618
 20
-152.5425407876022
 30
0.0
 10
108.9355126002618
 20
-152.0426574326925
 30
0.0
 10
108.9355126002618
 20
-152.0426574326925
 30
0.0
 10
108.9355126002618
 20
-152.0426574326925
 30
0.0
 10
108.9171782327262
 20
-151.5427525459359
 30
0.0
 10
108.432108788403
 20
-151.5427525459359
 30
0.0
  0
INSERT
  5
C8
330
1F
100
AcDbEntity
  8
_U+30EC_U+30A4_U+30E4_U+30FC 1
100
AcDbBlockReference
  2
block 7
 10
0.0
 20
0.0
 30
0.0
  0
POLYLINE
  5
DA
330
1F
100
AcDbEntity
  8
_U+30EC_U+30A4_U+30E4_U+30FC 1
 62
   179
420
  2234388
370
     9
100
AcDb2dPolyline
 66
     1
 10
0.0
 20
0.0
 30
0.0
  0
VERTEX
  5
DB
330
DA
100
AcDbEntity
  8
_U+30EC_U+30A4_U+30E4_U+30FC 1
 62
   179
420
  2234388
370
     9
100
AcDbVertex
100
AcDb2dVertex
 10
96.90861966571426
 20
-144.9796733917607
 30
0.0
  0
VERTEX
  5
DC
330
DA
100
AcDbEntity
  8
_U+30EC_U+30A4_U+30E4_U+30FC 1
 62
   179
420
  2234388
370
     9
100
AcDbVertex
100
AcDb2dVertex
 10
99.39569869205678
 20
-143.3491527622855
 30
0.0
  0
SEQEND
  5
DD
330
DA
100
AcDbEntity
  8
_U+30EC_U+30A4_U+30E4_U+30FC 1
 62
   179
420
  2234388
370
     9
  0
POLYLINE
  5
DE
330
1F
100
AcDbEntity
  8
_U+30EC_U+30A4_U+30E4_U+30FC 1
370
     0
100
AcDb2dPolyline
 66
     1
 10
0.0
 20
0.0
 30
0.0
  0
VERTEX
  5
DF
330
DE
100
AcDbEntity
  8
_U+30EC_U+30A4_U+30E4_U+30FC 1
370
     0
100
AcDbVertex
100
AcDb2dVertex
 10
96.91687712895546
 20
-144.631072792347
 30
0.0
  0
VERTEX
  5
E0
330
DE
100
AcDbEntity
  8
_U+30EC_U+30A4_U+30E4_U+30FC 1
370
     0
100
AcDbVertex
100
AcDb2dVertex
 10
96.16968974782174
 20
-145.4685755048112
 30
0.0
  0
VERTEX
  5
E1
330
DE
100
AcDbEntity
  8
_U+30EC_U+30A4_U+30E4_U+30FC 1
370
     0
100
AcDbVertex
100
AcDb2dVertex
 10
97.23543541914546
 20
-145.1168527876143
 30
0.0
  0
VERTEX
  5
E2
330
DE
100
AcDbEntity
  8
_U+30EC_U+30A4_U+30E4_U+30FC 1
370
     0
100
AcDbVertex
100
AcDb2dVertex
 10
96.91687712895546
 20
-144.631072792347
 30
0.0
  0
SEQEND
  5
E4
330
DE
100
AcDbEntity
  8
_U+30EC_U+30A4_U+30E4_U+30FC 1
370
     0
  0
HATCH
  5
E3
330
1F
100
AcDbEntity
  8
_U+30EC_U+30A4_U+30E4_U+30FC 1
 62
   179
420
  2234388
100
AcDbHatch
 10
0.0
 20
0.0
 30
0.0
210
0.0
220
0.0
230
1.0
  2
SOLID
 70
     1
 71
     0
 91
        1
 92
        1
 93
        3
 72
     1
 10
96.91687712895546
 20
-144.631072792347
 11
96.16968974782174
 21
-145.4685755048112
 72
     1
 10
96.16968974782174
 20
-145.4685755048112
 11
97.23543541914546
 21
-145.1168527876143
 72
     1
 10
97.23543541914546
 20
-145.1168527876143
 11
96.91687712895546
 21
-144.631072792347
 97
        0
 75
     2
 76
     1
 98
        0
  0
ENDSEC
  0
SECTION
  2
OBJECTS
  0
DICTIONARY
  5
C
330
0
100
AcDbDictionary
281
     1
  3
ACAD_GROUP
350
D
  3
ACAD_LAYOUT
350
1A
  3
ACAD_MATERIAL
350
3B
  3
ACAD_MLEADERSTYLE
350
E6
  3
ACAD_MLINESTYLE
350
17
  3
ACAD_PLOTSETTINGS
350
19
  3
ACAD_PLOTSTYLENAME
350
E
  3
ACAD_TABLESTYLE
350
E5
  3
ACAD_VISUALSTYLE
350
2A
  0
SUN
  5
3F
330
29
100
AcDbSun
 90
        1
290
     0
 63
     7
421
 16777215
 40
1.0
291
     1
 91
  2455826
 92
 54000000
292
     0
 70
     2
 71
   256
280
     1
  0
DICTIONARY
  5
D
102
{ACAD_REACTORS
330
C
102
}
330
C
100
AcDbDictionary
281
     1
  0
DICTIONARY
  5
1A
102
{ACAD_REACTORS
330
C
102
}
330
C
100
AcDbDictionary
281
     1
  3
Layout1
350
1E
  3
Layout2
350
26
  3
Model
350
22
  0
DICTIONARY
  5
3B
102
{ACAD_REACTORS
330
C
102
}
330
C
100
AcDbDictionary
281
     1
  3
ByBlock
350
3D
  3
ByLayer
350
3C
  3
Global
350
3E
  0
DICTIONARY
  5
E6
102
{ACAD_REACTORS
330
C
102
}
330
C
100
AcDbDictionary
281
     1
  0
DICTIONARY
  5
17
102
{ACAD_REACTORS
330
C
102
}
330
C
100
AcDbDictionary
281
     1
  3
Standard
350
18
  0
DICTIONARY
  5
19
102
{ACAD_REACTORS
330
C
102
}
330
C
100
AcDbDictionary
281
     1
  0
ACDBDICTIONARYWDFLT
  5
E
102
{ACAD_REACTORS
330
C
102
}
330
C
100
AcDbDictionary
281
     1
  3
Normal
350
F
100
AcDbDictionaryWithDefault
340
F
  0
DICTIONARY
  5
E5
102
{ACAD_REACTORS
330
C
102
}
330
C
100
AcDbDictionary
281
     1
  0
DICTIONARY
  5
2A
102
{ACAD_REACTORS
330
C
102
}
330
C
100
AcDbDictionary
281
     1
  3
2dWireframe
350
2F
  3
3D Hidden
350
31
  3
3dWireframe
350
30
  3
Basic
350
32
  3
Brighten
350
36
  3
ColorChange
350
3A
  3
Conceptual
350
34
  3
Dim
350
35
  3
Facepattern
350
39
  3
Flat
350
2B
  3
FlatWithEdges
350
2C
  3
Gouraud
350
2D
  3
GouraudWithEdges
350
2E
  3
Linepattern
350
38
  3
Realistic
350
33
  3
Thicken
350
37
  0
LAYOUT
  5
1E
102
{ACAD_REACTORS
330
1A
102
}
330
1A
100
AcDbPlotSettings
  1

  2
none_device
  4

  6

 40
0.0
 41
0.0
 42
0.0
 43
0.0
 44
0.0
 45
0.0
 46
0.0
 47
0.0
 48
0.0
 49
0.0
140
0.0
141
0.0
142
1.0
143
1.0
 70
   688
 72
     0
 73
     0
 74
     5
  7

 75
    16
 76
     0
 77
     2
 78
   300
147
1.0
148
0.0
149
0.0
100
AcDbLayout
  1
Layout1
 70
     1
 71
     1
 10
0.0
 20
0.0
 11
12.0
 21
9.0
 12
0.0
 22
0.0
 32
0.0
 14
1.000000000000000E+20
 24
1.000000000000000E+20
 34
1.000000000000000E+20
 15
-1.000000000000000E+20
 25
-1.000000000000000E+20
 35
-1.000000000000000E+20
146
0.0
 13
0.0
 23
0.0
 33
0.0
 16
1.0
 26
0.0
 36
0.0
 17
0.0
 27
1.0
 37
0.0
 76
     0
330
1B
  0
LAYOUT
  5
26
102
{ACAD_REACTORS
330
1A
102
}
330
1A
100
AcDbPlotSettings
  1

  2
none_device
  4

  6

 40
0.0
 41
0.0
 42
0.0
 43
0.0
 44
0.0
 45
0.0
 46
0.0
 47
0.0
 48
0.0
 49
0.0
140
0.0
141
0.0
142
1.0
143
1.0
 70
   688
 72
     0
 73
     0
 74
     5
  7

 75
    16
 76
     0
 77
     2
 78
   300
147
1.0
148
0.0
149
0.0
100
AcDbLayout
  1
Layout2
 70
     1
 71
     2
 10
0.0
 20
0.0
 11
0.0
 21
0.0
 12
0.0
 22
0.0
 32
0.0
 14
0.0
 24
0.0
 34
0.0
 15
0.0
 25
0.0
 35
0.0
146
0.0
 13
0.0
 23
0.0
 33
0.0
 16
1.0
 26
0.0
 36
0.0
 17
0.0
 27
1.0
 37
0.0
 76
     0
330
23
  0
LAYOUT
  5
22
102
{ACAD_REACTORS
330
1A
102
}
330
1A
100
AcDbPlotSettings
  1

  2
none_device
  4

  6

 40
0.0
 41
0.0
 42
0.0
 43
0.0
 44
0.0
 45
0.0
 46
0.0
 47
0.0
 48
0.0
 49
0.0
140
0.0
141
0.0
142
1.0
143
1.0
 70
  1712
 72
     0
 73
     0
 74
     0
  7

 75
     0
 76
     0
 77
     2
 78
   300
147
1.0
148
0.0
149
0.0
100
AcDbLayout
  1
Model
 70
     1
 71
     0
 10
0.0
 20
0.0
 11
12.0
 21
9.0
 12
0.0
 22
0.0
 32
0.0
 14
1.000000000000000E+20
 24
1.000000000000000E+20
 34
1.000000000000000E+20
 15
-1.000000000000000E+20
 25
-1.000000000000000E+20
 35
-1.000000000000000E+20
146
0.0
 13
0.0
 23
0.0
 33
0.0
 16
1.0
 26
0.0
 36
0.0
 17
0.0
 27
1.0
 37
0.0
 76
     0
330
1F
331
29
  0
MATERIAL
  5
3D
102
{ACAD_REACTORS
330
3B
102
}
330
3B
100
AcDbMaterial
  1
ByBlock
 72
     1
 94
      127
  0
MATERIAL
  5
3C
102
{ACAD_REACTORS
330
3B
102
}
330
3B
100
AcDbMaterial
  1
ByLayer
 72
     1
 94
      127
  0
MATERIAL
  5
3E
102
{ACAD_REACTORS
330
3B
102
}
330
3B
100
AcDbMaterial
  1
Global
 72
     1
 94
      127
  0
MLINESTYLE
  5
18
102
{ACAD_REACTORS
330
17
102
}
330
17
100
AcDbMlineStyle
  2
Standard
 70
     0
  3

 62
   256
 51
90.0
 52
90.0
 71
     2
 49
0.5
 62
   256
  6
BYLAYER
 49
-0.5
 62
   256
  6
BYLAYER
  0
ACDBPLACEHOLDER
  5
F
102
{ACAD_REACTORS
330
E
102
}
330
E
  0
VISUALSTYLE
  5
2F
102
{ACAD_REACTORS
330
2A
102
}
330
2A
100
AcDbVisualStyle
  2
2dWireframe
 70
     4
177
     2
291
     0
 71
     0
176
     1
 72
     2
176
     1
 73
     0
176
     1
 90
        0
176
     1
 40
-0.6
176
     1
 41
-30.0
176
     1
 62
     5
 63
     7
421
 16777215
176
     1
 74
     1
176
     1
 91
        4
176
     1
 64
     7
176
     1
 65
   257
176
     1
 75
     1
176
     1
175
     1
176
     1
 42
1.0
176
     1
 92
        0
176
     1
 66
   257
176
     1
 43
1.0
176
     1
 76
     1
176
     1
 77
     6
176
     1
 78
     2
176
     1
 67
     7
176
     1
 79
     5
176
     1
170
     0
176
     1
171
     0
176
     1
290
     0
176
     1
 93
        1
176
     1
 44
0.0
176
     1
173
     0
176
     1
  0
VISUALSTYLE
  5
31
102
{ACAD_REACTORS
330
2A
102
}
330
2A
100
AcDbVisualStyle
  2
3D Hidden
 70
     6
177
     2
291
     0
 71
     1
176
     1
 72
     2
176
     1
 73
     2
176
     1
 90
        0
176
     1
 40
-0.6
176
     1
 41
-30.0
176
     1
 62
     5
 63
     7
421
 16777215
176
     1
 74
     2
176
     1
 91
        2
176
     1
 64
     7
176
     1
 65
   257
176
     1
 75
     2
176
     1
175
     1
176
     1
 42
40.0
176
     1
 92
        0
176
     1
 66
   257
176
     1
 43
1.0
176
     1
 76
     1
176
     1
 77
     6
176
     1
 78
     2
176
     1
 67
     7
176
     1
 79
     3
176
     1
170
     0
176
     1
171
     0
176
     1
290
     0
176
     1
 93
        1
176
     1
 44
0.0
176
     1
173
     0
176
     1
  0
VISUALSTYLE
  5
30
102
{ACAD_REACTORS
330
2A
102
}
330
2A
100
AcDbVisualStyle
  2
3dWireframe
 70
     5
177
     2
291
     0
 71
     0
176
     1
 72
     2
176
     1
 73
     0
176
     1
 90
        0
176
     1
 40
-0.6
176
     1
 41
-30.0
176
     1
 62
     5
 63
     7
421
 16777215
176
     1
 74
     1
176
     1
 91
        4
176
     1
 64
     7
176
     1
 65
   257
176
     1
 75
     1
176
     1
175
     1
176
     1
 42
1.0
176
     1
 92
        0
176
     1
 66
   257
176
     1
 43
1.0
176
     1
 76
     1
176
     1
 77
     6
176
     1
 78
     2
176
     1
 67
     7
176
     1
 79
     5
176
     1
170
     0
176
     1
171
     0
176
     1
290
     0
176
     1
 93
        1
176
     1
 44
0.0
176
     1
173
     0
176
     1
  0
VISUALSTYLE
  5
32
102
{ACAD_REACTORS
330
2A
102
}
330
2A
100
AcDbVisualStyle
  2
Basic
 70
     7
177
     2
291
     1
 71
     1
176
     1
 72
     0
176
     1
 73
     1
176
     1
 90
        0
176
     1
 40
-0.6
176
     1
 41
-30.0
176
     1
 62
     5
 63
     7
421
 16777215
176
     1
 74
     0
176
     1
 91
        4
176
     1
 64
     7
176
     1
 65
   257
176
     1
 75
     1
176
     1
175
     1
176
     1
 42
1.0
176
     1
 92
        8
176
     1
 66
     7
176
     1
 43
1.0
176
     1
 76
     1
176
     1
 77
     6
176
     1
 78
     2
176
     1
 67
     7
176
     1
 79
     5
176
     1
170
     0
176
     1
171
     0
176
     1
290
     0
176
     1
 93
        1
176
     1
 44
0.0
176
     1
173
     0
176
     1
  0
VISUALSTYLE
  5
36
102
{ACAD_REACTORS
330
2A
102
}
330
2A
100
AcDbVisualStyle
  2
Brighten
 70
    12
177
     2
291
     1
 71
     2
176
     1
 72
     2
176
     1
 73
     0
176
     1
 90
        0
176
     1
 40
-0.6
176
     1
 41
-30.0
176
     1
 62
     5
 63
     7
421
 16777215
176
     1
 74
     1
176
     1
 91
        4
176
     1
 64
     7
176
     1
 65
   257
176
     1
 75
     1
176
     1
175
     1
176
     1
 42
1.0
176
     1
 92
        8
176
     1
 66
     7
176
     1
 43
1.0
176
     1
 76
     1
176
     1
 77
     6
176
     1
 78
     2
176
     1
 67
     7
176
     1
 79
     5
176
     1
170
     0
176
     1
171
     0
176
     1
290
     0
176
     1
 93
        1
176
     1
 44
50.0
176
     1
173
     0
176
     1
  0
VISUALSTYLE
  5
3A
102
{ACAD_REACTORS
330
2A
102
}
330
2A
100
AcDbVisualStyle
  2
ColorChange
 70
    16
177
     2
291
     1
 71
     2
176
     1
 72
     2
176
     1
 73
     3
176
     1
 90
        0
176
     1
 40
-0.6
176
     1
 41
-30.0
176
     1
 62
     5
 63
     8
421
  8421504
176
     1
 74
     1
176
     1
 91
        4
176
     1
 64
     7
176
     1
 65
   257
176
     1
 75
     1
176
     1
175
     1
176
     1
 42
1.0
176
     1
 92
        8
176
     1
 66
     8
424
  8421504
176
     1
 43
1.0
176
     1
 76
     1
176
     1
 77
     6
176
     1
 78
     2
176
     1
 67
     7
176
     1
 79
     5
176
     1
170
     0
176
     1
171
     0
176
     1
290
     0
176
     1
 93
        1
176
     1
 44
0.0
176
     1
173
     0
176
     1
  0
VISUALSTYLE
  5
34
102
{ACAD_REACTORS
330
2A
102
}
330
2A
100
AcDbVisualStyle
  2
Conceptual
 70
     9
177
     2
291
     0
 71
     3
176
     1
 72
     2
176
     1
 73
     0
176
     1
 90
        0
176
     1
 40
-0.6
176
     1
 41
-30.0
176
     1
 62
     5
 63
     7
421
 16777215
176
     1
 74
     2
176
     1
 91
        2
176
     1
 64
     7
176
     1
 65
   257
176
     1
 75
     1
176
     1
175
     1
176
     1
 42
40.0
176
     1
 92
        8
176
     1
 66
     7
176
     1
 43
1.0
176
     1
 76
     1
176
     1
 77
     6
176
     1
 78
     2
176
     1
 67
     7
176
     1
 79
     3
176
     1
170
     0
176
     1
171
     0
176
     1
290
     0
176
     1
 93
        1
176
     1
 44
0.0
176
     1
173
     0
176
     1
  0
VISUALSTYLE
  5
35
102
{ACAD_REACTORS
330
2A
102
}
330
2A
100
AcDbVisualStyle
  2
Dim
 70
    11
177
     2
291
     1
 71
     2
176
     1
 72
     2
176
     1
 73
     0
176
     1
 90
        0
176
     1
 40
-0.6
176
     1
 41
-30.0
176
     1
 62
     5
 63
     7
421
 16777215
176
     1
 74
     1
176
     1
 91
        4
176
     1
 64
     7
176
     1
 65
   257
176
     1
 75
     1
176
     1
175
     1
176
     1
 42
1.0
176
     1
 92
        8
176
     1
 66
     7
176
     1
 43
1.0
176
     1
 76
     1
176
     1
 77
     6
176
     1
 78
     2
176
     1
 67
     7
176
     1
 79
     5
176
     1
170
     0
176
     1
171
     0
176
     1
290
     0
176
     1
 93
        1
176
     1
 44
-50.0
176
     1
173
     0
176
     1
  0
VISUALSTYLE
  5
39
102
{ACAD_REACTORS
330
2A
102
}
330
2A
100
AcDbVisualStyle
  2
Facepattern
 70
    15
177
     2
291
     1
 71
     2
176
     1
 72
     2
176
     1
 73
     0
176
     1
 90
        0
176
     1
 40
-0.6
176
     1
 41
-30.0
176
     1
 62
     5
 63
     7
421
 16777215
176
     1
 74
     1
176
     1
 91
        4
176
     1
 64
     7
176
     1
 65
   257
176
     1
 75
     1
176
     1
175
     1
176
     1
 42
1.0
176
     1
 92
        8
176
     1
 66
     7
176
     1
 43
1.0
176
     1
 76
     1
176
     1
 77
     6
176
     1
 78
     2
176
     1
 67
     7
176
     1
 79
     5
176
     1
170
     0
176
     1
171
     0
176
     1
290
     0
176
     1
 93
        1
176
     1
 44
0.0
176
     1
173
     0
176
     1
  0
VISUALSTYLE
  5
2B
102
{ACAD_REACTORS
330
2A
102
}
330
2A
100
AcDbVisualStyle
  2
Flat
 70
     0
177
     2
291
     1
 71
     2
176
     1
 72
     1
176
     1
 73
     1
176
     1
 90
        2
176
     1
 40
-0.6
176
     1
 41
30.0
176
     1
 62
     5
 63
     7
421
 16777215
176
     1
 74
     0
176
     1
 91
        4
176
     1
 64
     7
176
     1
 65
   257
176
     1
 75
     1
176
     1
175
     1
176
     1
 42
1.0
176
     1
 92
        8
176
     1
 66
     7
176
     1
 43
1.0
176
     1
 76
     1
176
     1
 77
     6
176
     1
 78
     2
176
     1
 67
     7
176
     1
 79
     5
176
     1
170
     0
176
     1
171
     0
176
     1
290
     0
176
     1
 93
       13
176
     1
 44
0.0
176
     1
173
     0
176
     1
  0
VISUALSTYLE
  5
2C
102
{ACAD_REACTORS
330
2A
102
}
330
2A
100
AcDbVisualStyle
  2
FlatWithEdges
 70
     1
177
     2
291
     1
 71
     2
176
     1
 72
     1
176
     1
 73
     1
176
     1
 90
        2
176
     1
 40
-0.6
176
     1
 41
30.0
176
     1
 62
     5
 63
     7
421
 16777215
176
     1
 74
     1
176
     1
 91
        4
176
     1
 64
     7
176
     1
 65
   257
176
     1
 75
     1
176
     1
175
     1
176
     1
 42
1.0
176
     1
 92
        0
176
     1
 66
   257
176
     1
 43
1.0
176
     1
 76
     1
176
     1
 77
     6
176
     1
 78
     2
176
     1
 67
     7
176
     1
 79
     5
176
     1
170
     0
176
     1
171
     0
176
     1
290
     0
176
     1
 93
       13
176
     1
 44
0.0
176
     1
173
     0
176
     1
  0
VISUALSTYLE
  5
2D
102
{ACAD_REACTORS
330
2A
102
}
330
2A
100
AcDbVisualStyle
  2
Gouraud
 70
     2
177
     2
291
     1
 71
     2
176
     1
 72
     2
176
     1
 73
     1
176
     1
 90
        2
176
     1
 40
-0.6
176
     1
 41
30.0
176
     1
 62
     5
 63
     7
421
 16777215
176
     1
 74
     0
176
     1
 91
        4
176
     1
 64
     7
176
     1
 65
   257
176
     1
 75
     1
176
     1
175
     1
176
     1
 42
1.0
176
     1
 92
        0
176
     1
 66
     7
176
     1
 43
1.0
176
     1
 76
     1
176
     1
 77
     6
176
     1
 78
     2
176
     1
 67
     7
176
     1
 79
     5
176
     1
170
     0
176
     1
171
     0
176
     1
290
     0
176
     1
 93
       13
176
     1
 44
0.0
176
     1
173
     0
176
     1
  0
VISUALSTYLE
  5
2E
102
{ACAD_REACTORS
330
2A
102
}
330
2A
100
AcDbVisualStyle
  2
GouraudWithEdges
 70
     3
177
     2
291
     1
 71
     2
176
     1
 72
     2
176
     1
 73
     1
176
     1
 90
        2
176
     1
 40
-0.6
176
     1
 41
30.0
176
     1
 62
     5
 63
     7
421
 16777215
176
     1
 74
     1
176
     1
 91
        4
176
     1
 64
     7
176
     1
 65
   257
176
     1
 75
     1
176
     1
175
     1
176
     1
 42
1.0
176
     1
 92
        0
176
     1
 66
   257
176
     1
 43
1.0
176
     1
 76
     1
176
     1
 77
     6
176
     1
 78
     2
176
     1
 67
     7
176
     1
 79
     5
176
     1
170
     0
176
     1
171
     0
176
     1
290
     0
176
     1
 93
       13
176
     1
 44
0.0
176
     1
173
     0
176
     1
  0
VISUALSTYLE
  5
38
102
{ACAD_REACTORS
330
2A
102
}
330
2A
100
AcDbVisualStyle
  2
Linepattern
 70
    14
177
     2
291
     1
 71
     2
176
     1
 72
     2
176
     1
 73
     0
176
     1
 90
        0
176
     1
 40
-0.6
176
     1
 41
-30.0
176
     1
 62
     5
 63
     7
421
 16777215
176
     1
 74
     1
176
     1
 91
        4
176
     1
 64
     7
176
     1
 65
   257
176
     1
 75
     7
176
     1
175
     7
176
     1
 42
1.0
176
     1
 92
        8
176
     1
 66
     7
176
     1
 43
1.0
176
     1
 76
     1
176
     1
 77
     6
176
     1
 78
     2
176
     1
 67
     7
176
     1
 79
     5
176
     1
170
     0
176
     1
171
     0
176
     1
290
     0
176
     1
 93
        1
176
     1
 44
0.0
176
     1
173
     0
176
     1
  0
VISUALSTYLE
  5
33
102
{ACAD_REACTORS
330
2A
102
}
330
2A
100
AcDbVisualStyle
  2
Realistic
 70
     8
177
     2
291
     0
 71
     2
176
     1
 72
     2
176
     1
 73
     0
176
     1
 90
        0
176
     1
 40
-0.6
176
     1
 41
-30.0
176
     1
 62
     5
 63
     7
421
 16777215
176
     1
 74
     1
176
     1
 91
        0
176
     1
 64
     7
176
     1
 65
   257
176
     1
 75
     1
176
     1
175
     1
176
     1
 42
1.0
176
     1
 92
        8
176
     1
 66
     8
424
  7895160
176
     1
 43
1.0
176
     1
 76
     1
176
     1
 77
     6
176
     1
 78
     2
176
     1
 67
     7
176
     1
 79
     5
176
     1
170
     0
176
     1
171
     0
176
     1
290
     0
176
     1
 93
       13
176
     1
 44
0.0
176
     1
173
     0
176
     1
  0
VISUALSTYLE
  5
37
102
{ACAD_REACTORS
330
2A
102
}
330
2A
100
AcDbVisualStyle
  2
Thicken
 70
    13
177
     2
291
     1
 71
     2
176
     1
 72
     2
176
     1
 73
     0
176
     1
 90
        0
176
     1
 40
-0.6
176
     1
 41
-30.0
176
     1
 62
     5
 63
     7
421
 16777215
176
     1
 74
     1
176
     1
 91
        4
176
     1
 64
     7
176
     1
 65
   257
176
     1
 75
     1
176
     1
175
     1
176
     1
 42
1.0
176
     1
 92
       12
176
     1
 66
     7
176
     1
 43
1.0
176
     1
 76
     1
176
     1
 77
     6
176
     1
 78
     2
176
     1
 67
     7
176
     1
 79
     5
176
     1
170
     0
176
     1
171
     0
176
     1
290
     0
176
     1
 93
        1
176
     1
 44
0.0
176
     1
173
     0
176
     1
  0
ENDSEC
  0
EOF
