  0
SECTION
  2
HEADER
  9
$ACADVER
  1
AC1024
  9
$ACADMAINTVER
 70
     6
  9
$DWGCODEPAGE
  3
UNDEFINED
  9
$INSBASE
 10
0.0
 20
0.0
 30
0.0
  9
$EXTMIN
 10
1.000000000000000E+20
 20
1.000000000000000E+20
 30
1.000000000000000E+20
  9
$EXTMAX
 10
-1.000000000000000E+20
 20
-1.000000000000000E+20
 30
-1.000000000000000E+20
  9
$LIMMIN
 10
0.0
 20
0.0
  9
$LIMMAX
 10
12.0
 20
9.0
  9
$ORTHOMODE
 70
     0
  9
$REGENMODE
 70
     1
  9
$FILLMODE
 70
     1
  9
$QTEXTMODE
 70
     0
  9
$MIRRTEXT
 70
     1
  9
$LTSCALE
 40
1.0
  9
$ATTMODE
 70
     1
  9
$TEXTSIZE
 40
0.2
  9
$TRACEWID
 40
0.05
  9
$TEXTSTYLE
  7
Standard
  9
$CLAYER
  8
0
  9
$CELTYPE
  6
ByLayer
  9
$CECOLOR
 62
   256
  9
$CELTSCALE
 40
1.0
  9
$DISPSILH
 70
     0
  9
$DIMSCALE
 40
1.0
  9
$DIMASZ
 40
0.18
  9
$DIMEXO
 40
0.0625
  9
$DIMDLI
 40
0.38
  9
$DIMRND
 40
0.0
  9
$DIMDLE
 40
0.0
  9
$DIMEXE
 40
0.18
  9
$DIMTP
 40
0.0
  9
$DIMTM
 40
0.0
  9
$DIMTXT
 40
0.18
  9
$DIMCEN
 40
0.09
  9
$DIMTSZ
 40
0.0
  9
$DIMTOL
 70
     0
  9
$DIMLIM
 70
     0
  9
$DIMTIH
 70
     1
  9
$DIMTOH
 70
     1
  9
$DIMSE1
 70
     0
  9
$DIMSE2
 70
     0
  9
$DIMTAD
 70
     0
  9
$DIMZIN
 70
     0
  9
$DIMBLK
  1

  9
$DIMASO
 70
     1
  9
$DIMSHO
 70
     1
  9
$DIMPOST
  1

  9
$DIMAPOST
  1

  9
$DIMALT
 70
     0
  9
$DIMALTD
 70
     2
  9
$DIMALTF
 40
25.4
  9
$DIMLFAC
 40
1.0
  9
$DIMTOFL
 70
     0
  9
$DIMTVP
 40
0.0
  9
$DIMTIX
 70
     0
  9
$DIMSOXD
 70
     0
  9
$DIMSAH
 70
     0
  9
$DIMBLK1
  1

  9
$DIMBLK2
  1

  9
$DIMSTYLE
  2
Standard
  9
$DIMCLRD
 70
     0
  9
$DIMCLRE
 70
     0
  9
$DIMCLRT
 70
     0
  9
$DIMTFAC
 40
1.0
  9
$DIMGAP
 40
0.09
  9
$DIMJUST
 70
     0
  9
$DIMSD1
 70
     0
  9
$DIMSD2
 70
     0
  9
$DIMTOLJ
 70
     1
  9
$DIMTZIN
 70
     0
  9
$DIMALTZ
 70
     0
  9
$DIMALTTZ
 70
     0
  9
$DIMUPT
 70
     0
  9
$DIMDEC
 70
     4
  9
$DIMTDEC
 70
     4
  9
$DIMALTU
 70
     2
  9
$DIMALTTD
 70
     2
  9
$DIMTXSTY
  7
Standard
  9
$DIMAUNIT
 70
     0
  9
$DIMADEC
 70
     0
  9
$DIMALTRND
 40
0.0
  9
$DIMAZIN
 70
     0
  9
$DIMDSEP
 70
    46
  9
$DIMATFIT
 70
     3
  9
$DIMFRAC
 70
     0
  9
$DIMLDRBLK
  1

  9
$DIMLUNIT
 70
     2
  9
$DIMLWD
 70
    -2
  9
$DIMLWE
 70
    -2
  9
$DIMTMOVE
 70
     0
  9
$DIMFXL
 40
1.0
  9
$DIMFXLON
 70
     0
  9
$DIMJOGANG
 40
0.7853981633974483
  9
$DIMTFILL
 70
     0
  9
$DIMTFILLCLR
 70
     0
  9
$DIMARCSYM
 70
     0
  9
$DIMLTYPE
  6

  9
$DIMLTEX1
  6

  9
$DIMLTEX2
  6

  9
$DIMTXTDIRECTION
 70
     0
  9
$LUNITS
 70
     2
  9
$LUPREC
 70
     4
  9
$SKETCHINC
 40
0.1
  9
$FILLETRAD
 40
0.5
  9
$AUNITS
 70
     0
  9
$AUPREC
 70
     0
  9
$MENU
  1
.
  9
$ELEVATION
 40
0.0
  9
$PELEVATION
 40
0.0
  9
$THICKNESS
 40
0.0
  9
$LIMCHECK
 70
     0
  9
$CHAMFERA
 40
0.5
  9
$CHAMFERB
 40
0.5
  9
$CHAMFERC
 40
1.0
  9
$CHAMFERD
 40
0.0
  9
$SKPOLY
 70
     0
  9
$TDCREATE
 40
2458263.582662037
  9
$TDUCREATE
 40
2458263.207662037
  9
$TDUPDATE
 40
2458263.582662037
  9
$TDUUPDATE
 40
2458263.207662037
  9
$TDINDWG
 40
0.0000000116
  9
$TDUSRTIMER
 40
0.0000000116
  9
$USRTIMER
 70
     1
  9
$ANGBASE
 50
0.0
  9
$ANGDIR
 70
     0
  9
$PDMODE
 70
     0
  9
$PDSIZE
 40
0.0
  9
$PLINEWID
 40
0.0
  9
$SPLFRAME
 70
     0
  9
$SPLINETYPE
 70
     6
  9
$SPLINESEGS
 70
     8
  9
$HANDSEED
  5
D4
  9
$SURFTAB1
 70
     6
  9
$SURFTAB2
 70
     6
  9
$SURFTYPE
 70
     6
  9
$SURFU
 70
     6
  9
$SURFV
 70
     6
  9
$UCSBASE
  2

  9
$UCSNAME
  2

  9
$UCSORG
 10
0.0
 20
0.0
 30
0.0
  9
$UCSXDIR
 10
1.0
 20
0.0
 30
0.0
  9
$UCSYDIR
 10
0.0
 20
1.0
 30
0.0
  9
$UCSORTHOREF
  2

  9
$UCSORTHOVIEW
 70
     0
  9
$UCSORGTOP
 10
0.0
 20
0.0
 30
0.0
  9
$UCSORGBOTTOM
 10
0.0
 20
0.0
 30
0.0
  9
$UCSORGLEFT
 10
0.0
 20
0.0
 30
0.0
  9
$UCSORGRIGHT
 10
0.0
 20
0.0
 30
0.0
  9
$UCSORGFRONT
 10
0.0
 20
0.0
 30
0.0
  9
$UCSORGBACK
 10
0.0
 20
0.0
 30
0.0
  9
$PUCSBASE
  2

  9
$PUCSNAME
  2

  9
$PUCSORG
 10
0.0
 20
0.0
 30
0.0
  9
$PUCSXDIR
 10
1.0
 20
0.0
 30
0.0
  9
$PUCSYDIR
 10
0.0
 20
1.0
 30
0.0
  9
$PUCSORTHOREF
  2

  9
$PUCSORTHOVIEW
 70
     0
  9
$PUCSORGTOP
 10
0.0
 20
0.0
 30
0.0
  9
$PUCSORGBOTTOM
 10
0.0
 20
0.0
 30
0.0
  9
$PUCSORGLEFT
 10
0.0
 20
0.0
 30
0.0
  9
$PUCSORGRIGHT
 10
0.0
 20
0.0
 30
0.0
  9
$PUCSORGFRONT
 10
0.0
 20
0.0
 30
0.0
  9
$PUCSORGBACK
 10
0.0
 20
0.0
 30
0.0
  9
$USERI1
 70
     0
  9
$USERI2
 70
     0
  9
$USERI3
 70
     0
  9
$USERI4
 70
     0
  9
$USERI5
 70
     0
  9
$USERR1
 40
0.0
  9
$USERR2
 40
0.0
  9
$USERR3
 40
0.0
  9
$USERR4
 40
0.0
  9
$USERR5
 40
0.0
  9
$WORLDVIEW
 70
     1
  9
$SHADEDGE
 70
     3
  9
$SHADEDIF
 70
    70
  9
$TILEMODE
 70
     1
  9
$MAXACTVP
 70
    64
  9
$PINSBASE
 10
0.0
 20
0.0
 30
0.0
  9
$PLIMCHECK
 70
     0
  9
$PEXTMIN
 10
1.000000000000000E+20
 20
1.000000000000000E+20
 30
1.000000000000000E+20
  9
$PEXTMAX
 10
-1.000000000000000E+20
 20
-1.000000000000000E+20
 30
-1.000000000000000E+20
  9
$PLIMMIN
 10
0.0
 20
0.0
  9
$PLIMMAX
 10
12.0
 20
9.0
  9
$UNITMODE
 70
     0
  9
$VISRETAIN
 70
     1
  9
$PLINEGEN
 70
     0
  9
$PSLTSCALE
 70
     1
  9
$TREEDEPTH
 70
  3020
  9
$CMLSTYLE
  2
Standard
  9
$CMLJUST
 70
     0
  9
$CMLSCALE
 40
1.0
  9
$PROXYGRAPHICS
 70
     1
  9
$MEASUREMENT
 70
     0
  9
$CELWEIGHT
370
    -1
  9
$ENDCAPS
280
     0
  9
$JOINSTYLE
280
     0
  9
$LWDISPLAY
290
     1
  9
$INSUNITS
 70
     1
  9
$HYPERLINKBASE
  1

  9
$STYLESHEET
  1

  9
$XEDIT
290
     1
  9
$CEPSNTYPE
380
     0
  9
$PSTYLEMODE
290
     1
  9
$FINGERPRINTGUID
  2
{2F2CE77D-3D2E-9F0D-A679-019FA1F4BE19}
  9
$VERSIONGUID
  2
{FAEB1C32-E019-11D5-929B-00C0DF256EC4}
  9
$EXTNAMES
290
     1
  9
$PSVPSCALE
 40
0.0
  9
$OLESTARTUP
290
     0
  9
$SORTENTS
280
   127
  9
$INDEXCTL
280
     0
  9
$HIDETEXT
280
     1
  9
$XCLIPFRAME
280
     2
  9
$HALOGAP
280
     0
  9
$OBSCOLOR
 70
   257
  9
$OBSLTYPE
280
     0
  9
$INTERSECTIONDISPLAY
280
     0
  9
$INTERSECTIONCOLOR
 70
   257
  9
$DIMASSOC
280
     2
  9
$PROJECTNAME
  1

  9
$CAMERADISPLAY
290
     0
  9
$LENSLENGTH
 40
50.0
  9
$CAMERAHEIGHT
 40
0.0
  9
$STEPSPERSEC
 40
2.0
  9
$STEPSIZE
 40
6.0
  9
$3DDWFPREC
 40
2.0
  9
$PSOLWIDTH
 40
0.25
  9
$PSOLHEIGHT
 40
4.0
  9
$LOFTANG1
 40
1.570796326794897
  9
$LOFTANG2
 40
1.570796326794897
  9
$LOFTMAG1
 40
0.0
  9
$LOFTMAG2
 40
0.0
  9
$LOFTPARAM
 70
     7
  9
$LOFTNORMALS
280
     1
  9
$LATITUDE
 40
37.795
  9
$LONGITUDE
 40
-122.394
  9
$NORTHDIRECTION
 40
0.0
  9
$TIMEZONE
 70
 -8000
  9
$LIGHTGLYPHDISPLAY
280
     1
  9
$TILEMODELIGHTSYNCH
280
     1
  9
$CMATERIAL
347
3C
  9
$SOLIDHIST
280
     1
  9
$SHOWHIST
280
     1
  9
$DWFFRAME
280
     2
  9
$DGNFRAME
280
     2
  9
$REALWORLDSCALE
290
     1
  9
$INTERFERECOLOR
 62
   256
  9
$CSHADOW
280
     0
  9
$SHADOWPLANELOCATION
 40
0.0
  0
ENDSEC
  0
SECTION
  2
CLASSES
  0
CLASS
  1
ACDBDICTIONARYWDFLT
  2
AcDbDictionaryWithDefault
  3
ObjectDBX Classes
 90
        0
 91
        4
280
     0
281
     0
  0
CLASS
  1
VISUALSTYLE
  2
AcDbVisualStyle
  3
ObjectDBX Classes
 90
     4095
 91
        4
280
     0
281
     0
  0
CLASS
  1
MATERIAL
  2
AcDbMaterial
  3
ObjectDBX Classes
 90
     1153
 91
        4
280
     0
281
     0
  0
CLASS
  1
SUN
  2
AcDbSun
  3
SCENEOE
 90
     1024
 91
        4
280
     0
281
     0
  0
ENDSEC
  0
SECTION
  2
TABLES
  0
TABLE
  2
VPORT
  5
8
330
0
100
AcDbSymbolTable
 70
     1
  0
VPORT
  5
29
330
8
100
AcDbSymbolTableRecord
100
AcDbViewportTableRecord
  2
*Active
 70
     0
 10
0.0
 20
0.0
 11
1.0
 21
1.0
 12
0.0
 22
0.0
 13
0.0
 23
0.0
 14
0.5
 24
0.5
 15
0.5
 25
0.5
 16
0.0
 26
0.0
 36
1.0
 17
105.0007777515277
 27
-148.5000416295416
 37
0.0
 40
297.0000832590831
 41
0.7070757462376333
 42
50.0
 43
0.0
 44
0.0
 50
0.0
 51
0.0
 71
     0
 72
   100
 73
     1
 74
     3
 75
     0
 76
     0
 77
     0
 78
     0
281
     0
 65
     1
110
0.0
120
0.0
130
0.0
111
1.0
121
0.0
131
0.0
112
0.0
122
1.0
132
0.0
 79
     0
146
0.0
 60
     3
 61
     5
292
     1
282
     1
141
0.0
142
0.0
 63
   250
361
3F
  0
ENDTAB
  0
TABLE
  2
LTYPE
  5
5
330
0
100
AcDbSymbolTable
 70
     1
  0
LTYPE
  5
14
330
5
100
AcDbSymbolTableRecord
100
AcDbLinetypeTableRecord
  2
ByBlock
 70
     0
  3

 72
    65
 73
     0
 40
0.0
  0
LTYPE
  5
15
330
5
100
AcDbSymbolTableRecord
100
AcDbLinetypeTableRecord
  2
ByLayer
 70
     0
  3

 72
    65
 73
     0
 40
0.0
  0
LTYPE
  5
16
330
5
100
AcDbSymbolTableRecord
100
AcDbLinetypeTableRecord
  2
Continuous
 70
     0
  3
Solid line
 72
    65
 73
     0
 40
0.0
  0
ENDTAB
  0
TABLE
  2
LAYER
  5
2
330
0
100
AcDbSymbolTable
 70
     2
  0
LAYER
  5
10
330
2
100
AcDbSymbolTableRecord
100
AcDbLayerTableRecord
  2
0
 70
     0
 62
     7
  6
Continuous
370
    -3
390
F
347
3E
  0
LAYER
  5
40
330
2
100
AcDbSymbolTableRecord
100
AcDbLayerTableRecord
  2
_U+30EC_U+30A4_U+30E4_U+30FC 1
 70
     0
 62
     7
  6
Continuous
370
    -3
390
F
347
3E
  0
ENDTAB
  0
TABLE
  2
STYLE
  5
3
330
0
100
AcDbSymbolTable
 70
     1
  0
STYLE
  5
11
330
3
100
AcDbSymbolTableRecord
100
AcDbTextStyleTableRecord
  2
Standard
 70
     0
 40
0.0
 41
1.0
 50
0.0
 71
     0
 42
0.2
  3
txt
  4

  0
ENDTAB
  0
TABLE
  2
VIEW
  5
6
330
0
100
AcDbSymbolTable
 70
     0
  0
ENDTAB
  0
TABLE
  2
UCS
  5
7
330
0
100
AcDbSymbolTable
 70
     0
  0
ENDTAB
  0
TABLE
  2
APPID
  5
9
330
0
100
AcDbSymbolTable
 70
     1
  0
APPID
  5
12
330
9
100
AcDbSymbolTableRecord
100
AcDbRegAppTableRecord
  2
ACAD
 70
     0
  0
ENDTAB
  0
TABLE
  2
DIMSTYLE
  5
A
330
0
100
AcDbSymbolTable
 70
     1
100
AcDbDimStyleTable
  0
DIMSTYLE
105
27
330
A
100
AcDbSymbolTableRecord
100
AcDbDimStyleTableRecord
  2
Standard
 70
     0
178
     0
340
11
  0
ENDTAB
  0
TABLE
  2
BLOCK_RECORD
  5
1
330
0
100
AcDbSymbolTable
 70
     7
  0
BLOCK_RECORD
  5
1F
330
1
100
AcDbSymbolTableRecord
100
AcDbBlockTableRecord
  2
*Model_Space
340
22
 70
     0
280
     1
281
     0
  0
BLOCK_RECORD
  5
1B
330
1
100
AcDbSymbolTableRecord
100
AcDbBlockTableRecord
  2
*Paper_Space
340
1E
 70
     0
280
     1
281
     0
  0
BLOCK_RECORD
  5
23
330
1
100
AcDbSymbolTableRecord
100
AcDbBlockTableRecord
  2
*Paper_Space0
340
26
 70
     0
280
     1
281
     0
  0
BLOCK_RECORD
  5
63
330
1
100
AcDbSymbolTableRecord
100
AcDbBlockTableRecord
  2
block 2
340
0
102
{BLKREFS
331
64
102
}
 70
     0
280
     1
281
     0
  0
BLOCK_RECORD
  5
73
330
1
100
AcDbSymbolTableRecord
100
AcDbBlockTableRecord
  2
block 3
340
0
102
{BLKREFS
331
74
102
}
 70
     0
280
     1
281
     0
  0
BLOCK_RECORD
  5
83
330
1
100
AcDbSymbolTableRecord
100
AcDbBlockTableRecord
  2
block 4
340
0
102
{BLKREFS
331
84
102
}
 70
     0
280
     1
281
     0
  0
BLOCK_RECORD
  5
91
330
1
100
AcDbSymbolTableRecord
100
AcDbBlockTableRecord
  2
block 5
340
0
102
{BLKREFS
331
92
102
}
 70
     0
280
     1
281
     0
  0
BLOCK_RECORD
  5
97
330
1
100
AcDbSymbolTableRecord
100
AcDbBlockTableRecord
  2
block 6
340
0
102
{BLKREFS
331
98
102
}
 70
     0
280
     1
281
     0
  0
BLOCK_RECORD
  5
B4
330
1
100
AcDbSymbolTableRecord
100
AcDbBlockTableRecord
  2
block 7
340
0
102
{BLKREFS
331
B5
102
}
 70
     0
280
     1
281
     0
  0
ENDTAB
  0
ENDSEC
  0
SECTION
  2
BLOCKS
  0
BLOCK
  5
20
330
1F
100
AcDbEntity
  8
0
100
AcDbBlockBegin
  2
*Model_Space
 70
     0
 10
0.0
 20
0.0
 30
0.0
  3
*Model_Space
  1

  0
ENDBLK
  5
21
330
1F
100
AcDbEntity
  8
0
100
AcDbBlockEnd
  0
BLOCK
  5
1C
330
1B
100
AcDbEntity
 67
     1
  8
0
100
AcDbBlockBegin
  2
*Paper_Space
 70
     0
 10
0.0
 20
0.0
 30
0.0
  3
*Paper_Space
  1

  0
ENDBLK
  5
1D
330
1B
100
AcDbEntity
 67
     1
  8
0
100
AcDbBlockEnd
  0
BLOCK
  5
24
330
23
100
AcDbEntity
  8
0
100
AcDbBlockBegin
  2
*Paper_Space0
 70
     0
 10
0.0
 20
0.0
 30
0.0
  3
*Paper_Space0
  1

  0
ENDBLK
  5
25
330
23
100
AcDbEntity
  8
0
100
AcDbBlockEnd
  0
BLOCK
  5
65
330
63
100
AcDbEntity
  8
0
100
AcDbBlockBegin
  2
block 2
 70
     0
 10
0.0
 20
0.0
 30
0.0
  3
block 2
  1

  0
SPLINE
  5
67
330
63
100
AcDbEntity
  8
_U+30EC_U+30A4_U+30E4_U+30FC 1
370
     0
100
AcDbSpline
210
0.0
220
0.0
230
1.0
 70
    11
 71
     3
 72
    26
 73
    22
 74
     0
 42
0.0000000001
 43
0.0000000001
 12
1.0
 22
0.0
 32
0.0
 13
1.0
 23
0.0
 33
0.0
 40
0.0
 40
0.0
 40
0.0
 40
0.0
 40
1.0
 40
1.0
 40
1.0
 40
2.0
 40
2.0
 40
2.0
 40
3.0
 40
3.0
 40
3.0
 40
4.0
 40
4.0
 40
4.0
 40
5.0
 40
5.0
 40
5.0
 40
6.0
 40
6.0
 40
6.0
 40
7.0
 40
7.0
 40
7.0
 40
7.0
 10
112.7521185699023
 20
-145.298969147703
 30
0.0
 10
112.7521185699023
 20
-145.298969147703
 30
0.0
 10
111.6476209573312
 20
-145.298969147703
 30
0.0
 10
111.6476209573312
 20
-145.298969147703
 30
0.0
 10
111.6476209573312
 20
-145.298969147703
 30
0.0
 10
111.6476209573312
 20
-145.62900929519
 30
0.0
 10
111.6476209573312
 20
-145.62900929519
 30
0.0
 10
111.6476209573312
 20
-145.62900929519
 30
0.0
 10
111.4998263610139
 20
-145.62900929519
 30
0.0
 10
111.4998263610139
 20
-145.62900929519
 30
0.0
 10
111.4850124504274
 20
-145.2969020904119
 30
0.0
 10
111.322059433975
 20
-145.250393301361
 30
0.0
 10
111.2076822638648
 20
-145.2207654801879
 30
0.0
 10
111.2076822638648
 20
-145.2207654801879
 30
0.0
 10
111.2076822638648
 20
-145.0746934316133
 30
0.0
 10
111.2076822638648
 20
-145.0746934316133
 30
0.0
 10
111.2076822638648
 20
-145.0746934316133
 30
0.0
 10
112.7521185699023
 20
-145.0746934316133
 30
0.0
 10
112.7521185699023
 20
-145.0746934316133
 30
0.0
 10
112.7521185699023
 20
-145.0746934316133
 30
0.0
 10
112.7521185699023
 20
-145.298969147703
 30
0.0
 10
112.7521185699023
 20
-145.298969147703
 30
0.0
  0
HATCH
  5
68
330
63
100
AcDbEntity
  8
_U+30EC_U+30A4_U+30E4_U+30FC 1
 62
   179
420
  2234388
100
AcDbHatch
 10
0.0
 20
0.0
 30
0.0
210
0.0
220
0.0
230
1.0
  2
SOLID
 70
     1
 71
     0
 91
        1
 92
        1
 93
        1
 72
     4
 94
        3
 73
     0
 74
     1
 95
       26
 96
       22
 40
0.0
 40
0.0
 40
0.0
 40
0.0
 40
1.0
 40
1.0
 40
1.0
 40
2.0
 40
2.0
 40
2.0
 40
3.0
 40
3.0
 40
3.0
 40
4.0
 40
4.0
 40
4.0
 40
5.0
 40
5.0
 40
5.0
 40
6.0
 40
6.0
 40
6.0
 40
7.0
 40
7.0
 40
7.0
 40
7.0
 10
112.7521185699023
 20
-145.298969147703
 10
112.7521185699023
 20
-145.298969147703
 10
111.6476209573312
 20
-145.298969147703
 10
111.6476209573312
 20
-145.298969147703
 10
111.6476209573312
 20
-145.298969147703
 10
111.6476209573312
 20
-145.62900929519
 10
111.6476209573312
 20
-145.62900929519
 10
111.6476209573312
 20
-145.62900929519
 10
111.4998263610139
 20
-145.62900929519
 10
111.4998263610139
 20
-145.62900929519
 10
111.4850124504274
 20
-145.2969020904119
 10
111.322059433975
 20
-145.250393301361
 10
111.2076822638648
 20
-145.2207654801879
 10
111.2076822638648
 20
-145.2207654801879
 10
111.2076822638648
 20
-145.0746934316133
 10
111.2076822638648
 20
-145.0746934316133
 10
111.2076822638648
 20
-145.0746934316133
 10
112.7521185699023
 20
-145.0746934316133
 10
112.7521185699023
 20
-145.0746934316133
 10
112.7521185699023
 20
-145.0746934316133
 10
112.7521185699023
 20
-145.298969147703
 10
112.7521185699023
 20
-145.298969147703
 97
        0
 97
        0
 75
     2
 76
     1
 98
        0
  0
POLYLINE
  5
69
330
63
100
AcDbEntity
  8
_U+30EC_U+30A4_U+30E4_U+30FC 1
370
     0
100
AcDb2dPolyline
 66
     1
 10
0.0
 20
0.0
 30
0.0
  0
VERTEX
  5
6A
330
69
100
AcDbEntity
  8
_U+30EC_U+30A4_U+30E4_U+30FC 1
370
     0
100
AcDbVertex
100
AcDb2dVertex
 10
112.7521185699023
 20
-144.5134873770661
 30
0.0
  0
VERTEX
  5
6B
330
69
100
AcDbEntity
  8
_U+30EC_U+30A4_U+30E4_U+30FC 1
370
     0
100
AcDbVertex
100
AcDb2dVertex
 10
112.5002820899305
 20
-144.5134873770661
 30
0.0
  0
VERTEX
  5
6C
330
69
100
AcDbEntity
  8
_U+30EC_U+30A4_U+30E4_U+30FC 1
370
     0
100
AcDbVertex
100
AcDb2dVertex
 10
112.5002820899305
 20
-144.2618231518686
 30
0.0
  0
VERTEX
  5
6D
330
69
100
AcDbEntity
  8
_U+30EC_U+30A4_U+30E4_U+30FC 1
370
     0
100
AcDbVertex
100
AcDb2dVertex
 10
112.7521185699023
 20
-144.2618231518686
 30
0.0
  0
VERTEX
  5
6E
330
69
100
AcDbEntity
  8
_U+30EC_U+30A4_U+30E4_U+30FC 1
370
     0
100
AcDbVertex
100
AcDb2dVertex
 10
112.7521185699023
 20
-144.5134873770661
 30
0.0
  0
SEQEND
  5
6F
330
69
100
AcDbEntity
  8
_U+30EC_U+30A4_U+30E4_U+30FC 1
370
     0
  0
HATCH
  5
70
330
63
100
AcDbEntity
  8
_U+30EC_U+30A4_U+30E4_U+30FC 1
 62
   179
420
  2234388
100
AcDbHatch
 10
0.0
 20
0.0
 30
0.0
210
0.0
220
0.0
230
1.0
  2
SOLID
 70
     1
 71
     0
 91
        1
 92
        1
 93
        4
 72
     1
 10
112.7521185699023
 20
-144.5134873770661
 11
112.5002820899305
 21
-144.5134873770661
 72
     1
 10
112.5002820899305
 20
-144.5134873770661
 11
112.5002820899305
 21
-144.2618231518686
 72
     1
 10
112.5002820899305
 20
-144.2618231518686
 11
112.7521185699023
 21
-144.2618231518686
 72
     1
 10
112.7521185699023
 20
-144.2618231518686
 11
112.7521185699023
 21
-144.5134873770661
 97
        0
 75
     2
 76
     1
 98
        0
  0
SPLINE
  5
71
330
63
100
AcDbEntity
  8
_U+30EC_U+30A4_U+30E4_U+30FC 1
370
     0
100
AcDbSpline
210
0.0
220
0.0
230
1.0
 70
    11
 71
     3
 72
    53
 73
    49
 74
     0
 42
0.0000000001
 43
0.0000000001
 12
1.0
 22
0.0
 32
0.0
 13
1.0
 23
0.0
 33
0.0
 40
0.0
 40
0.0
 40
0.0
 40
0.0
 40
1.0
 40
1.0
 40
1.0
 40
2.0
 40
2.0
 40
2.0
 40
3.0
 40
3.0
 40
3.0
 40
4.0
 40
4.0
 40
4.0
 40
5.0
 40
5.0
 40
5.0
 40
6.0
 40
6.0
 40
6.0
 40
7.0
 40
7.0
 40
7.0
 40
8.0
 40
8.0
 40
8.0
 40
9.0
 40
9.0
 40
9.0
 40
10.0
 40
10.0
 40
10.0
 40
11.0
 40
11.0
 40
11.0
 40
12.0
 40
12.0
 40
12.0
 40
13.0
 40
13.0
 40
13.0
 40
14.0
 40
14.0
 40
14.0
 40
15.0
 40
15.0
 40
15.0
 40
16.0
 40
16.0
 40
16.0
 40
16.0
 10
112.8027614735354
 20
-143.544209762291
 30
0.0
 10
112.8027614735354
 20
-143.6225856845805
 30
0.0
 10
112.7858805056577
 20
-143.7240437466211
 30
0.0
 10
112.7224907487291
 20
-143.8256740634359
 30
0.0
 10
112.6122476932011
 20
-143.9991346211183
 30
0.0
 10
112.4813340647616
 20
-144.0203219583526
 30
0.0
 10
112.3735025760733
 20
-144.0392699835215
 30
0.0
 10
112.3735025760733
 20
-144.0392699835215
 30
0.0
 10
112.3735025760733
 20
-143.8172335794971
 30
0.0
 10
112.3735025760733
 20
-143.8172335794971
 30
0.0
 10
112.5722845855722
 20
-143.7621120517331
 30
0.0
 10
112.6019124067454
 20
-143.6351602831016
 30
0.0
 10
112.6019124067454
 20
-143.5421427049999
 30
0.0
 10
112.6019124067454
 20
-143.402444083073
 30
0.0
 10
112.5023491472216
 20
-143.250170862625
 30
0.0
 10
112.2698052019673
 20
-143.250170862625
 30
0.0
 10
112.0138346074132
 20
-143.250170862625
 30
0.0
 10
111.9438991690626
 20
-143.430004846955
 30
0.0
 10
111.9438991690626
 20
-143.5505831889388
 30
0.0
 10
111.9438991690626
 20
-143.5822780674031
 30
0.0
 10
111.9438991690626
 20
-143.7240437466211
 30
0.0
 10
112.0730902497595
 20
-143.8129272101405
 30
0.0
 10
112.0730902497595
 20
-143.8129272101405
 30
0.0
 10
112.0537977150421
 20
-143.988454825114
 30
0.0
 10
112.0537977150421
 20
-143.988454825114
 30
0.0
 10
112.0537977150421
 20
-143.988454825114
 30
0.0
 10
111.2076822638648
 20
-143.8678764831303
 30
0.0
 10
111.2076822638648
 20
-143.8678764831303
 30
0.0
 10
111.2076822638648
 20
-143.8678764831303
 30
0.0
 10
111.2076822638648
 20
-143.089457158238
 30
0.0
 10
111.2076822638648
 20
-143.089457158238
 30
0.0
 10
111.2076822638648
 20
-143.089457158238
 30
0.0
 10
111.4023301587814
 20
-143.089457158238
 30
0.0
 10
111.4023301587814
 20
-143.089457158238
 30
0.0
 10
111.4023301587814
 20
-143.089457158238
 30
0.0
 10
111.4023301587814
 20
-143.7050957214522
 30
0.0
 10
111.4023301587814
 20
-143.7050957214522
 30
0.0
 10
111.4023301587814
 20
-143.7050957214522
 30
0.0
 10
111.82538788437
 20
-143.770552535672
 30
0.0
 10
111.82538788437
 20
-143.770552535672
 30
0.0
 10
111.7916259486146
 20
-143.7092298360345
 30
0.0
 10
111.7513183314372
 20
-143.6267197991628
 30
0.0
 10
111.7513183314372
 20
-143.5083807692444
 30
0.0
 10
111.7513183314372
 20
-143.2544772319815
 30
0.0
 10
111.9376979971892
 20
-143.0174546625964
 30
0.0
 10
112.2505126672499
 20
-143.0174546625964
 30
0.0
 10
112.5681504709899
 20
-143.0174546625964
 30
0.0
 10
112.8027614735354
 20
-143.2417303786861
 30
0.0
 10
112.8027614735354
 20
-143.544209762291
 30
0.0
  0
HATCH
  5
72
330
63
100
AcDbEntity
  8
_U+30EC_U+30A4_U+30E4_U+30FC 1
 62
   179
420
  2234388
100
AcDbHatch
 10
0.0
 20
0.0
 30
0.0
210
0.0
220
0.0
230
1.0
  2
SOLID
 70
     1
 71
     0
 91
        1
 92
        1
 93
        1
 72
     4
 94
        3
 73
     0
 74
     1
 95
       53
 96
       49
 40
0.0
 40
0.0
 40
0.0
 40
0.0
 40
1.0
 40
1.0
 40
1.0
 40
2.0
 40
2.0
 40
2.0
 40
3.0
 40
3.0
 40
3.0
 40
4.0
 40
4.0
 40
4.0
 40
5.0
 40
5.0
 40
5.0
 40
6.0
 40
6.0
 40
6.0
 40
7.0
 40
7.0
 40
7.0
 40
8.0
 40
8.0
 40
8.0
 40
9.0
 40
9.0
 40
9.0
 40
10.0
 40
10.0
 40
10.0
 40
11.0
 40
11.0
 40
11.0
 40
12.0
 40
12.0
 40
12.0
 40
13.0
 40
13.0
 40
13.0
 40
14.0
 40
14.0
 40
14.0
 40
15.0
 40
15.0
 40
15.0
 40
16.0
 40
16.0
 40
16.0
 40
16.0
 10
112.8027614735354
 20
-143.544209762291
 10
112.8027614735354
 20
-143.6225856845805
 10
112.7858805056577
 20
-143.7240437466211
 10
112.7224907487291
 20
-143.8256740634359
 10
112.6122476932011
 20
-143.9991346211183
 10
112.4813340647616
 20
-144.0203219583526
 10
112.3735025760733
 20
-144.0392699835215
 10
112.3735025760733
 20
-144.0392699835215
 10
112.3735025760733
 20
-143.8172335794971
 10
112.3735025760733
 20
-143.8172335794971
 10
112.5722845855722
 20
-143.7621120517331
 10
112.6019124067454
 20
-143.6351602831016
 10
112.6019124067454
 20
-143.5421427049999
 10
112.6019124067454
 20
-143.402444083073
 10
112.5023491472216
 20
-143.250170862625
 10
112.2698052019673
 20
-143.250170862625
 10
112.0138346074132
 20
-143.250170862625
 10
111.9438991690626
 20
-143.430004846955
 10
111.9438991690626
 20
-143.5505831889388
 10
111.9438991690626
 20
-143.5822780674031
 10
111.9438991690626
 20
-143.7240437466211
 10
112.0730902497595
 20
-143.8129272101405
 10
112.0730902497595
 20
-143.8129272101405
 10
112.0537977150421
 20
-143.988454825114
 10
112.0537977150421
 20
-143.988454825114
 10
112.0537977150421
 20
-143.988454825114
 10
111.2076822638648
 20
-143.8678764831303
 10
111.2076822638648
 20
-143.8678764831303
 10
111.2076822638648
 20
-143.8678764831303
 10
111.2076822638648
 20
-143.089457158238
 10
111.2076822638648
 20
-143.089457158238
 10
111.2076822638648
 20
-143.089457158238
 10
111.4023301587814
 20
-143.089457158238
 10
111.4023301587814
 20
-143.089457158238
 10
111.4023301587814
 20
-143.089457158238
 10
111.4023301587814
 20
-143.7050957214522
 10
111.4023301587814
 20
-143.7050957214522
 10
111.4023301587814
 20
-143.7050957214522
 10
111.82538788437
 20
-143.770552535672
 10
111.82538788437
 20
-143.770552535672
 10
111.7916259486146
 20
-143.7092298360345
 10
111.7513183314372
 20
-143.6267197991628
 10
111.7513183314372
 20
-143.5083807692444
 10
111.7513183314372
 20
-143.2544772319815
 10
111.9376979971892
 20
-143.0174546625964
 10
112.2505126672499
 20
-143.0174546625964
 10
112.5681504709899
 20
-143.0174546625964
 10
112.8027614735354
 20
-143.2417303786861
 10
112.8027614735354
 20
-143.544209762291
 97
        0
 97
        0
 75
     2
 76
     1
 98
        0
  0
ENDBLK
  5
66
330
63
100
AcDbEntity
  8
0
100
AcDbBlockEnd
  0
BLOCK
  5
75
330
73
100
AcDbEntity
  8
0
100
AcDbBlockBegin
  2
block 3
 70
     0
 10
0.0
 20
0.0
 30
0.0
  3
block 3
  1

  0
SPLINE
  5
77
330
73
100
AcDbEntity
  8
_U+30EC_U+30A4_U+30E4_U+30FC 1
370
     0
100
AcDbSpline
210
0.0
220
0.0
230
1.0
 70
    11
 71
     3
 72
    62
 73
    58
 74
     0
 42
0.0000000001
 43
0.0000000001
 12
1.0
 22
0.0
 32
0.0
 13
1.0
 23
0.0
 33
0.0
 40
0.0
 40
0.0
 40
0.0
 40
0.0
 40
1.0
 40
1.0
 40
1.0
 40
2.0
 40
2.0
 40
2.0
 40
3.0
 40
3.0
 40
3.0
 40
4.0
 40
4.0
 40
4.0
 40
5.0
 40
5.0
 40
5.0
 40
6.0
 40
6.0
 40
6.0
 40
7.0
 40
7.0
 40
7.0
 40
8.0
 40
8.0
 40
8.0
 40
9.0
 40
9.0
 40
9.0
 40
10.0
 40
10.0
 40
10.0
 40
11.0
 40
11.0
 40
11.0
 40
12.0
 40
12.0
 40
12.0
 40
13.0
 40
13.0
 40
13.0
 40
14.0
 40
14.0
 40
14.0
 40
15.0
 40
15.0
 40
15.0
 40
16.0
 40
16.0
 40
16.0
 40
17.0
 40
17.0
 40
17.0
 40
18.0
 40
18.0
 40
18.0
 40
19.0
 40
19.0
 40
19.0
 40
19.0
 10
115.6838948278499
 20
-150.2096082523782
 30
0.0
 10
115.6838948278499
 20
-150.3050373973196
 30
0.0
 10
115.6625352358413
 20
-150.5231119415359
 30
0.0
 10
115.4765000796378
 20
-150.6478243981019
 30
0.0
 10
115.3641899668187
 20
-150.7215494414863
 30
0.0
 10
115.2649712168435
 20
-150.7260280656171
 30
0.0
 10
115.1802218679063
 20
-150.7301621801994
 30
0.0
 10
115.1802218679063
 20
-150.7301621801994
 30
0.0
 10
115.1802218679063
 20
-150.510020578692
 30
0.0
 10
115.1802218679063
 20
-150.510020578692
 30
0.0
 10
115.2542914208392
 20
-150.5079535214008
 30
0.0
 10
115.4892469329333
 20
-150.497618234945
 30
0.0
 10
115.4892469329333
 20
-150.214086876509
 30
0.0
 10
115.4892469329333
 20
-150.0766275666475
 30
0.0
 10
115.4193114945827
 20
-149.9243543461995
 30
0.0
 10
115.1909016639106
 20
-149.9243543461995
 30
0.0
 10
115.0744574365092
 20
-149.9243543461995
 30
0.0
 10
115.0258815901671
 20
-149.9622503965372
 30
0.0
 10
114.9941867117029
 20
-149.9939452750015
 30
0.0
 10
114.92011715877
 20
-150.0680148279344
 30
0.0
 10
114.9073703054746
 20
-150.1844590553359
 30
0.0
 10
114.9073703054746
 20
-150.2392360735513
 30
0.0
 10
114.9073703054746
 20
-150.2585286082687
 30
0.0
 10
114.9094373627657
 20
-150.2943576013153
 30
0.0
 10
114.913571477348
 20
-150.3219183651973
 30
0.0
 10
114.913571477348
 20
-150.3219183651973
 30
0.0
 10
114.7189235824314
 20
-150.3219183651973
 30
0.0
 10
114.7189235824314
 20
-150.3219183651973
 30
0.0
 10
114.7254692638534
 20
-150.2840223148596
 30
0.0
 10
114.7275363211445
 20
-150.2413031308425
 30
0.0
 10
114.7275363211445
 20
-150.235101958969
 30
0.0
 10
114.7275363211445
 20
-150.1696451447493
 30
0.0
 10
114.7065212386845
 20
-149.9705186257018
 30
0.0
 10
114.4694986692993
 20
-149.9705186257018
 30
0.0
 10
114.2917317422604
 20
-149.9705186257018
 30
0.0
 10
114.2366102144964
 20
-150.1021212732384
 30
0.0
 10
114.2366102144964
 20
-150.2116753096693
 30
0.0
 10
114.2366102144964
 20
-150.4762586429365
 30
0.0
 10
114.4694986692993
 20
-150.4848713816496
 30
0.0
 10
114.541501164941
 20
-150.4890054962319
 30
0.0
 10
114.541501164941
 20
-150.4890054962319
 30
0.0
 10
114.541501164941
 20
-150.6919216203131
 30
0.0
 10
114.541501164941
 20
-150.6919216203131
 30
0.0
 10
114.4164441988265
 20
-150.6836533911485
 30
0.0
 10
114.0398952622886
 20
-150.6560926272665
 30
0.0
 10
114.0398952622886
 20
-150.1992729659224
 30
0.0
 10
114.0398952622886
 20
-149.9749972498327
 30
0.0
 10
114.1670192856944
 20
-149.7338405658652
 30
0.0
 10
114.4629529878773
 20
-149.7338405658652
 30
0.0
 10
114.6493326536293
 20
-149.7338405658652
 30
0.0
 10
114.7316704357268
 20
-149.828925201258
 30
0.0
 10
114.7929931353643
 20
-149.9284884607818
 30
0.0
 10
114.8205538992462
 20
-149.8671657611443
 30
0.0
 10
114.9011691336011
 20
-149.6852647195231
 30
0.0
 10
115.1781548106152
 20
-149.6852647195231
 30
0.0
 10
115.5168076968152
 20
-149.6852647195231
 30
0.0
 10
115.6838948278499
 20
-149.9326225753641
 30
0.0
 10
115.6838948278499
 20
-150.2096082523782
 30
0.0
  0
HATCH
  5
78
330
73
100
AcDbEntity
  8
_U+30EC_U+30A4_U+30E4_U+30FC 1
 62
   179
420
  2234388
100
AcDbHatch
 10
0.0
 20
0.0
 30
0.0
210
0.0
220
0.0
230
1.0
  2
SOLID
 70
     1
 71
     0
 91
        1
 92
        1
 93
        1
 72
     4
 94
        3
 73
     0
 74
     1
 95
       62
 96
       58
 40
0.0
 40
0.0
 40
0.0
 40
0.0
 40
1.0
 40
1.0
 40
1.0
 40
2.0
 40
2.0
 40
2.0
 40
3.0
 40
3.0
 40
3.0
 40
4.0
 40
4.0
 40
4.0
 40
5.0
 40
5.0
 40
5.0
 40
6.0
 40
6.0
 40
6.0
 40
7.0
 40
7.0
 40
7.0
 40
8.0
 40
8.0
 40
8.0
 40
9.0
 40
9.0
 40
9.0
 40
10.0
 40
10.0
 40
10.0
 40
11.0
 40
11.0
 40
11.0
 40
12.0
 40
12.0
 40
12.0
 40
13.0
 40
13.0
 40
13.0
 40
14.0
 40
14.0
 40
14.0
 40
15.0
 40
15.0
 40
15.0
 40
16.0
 40
16.0
 40
16.0
 40
17.0
 40
17.0
 40
17.0
 40
18.0
 40
18.0
 40
18.0
 40
19.0
 40
19.0
 40
19.0
 40
19.0
 10
115.6838948278499
 20
-150.2096082523782
 10
115.6838948278499
 20
-150.3050373973196
 10
115.6625352358413
 20
-150.5231119415359
 10
115.4765000796378
 20
-150.6478243981019
 10
115.3641899668187
 20
-150.7215494414863
 10
115.2649712168435
 20
-150.7260280656171
 10
115.1802218679063
 20
-150.7301621801994
 10
115.1802218679063
 20
-150.7301621801994
 10
115.1802218679063
 20
-150.510020578692
 10
115.1802218679063
 20
-150.510020578692
 10
115.2542914208392
 20
-150.5079535214008
 10
115.4892469329333
 20
-150.497618234945
 10
115.4892469329333
 20
-150.214086876509
 10
115.4892469329333
 20
-150.0766275666475
 10
115.4193114945827
 20
-149.9243543461995
 10
115.1909016639106
 20
-149.9243543461995
 10
115.0744574365092
 20
-149.9243543461995
 10
115.0258815901671
 20
-149.9622503965372
 10
114.9941867117029
 20
-149.9939452750015
 10
114.92011715877
 20
-150.0680148279344
 10
114.9073703054746
 20
-150.1844590553359
 10
114.9073703054746
 20
-150.2392360735513
 10
114.9073703054746
 20
-150.2585286082687
 10
114.9094373627657
 20
-150.2943576013153
 10
114.913571477348
 20
-150.3219183651973
 10
114.913571477348
 20
-150.3219183651973
 10
114.7189235824314
 20
-150.3219183651973
 10
114.7189235824314
 20
-150.3219183651973
 10
114.7254692638534
 20
-150.2840223148596
 10
114.7275363211445
 20
-150.2413031308425
 10
114.7275363211445
 20
-150.235101958969
 10
114.7275363211445
 20
-150.1696451447493
 10
114.7065212386845
 20
-149.9705186257018
 10
114.4694986692993
 20
-149.9705186257018
 10
114.2917317422604
 20
-149.9705186257018
 10
114.2366102144964
 20
-150.1021212732384
 10
114.2366102144964
 20
-150.2116753096693
 10
114.2366102144964
 20
-150.4762586429365
 10
114.4694986692993
 20
-150.4848713816496
 10
114.541501164941
 20
-150.4890054962319
 10
114.541501164941
 20
-150.4890054962319
 10
114.541501164941
 20
-150.6919216203131
 10
114.541501164941
 20
-150.6919216203131
 10
114.4164441988265
 20
-150.6836533911485
 10
114.0398952622886
 20
-150.6560926272665
 10
114.0398952622886
 20
-150.1992729659224
 10
114.0398952622886
 20
-149.9749972498327
 10
114.1670192856944
 20
-149.7338405658652
 10
114.4629529878773
 20
-149.7338405658652
 10
114.6493326536293
 20
-149.7338405658652
 10
114.7316704357268
 20
-149.828925201258
 10
114.7929931353643
 20
-149.9284884607818
 10
114.8205538992462
 20
-149.8671657611443
 10
114.9011691336011
 20
-149.6852647195231
 10
115.1781548106152
 20
-149.6852647195231
 10
115.5168076968152
 20
-149.6852647195231
 10
115.6838948278499
 20
-149.9326225753641
 10
115.6838948278499
 20
-150.2096082523782
 97
        0
 97
        0
 75
     2
 76
     1
 98
        0
  0
POLYLINE
  5
79
330
73
100
AcDbEntity
  8
_U+30EC_U+30A4_U+30E4_U+30FC 1
370
     0
100
AcDb2dPolyline
 66
     1
 10
0.0
 20
0.0
 30
0.0
  0
VERTEX
  5
7A
330
79
100
AcDbEntity
  8
_U+30EC_U+30A4_U+30E4_U+30FC 1
370
     0
100
AcDbVertex
100
AcDb2dVertex
 10
115.6329074146682
 20
-149.4644340989186
 30
0.0
  0
VERTEX
  5
7B
330
79
100
AcDbEntity
  8
_U+30EC_U+30A4_U+30E4_U+30FC 1
370
     0
100
AcDbVertex
100
AcDb2dVertex
 10
115.3814154442449
 20
-149.4644340989186
 30
0.0
  0
VERTEX
  5
7C
330
79
100
AcDbEntity
  8
_U+30EC_U+30A4_U+30E4_U+30FC 1
370
     0
100
AcDbVertex
100
AcDb2dVertex
 10
115.3814154442449
 20
-149.2125976189469
 30
0.0
  0
VERTEX
  5
7D
330
79
100
AcDbEntity
  8
_U+30EC_U+30A4_U+30E4_U+30FC 1
370
     0
100
AcDbVertex
100
AcDb2dVertex
 10
115.6329074146682
 20
-149.2125976189469
 30
0.0
  0
VERTEX
  5
7E
330
79
100
AcDbEntity
  8
_U+30EC_U+30A4_U+30E4_U+30FC 1
370
     0
100
AcDbVertex
100
AcDb2dVertex
 10
115.6329074146682
 20
-149.4644340989186
 30
0.0
  0
SEQEND
  5
7F
330
79
100
AcDbEntity
  8
_U+30EC_U+30A4_U+30E4_U+30FC 1
370
     0
  0
HATCH
  5
80
330
73
100
AcDbEntity
  8
_U+30EC_U+30A4_U+30E4_U+30FC 1
 62
   179
420
  2234388
100
AcDbHatch
 10
0.0
 20
0.0
 30
0.0
210
0.0
220
0.0
230
1.0
  2
SOLID
 70
     1
 71
     0
 91
        1
 92
        1
 93
        4
 72
     1
 10
115.6329074146682
 20
-149.4644340989186
 11
115.3814154442449
 21
-149.4644340989186
 72
     1
 10
115.3814154442449
 20
-149.4644340989186
 11
115.3814154442449
 21
-149.2125976189469
 72
     1
 10
115.3814154442449
 20
-149.2125976189469
 11
115.6329074146682
 21
-149.2125976189469
 72
     1
 10
115.6329074146682
 20
-149.2125976189469
 11
115.6329074146682
 21
-149.4644340989186
 97
        0
 75
     2
 76
     1
 98
        0
  0
SPLINE
  5
81
330
73
100
AcDbEntity
  8
_U+30EC_U+30A4_U+30E4_U+30FC 1
370
     0
100
AcDbSpline
210
0.0
220
0.0
230
1.0
 70
    11
 71
     3
 72
    53
 73
    49
 74
     0
 42
0.0000000001
 43
0.0000000001
 12
1.0
 22
0.0
 32
0.0
 13
1.0
 23
0.0
 33
0.0
 40
0.0
 40
0.0
 40
0.0
 40
0.0
 40
1.0
 40
1.0
 40
1.0
 40
2.0
 40
2.0
 40
2.0
 40
3.0
 40
3.0
 40
3.0
 40
4.0
 40
4.0
 40
4.0
 40
5.0
 40
5.0
 40
5.0
 40
6.0
 40
6.0
 40
6.0
 40
7.0
 40
7.0
 40
7.0
 40
8.0
 40
8.0
 40
8.0
 40
9.0
 40
9.0
 40
9.0
 40
10.0
 40
10.0
 40
10.0
 40
11.0
 40
11.0
 40
11.0
 40
12.0
 40
12.0
 40
12.0
 40
13.0
 40
13.0
 40
13.0
 40
14.0
 40
14.0
 40
14.0
 40
15.0
 40
15.0
 40
15.0
 40
16.0
 40
16.0
 40
16.0
 40
16.0
 10
115.6838948278499
 20
-148.4951564841436
 30
0.0
 10
115.6838948278499
 20
-148.573532406433
 30
0.0
 10
115.6666693504236
 20
-148.6749904684736
 30
0.0
 10
115.603279593495
 20
-148.7766207852885
 30
0.0
 10
115.4933810475156
 20
-148.9500813429708
 30
0.0
 10
115.3621229095275
 20
-148.9714409349794
 30
0.0
 10
115.2542914208392
 20
-148.9900444505997
 30
0.0
 10
115.2542914208392
 20
-148.9900444505997
 30
0.0
 10
115.2542914208392
 20
-148.7681803013496
 30
0.0
 10
115.2542914208392
 20
-148.7681803013496
 30
0.0
 10
115.4530734303381
 20
-148.7130587735856
 30
0.0
 10
115.4827012515113
 20
-148.5861070049542
 30
0.0
 10
115.4827012515113
 20
-148.4930894268524
 30
0.0
 10
115.4827012515113
 20
-148.3533908049255
 30
0.0
 10
115.3834825015361
 20
-148.2011175844775
 30
0.0
 10
115.1505940467332
 20
-148.2011175844775
 30
0.0
 10
114.8946234521791
 20
-148.2011175844775
 30
0.0
 10
114.8250325233771
 20
-148.3809515688075
 30
0.0
 10
114.8250325233771
 20
-148.5015299107913
 30
0.0
 10
114.8250325233771
 20
-148.5332247892556
 30
0.0
 10
114.8250325233771
 20
-148.6749904684736
 30
0.0
 10
114.9538790945254
 20
-148.7638739319931
 30
0.0
 10
114.9538790945254
 20
-148.7638739319931
 30
0.0
 10
114.9349310693566
 20
-148.9394015469665
 30
0.0
 10
114.9349310693566
 20
-148.9394015469665
 30
0.0
 10
114.9349310693566
 20
-148.9394015469665
 30
0.0
 10
114.0888156181792
 20
-148.8188232049828
 30
0.0
 10
114.0888156181792
 20
-148.8188232049828
 30
0.0
 10
114.0888156181792
 20
-148.8188232049828
 30
0.0
 10
114.0888156181792
 20
-148.0404038800906
 30
0.0
 10
114.0888156181792
 20
-148.0404038800906
 30
0.0
 10
114.0888156181792
 20
-148.0404038800906
 30
0.0
 10
114.2834635130958
 20
-148.0404038800906
 30
0.0
 10
114.2834635130958
 20
-148.0404038800906
 30
0.0
 10
114.2834635130958
 20
-148.0404038800906
 30
0.0
 10
114.2834635130958
 20
-148.6560424433048
 30
0.0
 10
114.2834635130958
 20
-148.6560424433048
 30
0.0
 10
114.2834635130958
 20
-148.6560424433048
 30
0.0
 10
114.7065212386845
 20
-148.7214992575245
 30
0.0
 10
114.7065212386845
 20
-148.7214992575245
 30
0.0
 10
114.6724147933805
 20
-148.660176557887
 30
0.0
 10
114.6324516857516
 20
-148.5776665210153
 30
0.0
 10
114.6324516857516
 20
-148.459327491097
 30
0.0
 10
114.6324516857516
 20
-148.2054239538341
 30
0.0
 10
114.8184868419551
 20
-147.9684013844489
 30
0.0
 10
115.1316460215643
 20
-147.9684013844489
 30
0.0
 10
115.4489393157558
 20
-147.9684013844489
 30
0.0
 10
115.6838948278499
 20
-148.1926771005386
 30
0.0
 10
115.6838948278499
 20
-148.4951564841436
 30
0.0
  0
HATCH
  5
82
330
73
100
AcDbEntity
  8
_U+30EC_U+30A4_U+30E4_U+30FC 1
 62
   179
420
  2234388
100
AcDbHatch
 10
0.0
 20
0.0
 30
0.0
210
0.0
220
0.0
230
1.0
  2
SOLID
 70
     1
 71
     0
 91
        1
 92
        1
 93
        1
 72
     4
 94
        3
 73
     0
 74
     1
 95
       53
 96
       49
 40
0.0
 40
0.0
 40
0.0
 40
0.0
 40
1.0
 40
1.0
 40
1.0
 40
2.0
 40
2.0
 40
2.0
 40
3.0
 40
3.0
 40
3.0
 40
4.0
 40
4.0
 40
4.0
 40
5.0
 40
5.0
 40
5.0
 40
6.0
 40
6.0
 40
6.0
 40
7.0
 40
7.0
 40
7.0
 40
8.0
 40
8.0
 40
8.0
 40
9.0
 40
9.0
 40
9.0
 40
10.0
 40
10.0
 40
10.0
 40
11.0
 40
11.0
 40
11.0
 40
12.0
 40
12.0
 40
12.0
 40
13.0
 40
13.0
 40
13.0
 40
14.0
 40
14.0
 40
14.0
 40
15.0
 40
15.0
 40
15.0
 40
16.0
 40
16.0
 40
16.0
 40
16.0
 10
115.6838948278499
 20
-148.4951564841436
 10
115.6838948278499
 20
-148.573532406433
 10
115.6666693504236
 20
-148.6749904684736
 10
115.603279593495
 20
-148.7766207852885
 10
115.4933810475156
 20
-148.9500813429708
 10
115.3621229095275
 20
-148.9714409349794
 10
115.2542914208392
 20
-148.9900444505997
 10
115.2542914208392
 20
-148.9900444505997
 10
115.2542914208392
 20
-148.7681803013496
 10
115.2542914208392
 20
-148.7681803013496
 10
115.4530734303381
 20
-148.7130587735856
 10
115.4827012515113
 20
-148.5861070049542
 10
115.4827012515113
 20
-148.4930894268524
 10
115.4827012515113
 20
-148.3533908049255
 10
115.3834825015361
 20
-148.2011175844775
 10
115.1505940467332
 20
-148.2011175844775
 10
114.8946234521791
 20
-148.2011175844775
 10
114.8250325233771
 20
-148.3809515688075
 10
114.8250325233771
 20
-148.5015299107913
 10
114.8250325233771
 20
-148.5332247892556
 10
114.8250325233771
 20
-148.6749904684736
 10
114.9538790945254
 20
-148.7638739319931
 10
114.9538790945254
 20
-148.7638739319931
 10
114.9349310693566
 20
-148.9394015469665
 10
114.9349310693566
 20
-148.9394015469665
 10
114.9349310693566
 20
-148.9394015469665
 10
114.0888156181792
 20
-148.8188232049828
 10
114.0888156181792
 20
-148.8188232049828
 10
114.0888156181792
 20
-148.8188232049828
 10
114.0888156181792
 20
-148.0404038800906
 10
114.0888156181792
 20
-148.0404038800906
 10
114.0888156181792
 20
-148.0404038800906
 10
114.2834635130958
 20
-148.0404038800906
 10
114.2834635130958
 20
-148.0404038800906
 10
114.2834635130958
 20
-148.0404038800906
 10
114.2834635130958
 20
-148.6560424433048
 10
114.2834635130958
 20
-148.6560424433048
 10
114.2834635130958
 20
-148.6560424433048
 10
114.7065212386845
 20
-148.7214992575245
 10
114.7065212386845
 20
-148.7214992575245
 10
114.6724147933805
 20
-148.660176557887
 10
114.6324516857516
 20
-148.5776665210153
 10
114.6324516857516
 20
-148.459327491097
 10
114.6324516857516
 20
-148.2054239538341
 10
114.8184868419551
 20
-147.9684013844489
 10
115.1316460215643
 20
-147.9684013844489
 10
115.4489393157558
 20
-147.9684013844489
 10
115.6838948278499
 20
-148.1926771005386
 10
115.6838948278499
 20
-148.4951564841436
 97
        0
 97
        0
 75
     2
 76
     1
 98
        0
  0
ENDBLK
  5
76
330
73
100
AcDbEntity
  8
0
100
AcDbBlockEnd
  0
BLOCK
  5
85
330
83
100
AcDbEntity
  8
0
100
AcDbBlockBegin
  2
block 4
 70
     0
 10
0.0
 20
0.0
 30
0.0
  3
block 4
  1

  0
SPLINE
  5
87
330
83
100
AcDbEntity
  8
_U+30EC_U+30A4_U+30E4_U+30FC 1
370
     0
100
AcDbSpline
210
0.0
220
0.0
230
1.0
 70
    11
 71
     3
 72
    26
 73
    22
 74
     0
 42
0.0000000001
 43
0.0000000001
 12
1.0
 22
0.0
 32
0.0
 13
1.0
 23
0.0
 33
0.0
 40
0.0
 40
0.0
 40
0.0
 40
0.0
 40
1.0
 40
1.0
 40
1.0
 40
2.0
 40
2.0
 40
2.0
 40
3.0
 40
3.0
 40
3.0
 40
4.0
 40
4.0
 40
4.0
 40
5.0
 40
5.0
 40
5.0
 40
6.0
 40
6.0
 40
6.0
 40
7.0
 40
7.0
 40
7.0
 40
7.0
 10
112.9870740819963
 20
-153.2151095537101
 30
0.0
 10
112.9870740819963
 20
-153.2151095537101
 30
0.0
 10
111.8825764694252
 20
-153.2151095537101
 30
0.0
 10
111.8825764694252
 20
-153.2151095537101
 30
0.0
 10
111.8825764694252
 20
-153.2151095537101
 30
0.0
 10
111.8825764694252
 20
-153.5451497011971
 30
0.0
 10
111.8825764694252
 20
-153.5451497011971
 30
0.0
 10
111.8825764694252
 20
-153.5451497011971
 30
0.0
 10
111.7344373635595
 20
-153.5451497011971
 30
0.0
 10
111.7344373635595
 20
-153.5451497011971
 30
0.0
 10
111.7199679625214
 20
-153.213042496419
 30
0.0
 10
111.5570149460691
 20
-153.1665337073681
 30
0.0
 10
111.4426377759588
 20
-153.1369058861949
 30
0.0
 10
111.4426377759588
 20
-153.1369058861949
 30
0.0
 10
111.4426377759588
 20
-152.9908338376204
 30
0.0
 10
111.4426377759588
 20
-152.9908338376204
 30
0.0
 10
111.4426377759588
 20
-152.9908338376204
 30
0.0
 10
112.9870740819963
 20
-152.9908338376204
 30
0.0
 10
112.9870740819963
 20
-152.9908338376204
 30
0.0
 10
112.9870740819963
 20
-152.9908338376204
 30
0.0
 10
112.9870740819963
 20
-153.2151095537101
 30
0.0
 10
112.9870740819963
 20
-153.2151095537101
 30
0.0
  0
HATCH
  5
88
330
83
100
AcDbEntity
  8
_U+30EC_U+30A4_U+30E4_U+30FC 1
 62
   179
420
  2234388
100
AcDbHatch
 10
0.0
 20
0.0
 30
0.0
210
0.0
220
0.0
230
1.0
  2
SOLID
 70
     1
 71
     0
 91
        1
 92
        1
 93
        1
 72
     4
 94
        3
 73
     0
 74
     1
 95
       26
 96
       22
 40
0.0
 40
0.0
 40
0.0
 40
0.0
 40
1.0
 40
1.0
 40
1.0
 40
2.0
 40
2.0
 40
2.0
 40
3.0
 40
3.0
 40
3.0
 40
4.0
 40
4.0
 40
4.0
 40
5.0
 40
5.0
 40
5.0
 40
6.0
 40
6.0
 40
6.0
 40
7.0
 40
7.0
 40
7.0
 40
7.0
 10
112.9870740819963
 20
-153.2151095537101
 10
112.9870740819963
 20
-153.2151095537101
 10
111.8825764694252
 20
-153.2151095537101
 10
111.8825764694252
 20
-153.2151095537101
 10
111.8825764694252
 20
-153.2151095537101
 10
111.8825764694252
 20
-153.5451497011971
 10
111.8825764694252
 20
-153.5451497011971
 10
111.8825764694252
 20
-153.5451497011971
 10
111.7344373635595
 20
-153.5451497011971
 10
111.7344373635595
 20
-153.5451497011971
 10
111.7199679625214
 20
-153.213042496419
 10
111.5570149460691
 20
-153.1665337073681
 10
111.4426377759588
 20
-153.1369058861949
 10
111.4426377759588
 20
-153.1369058861949
 10
111.4426377759588
 20
-152.9908338376204
 10
111.4426377759588
 20
-152.9908338376204
 10
111.4426377759588
 20
-152.9908338376204
 10
112.9870740819963
 20
-152.9908338376204
 10
112.9870740819963
 20
-152.9908338376204
 10
112.9870740819963
 20
-152.9908338376204
 10
112.9870740819963
 20
-153.2151095537101
 10
112.9870740819963
 20
-153.2151095537101
 97
        0
 97
        0
 75
     2
 76
     1
 98
        0
  0
ENDBLK
  5
86
330
83
100
AcDbEntity
  8
0
100
AcDbBlockEnd
  0
BLOCK
  5
93
330
91
100
AcDbEntity
  8
0
100
AcDbBlockBegin
  2
block 5
 70
     0
 10
0.0
 20
0.0
 30
0.0
  3
block 5
  1

  0
SPLINE
  5
95
330
91
100
AcDbEntity
  8
_U+30EC_U+30A4_U+30E4_U+30FC 1
370
     0
100
AcDbSpline
210
0.0
220
0.0
230
1.0
 70
    11
 71
     3
 72
    62
 73
    58
 74
     0
 42
0.0000000001
 43
0.0000000001
 12
1.0
 22
0.0
 32
0.0
 13
1.0
 23
0.0
 33
0.0
 40
0.0
 40
0.0
 40
0.0
 40
0.0
 40
1.0
 40
1.0
 40
1.0
 40
2.0
 40
2.0
 40
2.0
 40
3.0
 40
3.0
 40
3.0
 40
4.0
 40
4.0
 40
4.0
 40
5.0
 40
5.0
 40
5.0
 40
6.0
 40
6.0
 40
6.0
 40
7.0
 40
7.0
 40
7.0
 40
8.0
 40
8.0
 40
8.0
 40
9.0
 40
9.0
 40
9.0
 40
10.0
 40
10.0
 40
10.0
 40
11.0
 40
11.0
 40
11.0
 40
12.0
 40
12.0
 40
12.0
 40
13.0
 40
13.0
 40
13.0
 40
14.0
 40
14.0
 40
14.0
 40
15.0
 40
15.0
 40
15.0
 40
16.0
 40
16.0
 40
16.0
 40
17.0
 40
17.0
 40
17.0
 40
18.0
 40
18.0
 40
18.0
 40
19.0
 40
19.0
 40
19.0
 40
19.0
 10
95.83721650164834
 20
-141.9996012014793
 30
0.0
 10
95.74195961148118
 20
-141.9996012014793
 30
0.0
 10
95.52405732203913
 20
-141.978413864245
 30
0.0
 10
95.39934486547308
 20
-141.7922064532672
 30
0.0
 10
95.32527531254021
 20
-141.6800685952223
 30
0.0
 10
95.32096894318366
 20
-141.5806775904729
 30
0.0
 10
95.31683482860136
 20
-141.49610049631
 30
0.0
 10
95.31683482860136
 20
-141.49610049631
 30
0.0
 10
95.53680417533455
 20
-141.49610049631
 30
0.0
 10
95.53680417533455
 20
-141.49610049631
 30
0.0
 10
95.53887123262571
 20
-141.5701700492429
 30
0.0
 10
95.54955102862998
 20
-141.8049533065627
 30
0.0
 10
95.83291013229177
 20
-141.8049533065627
 30
0.0
 10
95.97054169692751
 20
-141.8049533065627
 30
0.0
 10
96.12281491737555
 20
-141.7351901229864
 30
0.0
 10
96.12281491737555
 20
-141.50660803754
 30
0.0
 10
96.12281491737555
 20
-141.3903360649128
 30
0.0
 10
96.08474661226354
 20
-141.3415879637965
 30
0.0
 10
96.05305173379924
 20
-141.3098930853322
 30
0.0
 10
95.97898218086637
 20
-141.2358235323994
 30
0.0
 10
95.86253795346492
 20
-141.2232489338782
 30
0.0
 10
95.80758868047519
 20
-141.2232489338782
 30
0.0
 10
95.78864065530631
 20
-141.2232489338782
 30
0.0
 10
95.75263940748546
 20
-141.2253159911694
 30
0.0
 10
95.72507864360345
 20
-141.2294501057517
 30
0.0
 10
95.72507864360345
 20
-141.2294501057517
 30
0.0
 10
95.72507864360345
 20
-141.0348022108351
 30
0.0
 10
95.72507864360345
 20
-141.0348022108351
 30
0.0
 10
95.76314694871547
 20
-141.0411756374828
 30
0.0
 10
95.80552162318403
 20
-141.0434149495482
 30
0.0
 10
95.81189504983175
 20
-141.0434149495482
 30
0.0
 10
95.8773518640515
 20
-141.0434149495482
 30
0.0
 10
96.07630612832467
 20
-141.0222276123139
 30
0.0
 10
96.07630612832467
 20
-140.7852050429287
 30
0.0
 10
96.07630612832467
 20
-140.6076103706641
 30
0.0
 10
95.94504799033666
 20
-140.5524888429001
 30
0.0
 10
95.83514944435719
 20
-140.5524888429001
 30
0.0
 10
95.57073836586426
 20
-140.5524888429001
 30
0.0
 10
95.56212562715113
 20
-140.7852050429287
 30
0.0
 10
95.55799151256883
 20
-140.8572075385704
 30
0.0
 10
95.55799151256883
 20
-140.8572075385704
 30
0.0
 10
95.35490313371336
 20
-140.8572075385704
 30
0.0
 10
95.35490313371336
 20
-140.8572075385704
 30
0.0
 10
95.36334361765222
 20
-140.7323228272301
 30
0.0
 10
95.39090438153423
 20
-140.3557738906923
 30
0.0
 10
95.84772404287835
 20
-140.3557738906923
 30
0.0
 10
96.07199975896812
 20
-140.3557738906923
 30
0.0
 10
96.31315644293561
 20
-140.4827256593238
 30
0.0
 10
96.31315644293561
 20
-140.778831616281
 30
0.0
 10
96.31315644293561
 20
-140.9650390272587
 30
0.0
 10
96.21807180754271
 20
-141.0475490641305
 30
0.0
 10
96.118508548019
 20
-141.1088717637679
 30
0.0
 10
96.1800035024307
 20
-141.1364325276499
 30
0.0
 10
96.3619045440519
 20
-141.2168755072305
 30
0.0
 10
96.3619045440519
 20
-141.4940334390189
 30
0.0
 10
96.3619045440519
 20
-141.8325140704447
 30
0.0
 10
96.1143744334367
 20
-141.9996012014793
 30
0.0
 10
95.83721650164834
 20
-141.9996012014793
 30
0.0
  0
HATCH
  5
96
330
91
100
AcDbEntity
  8
_U+30EC_U+30A4_U+30E4_U+30FC 1
 62
   179
420
  2234388
100
AcDbHatch
 10
0.0
 20
0.0
 30
0.0
210
0.0
220
0.0
230
1.0
  2
SOLID
 70
     1
 71
     0
 91
        1
 92
        1
 93
        1
 72
     4
 94
        3
 73
     0
 74
     1
 95
       62
 96
       58
 40
0.0
 40
0.0
 40
0.0
 40
0.0
 40
1.0
 40
1.0
 40
1.0
 40
2.0
 40
2.0
 40
2.0
 40
3.0
 40
3.0
 40
3.0
 40
4.0
 40
4.0
 40
4.0
 40
5.0
 40
5.0
 40
5.0
 40
6.0
 40
6.0
 40
6.0
 40
7.0
 40
7.0
 40
7.0
 40
8.0
 40
8.0
 40
8.0
 40
9.0
 40
9.0
 40
9.0
 40
10.0
 40
10.0
 40
10.0
 40
11.0
 40
11.0
 40
11.0
 40
12.0
 40
12.0
 40
12.0
 40
13.0
 40
13.0
 40
13.0
 40
14.0
 40
14.0
 40
14.0
 40
15.0
 40
15.0
 40
15.0
 40
16.0
 40
16.0
 40
16.0
 40
17.0
 40
17.0
 40
17.0
 40
18.0
 40
18.0
 40
18.0
 40
19.0
 40
19.0
 40
19.0
 40
19.0
 10
95.83721650164834
 20
-141.9996012014793
 10
95.74195961148118
 20
-141.9996012014793
 10
95.52405732203913
 20
-141.978413864245
 10
95.39934486547308
 20
-141.7922064532672
 10
95.32527531254021
 20
-141.6800685952223
 10
95.32096894318366
 20
-141.5806775904729
 10
95.31683482860136
 20
-141.49610049631
 10
95.31683482860136
 20
-141.49610049631
 10
95.53680417533455
 20
-141.49610049631
 10
95.53680417533455
 20
-141.49610049631
 10
95.53887123262571
 20
-141.5701700492429
 10
95.54955102862998
 20
-141.8049533065627
 10
95.83291013229177
 20
-141.8049533065627
 10
95.97054169692751
 20
-141.8049533065627
 10
96.12281491737555
 20
-141.7351901229864
 10
96.12281491737555
 20
-141.50660803754
 10
96.12281491737555
 20
-141.3903360649128
 10
96.08474661226354
 20
-141.3415879637965
 10
96.05305173379924
 20
-141.3098930853322
 10
95.97898218086637
 20
-141.2358235323994
 10
95.86253795346492
 20
-141.2232489338782
 10
95.80758868047519
 20
-141.2232489338782
 10
95.78864065530631
 20
-141.2232489338782
 10
95.75263940748546
 20
-141.2253159911694
 10
95.72507864360345
 20
-141.2294501057517
 10
95.72507864360345
 20
-141.2294501057517
 10
95.72507864360345
 20
-141.0348022108351
 10
95.72507864360345
 20
-141.0348022108351
 10
95.76314694871547
 20
-141.0411756374828
 10
95.80552162318403
 20
-141.0434149495482
 10
95.81189504983175
 20
-141.0434149495482
 10
95.8773518640515
 20
-141.0434149495482
 10
96.07630612832467
 20
-141.0222276123139
 10
96.07630612832467
 20
-140.7852050429287
 10
96.07630612832467
 20
-140.6076103706641
 10
95.94504799033666
 20
-140.5524888429001
 10
95.83514944435719
 20
-140.5524888429001
 10
95.57073836586426
 20
-140.5524888429001
 10
95.56212562715113
 20
-140.7852050429287
 10
95.55799151256883
 20
-140.8572075385704
 10
95.55799151256883
 20
-140.8572075385704
 10
95.35490313371336
 20
-140.8572075385704
 10
95.35490313371336
 20
-140.8572075385704
 10
95.36334361765222
 20
-140.7323228272301
 10
95.39090438153423
 20
-140.3557738906923
 10
95.84772404287835
 20
-140.3557738906923
 10
96.07199975896812
 20
-140.3557738906923
 10
96.31315644293561
 20
-140.4827256593238
 10
96.31315644293561
 20
-140.778831616281
 10
96.31315644293561
 20
-140.9650390272587
 10
96.21807180754271
 20
-141.0475490641305
 10
96.118508548019
 20
-141.1088717637679
 10
96.1800035024307
 20
-141.1364325276499
 10
96.3619045440519
 20
-141.2168755072305
 10
96.3619045440519
 20
-141.4940334390189
 10
96.3619045440519
 20
-141.8325140704447
 10
96.1143744334367
 20
-141.9996012014793
 10
95.83721650164834
 20
-141.9996012014793
 97
        0
 97
        0
 75
     2
 76
     1
 98
        0
  0
ENDBLK
  5
94
330
91
100
AcDbEntity
  8
0
100
AcDbBlockEnd
  0
BLOCK
  5
99
330
97
100
AcDbEntity
  8
0
100
AcDbBlockBegin
  2
block 6
 70
     0
 10
0.0
 20
0.0
 30
0.0
  3
block 6
  1

  0
SPLINE
  5
9B
330
97
100
AcDbEntity
  8
_U+30EC_U+30A4_U+30E4_U+30FC 1
370
     0
100
AcDbSpline
210
0.0
220
0.0
230
1.0
 70
    11
 71
     3
 72
    26
 73
    22
 74
     0
 42
0.0000000001
 43
0.0000000001
 12
1.0
 22
0.0
 32
0.0
 13
1.0
 23
0.0
 33
0.0
 40
0.0
 40
0.0
 40
0.0
 40
0.0
 40
1.0
 40
1.0
 40
1.0
 40
2.0
 40
2.0
 40
2.0
 40
3.0
 40
3.0
 40
3.0
 40
4.0
 40
4.0
 40
4.0
 40
5.0
 40
5.0
 40
5.0
 40
6.0
 40
6.0
 40
6.0
 40
7.0
 40
7.0
 40
7.0
 40
7.0
 10
101.2665147316278
 20
-157.2734320353344
 30
0.0
 10
101.2665147316278
 20
-157.2734320353344
 30
0.0
 10
101.2665147316278
 20
-156.1689344227633
 30
0.0
 10
101.2665147316278
 20
-156.1689344227633
 30
0.0
 10
101.2665147316278
 20
-156.1689344227633
 30
0.0
 10
100.9364745841409
 20
-156.1689344227633
 30
0.0
 10
100.9364745841409
 20
-156.1689344227633
 30
0.0
 10
100.9364745841409
 20
-156.1689344227633
 30
0.0
 10
100.9364745841409
 20
-156.0207953168976
 30
0.0
 10
100.9364745841409
 20
-156.0207953168976
 30
0.0
 10
101.268581788919
 20
-156.0063259158595
 30
0.0
 10
101.3150905779698
 20
-155.8433728994072
 30
0.0
 10
101.344718399143
 20
-155.7289957292969
 30
0.0
 10
101.344718399143
 20
-155.7289957292969
 30
0.0
 10
101.4907904477176
 20
-155.7289957292969
 30
0.0
 10
101.4907904477176
 20
-155.7289957292969
 30
0.0
 10
101.4907904477176
 20
-155.7289957292969
 30
0.0
 10
101.4907904477176
 20
-157.2734320353344
 30
0.0
 10
101.4907904477176
 20
-157.2734320353344
 30
0.0
 10
101.4907904477176
 20
-157.2734320353344
 30
0.0
 10
101.2665147316278
 20
-157.2734320353344
 30
0.0
 10
101.2665147316278
 20
-157.2734320353344
 30
0.0
  0
HATCH
  5
9C
330
97
100
AcDbEntity
  8
_U+30EC_U+30A4_U+30E4_U+30FC 1
 62
   179
420
  2234388
100
AcDbHatch
 10
0.0
 20
0.0
 30
0.0
210
0.0
220
0.0
230
1.0
  2
SOLID
 70
     1
 71
     0
 91
        1
 92
        1
 93
        1
 72
     4
 94
        3
 73
     0
 74
     1
 95
       26
 96
       22
 40
0.0
 40
0.0
 40
0.0
 40
0.0
 40
1.0
 40
1.0
 40
1.0
 40
2.0
 40
2.0
 40
2.0
 40
3.0
 40
3.0
 40
3.0
 40
4.0
 40
4.0
 40
4.0
 40
5.0
 40
5.0
 40
5.0
 40
6.0
 40
6.0
 40
6.0
 40
7.0
 40
7.0
 40
7.0
 40
7.0
 10
101.2665147316278
 20
-157.2734320353344
 10
101.2665147316278
 20
-157.2734320353344
 10
101.2665147316278
 20
-156.1689344227633
 10
101.2665147316278
 20
-156.1689344227633
 10
101.2665147316278
 20
-156.1689344227633
 10
100.9364745841409
 20
-156.1689344227633
 10
100.9364745841409
 20
-156.1689344227633
 10
100.9364745841409
 20
-156.1689344227633
 10
100.9364745841409
 20
-156.0207953168976
 10
100.9364745841409
 20
-156.0207953168976
 10
101.268581788919
 20
-156.0063259158595
 10
101.3150905779698
 20
-155.8433728994072
 10
101.344718399143
 20
-155.7289957292969
 10
101.344718399143
 20
-155.7289957292969
 10
101.4907904477176
 20
-155.7289957292969
 10
101.4907904477176
 20
-155.7289957292969
 10
101.4907904477176
 20
-155.7289957292969
 10
101.4907904477176
 20
-157.2734320353344
 10
101.4907904477176
 20
-157.2734320353344
 10
101.4907904477176
 20
-157.2734320353344
 10
101.2665147316278
 20
-157.2734320353344
 10
101.2665147316278
 20
-157.2734320353344
 97
        0
 97
        0
 75
     2
 76
     1
 98
        0
  0
SPLINE
  5
9D
330
97
100
AcDbEntity
  8
_U+30EC_U+30A4_U+30E4_U+30FC 1
370
     0
100
AcDbSpline
210
0.0
220
0.0
230
1.0
 70
    11
 71
     3
 72
    53
 73
    49
 74
     0
 42
0.0000000001
 43
0.0000000001
 12
1.0
 22
0.0
 32
0.0
 13
1.0
 23
0.0
 33
0.0
 40
0.0
 40
0.0
 40
0.0
 40
0.0
 40
1.0
 40
1.0
 40
1.0
 40
2.0
 40
2.0
 40
2.0
 40
3.0
 40
3.0
 40
3.0
 40
4.0
 40
4.0
 40
4.0
 40
5.0
 40
5.0
 40
5.0
 40
6.0
 40
6.0
 40
6.0
 40
7.0
 40
7.0
 40
7.0
 40
8.0
 40
8.0
 40
8.0
 40
9.0
 40
9.0
 40
9.0
 40
10.0
 40
10.0
 40
10.0
 40
11.0
 40
11.0
 40
11.0
 40
12.0
 40
12.0
 40
12.0
 40
13.0
 40
13.0
 40
13.0
 40
14.0
 40
14.0
 40
14.0
 40
15.0
 40
15.0
 40
15.0
 40
16.0
 40
16.0
 40
16.0
 40
16.0
 10
102.4729871705623
 20
-157.3240749389676
 30
0.0
 10
102.3946112482729
 20
-157.3240749389676
 30
0.0
 10
102.2931531862323
 20
-157.3071939710899
 30
0.0
 10
102.1915228694174
 20
-157.2438042141613
 30
0.0
 10
102.0180623117351
 20
-157.1335611586333
 30
0.0
 10
101.9968749745008
 20
-157.0026475301938
 30
0.0
 10
101.9779269493319
 20
-156.8948160415055
 30
0.0
 10
101.9779269493319
 20
-156.8948160415055
 30
0.0
 10
102.1999633533563
 20
-156.8948160415055
 30
0.0
 10
102.1999633533563
 20
-156.8948160415055
 30
0.0
 10
102.2550848811203
 20
-157.0935980510044
 30
0.0
 10
102.3820366497517
 20
-157.1232258721775
 30
0.0
 10
102.4750542278535
 20
-157.1232258721775
 30
0.0
 10
102.6145805950061
 20
-157.1232258721775
 30
0.0
 10
102.7670260702284
 20
-157.0236626126538
 30
0.0
 10
102.7670260702284
 20
-156.7911186673994
 30
0.0
 10
102.7670260702284
 20
-156.5351480728454
 30
0.0
 10
102.5871920858984
 20
-156.4652126344948
 30
0.0
 10
102.4666137439146
 20
-156.4652126344948
 30
0.0
 10
102.4349188654503
 20
-156.4652126344948
 30
0.0
 10
102.2931531862323
 20
-156.4652126344948
 30
0.0
 10
102.2042697227128
 20
-156.5944037151917
 30
0.0
 10
102.2042697227128
 20
-156.5944037151917
 30
0.0
 10
102.0287421077393
 20
-156.5751111804743
 30
0.0
 10
102.0287421077393
 20
-156.5751111804743
 30
0.0
 10
102.0287421077393
 20
-156.5751111804743
 30
0.0
 10
102.1493204497231
 20
-155.7289957292969
 30
0.0
 10
102.1493204497231
 20
-155.7289957292969
 30
0.0
 10
102.1493204497231
 20
-155.7289957292969
 30
0.0
 10
102.9277397746153
 20
-155.7289957292969
 30
0.0
 10
102.9277397746153
 20
-155.7289957292969
 30
0.0
 10
102.9277397746153
 20
-155.7289957292969
 30
0.0
 10
102.9277397746153
 20
-155.9236436242136
 30
0.0
 10
102.9277397746153
 20
-155.9236436242136
 30
0.0
 10
102.9277397746153
 20
-155.9236436242136
 30
0.0
 10
102.3121012114011
 20
-155.9236436242136
 30
0.0
 10
102.3121012114011
 20
-155.9236436242136
 30
0.0
 10
102.3121012114011
 20
-155.9236436242136
 30
0.0
 10
102.2466443971814
 20
-156.3467013498022
 30
0.0
 10
102.2466443971814
 20
-156.3467013498022
 30
0.0
 10
102.3079670968188
 20
-156.3129394140468
 30
0.0
 10
102.3904771336906
 20
-156.2726317968693
 30
0.0
 10
102.5088161636089
 20
-156.2726317968693
 30
0.0
 10
102.7627197008718
 20
-156.2726317968693
 30
0.0
 10
102.999742270257
 20
-156.4590114626214
 30
0.0
 10
102.999742270257
 20
-156.771826132682
 30
0.0
 10
102.999742270257
 20
-157.0894639364221
 30
0.0
 10
102.7754665541673
 20
-157.3240749389676
 30
0.0
 10
102.4729871705623
 20
-157.3240749389676
 30
0.0
  0
HATCH
  5
9E
330
97
100
AcDbEntity
  8
_U+30EC_U+30A4_U+30E4_U+30FC 1
 62
   179
420
  2234388
100
AcDbHatch
 10
0.0
 20
0.0
 30
0.0
210
0.0
220
0.0
230
1.0
  2
SOLID
 70
     1
 71
     0
 91
        1
 92
        1
 93
        1
 72
     4
 94
        3
 73
     0
 74
     1
 95
       53
 96
       49
 40
0.0
 40
0.0
 40
0.0
 40
0.0
 40
1.0
 40
1.0
 40
1.0
 40
2.0
 40
2.0
 40
2.0
 40
3.0
 40
3.0
 40
3.0
 40
4.0
 40
4.0
 40
4.0
 40
5.0
 40
5.0
 40
5.0
 40
6.0
 40
6.0
 40
6.0
 40
7.0
 40
7.0
 40
7.0
 40
8.0
 40
8.0
 40
8.0
 40
9.0
 40
9.0
 40
9.0
 40
10.0
 40
10.0
 40
10.0
 40
11.0
 40
11.0
 40
11.0
 40
12.0
 40
12.0
 40
12.0
 40
13.0
 40
13.0
 40
13.0
 40
14.0
 40
14.0
 40
14.0
 40
15.0
 40
15.0
 40
15.0
 40
16.0
 40
16.0
 40
16.0
 40
16.0
 10
102.4729871705623
 20
-157.3240749389676
 10
102.3946112482729
 20
-157.3240749389676
 10
102.2931531862323
 20
-157.3071939710899
 10
102.1915228694174
 20
-157.2438042141613
 10
102.0180623117351
 20
-157.1335611586333
 10
101.9968749745008
 20
-157.0026475301938
 10
101.9779269493319
 20
-156.8948160415055
 10
101.9779269493319
 20
-156.8948160415055
 10
102.1999633533563
 20
-156.8948160415055
 10
102.1999633533563
 20
-156.8948160415055
 10
102.2550848811203
 20
-157.0935980510044
 10
102.3820366497517
 20
-157.1232258721775
 10
102.4750542278535
 20
-157.1232258721775
 10
102.6145805950061
 20
-157.1232258721775
 10
102.7670260702284
 20
-157.0236626126538
 10
102.7670260702284
 20
-156.7911186673994
 10
102.7670260702284
 20
-156.5351480728454
 10
102.5871920858984
 20
-156.4652126344948
 10
102.4666137439146
 20
-156.4652126344948
 10
102.4349188654503
 20
-156.4652126344948
 10
102.2931531862323
 20
-156.4652126344948
 10
102.2042697227128
 20
-156.5944037151917
 10
102.2042697227128
 20
-156.5944037151917
 10
102.0287421077393
 20
-156.5751111804743
 10
102.0287421077393
 20
-156.5751111804743
 10
102.0287421077393
 20
-156.5751111804743
 10
102.1493204497231
 20
-155.7289957292969
 10
102.1493204497231
 20
-155.7289957292969
 10
102.1493204497231
 20
-155.7289957292969
 10
102.9277397746153
 20
-155.7289957292969
 10
102.9277397746153
 20
-155.7289957292969
 10
102.9277397746153
 20
-155.7289957292969
 10
102.9277397746153
 20
-155.9236436242136
 10
102.9277397746153
 20
-155.9236436242136
 10
102.9277397746153
 20
-155.9236436242136
 10
102.3121012114011
 20
-155.9236436242136
 10
102.3121012114011
 20
-155.9236436242136
 10
102.3121012114011
 20
-155.9236436242136
 10
102.2466443971814
 20
-156.3467013498022
 10
102.2466443971814
 20
-156.3467013498022
 10
102.3079670968188
 20
-156.3129394140468
 10
102.3904771336906
 20
-156.2726317968693
 10
102.5088161636089
 20
-156.2726317968693
 10
102.7627197008718
 20
-156.2726317968693
 10
102.999742270257
 20
-156.4590114626214
 10
102.999742270257
 20
-156.771826132682
 10
102.999742270257
 20
-157.0894639364221
 10
102.7754665541673
 20
-157.3240749389676
 10
102.4729871705623
 20
-157.3240749389676
 97
        0
 97
        0
 75
     2
 76
     1
 98
        0
  0
ENDBLK
  5
9A
330
97
100
AcDbEntity
  8
0
100
AcDbBlockEnd
  0
BLOCK
  5
B6
330
B4
100
AcDbEntity
  8
0
100
AcDbBlockBegin
  2
block 7
 70
     0
 10
0.0
 20
0.0
 30
0.0
  3
block 7
  1

  0
SPLINE
  5
B8
330
B4
100
AcDbEntity
  8
_U+30EC_U+30A4_U+30E4_U+30FC 1
370
     0
100
AcDbSpline
210
0.0
220
0.0
230
1.0
 70
    11
 71
     3
 72
    26
 73
    22
 74
     0
 42
0.0000000001
 43
0.0000000001
 12
1.0
 22
0.0
 32
0.0
 13
1.0
 23
0.0
 33
0.0
 40
0.0
 40
0.0
 40
0.0
 40
0.0
 40
1.0
 40
1.0
 40
1.0
 40
2.0
 40
2.0
 40
2.0
 40
3.0
 40
3.0
 40
3.0
 40
4.0
 40
4.0
 40
4.0
 40
5.0
 40
5.0
 40
5.0
 40
6.0
 40
6.0
 40
6.0
 40
7.0
 40
7.0
 40
7.0
 40
7.0
 10
100.4148871276741
 20
-144.7541272967108
 30
0.0
 10
100.4148871276741
 20
-144.7541272967108
 30
0.0
 10
100.4148871276741
 20
-143.649801938914
 30
0.0
 10
100.4148871276741
 20
-143.649801938914
 30
0.0
 10
100.4148871276741
 20
-143.649801938914
 30
0.0
 10
100.0848469801871
 20
-143.649801938914
 30
0.0
 10
100.0848469801871
 20
-143.649801938914
 30
0.0
 10
100.0848469801871
 20
-143.649801938914
 30
0.0
 10
100.0848469801871
 20
-143.5018350878225
 30
0.0
 10
100.0848469801871
 20
-143.5018350878225
 30
0.0
 10
100.4169541849652
 20
-143.4870211772359
 30
0.0
 10
100.4634629740161
 20
-143.3240681607836
 30
0.0
 10
100.4930907951892
 20
-143.2098632454475
 30
0.0
 10
100.4930907951892
 20
-143.2098632454475
 30
0.0
 10
100.6391628437638
 20
-143.2098632454475
 30
0.0
 10
100.6391628437638
 20
-143.2098632454475
 30
0.0
 10
100.6391628437638
 20
-143.2098632454475
 30
0.0
 10
100.6391628437638
 20
-144.7541272967108
 30
0.0
 10
100.6391628437638
 20
-144.7541272967108
 30
0.0
 10
100.6391628437638
 20
-144.7541272967108
 30
0.0
 10
100.4148871276741
 20
-144.7541272967108
 30
0.0
 10
100.4148871276741
 20
-144.7541272967108
 30
0.0
  0
HATCH
  5
B9
330
B4
100
AcDbEntity
  8
_U+30EC_U+30A4_U+30E4_U+30FC 1
 62
   179
420
  2234388
100
AcDbHatch
 10
0.0
 20
0.0
 30
0.0
210
0.0
220
0.0
230
1.0
  2
SOLID
 70
     1
 71
     0
 91
        1
 92
        1
 93
        1
 72
     4
 94
        3
 73
     0
 74
     1
 95
       26
 96
       22
 40
0.0
 40
0.0
 40
0.0
 40
0.0
 40
1.0
 40
1.0
 40
1.0
 40
2.0
 40
2.0
 40
2.0
 40
3.0
 40
3.0
 40
3.0
 40
4.0
 40
4.0
 40
4.0
 40
5.0
 40
5.0
 40
5.0
 40
6.0
 40
6.0
 40
6.0
 40
7.0
 40
7.0
 40
7.0
 40
7.0
 10
100.4148871276741
 20
-144.7541272967108
 10
100.4148871276741
 20
-144.7541272967108
 10
100.4148871276741
 20
-143.649801938914
 10
100.4148871276741
 20
-143.649801938914
 10
100.4148871276741
 20
-143.649801938914
 10
100.0848469801871
 20
-143.649801938914
 10
100.0848469801871
 20
-143.649801938914
 10
100.0848469801871
 20
-143.649801938914
 10
100.0848469801871
 20
-143.5018350878225
 10
100.0848469801871
 20
-143.5018350878225
 10
100.4169541849652
 20
-143.4870211772359
 10
100.4634629740161
 20
-143.3240681607836
 10
100.4930907951892
 20
-143.2098632454475
 10
100.4930907951892
 20
-143.2098632454475
 10
100.6391628437638
 20
-143.2098632454475
 10
100.6391628437638
 20
-143.2098632454475
 10
100.6391628437638
 20
-143.2098632454475
 10
100.6391628437638
 20
-144.7541272967108
 10
100.6391628437638
 20
-144.7541272967108
 10
100.6391628437638
 20
-144.7541272967108
 10
100.4148871276741
 20
-144.7541272967108
 10
100.4148871276741
 20
-144.7541272967108
 97
        0
 97
        0
 75
     2
 76
     1
 98
        0
  0
POLYLINE
  5
BA
330
B4
100
AcDbEntity
  8
_U+30EC_U+30A4_U+30E4_U+30FC 1
370
     0
100
AcDb2dPolyline
 66
     1
 10
0.0
 20
0.0
 30
0.0
  0
VERTEX
  5
BB
330
BA
100
AcDbEntity
  8
_U+30EC_U+30A4_U+30E4_U+30FC 1
370
     0
100
AcDbVertex
100
AcDb2dVertex
 10
101.200368898311
 20
-144.7541272967108
 30
0.0
  0
VERTEX
  5
BC
330
BA
100
AcDbEntity
  8
_U+30EC_U+30A4_U+30E4_U+30FC 1
370
     0
100
AcDbVertex
100
AcDb2dVertex
 10
101.200368898311
 20
-144.5024630715133
 30
0.0
  0
VERTEX
  5
BD
330
BA
100
AcDbEntity
  8
_U+30EC_U+30A4_U+30E4_U+30FC 1
370
     0
100
AcDbVertex
100
AcDb2dVertex
 10
101.4520331235085
 20
-144.5024630715133
 30
0.0
  0
VERTEX
  5
BE
330
BA
100
AcDbEntity
  8
_U+30EC_U+30A4_U+30E4_U+30FC 1
370
     0
100
AcDbVertex
100
AcDb2dVertex
 10
101.4520331235085
 20
-144.7541272967108
 30
0.0
  0
VERTEX
  5
BF
330
BA
100
AcDbEntity
  8
_U+30EC_U+30A4_U+30E4_U+30FC 1
370
     0
100
AcDbVertex
100
AcDb2dVertex
 10
101.200368898311
 20
-144.7541272967108
 30
0.0
  0
SEQEND
  5
C0
330
BA
100
AcDbEntity
  8
_U+30EC_U+30A4_U+30E4_U+30FC 1
370
     0
  0
HATCH
  5
C1
330
B4
100
AcDbEntity
  8
_U+30EC_U+30A4_U+30E4_U+30FC 1
 62
   179
420
  2234388
100
AcDbHatch
 10
0.0
 20
0.0
 30
0.0
210
0.0
220
0.0
230
1.0
  2
SOLID
 70
     1
 71
     0
 91
        1
 92
        1
 93
        4
 72
     1
 10
101.200368898311
 20
-144.7541272967108
 11
101.200368898311
 21
-144.5024630715133
 72
     1
 10
101.200368898311
 20
-144.5024630715133
 11
101.4520331235085
 21
-144.5024630715133
 72
     1
 10
101.4520331235085
 20
-144.5024630715133
 11
101.4520331235085
 21
-144.7541272967108
 72
     1
 10
101.4520331235085
 20
-144.7541272967108
 11
101.200368898311
 21
-144.7541272967108
 97
        0
 75
     2
 76
     1
 98
        0
  0
SPLINE
  5
C2
330
B4
100
AcDbEntity
  8
_U+30EC_U+30A4_U+30E4_U+30FC 1
370
     0
100
AcDbSpline
210
0.0
220
0.0
230
1.0
 70
    11
 71
     3
 72
    53
 73
    49
 74
     0
 42
0.0000000001
 43
0.0000000001
 12
1.0
 22
0.0
 32
0.0
 13
1.0
 23
0.0
 33
0.0
 40
0.0
 40
0.0
 40
0.0
 40
0.0
 40
1.0
 40
1.0
 40
1.0
 40
2.0
 40
2.0
 40
2.0
 40
3.0
 40
3.0
 40
3.0
 40
4.0
 40
4.0
 40
4.0
 40
5.0
 40
5.0
 40
5.0
 40
6.0
 40
6.0
 40
6.0
 40
7.0
 40
7.0
 40
7.0
 40
8.0
 40
8.0
 40
8.0
 40
9.0
 40
9.0
 40
9.0
 40
10.0
 40
10.0
 40
10.0
 40
11.0
 40
11.0
 40
11.0
 40
12.0
 40
12.0
 40
12.0
 40
13.0
 40
13.0
 40
13.0
 40
14.0
 40
14.0
 40
14.0
 40
15.0
 40
15.0
 40
15.0
 40
16.0
 40
16.0
 40
16.0
 40
16.0
 10
102.1696465130861
 20
-144.8049424551182
 30
0.0
 10
102.0912705907966
 20
-144.8049424551182
 30
0.0
 10
101.989812528756
 20
-144.7878892324662
 30
0.0
 10
101.8881822119412
 20
-144.7244994755376
 30
0.0
 10
101.7147216542588
 20
-144.6144286747839
 30
0.0
 10
101.6935343170245
 20
-144.4833427915702
 30
0.0
 10
101.6745862918557
 20
-144.3755113028818
 30
0.0
 10
101.6745862918557
 20
-144.3755113028818
 30
0.0
 10
101.89662269588
 20
-144.3755113028818
 30
0.0
 10
101.89662269588
 20
-144.3755113028818
 30
0.0
 10
101.951744223644
 20
-144.5742933123807
 30
0.0
 10
102.0786959922755
 20
-144.6039211335539
 30
0.0
 10
102.1717135703772
 20
-144.6039211335539
 30
0.0
 10
102.3114121923041
 20
-144.6039211335539
 30
0.0
 10
102.4636854127521
 20
-144.5045301288044
 30
0.0
 10
102.4636854127521
 20
-144.2718139287758
 30
0.0
 10
102.4636854127521
 20
-144.0158433342217
 30
0.0
 10
102.2838514284221
 20
-143.9460801506454
 30
0.0
 10
102.1632730864384
 20
-143.9460801506454
 30
0.0
 10
102.1315782079741
 20
-143.9460801506454
 30
0.0
 10
101.989812528756
 20
-143.9460801506454
 30
0.0
 10
101.9009290652366
 20
-144.075098976568
 30
0.0
 10
101.9009290652366
 20
-144.075098976568
 30
0.0
 10
101.7254014502631
 20
-144.0559786966249
 30
0.0
 10
101.7254014502631
 20
-144.0559786966249
 30
0.0
 10
101.7254014502631
 20
-144.0559786966249
 30
0.0
 10
101.8459797922468
 20
-143.2098632454475
 30
0.0
 10
101.8459797922468
 20
-143.2098632454475
 30
0.0
 10
101.8459797922468
 20
-143.2098632454475
 30
0.0
 10
102.624399117139
 20
-143.2098632454475
 30
0.0
 10
102.624399117139
 20
-143.2098632454475
 30
0.0
 10
102.624399117139
 20
-143.2098632454475
 30
0.0
 10
102.624399117139
 20
-143.4045111403641
 30
0.0
 10
102.624399117139
 20
-143.4045111403641
 30
0.0
 10
102.624399117139
 20
-143.4045111403641
 30
0.0
 10
102.0087605539249
 20
-143.4045111403641
 30
0.0
 10
102.0087605539249
 20
-143.4045111403641
 30
0.0
 10
102.0087605539249
 20
-143.4045111403641
 30
0.0
 10
101.9433037397052
 20
-143.8275688659528
 30
0.0
 10
101.9433037397052
 20
-143.8275688659528
 30
0.0
 10
102.0046264393426
 20
-143.7936346754231
 30
0.0
 10
102.0871364762143
 20
-143.75349931302
 30
0.0
 10
102.2054755061327
 20
-143.75349931302
 30
0.0
 10
102.4593790433956
 20
-143.75349931302
 30
0.0
 10
102.6964016127808
 20
-143.9397067239977
 30
0.0
 10
102.6964016127808
 20
-144.2526936488327
 30
0.0
 10
102.6964016127808
 20
-144.5701591977984
 30
0.0
 10
102.472125896691
 20
-144.8049424551182
 30
0.0
 10
102.1696465130861
 20
-144.8049424551182
 30
0.0
  0
HATCH
  5
C3
330
B4
100
AcDbEntity
  8
_U+30EC_U+30A4_U+30E4_U+30FC 1
 62
   179
420
  2234388
100
AcDbHatch
 10
0.0
 20
0.0
 30
0.0
210
0.0
220
0.0
230
1.0
  2
SOLID
 70
     1
 71
     0
 91
        1
 92
        1
 93
        1
 72
     4
 94
        3
 73
     0
 74
     1
 95
       53
 96
       49
 40
0.0
 40
0.0
 40
0.0
 40
0.0
 40
1.0
 40
1.0
 40
1.0
 40
2.0
 40
2.0
 40
2.0
 40
3.0
 40
3.0
 40
3.0
 40
4.0
 40
4.0
 40
4.0
 40
5.0
 40
5.0
 40
5.0
 40
6.0
 40
6.0
 40
6.0
 40
7.0
 40
7.0
 40
7.0
 40
8.0
 40
8.0
 40
8.0
 40
9.0
 40
9.0
 40
9.0
 40
10.0
 40
10.0
 40
10.0
 40
11.0
 40
11.0
 40
11.0
 40
12.0
 40
12.0
 40
12.0
 40
13.0
 40
13.0
 40
13.0
 40
14.0
 40
14.0
 40
14.0
 40
15.0
 40
15.0
 40
15.0
 40
16.0
 40
16.0
 40
16.0
 40
16.0
 10
102.1696465130861
 20
-144.8049424551182
 10
102.0912705907966
 20
-144.8049424551182
 10
101.989812528756
 20
-144.7878892324662
 10
101.8881822119412
 20
-144.7244994755376
 10
101.7147216542588
 20
-144.6144286747839
 10
101.6935343170245
 20
-144.4833427915702
 10
101.6745862918557
 20
-144.3755113028818
 10
101.6745862918557
 20
-144.3755113028818
 10
101.89662269588
 20
-144.3755113028818
 10
101.89662269588
 20
-144.3755113028818
 10
101.951744223644
 20
-144.5742933123807
 10
102.0786959922755
 20
-144.6039211335539
 10
102.1717135703772
 20
-144.6039211335539
 10
102.3114121923041
 20
-144.6039211335539
 10
102.4636854127521
 20
-144.5045301288044
 10
102.4636854127521
 20
-144.2718139287758
 10
102.4636854127521
 20
-144.0158433342217
 10
102.2838514284221
 20
-143.9460801506454
 10
102.1632730864384
 20
-143.9460801506454
 10
102.1315782079741
 20
-143.9460801506454
 10
101.989812528756
 20
-143.9460801506454
 10
101.9009290652366
 20
-144.075098976568
 10
101.9009290652366
 20
-144.075098976568
 10
101.7254014502631
 20
-144.0559786966249
 10
101.7254014502631
 20
-144.0559786966249
 10
101.7254014502631
 20
-144.0559786966249
 10
101.8459797922468
 20
-143.2098632454475
 10
101.8459797922468
 20
-143.2098632454475
 10
101.8459797922468
 20
-143.2098632454475
 10
102.624399117139
 20
-143.2098632454475
 10
102.624399117139
 20
-143.2098632454475
 10
102.624399117139
 20
-143.2098632454475
 10
102.624399117139
 20
-143.4045111403641
 10
102.624399117139
 20
-143.4045111403641
 10
102.624399117139
 20
-143.4045111403641
 10
102.0087605539249
 20
-143.4045111403641
 10
102.0087605539249
 20
-143.4045111403641
 10
102.0087605539249
 20
-143.4045111403641
 10
101.9433037397052
 20
-143.8275688659528
 10
101.9433037397052
 20
-143.8275688659528
 10
102.0046264393426
 20
-143.7936346754231
 10
102.0871364762143
 20
-143.75349931302
 10
102.2054755061327
 20
-143.75349931302
 10
102.4593790433956
 20
-143.75349931302
 10
102.6964016127808
 20
-143.9397067239977
 10
102.6964016127808
 20
-144.2526936488327
 10
102.6964016127808
 20
-144.5701591977984
 10
102.472125896691
 20
-144.8049424551182
 10
102.1696465130861
 20
-144.8049424551182
 97
        0
 97
        0
 75
     2
 76
     1
 98
        0
  0
SPLINE
  5
C4
330
B4
100
AcDbEntity
  8
_U+30EC_U+30A4_U+30E4_U+30FC 1
370
     0
100
AcDbSpline
210
0.0
220
0.0
230
1.0
 70
    11
 71
     3
 72
    44
 73
    40
 74
     0
 42
0.0000000001
 43
0.0000000001
 12
1.0
 22
0.0
 32
0.0
 13
1.0
 23
0.0
 33
0.0
 40
0.0
 40
0.0
 40
0.0
 40
0.0
 40
1.0
 40
1.0
 40
1.0
 40
2.0
 40
2.0
 40
2.0
 40
3.0
 40
3.0
 40
3.0
 40
4.0
 40
4.0
 40
4.0
 40
5.0
 40
5.0
 40
5.0
 40
6.0
 40
6.0
 40
6.0
 40
7.0
 40
7.0
 40
7.0
 40
8.0
 40
8.0
 40
8.0
 40
9.0
 40
9.0
 40
9.0
 40
10.0
 40
10.0
 40
10.0
 40
11.0
 40
11.0
 40
11.0
 40
12.0
 40
12.0
 40
12.0
 40
13.0
 40
13.0
 40
13.0
 40
13.0
 10
103.8796196571898
 20
-144.7541272967108
 30
0.0
 10
103.8561930078901
 20
-144.7096855649511
 30
0.0
 10
103.8351779254301
 20
-144.6568033492525
 30
0.0
 10
103.8329386133647
 20
-144.426154206515
 30
0.0
 10
103.8288044987824
 20
-144.1829304652564
 30
0.0
 10
103.7695488564361
 20
-144.11316728168
 30
0.0
 10
103.5917819293972
 20
-144.11316728168
 30
0.0
 10
103.5917819293972
 20
-144.11316728168
 30
0.0
 10
103.1835381143951
 20
-144.11316728168
 30
0.0
 10
103.1835381143951
 20
-144.11316728168
 30
0.0
 10
103.1835381143951
 20
-144.11316728168
 30
0.0
 10
103.1835381143951
 20
-144.7541272967108
 30
0.0
 10
103.1835381143951
 20
-144.7541272967108
 30
0.0
 10
103.1835381143951
 20
-144.7541272967108
 30
0.0
 10
102.9487548570753
 20
-144.7541272967108
 30
0.0
 10
102.9487548570753
 20
-144.7541272967108
 30
0.0
 10
102.9487548570753
 20
-144.7541272967108
 30
0.0
 10
102.9487548570753
 20
-143.2098632454475
 30
0.0
 10
102.9487548570753
 20
-143.2098632454475
 30
0.0
 10
102.9487548570753
 20
-143.2098632454475
 30
0.0
 10
103.6236490626358
 20
-143.2098632454475
 30
0.0
 10
103.6236490626358
 20
-143.2098632454475
 30
0.0
 10
103.930262560823
 20
-143.2098632454475
 30
0.0
 10
104.0973496918576
 20
-143.3810844910645
 30
0.0
 10
104.0973496918576
 20
-143.6372273403928
 30
0.0
 10
104.0973496918576
 20
-143.687870244026
 30
0.0
 10
104.0889092079187
 20
-143.7703802808977
 30
0.0
 10
104.044467476159
 20
-143.8508232604783
 30
0.0
 10
103.985384088587
 20
-143.9545206345843
 30
0.0
 10
103.919755019593
 20
-143.9734686597532
 30
0.0
 10
103.8584323199555
 20
-143.9903496276309
 30
0.0
 10
103.995891629817
 20
-144.0327243020995
 30
0.0
 10
104.0635877561022
 20
-144.0814724032157
 30
0.0
 10
104.0678941254587
 20
-144.3965263853418
 30
0.0
 10
104.072028240041
 20
-144.6673108904825
 30
0.0
 10
104.1080294878619
 20
-144.699178023721
 30
0.0
 10
104.175725614147
 20
-144.7541272967108
 30
0.0
 10
104.175725614147
 20
-144.7541272967108
 30
0.0
 10
103.8796196571898
 20
-144.7541272967108
 30
0.0
 10
103.8796196571898
 20
-144.7541272967108
 30
0.0
  0
SPLINE
  5
C5
330
B4
100
AcDbEntity
  8
_U+30EC_U+30A4_U+30E4_U+30FC 1
370
     0
100
AcDbSpline
210
0.0
220
0.0
230
1.0
 70
    11
 71
     3
 72
    20
 73
    16
 74
     0
 42
0.0000000001
 43
0.0000000001
 12
1.0
 22
0.0
 32
0.0
 13
1.0
 23
0.0
 33
0.0
 40
0.0
 40
0.0
 40
0.0
 40
0.0
 40
1.0
 40
1.0
 40
1.0
 40
2.0
 40
2.0
 40
2.0
 40
3.0
 40
3.0
 40
3.0
 40
4.0
 40
4.0
 40
4.0
 40
5.0
 40
5.0
 40
5.0
 40
5.0
 10
103.6277831772181
 20
-143.4213921082419
 30
0.0
 10
103.6277831772181
 20
-143.4213921082419
 30
0.0
 10
103.1835381143951
 20
-143.4213921082419
 30
0.0
 10
103.1835381143951
 20
-143.4213921082419
 30
0.0
 10
103.1835381143951
 20
-143.4213921082419
 30
0.0
 10
103.1835381143951
 20
-143.9016384188857
 30
0.0
 10
103.1835381143951
 20
-143.9016384188857
 30
0.0
 10
103.1835381143951
 20
-143.9016384188857
 30
0.0
 10
103.6257161199269
 20
-143.9016384188857
 30
0.0
 10
103.6257161199269
 20
-143.9016384188857
 30
0.0
 10
103.7251071246764
 20
-143.9016384188857
 30
0.0
 10
103.8604993772467
 20
-143.8255018086617
 30
0.0
 10
103.8604993772467
 20
-143.6541083082705
 30
0.0
 10
103.8604993772467
 20
-143.5757323859811
 30
0.0
 10
103.826565186717
 20
-143.4213921082419
 30
0.0
 10
103.6277831772181
 20
-143.4213921082419
 30
0.0
  0
HATCH
  5
C6
330
B4
100
AcDbEntity
  8
_U+30EC_U+30A4_U+30E4_U+30FC 1
 62
   179
420
  2234388
100
AcDbHatch
 10
0.0
 20
0.0
 30
0.0
210
0.0
220
0.0
230
1.0
  2
SOLID
 70
     1
 71
     0
 91
        2
 92
        1
 93
        1
 72
     4
 94
        3
 73
     0
 74
     1
 95
       44
 96
       40
 40
0.0
 40
0.0
 40
0.0
 40
0.0
 40
1.0
 40
1.0
 40
1.0
 40
2.0
 40
2.0
 40
2.0
 40
3.0
 40
3.0
 40
3.0
 40
4.0
 40
4.0
 40
4.0
 40
5.0
 40
5.0
 40
5.0
 40
6.0
 40
6.0
 40
6.0
 40
7.0
 40
7.0
 40
7.0
 40
8.0
 40
8.0
 40
8.0
 40
9.0
 40
9.0
 40
9.0
 40
10.0
 40
10.0
 40
10.0
 40
11.0
 40
11.0
 40
11.0
 40
12.0
 40
12.0
 40
12.0
 40
13.0
 40
13.0
 40
13.0
 40
13.0
 10
103.8796196571898
 20
-144.7541272967108
 10
103.8561930078901
 20
-144.7096855649511
 10
103.8351779254301
 20
-144.6568033492525
 10
103.8329386133647
 20
-144.426154206515
 10
103.8288044987824
 20
-144.1829304652564
 10
103.7695488564361
 20
-144.11316728168
 10
103.5917819293972
 20
-144.11316728168
 10
103.5917819293972
 20
-144.11316728168
 10
103.1835381143951
 20
-144.11316728168
 10
103.1835381143951
 20
-144.11316728168
 10
103.1835381143951
 20
-144.11316728168
 10
103.1835381143951
 20
-144.7541272967108
 10
103.1835381143951
 20
-144.7541272967108
 10
103.1835381143951
 20
-144.7541272967108
 10
102.9487548570753
 20
-144.7541272967108
 10
102.9487548570753
 20
-144.7541272967108
 10
102.9487548570753
 20
-144.7541272967108
 10
102.9487548570753
 20
-143.2098632454475
 10
102.9487548570753
 20
-143.2098632454475
 10
102.9487548570753
 20
-143.2098632454475
 10
103.6236490626358
 20
-143.2098632454475
 10
103.6236490626358
 20
-143.2098632454475
 10
103.930262560823
 20
-143.2098632454475
 10
104.0973496918576
 20
-143.3810844910645
 10
104.0973496918576
 20
-143.6372273403928
 10
104.0973496918576
 20
-143.687870244026
 10
104.0889092079187
 20
-143.7703802808977
 10
104.044467476159
 20
-143.8508232604783
 10
103.985384088587
 20
-143.9545206345843
 10
103.919755019593
 20
-143.9734686597532
 10
103.8584323199555
 20
-143.9903496276309
 10
103.995891629817
 20
-144.0327243020995
 10
104.0635877561022
 20
-144.0814724032157
 10
104.0678941254587
 20
-144.3965263853418
 10
104.072028240041
 20
-144.6673108904825
 10
104.1080294878619
 20
-144.699178023721
 10
104.175725614147
 20
-144.7541272967108
 10
104.175725614147
 20
-144.7541272967108
 10
103.8796196571898
 20
-144.7541272967108
 10
103.8796196571898
 20
-144.7541272967108
 97
        0
 97
        0
 92
        1
 93
        1
 72
     4
 94
        3
 73
     0
 74
     1
 95
       20
 96
       16
 40
0.0
 40
0.0
 40
0.0
 40
0.0
 40
1.0
 40
1.0
 40
1.0
 40
2.0
 40
2.0
 40
2.0
 40
3.0
 40
3.0
 40
3.0
 40
4.0
 40
4.0
 40
4.0
 40
5.0
 40
5.0
 40
5.0
 40
5.0
 10
103.6277831772181
 20
-143.4213921082419
 10
103.6277831772181
 20
-143.4213921082419
 10
103.1835381143951
 20
-143.4213921082419
 10
103.1835381143951
 20
-143.4213921082419
 10
103.1835381143951
 20
-143.4213921082419
 10
103.1835381143951
 20
-143.9016384188857
 10
103.1835381143951
 20
-143.9016384188857
 10
103.1835381143951
 20
-143.9016384188857
 10
103.6257161199269
 20
-143.9016384188857
 10
103.6257161199269
 20
-143.9016384188857
 10
103.7251071246764
 20
-143.9016384188857
 10
103.8604993772467
 20
-143.8255018086617
 10
103.8604993772467
 20
-143.6541083082705
 10
103.8604993772467
 20
-143.5757323859811
 10
103.826565186717
 20
-143.4213921082419
 10
103.6277831772181
 20
-143.4213921082419
 97
        0
 97
        0
 75
     2
 76
     1
 98
        0
  0
ENDBLK
  5
B7
330
B4
100
AcDbEntity
  8
0
100
AcDbBlockEnd
  0
ENDSEC
  0
SECTION
  2
ENTITIES
  0
POLYLINE
  5
41
330
1F
100
AcDbEntity
  8
_U+30EC_U+30A4_U+30E4_U+30FC 1
 62
   179
420
  2234388
370
     9
100
AcDb2dPolyline
 66
     1
 10
0.0
 20
0.0
 30
0.0
  0
VERTEX
  5
42
330
41
100
AcDbEntity
  8
_U+30EC_U+30A4_U+30E4_U+30FC 1
 62
   179
420
  2234388
370
     9
100
AcDbVertex
100
AcDb2dVertex
 10
111.0198707303017
 20
-151.1899747682463
 30
0.0
  0
VERTEX
  5
43
330
41
100
AcDbEntity
  8
_U+30EC_U+30A4_U+30E4_U+30FC 1
 62
   179
420
  2234388
370
     9
100
AcDbVertex
100
AcDb2dVertex
 10
113.4797873319274
 20
-151.1899747682463
 30
0.0
  0
SEQEND
  5
44
330
41
100
AcDbEntity
  8
_U+30EC_U+30A4_U+30E4_U+30FC 1
 62
   179
420
  2234388
370
     9
  0
SPLINE
  5
45
330
1F
100
AcDbEntity
  8
_U+30EC_U+30A4_U+30E4_U+30FC 1
 62
   179
420
  2234388
370
     9
100
AcDbSpline
210
0.0
220
0.0
230
1.0
 70
    11
 71
     3
 72
    17
 73
    13
 74
     0
 42
0.0000000001
 43
0.0000000001
 12
1.0
 22
0.0
 32
0.0
 13
1.0
 23
0.0
 33
0.0
 40
0.0
 40
0.0
 40
0.0
 40
0.0
 40
1.0
 40
1.0
 40
1.0
 40
2.0
 40
2.0
 40
2.0
 40
3.0
 40
3.0
 40
3.0
 40
4.0
 40
4.0
 40
4.0
 40
4.0
 10
97.40797818185868
 20
-143.2274978279627
 30
0.0
 10
97.40797818185868
 20
-143.1724839594326
 30
0.0
 10
97.3631731001845
 20
-143.1276761862775
 30
0.0
 10
97.30814039128848
 20
-143.1276761862775
 30
0.0
 10
97.25310768239278
 20
-143.1276761862775
 30
0.0
 10
97.20830529219913
 20
-143.1724839594326
 30
0.0
 10
97.20830529219913
 20
-143.2274978279627
 30
0.0
 10
97.20830529219913
 20
-143.2825332283395
 30
0.0
 10
97.25310768239278
 20
-143.3273410014946
 30
0.0
 10
97.30814039128848
 20
-143.3273410014946
 30
0.0
 10
97.3631731001845
 20
-143.3273410014946
 30
0.0
 10
97.40797818185868
 20
-143.2825332283395
 30
0.0
 10
97.40797818185868
 20
-143.2274978279627
 30
0.0
  0
SPLINE
  5
46
330
1F
100
AcDbEntity
  8
_U+30EC_U+30A4_U+30E4_U+30FC 1
 62
   179
420
  2234388
370
     9
100
AcDbSpline
210
0.0
220
0.0
230
1.0
 70
    11
 71
     3
 72
    17
 73
    13
 74
     0
 42
0.0000000001
 43
0.0000000001
 12
1.0
 22
0.0
 32
0.0
 13
1.0
 23
0.0
 33
0.0
 40
0.0
 40
0.0
 40
0.0
 40
0.0
 40
1.0
 40
1.0
 40
1.0
 40
2.0
 40
2.0
 40
2.0
 40
3.0
 40
3.0
 40
3.0
 40
4.0
 40
4.0
 40
4.0
 40
4.0
 10
94.40728386532098
 20
-143.2274978279627
 30
0.0
 10
94.40728386532098
 20
-143.1724839594326
 30
0.0
 10
94.3624787836468
 20
-143.1276761862775
 30
0.0
 10
94.30744607475079
 20
-143.1276761862775
 30
0.0
 10
94.25241336585476
 20
-143.1276761862775
 30
0.0
 10
94.20761097566142
 20
-143.1724839594326
 30
0.0
 10
94.20761097566142
 20
-143.2274978279627
 30
0.0
 10
94.20761097566142
 20
-143.2825332283395
 30
0.0
 10
94.25241336585476
 20
-143.3273410014946
 30
0.0
 10
94.30744607475079
 20
-143.3273410014946
 30
0.0
 10
94.3624787836468
 20
-143.3273410014946
 30
0.0
 10
94.40728386532098
 20
-143.2825332283395
 30
0.0
 10
94.40728386532098
 20
-143.2274978279627
 30
0.0
  0
SPLINE
  5
47
330
1F
100
AcDbEntity
  8
_U+30EC_U+30A4_U+30E4_U+30FC 1
 62
   179
420
  2234388
370
     9
100
AcDbSpline
210
0.0
220
0.0
230
1.0
 70
    11
 71
     3
 72
    17
 73
    13
 74
     0
 42
0.0000000001
 43
0.0000000001
 12
1.0
 22
0.0
 32
0.0
 13
1.0
 23
0.0
 33
0.0
 40
0.0
 40
0.0
 40
0.0
 40
0.0
 40
1.0
 40
1.0
 40
1.0
 40
2.0
 40
2.0
 40
2.0
 40
3.0
 40
3.0
 40
3.0
 40
4.0
 40
4.0
 40
4.0
 40
4.0
 10
112.2497967333444
 20
-147.690102264781
 30
0.0
 10
112.2497967333444
 20
-147.6347223548557
 30
0.0
 10
112.2049889601893
 20
-147.5902806230959
 30
0.0
 10
112.1499589427741
 20
-147.5902806230959
 30
0.0
 10
112.0949235423973
 20
-147.5902806230959
 30
0.0
 10
112.0501211522039
 20
-147.6347223548557
 30
0.0
 10
112.0501211522039
 20
-147.690102264781
 30
0.0
 10
112.0501211522039
 20
-147.7451376651579
 30
0.0
 10
112.0949235423973
 20
-147.7899454383129
 30
0.0
 10
112.1499589427741
 20
-147.7899454383129
 30
0.0
 10
112.2049889601893
 20
-147.7899454383129
 30
0.0
 10
112.2497967333444
 20
-147.7451376651579
 30
0.0
 10
112.2497967333444
 20
-147.690102264781
 30
0.0
  0
SPLINE
  5
48
330
1F
100
AcDbEntity
  8
_U+30EC_U+30A4_U+30E4_U+30FC 1
 62
   179
420
  2234388
370
     9
100
AcDbSpline
210
0.0
220
0.0
230
1.0
 70
    11
 71
     3
 72
    17
 73
    13
 74
     0
 42
0.0000000001
 43
0.0000000001
 12
1.0
 22
0.0
 32
0.0
 13
1.0
 23
0.0
 33
0.0
 40
0.0
 40
0.0
 40
0.0
 40
0.0
 40
1.0
 40
1.0
 40
1.0
 40
2.0
 40
2.0
 40
2.0
 40
3.0
 40
3.0
 40
3.0
 40
4.0
 40
4.0
 40
4.0
 40
4.0
 10
112.2497967333444
 20
-146.1899139038825
 30
0.0
 10
112.2497967333444
 20
-146.1345339939571
 30
0.0
 10
112.2049889601893
 20
-146.0897262208018
 30
0.0
 10
112.1499589427741
 20
-146.0897262208018
 30
0.0
 10
112.0949235423973
 20
-146.0897262208018
 30
0.0
 10
112.0501211522039
 20
-146.1345339939571
 30
0.0
 10
112.0501211522039
 20
-146.1899139038825
 30
0.0
 10
112.0501211522039
 20
-146.2449493042594
 30
0.0
 10
112.0949235423973
 20
-146.2897570774141
 30
0.0
 10
112.1499589427741
 20
-146.2897570774141
 30
0.0
 10
112.2049889601893
 20
-146.2897570774141
 30
0.0
 10
112.2497967333444
 20
-146.2449493042594
 30
0.0
 10
112.2497967333444
 20
-146.1899139038825
 30
0.0
  0
POLYLINE
  5
49
330
1F
100
AcDbEntity
  8
_U+30EC_U+30A4_U+30E4_U+30FC 1
 62
   179
420
  2234388
370
     9
100
AcDb2dPolyline
 66
     1
 10
0.0
 20
0.0
 30
0.0
  0
VERTEX
  5
4A
330
49
100
AcDbEntity
  8
_U+30EC_U+30A4_U+30E4_U+30FC 1
 62
   179
420
  2234388
370
     9
100
AcDbVertex
100
AcDb2dVertex
 10
112.1498889642721
 20
-146.1899139038825
 30
0.0
  0
VERTEX
  5
4B
330
49
100
AcDbEntity
  8
_U+30EC_U+30A4_U+30E4_U+30FC 1
 62
   179
420
  2234388
370
     9
100
AcDbVertex
100
AcDb2dVertex
 10
112.1498889642721
 20
-151.2900332602461
 30
0.0
  0
SEQEND
  5
4C
330
49
100
AcDbEntity
  8
_U+30EC_U+30A4_U+30E4_U+30FC 1
 62
   179
420
  2234388
370
     9
  0
POLYLINE
  5
4D
330
1F
100
AcDbEntity
  8
_U+30EC_U+30A4_U+30E4_U+30FC 1
 62
   179
420
  2234388
370
     9
100
AcDb2dPolyline
 66
     1
 10
0.0
 20
0.0
 30
0.0
  0
VERTEX
  5
4E
330
4D
100
AcDbEntity
  8
_U+30EC_U+30A4_U+30E4_U+30FC 1
 62
   179
420
  2234388
370
     9
100
AcDbVertex
100
AcDb2dVertex
 10
112.1498889642721
 20
-151.1898455771656
 30
0.0
  0
VERTEX
  5
4F
330
4D
100
AcDbEntity
  8
_U+30EC_U+30A4_U+30E4_U+30FC 1
 62
   179
420
  2234388
370
     9
100
AcDbVertex
100
AcDb2dVertex
 10
112.1498889642721
 20
-152.1896338188319
 30
0.0
  0
SEQEND
  5
50
330
4D
100
AcDbEntity
  8
_U+30EC_U+30A4_U+30E4_U+30FC 1
 62
   179
420
  2234388
370
     9
  0
POLYLINE
  5
51
330
1F
100
AcDbEntity
  8
_U+30EC_U+30A4_U+30E4_U+30FC 1
 62
   179
420
  2234388
370
     9
100
AcDb2dPolyline
 66
     1
 10
0.0
 20
0.0
 30
0.0
  0
VERTEX
  5
52
330
51
100
AcDbEntity
  8
_U+30EC_U+30A4_U+30E4_U+30FC 1
 62
   179
420
  2234388
370
     9
100
AcDbVertex
100
AcDb2dVertex
 10
97.88306223223633
 20
-146.1899139038825
 30
0.0
  0
VERTEX
  5
53
330
51
100
AcDbEntity
  8
_U+30EC_U+30A4_U+30E4_U+30FC 1
 62
   179
420
  2234388
370
     9
100
AcDbVertex
100
AcDb2dVertex
 10
113.4797173534253
 20
-146.1899139038825
 30
0.0
  0
SEQEND
  5
54
330
51
100
AcDbEntity
  8
_U+30EC_U+30A4_U+30E4_U+30FC 1
 62
   179
420
  2234388
370
     9
  0
POLYLINE
  5
55
330
1F
100
AcDbEntity
  8
_U+30EC_U+30A4_U+30E4_U+30FC 1
 62
   179
420
  2234388
370
     9
100
AcDb2dPolyline
 66
     1
 10
0.0
 20
0.0
 30
0.0
  0
VERTEX
  5
56
330
55
100
AcDbEntity
  8
_U+30EC_U+30A4_U+30E4_U+30FC 1
 62
   179
420
  2234388
370
     9
100
AcDbVertex
100
AcDb2dVertex
 10
97.88306223223633
 20
-147.690102264781
 30
0.0
  0
VERTEX
  5
57
330
55
100
AcDbEntity
  8
_U+30EC_U+30A4_U+30E4_U+30FC 1
 62
   179
420
  2234388
370
     9
100
AcDbVertex
100
AcDb2dVertex
 10
113.4797173534253
 20
-147.690102264781
 30
0.0
  0
SEQEND
  5
58
330
55
100
AcDbEntity
  8
_U+30EC_U+30A4_U+30E4_U+30FC 1
 62
   179
420
  2234388
370
     9
  0
SPLINE
  5
59
330
1F
100
AcDbEntity
  8
_U+30EC_U+30A4_U+30E4_U+30FC 1
370
     0
100
AcDbSpline
210
0.0
220
0.0
230
1.0
 70
    11
 71
     3
 72
    17
 73
    13
 74
     0
 42
0.0000000001
 43
0.0000000001
 12
1.0
 22
0.0
 32
0.0
 13
1.0
 23
0.0
 33
0.0
 40
0.0
 40
0.0
 40
0.0
 40
0.0
 40
1.0
 40
1.0
 40
1.0
 40
2.0
 40
2.0
 40
2.0
 40
3.0
 40
3.0
 40
3.0
 40
4.0
 40
4.0
 40
4.0
 40
4.0
 10
112.2497967333444
 20
-151.1899747682463
 30
0.0
 10
112.2497967333444
 20
-151.134594858321
 30
0.0
 10
112.2049889601893
 20
-151.0901531265612
 30
0.0
 10
112.1499589427741
 20
-151.0901531265612
 30
0.0
 10
112.0949235423973
 20
-151.0901531265612
 30
0.0
 10
112.0501211522039
 20
-151.134594858321
 30
0.0
 10
112.0501211522039
 20
-151.1899747682463
 30
0.0
 10
112.0501211522039
 20
-151.2450101686232
 30
0.0
 10
112.0949235423973
 20
-151.2898179417782
 30
0.0
 10
112.1499589427741
 20
-151.2898179417782
 30
0.0
 10
112.2049889601893
 20
-151.2898179417782
 30
0.0
 10
112.2497967333444
 20
-151.2450101686232
 30
0.0
 10
112.2497967333444
 20
-151.1899747682463
 30
0.0
  0
HATCH
  5
5A
330
1F
100
AcDbEntity
  8
_U+30EC_U+30A4_U+30E4_U+30FC 1
 62
   179
420
  2234388
100
AcDbHatch
 10
0.0
 20
0.0
 30
0.0
210
0.0
220
0.0
230
1.0
  2
SOLID
 70
     1
 71
     0
 91
        1
 92
        1
 93
        2
 72
     4
 94
        3
 73
     0
 74
     0
 95
       17
 96
       13
 40
0.0
 40
0.0
 40
0.0
 40
0.0
 40
0.3527777776895833
 40
0.3527777776895833
 40
0.3527777776895833
 40
0.7055555553791667
 40
0.7055555553791667
 40
0.7055555553791667
 40
1.05833333306875
 40
1.05833333306875
 40
1.05833333306875
 40
1.411111110758333
 40
1.411111110758333
 40
1.411111110758333
 40
1.411111110758333
 10
112.2497967333444
 20
-151.1899747682463
 10
112.2497967333444
 20
-151.134594858321
 10
112.2049889601893
 20
-151.0901531265612
 10
112.1499589427741
 20
-151.0901531265612
 10
112.0949235423973
 20
-151.0901531265612
 10
112.0501211522039
 20
-151.134594858321
 10
112.0501211522039
 20
-151.1899747682463
 10
112.0501211522039
 20
-151.2450101686232
 10
112.0949235423973
 20
-151.2898179417782
 10
112.1499589427741
 20
-151.2898179417782
 10
112.2049889601893
 20
-151.2898179417782
 10
112.2497967333444
 20
-151.2450101686232
 10
112.2497967333444
 20
-151.1899747682463
 97
        0
 72
     1
 10
112.2497967333444
 20
-151.1899747682463
 11
112.2497967333444
 21
-151.1899747682463
 97
        0
 75
     2
 76
     1
 98
        0
  0
SPLINE
  5
5B
330
1F
100
AcDbEntity
  8
_U+30EC_U+30A4_U+30E4_U+30FC 1
 62
   179
420
  2234388
370
     9
100
AcDbSpline
210
0.0
220
0.0
230
1.0
 70
    11
 71
     3
 72
    17
 73
    13
 74
     0
 42
0.0000000001
 43
0.0000000001
 12
1.0
 22
0.0
 32
0.0
 13
1.0
 23
0.0
 33
0.0
 40
0.0
 40
0.0
 40
0.0
 40
0.0
 40
1.0
 40
1.0
 40
1.0
 40
2.0
 40
2.0
 40
2.0
 40
3.0
 40
3.0
 40
3.0
 40
4.0
 40
4.0
 40
4.0
 40
4.0
 10
112.2497967333444
 20
-151.1899747682463
 30
0.0
 10
112.2497967333444
 20
-151.134594858321
 30
0.0
 10
112.2049889601893
 20
-151.0901531265612
 30
0.0
 10
112.1499589427741
 20
-151.0901531265612
 30
0.0
 10
112.0949235423973
 20
-151.0901531265612
 30
0.0
 10
112.0501211522039
 20
-151.134594858321
 30
0.0
 10
112.0501211522039
 20
-151.1899747682463
 30
0.0
 10
112.0501211522039
 20
-151.2450101686232
 30
0.0
 10
112.0949235423973
 20
-151.2898179417782
 30
0.0
 10
112.1499589427741
 20
-151.2898179417782
 30
0.0
 10
112.2049889601893
 20
-151.2898179417782
 30
0.0
 10
112.2497967333444
 20
-151.2450101686232
 30
0.0
 10
112.2497967333444
 20
-151.1899747682463
 30
0.0
  0
SPLINE
  5
5C
330
1F
100
AcDbEntity
  8
_U+30EC_U+30A4_U+30E4_U+30FC 1
370
     0
100
AcDbSpline
210
0.0
220
0.0
230
1.0
 70
    11
 71
     3
 72
    17
 73
    13
 74
     0
 42
0.0000000001
 43
0.0000000001
 12
1.0
 22
0.0
 32
0.0
 13
1.0
 23
0.0
 33
0.0
 40
0.0
 40
0.0
 40
0.0
 40
0.0
 40
1.0
 40
1.0
 40
1.0
 40
2.0
 40
2.0
 40
2.0
 40
3.0
 40
3.0
 40
3.0
 40
4.0
 40
4.0
 40
4.0
 40
4.0
 10
112.2497967333444
 20
-152.1899567965337
 30
0.0
 10
112.2497967333444
 20
-152.1345768866083
 30
0.0
 10
112.2049889601893
 20
-152.0901351548486
 30
0.0
 10
112.1499589427741
 20
-152.0901351548486
 30
0.0
 10
112.0949235423973
 20
-152.0901351548486
 30
0.0
 10
112.0501211522039
 20
-152.1345768866083
 30
0.0
 10
112.0501211522039
 20
-152.1899567965337
 30
0.0
 10
112.0501211522039
 20
-152.2449921969105
 30
0.0
 10
112.0949235423973
 20
-152.2897999700656
 30
0.0
 10
112.1499589427741
 20
-152.2897999700656
 30
0.0
 10
112.2049889601893
 20
-152.2897999700656
 30
0.0
 10
112.2497967333444
 20
-152.2449921969105
 30
0.0
 10
112.2497967333444
 20
-152.1899567965337
 30
0.0
  0
HATCH
  5
5D
330
1F
100
AcDbEntity
  8
_U+30EC_U+30A4_U+30E4_U+30FC 1
 62
   179
420
  2234388
100
AcDbHatch
 10
0.0
 20
0.0
 30
0.0
210
0.0
220
0.0
230
1.0
  2
SOLID
 70
     1
 71
     0
 91
        1
 92
        1
 93
        2
 72
     4
 94
        3
 73
     0
 74
     0
 95
       17
 96
       13
 40
0.0
 40
0.0
 40
0.0
 40
0.0
 40
0.3527777776895833
 40
0.3527777776895833
 40
0.3527777776895833
 40
0.7055555553791667
 40
0.7055555553791667
 40
0.7055555553791667
 40
1.05833333306875
 40
1.05833333306875
 40
1.05833333306875
 40
1.411111110758333
 40
1.411111110758333
 40
1.411111110758333
 40
1.411111110758333
 10
112.2497967333444
 20
-152.1899567965337
 10
112.2497967333444
 20
-152.1345768866083
 10
112.2049889601893
 20
-152.0901351548486
 10
112.1499589427741
 20
-152.0901351548486
 10
112.0949235423973
 20
-152.0901351548486
 10
112.0501211522039
 20
-152.1345768866083
 10
112.0501211522039
 20
-152.1899567965337
 10
112.0501211522039
 20
-152.2449921969105
 10
112.0949235423973
 20
-152.2897999700656
 10
112.1499589427741
 20
-152.2897999700656
 10
112.2049889601893
 20
-152.2897999700656
 10
112.2497967333444
 20
-152.2449921969105
 10
112.2497967333444
 20
-152.1899567965337
 97
        0
 72
     1
 10
112.2497967333444
 20
-152.1899567965337
 11
112.2497967333444
 21
-152.1899567965337
 97
        0
 75
     2
 76
     1
 98
        0
  0
SPLINE
  5
5E
330
1F
100
AcDbEntity
  8
_U+30EC_U+30A4_U+30E4_U+30FC 1
 62
   179
420
  2234388
370
     9
100
AcDbSpline
210
0.0
220
0.0
230
1.0
 70
    11
 71
     3
 72
    17
 73
    13
 74
     0
 42
0.0000000001
 43
0.0000000001
 12
1.0
 22
0.0
 32
0.0
 13
1.0
 23
0.0
 33
0.0
 40
0.0
 40
0.0
 40
0.0
 40
0.0
 40
1.0
 40
1.0
 40
1.0
 40
2.0
 40
2.0
 40
2.0
 40
3.0
 40
3.0
 40
3.0
 40
4.0
 40
4.0
 40
4.0
 40
4.0
 10
112.2497967333444
 20
-152.1899567965337
 30
0.0
 10
112.2497967333444
 20
-152.1345768866083
 30
0.0
 10
112.2049889601893
 20
-152.0901351548486
 30
0.0
 10
112.1499589427741
 20
-152.0901351548486
 30
0.0
 10
112.0949235423973
 20
-152.0901351548486
 30
0.0
 10
112.0501211522039
 20
-152.1345768866083
 30
0.0
 10
112.0501211522039
 20
-152.1899567965337
 30
0.0
 10
112.0501211522039
 20
-152.2449921969105
 30
0.0
 10
112.0949235423973
 20
-152.2897999700656
 30
0.0
 10
112.1499589427741
 20
-152.2897999700656
 30
0.0
 10
112.2049889601893
 20
-152.2897999700656
 30
0.0
 10
112.2497967333444
 20
-152.2449921969105
 30
0.0
 10
112.2497967333444
 20
-152.1899567965337
 30
0.0
  0
POLYLINE
  5
5F
330
1F
100
AcDbEntity
  8
_U+30EC_U+30A4_U+30E4_U+30FC 1
 62
   179
420
  2234388
370
     9
100
AcDb2dPolyline
 66
     1
 10
0.0
 20
0.0
 30
0.0
  0
VERTEX
  5
60
330
5F
100
AcDbEntity
  8
_U+30EC_U+30A4_U+30E4_U+30FC 1
 62
   179
420
  2234388
370
     9
100
AcDbVertex
100
AcDb2dVertex
 10
111.0198707303017
 20
-152.1899567965337
 30
0.0
  0
VERTEX
  5
61
330
5F
100
AcDbEntity
  8
_U+30EC_U+30A4_U+30E4_U+30FC 1
 62
   179
420
  2234388
370
     9
100
AcDbVertex
100
AcDb2dVertex
 10
113.4797873319274
 20
-152.1899567965337
 30
0.0
  0
SEQEND
  5
62
330
5F
100
AcDbEntity
  8
_U+30EC_U+30A4_U+30E4_U+30FC 1
 62
   179
420
  2234388
370
     9
  0
INSERT
  5
64
330
1F
100
AcDbEntity
  8
_U+30EC_U+30A4_U+30E4_U+30FC 1
100
AcDbBlockReference
  2
block 2
 10
0.0
 20
0.0
 30
0.0
  0
INSERT
  5
74
330
1F
100
AcDbEntity
  8
_U+30EC_U+30A4_U+30E4_U+30FC 1
100
AcDbBlockReference
  2
block 3
 10
0.0
 20
0.0
 30
0.0
  0
INSERT
  5
84
330
1F
100
AcDbEntity
  8
_U+30EC_U+30A4_U+30E4_U+30FC 1
100
AcDbBlockReference
  2
block 4
 10
0.0
 20
0.0
 30
0.0
  0
POLYLINE
  5
89
330
1F
100
AcDbEntity
  8
_U+30EC_U+30A4_U+30E4_U+30FC 1
 62
   179
420
  2234388
370
     9
100
AcDb2dPolyline
 66
     1
 10
0.0
 20
0.0
 30
0.0
  0
VERTEX
  5
8A
330
89
100
AcDbEntity
  8
_U+30EC_U+30A4_U+30E4_U+30FC 1
 62
   179
420
  2234388
370
     9
100
AcDbVertex
100
AcDb2dVertex
 10
94.3073787877299
 20
-141.7674878931606
 30
0.0
  0
VERTEX
  5
8B
330
89
100
AcDbEntity
  8
_U+30EC_U+30A4_U+30E4_U+30FC 1
 62
   179
420
  2234388
370
     9
100
AcDbVertex
100
AcDb2dVertex
 10
94.3073787877299
 20
-144.2281258116535
 30
0.0
  0
SEQEND
  5
8C
330
89
100
AcDbEntity
  8
_U+30EC_U+30A4_U+30E4_U+30FC 1
 62
   179
420
  2234388
370
     9
  0
POLYLINE
  5
8D
330
1F
100
AcDbEntity
  8
_U+30EC_U+30A4_U+30E4_U+30FC 1
 62
   179
420
  2234388
370
     9
100
AcDb2dPolyline
 66
     1
 10
0.0
 20
0.0
 30
0.0
  0
VERTEX
  5
8E
330
8D
100
AcDbEntity
  8
_U+30EC_U+30A4_U+30E4_U+30FC 1
 62
   179
420
  2234388
370
     9
100
AcDbVertex
100
AcDb2dVertex
 10
97.30807041278644
 20
-141.7674878931606
 30
0.0
  0
VERTEX
  5
8F
330
8D
100
AcDbEntity
  8
_U+30EC_U+30A4_U+30E4_U+30FC 1
 62
   179
420
  2234388
370
     9
100
AcDbVertex
100
AcDb2dVertex
 10
97.30807041278644
 20
-144.2281258116535
 30
0.0
  0
SEQEND
  5
90
330
8D
100
AcDbEntity
  8
_U+30EC_U+30A4_U+30E4_U+30FC 1
 62
   179
420
  2234388
370
     9
  0
INSERT
  5
92
330
1F
100
AcDbEntity
  8
_U+30EC_U+30A4_U+30E4_U+30FC 1
100
AcDbBlockReference
  2
block 5
 10
0.0
 20
0.0
 30
0.0
  0
INSERT
  5
98
330
1F
100
AcDbEntity
  8
_U+30EC_U+30A4_U+30E4_U+30FC 1
100
AcDbBlockReference
  2
block 6
 10
0.0
 20
0.0
 30
0.0
  0
POLYLINE
  5
9F
330
1F
100
AcDbEntity
  8
_U+30EC_U+30A4_U+30E4_U+30FC 1
 62
   179
420
  2234388
370
     9
100
AcDb2dPolyline
 66
     1
 10
0.0
 20
0.0
 30
0.0
  0
VERTEX
  5
A0
330
9F
100
AcDbEntity
  8
_U+30EC_U+30A4_U+30E4_U+30FC 1
 62
   179
420
  2234388
370
     9
100
AcDbVertex
100
AcDb2dVertex
 10
97.30771782879536
 20
-143.2274978279627
 30
0.0
  0
VERTEX
  5
A1
330
9F
100
AcDbEntity
  8
_U+30EC_U+30A4_U+30E4_U+30FC 1
 62
   179
420
  2234388
370
     9
100
AcDbVertex
100
AcDb2dVertex
 10
94.30734110699771
 20
-143.2274978279627
 30
0.0
  0
SEQEND
  5
A2
330
9F
100
AcDbEntity
  8
_U+30EC_U+30A4_U+30E4_U+30FC 1
 62
   179
420
  2234388
370
     9
  0
SPLINE
  5
A3
330
1F
100
AcDbEntity
  8
_U+30EC_U+30A4_U+30E4_U+30FC 1
 62
   179
420
  2234388
370
     9
100
AcDbSpline
210
0.0
220
0.0
230
1.0
 70
    11
 71
     3
 72
    17
 73
    13
 74
     0
 42
0.0000000001
 43
0.0000000001
 12
1.0
 22
0.0
 32
0.0
 13
1.0
 23
0.0
 33
0.0
 40
0.0
 40
0.0
 40
0.0
 40
0.0
 40
1.0
 40
1.0
 40
1.0
 40
2.0
 40
2.0
 40
2.0
 40
3.0
 40
3.0
 40
3.0
 40
4.0
 40
4.0
 40
4.0
 40
4.0
 10
109.4079267016384
 20
-154.7556916591735
 30
0.0
 10
109.4079267016384
 20
-154.8107270595504
 30
0.0
 10
109.3631189284833
 20
-154.8555348327054
 30
0.0
 10
109.3080889110682
 20
-154.8555348327054
 30
0.0
 10
109.2530535106913
 20
-154.8555348327054
 30
0.0
 10
109.208251120498
 20
-154.8107270595504
 30
0.0
 10
109.208251120498
 20
-154.7556916591735
 30
0.0
 10
109.208251120498
 20
-154.7006777906434
 30
0.0
 10
109.2530535106913
 20
-154.6558700174884
 30
0.0
 10
109.3080889110682
 20
-154.6558700174884
 30
0.0
 10
109.3631189284833
 20
-154.6558700174884
 30
0.0
 10
109.4079267016384
 20
-154.7006777906434
 30
0.0
 10
109.4079267016384
 20
-154.7556916591735
 30
0.0
  0
SPLINE
  5
A4
330
1F
100
AcDbEntity
  8
_U+30EC_U+30A4_U+30E4_U+30FC 1
 62
   179
420
  2234388
370
     9
100
AcDbSpline
210
0.0
220
0.0
230
1.0
 70
    11
 71
     3
 72
    17
 73
    13
 74
     0
 42
0.0000000001
 43
0.0000000001
 12
1.0
 22
0.0
 32
0.0
 13
1.0
 23
0.0
 33
0.0
 40
0.0
 40
0.0
 40
0.0
 40
0.0
 40
1.0
 40
1.0
 40
1.0
 40
2.0
 40
2.0
 40
2.0
 40
3.0
 40
3.0
 40
3.0
 40
4.0
 40
4.0
 40
4.0
 40
4.0
 10
94.40728386532098
 20
-154.7556916591735
 30
0.0
 10
94.40728386532098
 20
-154.8107270595504
 30
0.0
 10
94.3624787836468
 20
-154.8555348327054
 30
0.0
 10
94.30744607475079
 20
-154.8555348327054
 30
0.0
 10
94.25241336585476
 20
-154.8555348327054
 30
0.0
 10
94.20761097566142
 20
-154.8107270595504
 30
0.0
 10
94.20761097566142
 20
-154.7556916591735
 30
0.0
 10
94.20761097566142
 20
-154.7006777906434
 30
0.0
 10
94.25241336585476
 20
-154.6558700174884
 30
0.0
 10
94.30744607475079
 20
-154.6558700174884
 30
0.0
 10
94.3624787836468
 20
-154.6558700174884
 30
0.0
 10
94.40728386532098
 20
-154.7006777906434
 30
0.0
 10
94.40728386532098
 20
-154.7556916591735
 30
0.0
  0
POLYLINE
  5
A5
330
1F
100
AcDbEntity
  8
_U+30EC_U+30A4_U+30E4_U+30FC 1
 62
   179
420
  2234388
370
     9
100
AcDb2dPolyline
 66
     1
 10
0.0
 20
0.0
 30
0.0
  0
VERTEX
  5
A6
330
A5
100
AcDbEntity
  8
_U+30EC_U+30A4_U+30E4_U+30FC 1
 62
   179
420
  2234388
370
     9
100
AcDbVertex
100
AcDb2dVertex
 10
94.3073787877299
 20
-156.2156800621288
 30
0.0
  0
VERTEX
  5
A7
330
A5
100
AcDbEntity
  8
_U+30EC_U+30A4_U+30E4_U+30FC 1
 62
   179
420
  2234388
370
     9
100
AcDbVertex
100
AcDb2dVertex
 10
94.3073787877299
 20
-153.7550636754827
 30
0.0
  0
SEQEND
  5
A8
330
A5
100
AcDbEntity
  8
_U+30EC_U+30A4_U+30E4_U+30FC 1
 62
   179
420
  2234388
370
     9
  0
POLYLINE
  5
A9
330
1F
100
AcDbEntity
  8
_U+30EC_U+30A4_U+30E4_U+30FC 1
 62
   179
420
  2234388
370
     9
100
AcDb2dPolyline
 66
     1
 10
0.0
 20
0.0
 30
0.0
  0
VERTEX
  5
AA
330
A9
100
AcDbEntity
  8
_U+30EC_U+30A4_U+30E4_U+30FC 1
 62
   179
420
  2234388
370
     9
100
AcDbVertex
100
AcDb2dVertex
 10
109.3080189325661
 20
-156.2156800621288
 30
0.0
  0
VERTEX
  5
AB
330
A9
100
AcDbEntity
  8
_U+30EC_U+30A4_U+30E4_U+30FC 1
 62
   179
420
  2234388
370
     9
100
AcDbVertex
100
AcDb2dVertex
 10
109.3080189325661
 20
-153.7550636754827
 30
0.0
  0
SEQEND
  5
AC
330
A9
100
AcDbEntity
  8
_U+30EC_U+30A4_U+30E4_U+30FC 1
 62
   179
420
  2234388
370
     9
  0
POLYLINE
  5
AD
330
1F
100
AcDbEntity
  8
_U+30EC_U+30A4_U+30E4_U+30FC 1
 62
   179
420
  2234388
370
     9
100
AcDb2dPolyline
 66
     1
 10
0.0
 20
0.0
 30
0.0
  0
VERTEX
  5
AE
330
AD
100
AcDbEntity
  8
_U+30EC_U+30A4_U+30E4_U+30FC 1
 62
   179
420
  2234388
370
     9
100
AcDbVertex
100
AcDb2dVertex
 10
109.3076636570942
 20
-154.7556916591735
 30
0.0
  0
VERTEX
  5
AF
330
AD
100
AcDbEntity
  8
_U+30EC_U+30A4_U+30E4_U+30FC 1
 62
   179
420
  2234388
370
     9
100
AcDbVertex
100
AcDb2dVertex
 10
94.30719845851277
 20
-154.7556916591735
 30
0.0
  0
SEQEND
  5
B0
330
AD
100
AcDbEntity
  8
_U+30EC_U+30A4_U+30E4_U+30FC 1
 62
   179
420
  2234388
370
     9
  0
SPLINE
  5
B1
330
1F
100
AcDbEntity
  8
_U+30EC_U+30A4_U+30E4_U+30FC 1
370
     0
100
AcDbSpline
210
0.0
220
0.0
230
1.0
 70
    11
 71
     3
 72
    41
 73
    37
 74
     0
 42
0.0000000001
 43
0.0000000001
 12
1.0
 22
0.0
 32
0.0
 13
1.0
 23
0.0
 33
0.0
 40
0.0
 40
0.0
 40
0.0
 40
0.0
 40
1.0
 40
1.0
 40
1.0
 40
2.0
 40
2.0
 40
2.0
 40
3.0
 40
3.0
 40
3.0
 40
4.0
 40
4.0
 40
4.0
 40
5.0
 40
5.0
 40
5.0
 40
6.0
 40
6.0
 40
6.0
 40
7.0
 40
7.0
 40
7.0
 40
8.0
 40
8.0
 40
8.0
 40
9.0
 40
9.0
 40
9.0
 40
10.0
 40
10.0
 40
10.0
 40
11.0
 40
11.0
 40
11.0
 40
12.0
 40
12.0
 40
12.0
 40
12.0
 10
108.7044489694737
 20
-151.1899747682463
 30
0.0
 10
108.7044489694737
 20
-151.1899747682463
 30
0.0
 10
95.20752302544672
 20
-151.1899747682463
 30
0.0
 10
95.20752302544672
 20
-151.1899747682463
 30
0.0
 10
95.20752302544672
 20
-151.1899747682463
 30
0.0
 10
95.20752302544672
 20
-151.1896302586978
 30
0.0
 10
95.20752302544672
 20
-151.1896302586978
 30
0.0
 10
95.20752302544672
 20
-151.1896302586978
 30
0.0
 10
95.20752302544672
 20
-147.6897146915389
 30
0.0
 10
95.20752302544672
 20
-147.6897146915389
 30
0.0
 10
95.20752302544672
 20
-147.6897146915389
 30
0.0
 10
97.20777237899125
 20
-147.6897146915389
 30
0.0
 10
97.20777237899125
 20
-147.6897146915389
 30
0.0
 10
97.20777237899125
 20
-147.6897146915389
 30
0.0
 10
97.30690500157931
 20
-146.1900646268097
 30
0.0
 10
96.00621189260409
 20
-146.1900646268097
 30
0.0
 10
96.00621189260409
 20
-146.1900646268097
 30
0.0
 10
94.20739834867445
 20
-146.1900646268097
 30
0.0
 10
94.20739834867445
 20
-146.1900646268097
 30
0.0
 10
94.20739834867445
 20
-146.1900646268097
 30
0.0
 10
94.20739834867445
 20
-146.6899479817195
 30
0.0
 10
94.20739834867445
 20
-146.6899479817195
 30
0.0
 10
94.20739834867445
 20
-146.6899479817195
 30
0.0
 10
94.20739834867445
 20
-151.6898796550029
 30
0.0
 10
94.20739834867445
 20
-151.6898796550029
 30
0.0
 10
94.20739834867445
 20
-151.6898796550029
 30
0.0
 10
94.20739834867445
 20
-152.1897630099126
 30
0.0
 10
94.20739834867445
 20
-152.1897630099126
 30
0.0
 10
94.20739834867445
 20
-152.1897630099126
 30
0.0
 10
109.2078581642942
 20
-152.1897630099126
 30
0.0
 10
109.2078581642942
 20
-152.1897630099126
 30
0.0
 10
109.2078581642942
 20
-152.1897630099126
 30
0.0
 10
109.2078581642942
 20
-151.6898796550029
 30
0.0
 10
109.2078581642942
 20
-151.6898796550029
 30
0.0
 10
109.2078581642942
 20
-151.6898796550029
 30
0.0
 10
109.1895184137969
 20
-151.1899747682463
 30
0.0
 10
108.7044489694737
 20
-151.1899747682463
 30
0.0
  0
HATCH
  5
B2
330
1F
100
AcDbEntity
  8
_U+30EC_U+30A4_U+30E4_U+30FC 1
 62
     9
420
 13224394
100
AcDbHatch
 10
0.0
 20
0.0
 30
0.0
210
0.0
220
0.0
230
1.0
  2
SOLID
 70
     1
 71
     0
 91
        1
 92
        1
 93
        2
 72
     4
 94
        3
 73
     0
 74
     0
 95
       41
 96
       37
 40
0.0
 40
0.0
 40
0.0
 40
0.0
 40
0.3527777776895833
 40
0.3527777776895833
 40
0.3527777776895833
 40
0.7055555553791667
 40
0.7055555553791667
 40
0.7055555553791667
 40
1.05833333306875
 40
1.05833333306875
 40
1.05833333306875
 40
1.411111110758333
 40
1.411111110758333
 40
1.411111110758333
 40
1.763888888447917
 40
1.763888888447917
 40
1.763888888447917
 40
2.1166666661375
 40
2.1166666661375
 40
2.1166666661375
 40
2.469444443827083
 40
2.469444443827083
 40
2.469444443827083
 40
2.822222221516667
 40
2.822222221516667
 40
2.822222221516667
 40
3.17499999920625
 40
3.17499999920625
 40
3.17499999920625
 40
3.527777776895833
 40
3.527777776895833
 40
3.527777776895833
 40
3.880555554585417
 40
3.880555554585417
 40
3.880555554585417
 40
4.233333332275
 40
4.233333332275
 40
4.233333332275
 40
4.233333332275
 10
108.7044489694737
 20
-151.1899747682463
 10
108.7044489694737
 20
-151.1899747682463
 10
95.20752302544672
 20
-151.1899747682463
 10
95.20752302544672
 20
-151.1899747682463
 10
95.20752302544672
 20
-151.1899747682463
 10
95.20752302544672
 20
-151.1896302586978
 10
95.20752302544672
 20
-151.1896302586978
 10
95.20752302544672
 20
-151.1896302586978
 10
95.20752302544672
 20
-147.6897146915389
 10
95.20752302544672
 20
-147.6897146915389
 10
95.20752302544672
 20
-147.6897146915389
 10
97.20777237899125
 20
-147.6897146915389
 10
97.20777237899125
 20
-147.6897146915389
 10
97.20777237899125
 20
-147.6897146915389
 10
97.30690500157931
 20
-146.1900646268097
 10
96.00621189260409
 20
-146.1900646268097
 10
96.00621189260409
 20
-146.1900646268097
 10
94.20739834867445
 20
-146.1900646268097
 10
94.20739834867445
 20
-146.1900646268097
 10
94.20739834867445
 20
-146.1900646268097
 10
94.20739834867445
 20
-146.6899479817195
 10
94.20739834867445
 20
-146.6899479817195
 10
94.20739834867445
 20
-146.6899479817195
 10
94.20739834867445
 20
-151.6898796550029
 10
94.20739834867445
 20
-151.6898796550029
 10
94.20739834867445
 20
-151.6898796550029
 10
94.20739834867445
 20
-152.1897630099126
 10
94.20739834867445
 20
-152.1897630099126
 10
94.20739834867445
 20
-152.1897630099126
 10
109.2078581642942
 20
-152.1897630099126
 10
109.2078581642942
 20
-152.1897630099126
 10
109.2078581642942
 20
-152.1897630099126
 10
109.2078581642942
 20
-151.6898796550029
 10
109.2078581642942
 20
-151.6898796550029
 10
109.2078581642942
 20
-151.6898796550029
 10
109.1895184137969
 20
-151.1899747682463
 10
108.7044489694737
 20
-151.1899747682463
 97
        0
 72
     1
 10
108.7044489694737
 20
-151.1899747682463
 11
108.7044489694737
 21
-151.1899747682463
 97
        0
 75
     2
 76
     1
 98
        0
  0
SPLINE
  5
B3
330
1F
100
AcDbEntity
  8
_U+30EC_U+30A4_U+30E4_U+30FC 1
 62
   179
420
  2234388
370
    25
100
AcDbSpline
210
0.0
220
0.0
230
1.0
 70
    11
 71
     3
 72
    41
 73
    37
 74
     0
 42
0.0000000001
 43
0.0000000001
 12
1.0
 22
0.0
 32
0.0
 13
1.0
 23
0.0
 33
0.0
 40
0.0
 40
0.0
 40
0.0
 40
0.0
 40
1.0
 40
1.0
 40
1.0
 40
2.0
 40
2.0
 40
2.0
 40
3.0
 40
3.0
 40
3.0
 40
4.0
 40
4.0
 40
4.0
 40
5.0
 40
5.0
 40
5.0
 40
6.0
 40
6.0
 40
6.0
 40
7.0
 40
7.0
 40
7.0
 40
8.0
 40
8.0
 40
8.0
 40
9.0
 40
9.0
 40
9.0
 40
10.0
 40
10.0
 40
10.0
 40
11.0
 40
11.0
 40
11.0
 40
12.0
 40
12.0
 40
12.0
 40
12.0
 10
108.7044489694737
 20
-151.1899747682463
 30
0.0
 10
108.7044489694737
 20
-151.1899747682463
 30
0.0
 10
95.20752302544672
 20
-151.1899747682463
 30
0.0
 10
95.20752302544672
 20
-151.1899747682463
 30
0.0
 10
95.20752302544672
 20
-151.1899747682463
 30
0.0
 10
95.20752302544672
 20
-151.1896302586978
 30
0.0
 10
95.20752302544672
 20
-151.1896302586978
 30
0.0
 10
95.20752302544672
 20
-151.1896302586978
 30
0.0
 10
95.20752302544672
 20
-147.6897146915389
 30
0.0
 10
95.20752302544672
 20
-147.6897146915389
 30
0.0
 10
95.20752302544672
 20
-147.6897146915389
 30
0.0
 10
97.20777237899125
 20
-147.6897146915389
 30
0.0
 10
97.20777237899125
 20
-147.6897146915389
 30
0.0
 10
97.20777237899125
 20
-147.6897146915389
 30
0.0
 10
97.30690500157931
 20
-146.1900646268097
 30
0.0
 10
96.00621189260409
 20
-146.1900646268097
 30
0.0
 10
96.00621189260409
 20
-146.1900646268097
 30
0.0
 10
94.20739834867445
 20
-146.1900646268097
 30
0.0
 10
94.20739834867445
 20
-146.1900646268097
 30
0.0
 10
94.20739834867445
 20
-146.1900646268097
 30
0.0
 10
94.20739834867445
 20
-146.6899479817195
 30
0.0
 10
94.20739834867445
 20
-146.6899479817195
 30
0.0
 10
94.20739834867445
 20
-146.6899479817195
 30
0.0
 10
94.20739834867445
 20
-151.6898796550029
 30
0.0
 10
94.20739834867445
 20
-151.6898796550029
 30
0.0
 10
94.20739834867445
 20
-151.6898796550029
 30
0.0
 10
94.20739834867445
 20
-152.1897630099126
 30
0.0
 10
94.20739834867445
 20
-152.1897630099126
 30
0.0
 10
94.20739834867445
 20
-152.1897630099126
 30
0.0
 10
109.2078581642942
 20
-152.1897630099126
 30
0.0
 10
109.2078581642942
 20
-152.1897630099126
 30
0.0
 10
109.2078581642942
 20
-152.1897630099126
 30
0.0
 10
109.2078581642942
 20
-151.6898796550029
 30
0.0
 10
109.2078581642942
 20
-151.6898796550029
 30
0.0
 10
109.2078581642942
 20
-151.6898796550029
 30
0.0
 10
109.1895184137969
 20
-151.1899747682463
 30
0.0
 10
108.7044489694737
 20
-151.1899747682463
 30
0.0
  0
INSERT
  5
B5
330
1F
100
AcDbEntity
  8
_U+30EC_U+30A4_U+30E4_U+30FC 1
100
AcDbBlockReference
  2
block 7
 10
0.0
 20
0.0
 30
0.0
  0
POLYLINE
  5
C7
330
1F
100
AcDbEntity
  8
_U+30EC_U+30A4_U+30E4_U+30FC 1
 62
   179
420
  2234388
370
     9
100
AcDb2dPolyline
 66
     1
 10
0.0
 20
0.0
 30
0.0
  0
VERTEX
  5
C8
330
C7
100
AcDbEntity
  8
_U+30EC_U+30A4_U+30E4_U+30FC 1
 62
   179
420
  2234388
370
     9
100
AcDbVertex
100
AcDb2dVertex
 10
97.18093024049563
 20
-145.6268776423585
 30
0.0
  0
VERTEX
  5
C9
330
C7
100
AcDbEntity
  8
_U+30EC_U+30A4_U+30E4_U+30FC 1
 62
   179
420
  2234388
370
     9
100
AcDbVertex
100
AcDb2dVertex
 10
99.66801195831867
 20
-143.9963570128833
 30
0.0
  0
SEQEND
  5
CA
330
C7
100
AcDbEntity
  8
_U+30EC_U+30A4_U+30E4_U+30FC 1
 62
   179
420
  2234388
370
     9
  0
POLYLINE
  5
CB
330
1F
100
AcDbEntity
  8
_U+30EC_U+30A4_U+30E4_U+30FC 1
370
     0
100
AcDb2dPolyline
 66
     1
 10
0.0
 20
0.0
 30
0.0
  0
VERTEX
  5
CC
330
CB
100
AcDbEntity
  8
_U+30EC_U+30A4_U+30E4_U+30FC 1
370
     0
100
AcDbVertex
100
AcDb2dVertex
 10
97.18922000150701
 20
-145.2781909155576
 30
0.0
  0
VERTEX
  5
CD
330
CB
100
AcDbEntity
  8
_U+30EC_U+30A4_U+30E4_U+30FC 1
370
     0
100
AcDbVertex
100
AcDb2dVertex
 10
96.44203531185413
 20
-146.1156936280219
 30
0.0
  0
VERTEX
  5
CE
330
CB
100
AcDbEntity
  8
_U+30EC_U+30A4_U+30E4_U+30FC 1
370
     0
100
AcDbVertex
100
AcDb2dVertex
 10
97.50777829169701
 20
-145.7639709108246
 30
0.0
  0
VERTEX
  5
CF
330
CB
100
AcDbEntity
  8
_U+30EC_U+30A4_U+30E4_U+30FC 1
370
     0
100
AcDbVertex
100
AcDb2dVertex
 10
97.18922000150701
 20
-145.2781909155576
 30
0.0
  0
SEQEND
  5
D1
330
CB
100
AcDbEntity
  8
_U+30EC_U+30A4_U+30E4_U+30FC 1
370
     0
  0
HATCH
  5
D0
330
1F
100
AcDbEntity
  8
_U+30EC_U+30A4_U+30E4_U+30FC 1
 62
   179
420
  2234388
100
AcDbHatch
 10
0.0
 20
0.0
 30
0.0
210
0.0
220
0.0
230
1.0
  2
SOLID
 70
     1
 71
     0
 91
        1
 92
        1
 93
        3
 72
     1
 10
97.18922000150701
 20
-145.2781909155576
 11
96.44203531185413
 21
-146.1156936280219
 72
     1
 10
96.44203531185413
 20
-146.1156936280219
 11
97.50777829169701
 21
-145.7639709108246
 72
     1
 10
97.50777829169701
 20
-145.7639709108246
 11
97.18922000150701
 21
-145.2781909155576
 97
        0
 75
     2
 76
     1
 98
        0
  0
ENDSEC
  0
SECTION
  2
OBJECTS
  0
DICTIONARY
  5
C
330
0
100
AcDbDictionary
281
     1
  3
ACAD_GROUP
350
D
  3
ACAD_LAYOUT
350
1A
  3
ACAD_MATERIAL
350
3B
  3
ACAD_MLEADERSTYLE
350
D3
  3
ACAD_MLINESTYLE
350
17
  3
ACAD_PLOTSETTINGS
350
19
  3
ACAD_PLOTSTYLENAME
350
E
  3
ACAD_TABLESTYLE
350
D2
  3
ACAD_VISUALSTYLE
350
2A
  0
SUN
  5
3F
330
29
100
AcDbSun
 90
        1
290
     0
 63
     7
421
 16777215
 40
1.0
291
     1
 91
  2455826
 92
 54000000
292
     0
 70
     2
 71
   256
280
     1
  0
DICTIONARY
  5
D
102
{ACAD_REACTORS
330
C
102
}
330
C
100
AcDbDictionary
281
     1
  0
DICTIONARY
  5
1A
102
{ACAD_REACTORS
330
C
102
}
330
C
100
AcDbDictionary
281
     1
  3
Layout1
350
1E
  3
Layout2
350
26
  3
Model
350
22
  0
DICTIONARY
  5
3B
102
{ACAD_REACTORS
330
C
102
}
330
C
100
AcDbDictionary
281
     1
  3
ByBlock
350
3D
  3
ByLayer
350
3C
  3
Global
350
3E
  0
DICTIONARY
  5
D3
102
{ACAD_REACTORS
330
C
102
}
330
C
100
AcDbDictionary
281
     1
  0
DICTIONARY
  5
17
102
{ACAD_REACTORS
330
C
102
}
330
C
100
AcDbDictionary
281
     1
  3
Standard
350
18
  0
DICTIONARY
  5
19
102
{ACAD_REACTORS
330
C
102
}
330
C
100
AcDbDictionary
281
     1
  0
ACDBDICTIONARYWDFLT
  5
E
102
{ACAD_REACTORS
330
C
102
}
330
C
100
AcDbDictionary
281
     1
  3
Normal
350
F
100
AcDbDictionaryWithDefault
340
F
  0
DICTIONARY
  5
D2
102
{ACAD_REACTORS
330
C
102
}
330
C
100
AcDbDictionary
281
     1
  0
DICTIONARY
  5
2A
102
{ACAD_REACTORS
330
C
102
}
330
C
100
AcDbDictionary
281
     1
  3
2dWireframe
350
2F
  3
3D Hidden
350
31
  3
3dWireframe
350
30
  3
Basic
350
32
  3
Brighten
350
36
  3
ColorChange
350
3A
  3
Conceptual
350
34
  3
Dim
350
35
  3
Facepattern
350
39
  3
Flat
350
2B
  3
FlatWithEdges
350
2C
  3
Gouraud
350
2D
  3
GouraudWithEdges
350
2E
  3
Linepattern
350
38
  3
Realistic
350
33
  3
Thicken
350
37
  0
LAYOUT
  5
1E
102
{ACAD_REACTORS
330
1A
102
}
330
1A
100
AcDbPlotSettings
  1

  2
none_device
  4

  6

 40
0.0
 41
0.0
 42
0.0
 43
0.0
 44
0.0
 45
0.0
 46
0.0
 47
0.0
 48
0.0
 49
0.0
140
0.0
141
0.0
142
1.0
143
1.0
 70
   688
 72
     0
 73
     0
 74
     5
  7

 75
    16
 76
     0
 77
     2
 78
   300
147
1.0
148
0.0
149
0.0
100
AcDbLayout
  1
Layout1
 70
     1
 71
     1
 10
0.0
 20
0.0
 11
12.0
 21
9.0
 12
0.0
 22
0.0
 32
0.0
 14
1.000000000000000E+20
 24
1.000000000000000E+20
 34
1.000000000000000E+20
 15
-1.000000000000000E+20
 25
-1.000000000000000E+20
 35
-1.000000000000000E+20
146
0.0
 13
0.0
 23
0.0
 33
0.0
 16
1.0
 26
0.0
 36
0.0
 17
0.0
 27
1.0
 37
0.0
 76
     0
330
1B
  0
LAYOUT
  5
26
102
{ACAD_REACTORS
330
1A
102
}
330
1A
100
AcDbPlotSettings
  1

  2
none_device
  4

  6

 40
0.0
 41
0.0
 42
0.0
 43
0.0
 44
0.0
 45
0.0
 46
0.0
 47
0.0
 48
0.0
 49
0.0
140
0.0
141
0.0
142
1.0
143
1.0
 70
   688
 72
     0
 73
     0
 74
     5
  7

 75
    16
 76
     0
 77
     2
 78
   300
147
1.0
148
0.0
149
0.0
100
AcDbLayout
  1
Layout2
 70
     1
 71
     2
 10
0.0
 20
0.0
 11
0.0
 21
0.0
 12
0.0
 22
0.0
 32
0.0
 14
0.0
 24
0.0
 34
0.0
 15
0.0
 25
0.0
 35
0.0
146
0.0
 13
0.0
 23
0.0
 33
0.0
 16
1.0
 26
0.0
 36
0.0
 17
0.0
 27
1.0
 37
0.0
 76
     0
330
23
  0
LAYOUT
  5
22
102
{ACAD_REACTORS
330
1A
102
}
330
1A
100
AcDbPlotSettings
  1

  2
none_device
  4

  6

 40
0.0
 41
0.0
 42
0.0
 43
0.0
 44
0.0
 45
0.0
 46
0.0
 47
0.0
 48
0.0
 49
0.0
140
0.0
141
0.0
142
1.0
143
1.0
 70
  1712
 72
     0
 73
     0
 74
     0
  7

 75
     0
 76
     0
 77
     2
 78
   300
147
1.0
148
0.0
149
0.0
100
AcDbLayout
  1
Model
 70
     1
 71
     0
 10
0.0
 20
0.0
 11
12.0
 21
9.0
 12
0.0
 22
0.0
 32
0.0
 14
1.000000000000000E+20
 24
1.000000000000000E+20
 34
1.000000000000000E+20
 15
-1.000000000000000E+20
 25
-1.000000000000000E+20
 35
-1.000000000000000E+20
146
0.0
 13
0.0
 23
0.0
 33
0.0
 16
1.0
 26
0.0
 36
0.0
 17
0.0
 27
1.0
 37
0.0
 76
     0
330
1F
331
29
  0
MATERIAL
  5
3D
102
{ACAD_REACTORS
330
3B
102
}
330
3B
100
AcDbMaterial
  1
ByBlock
 72
     1
 94
      127
  0
MATERIAL
  5
3C
102
{ACAD_REACTORS
330
3B
102
}
330
3B
100
AcDbMaterial
  1
ByLayer
 72
     1
 94
      127
  0
MATERIAL
  5
3E
102
{ACAD_REACTORS
330
3B
102
}
330
3B
100
AcDbMaterial
  1
Global
 72
     1
 94
      127
  0
MLINESTYLE
  5
18
102
{ACAD_REACTORS
330
17
102
}
330
17
100
AcDbMlineStyle
  2
Standard
 70
     0
  3

 62
   256
 51
90.0
 52
90.0
 71
     2
 49
0.5
 62
   256
  6
BYLAYER
 49
-0.5
 62
   256
  6
BYLAYER
  0
ACDBPLACEHOLDER
  5
F
102
{ACAD_REACTORS
330
E
102
}
330
E
  0
VISUALSTYLE
  5
2F
102
{ACAD_REACTORS
330
2A
102
}
330
2A
100
AcDbVisualStyle
  2
2dWireframe
 70
     4
177
     2
291
     0
 71
     0
176
     1
 72
     2
176
     1
 73
     0
176
     1
 90
        0
176
     1
 40
-0.6
176
     1
 41
-30.0
176
     1
 62
     5
 63
     7
421
 16777215
176
     1
 74
     1
176
     1
 91
        4
176
     1
 64
     7
176
     1
 65
   257
176
     1
 75
     1
176
     1
175
     1
176
     1
 42
1.0
176
     1
 92
        0
176
     1
 66
   257
176
     1
 43
1.0
176
     1
 76
     1
176
     1
 77
     6
176
     1
 78
     2
176
     1
 67
     7
176
     1
 79
     5
176
     1
170
     0
176
     1
171
     0
176
     1
290
     0
176
     1
 93
        1
176
     1
 44
0.0
176
     1
173
     0
176
     1
  0
VISUALSTYLE
  5
31
102
{ACAD_REACTORS
330
2A
102
}
330
2A
100
AcDbVisualStyle
  2
3D Hidden
 70
     6
177
     2
291
     0
 71
     1
176
     1
 72
     2
176
     1
 73
     2
176
     1
 90
        0
176
     1
 40
-0.6
176
     1
 41
-30.0
176
     1
 62
     5
 63
     7
421
 16777215
176
     1
 74
     2
176
     1
 91
        2
176
     1
 64
     7
176
     1
 65
   257
176
     1
 75
     2
176
     1
175
     1
176
     1
 42
40.0
176
     1
 92
        0
176
     1
 66
   257
176
     1
 43
1.0
176
     1
 76
     1
176
     1
 77
     6
176
     1
 78
     2
176
     1
 67
     7
176
     1
 79
     3
176
     1
170
     0
176
     1
171
     0
176
     1
290
     0
176
     1
 93
        1
176
     1
 44
0.0
176
     1
173
     0
176
     1
  0
VISUALSTYLE
  5
30
102
{ACAD_REACTORS
330
2A
102
}
330
2A
100
AcDbVisualStyle
  2
3dWireframe
 70
     5
177
     2
291
     0
 71
     0
176
     1
 72
     2
176
     1
 73
     0
176
     1
 90
        0
176
     1
 40
-0.6
176
     1
 41
-30.0
176
     1
 62
     5
 63
     7
421
 16777215
176
     1
 74
     1
176
     1
 91
        4
176
     1
 64
     7
176
     1
 65
   257
176
     1
 75
     1
176
     1
175
     1
176
     1
 42
1.0
176
     1
 92
        0
176
     1
 66
   257
176
     1
 43
1.0
176
     1
 76
     1
176
     1
 77
     6
176
     1
 78
     2
176
     1
 67
     7
176
     1
 79
     5
176
     1
170
     0
176
     1
171
     0
176
     1
290
     0
176
     1
 93
        1
176
     1
 44
0.0
176
     1
173
     0
176
     1
  0
VISUALSTYLE
  5
32
102
{ACAD_REACTORS
330
2A
102
}
330
2A
100
AcDbVisualStyle
  2
Basic
 70
     7
177
     2
291
     1
 71
     1
176
     1
 72
     0
176
     1
 73
     1
176
     1
 90
        0
176
     1
 40
-0.6
176
     1
 41
-30.0
176
     1
 62
     5
 63
     7
421
 16777215
176
     1
 74
     0
176
     1
 91
        4
176
     1
 64
     7
176
     1
 65
   257
176
     1
 75
     1
176
     1
175
     1
176
     1
 42
1.0
176
     1
 92
        8
176
     1
 66
     7
176
     1
 43
1.0
176
     1
 76
     1
176
     1
 77
     6
176
     1
 78
     2
176
     1
 67
     7
176
     1
 79
     5
176
     1
170
     0
176
     1
171
     0
176
     1
290
     0
176
     1
 93
        1
176
     1
 44
0.0
176
     1
173
     0
176
     1
  0
VISUALSTYLE
  5
36
102
{ACAD_REACTORS
330
2A
102
}
330
2A
100
AcDbVisualStyle
  2
Brighten
 70
    12
177
     2
291
     1
 71
     2
176
     1
 72
     2
176
     1
 73
     0
176
     1
 90
        0
176
     1
 40
-0.6
176
     1
 41
-30.0
176
     1
 62
     5
 63
     7
421
 16777215
176
     1
 74
     1
176
     1
 91
        4
176
     1
 64
     7
176
     1
 65
   257
176
     1
 75
     1
176
     1
175
     1
176
     1
 42
1.0
176
     1
 92
        8
176
     1
 66
     7
176
     1
 43
1.0
176
     1
 76
     1
176
     1
 77
     6
176
     1
 78
     2
176
     1
 67
     7
176
     1
 79
     5
176
     1
170
     0
176
     1
171
     0
176
     1
290
     0
176
     1
 93
        1
176
     1
 44
50.0
176
     1
173
     0
176
     1
  0
VISUALSTYLE
  5
3A
102
{ACAD_REACTORS
330
2A
102
}
330
2A
100
AcDbVisualStyle
  2
ColorChange
 70
    16
177
     2
291
     1
 71
     2
176
     1
 72
     2
176
     1
 73
     3
176
     1
 90
        0
176
     1
 40
-0.6
176
     1
 41
-30.0
176
     1
 62
     5
 63
     8
421
  8421504
176
     1
 74
     1
176
     1
 91
        4
176
     1
 64
     7
176
     1
 65
   257
176
     1
 75
     1
176
     1
175
     1
176
     1
 42
1.0
176
     1
 92
        8
176
     1
 66
     8
424
  8421504
176
     1
 43
1.0
176
     1
 76
     1
176
     1
 77
     6
176
     1
 78
     2
176
     1
 67
     7
176
     1
 79
     5
176
     1
170
     0
176
     1
171
     0
176
     1
290
     0
176
     1
 93
        1
176
     1
 44
0.0
176
     1
173
     0
176
     1
  0
VISUALSTYLE
  5
34
102
{ACAD_REACTORS
330
2A
102
}
330
2A
100
AcDbVisualStyle
  2
Conceptual
 70
     9
177
     2
291
     0
 71
     3
176
     1
 72
     2
176
     1
 73
     0
176
     1
 90
        0
176
     1
 40
-0.6
176
     1
 41
-30.0
176
     1
 62
     5
 63
     7
421
 16777215
176
     1
 74
     2
176
     1
 91
        2
176
     1
 64
     7
176
     1
 65
   257
176
     1
 75
     1
176
     1
175
     1
176
     1
 42
40.0
176
     1
 92
        8
176
     1
 66
     7
176
     1
 43
1.0
176
     1
 76
     1
176
     1
 77
     6
176
     1
 78
     2
176
     1
 67
     7
176
     1
 79
     3
176
     1
170
     0
176
     1
171
     0
176
     1
290
     0
176
     1
 93
        1
176
     1
 44
0.0
176
     1
173
     0
176
     1
  0
VISUALSTYLE
  5
35
102
{ACAD_REACTORS
330
2A
102
}
330
2A
100
AcDbVisualStyle
  2
Dim
 70
    11
177
     2
291
     1
 71
     2
176
     1
 72
     2
176
     1
 73
     0
176
     1
 90
        0
176
     1
 40
-0.6
176
     1
 41
-30.0
176
     1
 62
     5
 63
     7
421
 16777215
176
     1
 74
     1
176
     1
 91
        4
176
     1
 64
     7
176
     1
 65
   257
176
     1
 75
     1
176
     1
175
     1
176
     1
 42
1.0
176
     1
 92
        8
176
     1
 66
     7
176
     1
 43
1.0
176
     1
 76
     1
176
     1
 77
     6
176
     1
 78
     2
176
     1
 67
     7
176
     1
 79
     5
176
     1
170
     0
176
     1
171
     0
176
     1
290
     0
176
     1
 93
        1
176
     1
 44
-50.0
176
     1
173
     0
176
     1
  0
VISUALSTYLE
  5
39
102
{ACAD_REACTORS
330
2A
102
}
330
2A
100
AcDbVisualStyle
  2
Facepattern
 70
    15
177
     2
291
     1
 71
     2
176
     1
 72
     2
176
     1
 73
     0
176
     1
 90
        0
176
     1
 40
-0.6
176
     1
 41
-30.0
176
     1
 62
     5
 63
     7
421
 16777215
176
     1
 74
     1
176
     1
 91
        4
176
     1
 64
     7
176
     1
 65
   257
176
     1
 75
     1
176
     1
175
     1
176
     1
 42
1.0
176
     1
 92
        8
176
     1
 66
     7
176
     1
 43
1.0
176
     1
 76
     1
176
     1
 77
     6
176
     1
 78
     2
176
     1
 67
     7
176
     1
 79
     5
176
     1
170
     0
176
     1
171
     0
176
     1
290
     0
176
     1
 93
        1
176
     1
 44
0.0
176
     1
173
     0
176
     1
  0
VISUALSTYLE
  5
2B
102
{ACAD_REACTORS
330
2A
102
}
330
2A
100
AcDbVisualStyle
  2
Flat
 70
     0
177
     2
291
     1
 71
     2
176
     1
 72
     1
176
     1
 73
     1
176
     1
 90
        2
176
     1
 40
-0.6
176
     1
 41
30.0
176
     1
 62
     5
 63
     7
421
 16777215
176
     1
 74
     0
176
     1
 91
        4
176
     1
 64
     7
176
     1
 65
   257
176
     1
 75
     1
176
     1
175
     1
176
     1
 42
1.0
176
     1
 92
        8
176
     1
 66
     7
176
     1
 43
1.0
176
     1
 76
     1
176
     1
 77
     6
176
     1
 78
     2
176
     1
 67
     7
176
     1
 79
     5
176
     1
170
     0
176
     1
171
     0
176
     1
290
     0
176
     1
 93
       13
176
     1
 44
0.0
176
     1
173
     0
176
     1
  0
VISUALSTYLE
  5
2C
102
{ACAD_REACTORS
330
2A
102
}
330
2A
100
AcDbVisualStyle
  2
FlatWithEdges
 70
     1
177
     2
291
     1
 71
     2
176
     1
 72
     1
176
     1
 73
     1
176
     1
 90
        2
176
     1
 40
-0.6
176
     1
 41
30.0
176
     1
 62
     5
 63
     7
421
 16777215
176
     1
 74
     1
176
     1
 91
        4
176
     1
 64
     7
176
     1
 65
   257
176
     1
 75
     1
176
     1
175
     1
176
     1
 42
1.0
176
     1
 92
        0
176
     1
 66
   257
176
     1
 43
1.0
176
     1
 76
     1
176
     1
 77
     6
176
     1
 78
     2
176
     1
 67
     7
176
     1
 79
     5
176
     1
170
     0
176
     1
171
     0
176
     1
290
     0
176
     1
 93
       13
176
     1
 44
0.0
176
     1
173
     0
176
     1
  0
VISUALSTYLE
  5
2D
102
{ACAD_REACTORS
330
2A
102
}
330
2A
100
AcDbVisualStyle
  2
Gouraud
 70
     2
177
     2
291
     1
 71
     2
176
     1
 72
     2
176
     1
 73
     1
176
     1
 90
        2
176
     1
 40
-0.6
176
     1
 41
30.0
176
     1
 62
     5
 63
     7
421
 16777215
176
     1
 74
     0
176
     1
 91
        4
176
     1
 64
     7
176
     1
 65
   257
176
     1
 75
     1
176
     1
175
     1
176
     1
 42
1.0
176
     1
 92
        0
176
     1
 66
     7
176
     1
 43
1.0
176
     1
 76
     1
176
     1
 77
     6
176
     1
 78
     2
176
     1
 67
     7
176
     1
 79
     5
176
     1
170
     0
176
     1
171
     0
176
     1
290
     0
176
     1
 93
       13
176
     1
 44
0.0
176
     1
173
     0
176
     1
  0
VISUALSTYLE
  5
2E
102
{ACAD_REACTORS
330
2A
102
}
330
2A
100
AcDbVisualStyle
  2
GouraudWithEdges
 70
     3
177
     2
291
     1
 71
     2
176
     1
 72
     2
176
     1
 73
     1
176
     1
 90
        2
176
     1
 40
-0.6
176
     1
 41
30.0
176
     1
 62
     5
 63
     7
421
 16777215
176
     1
 74
     1
176
     1
 91
        4
176
     1
 64
     7
176
     1
 65
   257
176
     1
 75
     1
176
     1
175
     1
176
     1
 42
1.0
176
     1
 92
        0
176
     1
 66
   257
176
     1
 43
1.0
176
     1
 76
     1
176
     1
 77
     6
176
     1
 78
     2
176
     1
 67
     7
176
     1
 79
     5
176
     1
170
     0
176
     1
171
     0
176
     1
290
     0
176
     1
 93
       13
176
     1
 44
0.0
176
     1
173
     0
176
     1
  0
VISUALSTYLE
  5
38
102
{ACAD_REACTORS
330
2A
102
}
330
2A
100
AcDbVisualStyle
  2
Linepattern
 70
    14
177
     2
291
     1
 71
     2
176
     1
 72
     2
176
     1
 73
     0
176
     1
 90
        0
176
     1
 40
-0.6
176
     1
 41
-30.0
176
     1
 62
     5
 63
     7
421
 16777215
176
     1
 74
     1
176
     1
 91
        4
176
     1
 64
     7
176
     1
 65
   257
176
     1
 75
     7
176
     1
175
     7
176
     1
 42
1.0
176
     1
 92
        8
176
     1
 66
     7
176
     1
 43
1.0
176
     1
 76
     1
176
     1
 77
     6
176
     1
 78
     2
176
     1
 67
     7
176
     1
 79
     5
176
     1
170
     0
176
     1
171
     0
176
     1
290
     0
176
     1
 93
        1
176
     1
 44
0.0
176
     1
173
     0
176
     1
  0
VISUALSTYLE
  5
33
102
{ACAD_REACTORS
330
2A
102
}
330
2A
100
AcDbVisualStyle
  2
Realistic
 70
     8
177
     2
291
     0
 71
     2
176
     1
 72
     2
176
     1
 73
     0
176
     1
 90
        0
176
     1
 40
-0.6
176
     1
 41
-30.0
176
     1
 62
     5
 63
     7
421
 16777215
176
     1
 74
     1
176
     1
 91
        0
176
     1
 64
     7
176
     1
 65
   257
176
     1
 75
     1
176
     1
175
     1
176
     1
 42
1.0
176
     1
 92
        8
176
     1
 66
     8
424
  7895160
176
     1
 43
1.0
176
     1
 76
     1
176
     1
 77
     6
176
     1
 78
     2
176
     1
 67
     7
176
     1
 79
     5
176
     1
170
     0
176
     1
171
     0
176
     1
290
     0
176
     1
 93
       13
176
     1
 44
0.0
176
     1
173
     0
176
     1
  0
VISUALSTYLE
  5
37
102
{ACAD_REACTORS
330
2A
102
}
330
2A
100
AcDbVisualStyle
  2
Thicken
 70
    13
177
     2
291
     1
 71
     2
176
     1
 72
     2
176
     1
 73
     0
176
     1
 90
        0
176
     1
 40
-0.6
176
     1
 41
-30.0
176
     1
 62
     5
 63
     7
421
 16777215
176
     1
 74
     1
176
     1
 91
        4
176
     1
 64
     7
176
     1
 65
   257
176
     1
 75
     1
176
     1
175
     1
176
     1
 42
1.0
176
     1
 92
       12
176
     1
 66
     7
176
     1
 43
1.0
176
     1
 76
     1
176
     1
 77
     6
176
     1
 78
     2
176
     1
 67
     7
176
     1
 79
     5
176
     1
170
     0
176
     1
171
     0
176
     1
290
     0
176
     1
 93
        1
176
     1
 44
0.0
176
     1
173
     0
176
     1
  0
ENDSEC
  0
EOF
