  0
SECTION
  2
HEADER
  9
$ACADVER
  1
AC1024
  9
$ACADMAINTVER
 70
     6
  9
$DWGCODEPAGE
  3
UNDEFINED
  9
$INSBASE
 10
0.0
 20
0.0
 30
0.0
  9
$EXTMIN
 10
1.000000000000000E+20
 20
1.000000000000000E+20
 30
1.000000000000000E+20
  9
$EXTMAX
 10
-1.000000000000000E+20
 20
-1.000000000000000E+20
 30
-1.000000000000000E+20
  9
$LIMMIN
 10
0.0
 20
0.0
  9
$LIMMAX
 10
12.0
 20
9.0
  9
$ORTHOMODE
 70
     0
  9
$REGENMODE
 70
     1
  9
$FILLMODE
 70
     1
  9
$QTEXTMODE
 70
     0
  9
$MIRRTEXT
 70
     1
  9
$LTSCALE
 40
1.0
  9
$ATTMODE
 70
     1
  9
$TEXTSIZE
 40
0.2
  9
$TRACEWID
 40
0.05
  9
$TEXTSTYLE
  7
Standard
  9
$CLAYER
  8
0
  9
$CELTYPE
  6
ByLayer
  9
$CECOLOR
 62
   256
  9
$CELTSCALE
 40
1.0
  9
$DISPSILH
 70
     0
  9
$DIMSCALE
 40
1.0
  9
$DIMASZ
 40
0.18
  9
$DIMEXO
 40
0.0625
  9
$DIMDLI
 40
0.38
  9
$DIMRND
 40
0.0
  9
$DIMDLE
 40
0.0
  9
$DIMEXE
 40
0.18
  9
$DIMTP
 40
0.0
  9
$DIMTM
 40
0.0
  9
$DIMTXT
 40
0.18
  9
$DIMCEN
 40
0.09
  9
$DIMTSZ
 40
0.0
  9
$DIMTOL
 70
     0
  9
$DIMLIM
 70
     0
  9
$DIMTIH
 70
     1
  9
$DIMTOH
 70
     1
  9
$DIMSE1
 70
     0
  9
$DIMSE2
 70
     0
  9
$DIMTAD
 70
     0
  9
$DIMZIN
 70
     0
  9
$DIMBLK
  1

  9
$DIMASO
 70
     1
  9
$DIMSHO
 70
     1
  9
$DIMPOST
  1

  9
$DIMAPOST
  1

  9
$DIMALT
 70
     0
  9
$DIMALTD
 70
     2
  9
$DIMALTF
 40
25.4
  9
$DIMLFAC
 40
1.0
  9
$DIMTOFL
 70
     0
  9
$DIMTVP
 40
0.0
  9
$DIMTIX
 70
     0
  9
$DIMSOXD
 70
     0
  9
$DIMSAH
 70
     0
  9
$DIMBLK1
  1

  9
$DIMBLK2
  1

  9
$DIMSTYLE
  2
Standard
  9
$DIMCLRD
 70
     0
  9
$DIMCLRE
 70
     0
  9
$DIMCLRT
 70
     0
  9
$DIMTFAC
 40
1.0
  9
$DIMGAP
 40
0.09
  9
$DIMJUST
 70
     0
  9
$DIMSD1
 70
     0
  9
$DIMSD2
 70
     0
  9
$DIMTOLJ
 70
     1
  9
$DIMTZIN
 70
     0
  9
$DIMALTZ
 70
     0
  9
$DIMALTTZ
 70
     0
  9
$DIMUPT
 70
     0
  9
$DIMDEC
 70
     4
  9
$DIMTDEC
 70
     4
  9
$DIMALTU
 70
     2
  9
$DIMALTTD
 70
     2
  9
$DIMTXSTY
  7
Standard
  9
$DIMAUNIT
 70
     0
  9
$DIMADEC
 70
     0
  9
$DIMALTRND
 40
0.0
  9
$DIMAZIN
 70
     0
  9
$DIMDSEP
 70
    46
  9
$DIMATFIT
 70
     3
  9
$DIMFRAC
 70
     0
  9
$DIMLDRBLK
  1

  9
$DIMLUNIT
 70
     2
  9
$DIMLWD
 70
    -2
  9
$DIMLWE
 70
    -2
  9
$DIMTMOVE
 70
     0
  9
$DIMFXL
 40
1.0
  9
$DIMFXLON
 70
     0
  9
$DIMJOGANG
 40
0.7853981633974483
  9
$DIMTFILL
 70
     0
  9
$DIMTFILLCLR
 70
     0
  9
$DIMARCSYM
 70
     0
  9
$DIMLTYPE
  6

  9
$DIMLTEX1
  6

  9
$DIMLTEX2
  6

  9
$DIMTXTDIRECTION
 70
     0
  9
$LUNITS
 70
     2
  9
$LUPREC
 70
     4
  9
$SKETCHINC
 40
0.1
  9
$FILLETRAD
 40
0.5
  9
$AUNITS
 70
     0
  9
$AUPREC
 70
     0
  9
$MENU
  1
.
  9
$ELEVATION
 40
0.0
  9
$PELEVATION
 40
0.0
  9
$THICKNESS
 40
0.0
  9
$LIMCHECK
 70
     0
  9
$CHAMFERA
 40
0.5
  9
$CHAMFERB
 40
0.5
  9
$CHAMFERC
 40
1.0
  9
$CHAMFERD
 40
0.0
  9
$SKPOLY
 70
     0
  9
$TDCREATE
 40
2457917.622175914
  9
$TDUCREATE
 40
2457917.247175926
  9
$TDUPDATE
 40
2457917.622175914
  9
$TDUUPDATE
 40
2457917.247175926
  9
$TDINDWG
 40
0.0000000116
  9
$TDUSRTIMER
 40
0.0000000116
  9
$USRTIMER
 70
     1
  9
$ANGBASE
 50
0.0
  9
$ANGDIR
 70
     0
  9
$PDMODE
 70
     0
  9
$PDSIZE
 40
0.0
  9
$PLINEWID
 40
0.0
  9
$SPLFRAME
 70
     0
  9
$SPLINETYPE
 70
     6
  9
$SPLINESEGS
 70
     8
  9
$HANDSEED
  5
D4
  9
$SURFTAB1
 70
     6
  9
$SURFTAB2
 70
     6
  9
$SURFTYPE
 70
     6
  9
$SURFU
 70
     6
  9
$SURFV
 70
     6
  9
$UCSBASE
  2

  9
$UCSNAME
  2

  9
$UCSORG
 10
0.0
 20
0.0
 30
0.0
  9
$UCSXDIR
 10
1.0
 20
0.0
 30
0.0
  9
$UCSYDIR
 10
0.0
 20
1.0
 30
0.0
  9
$UCSORTHOREF
  2

  9
$UCSORTHOVIEW
 70
     0
  9
$UCSORGTOP
 10
0.0
 20
0.0
 30
0.0
  9
$UCSORGBOTTOM
 10
0.0
 20
0.0
 30
0.0
  9
$UCSORGLEFT
 10
0.0
 20
0.0
 30
0.0
  9
$UCSORGRIGHT
 10
0.0
 20
0.0
 30
0.0
  9
$UCSORGFRONT
 10
0.0
 20
0.0
 30
0.0
  9
$UCSORGBACK
 10
0.0
 20
0.0
 30
0.0
  9
$PUCSBASE
  2

  9
$PUCSNAME
  2

  9
$PUCSORG
 10
0.0
 20
0.0
 30
0.0
  9
$PUCSXDIR
 10
1.0
 20
0.0
 30
0.0
  9
$PUCSYDIR
 10
0.0
 20
1.0
 30
0.0
  9
$PUCSORTHOREF
  2

  9
$PUCSORTHOVIEW
 70
     0
  9
$PUCSORGTOP
 10
0.0
 20
0.0
 30
0.0
  9
$PUCSORGBOTTOM
 10
0.0
 20
0.0
 30
0.0
  9
$PUCSORGLEFT
 10
0.0
 20
0.0
 30
0.0
  9
$PUCSORGRIGHT
 10
0.0
 20
0.0
 30
0.0
  9
$PUCSORGFRONT
 10
0.0
 20
0.0
 30
0.0
  9
$PUCSORGBACK
 10
0.0
 20
0.0
 30
0.0
  9
$USERI1
 70
     0
  9
$USERI2
 70
     0
  9
$USERI3
 70
     0
  9
$USERI4
 70
     0
  9
$USERI5
 70
     0
  9
$USERR1
 40
0.0
  9
$USERR2
 40
0.0
  9
$USERR3
 40
0.0
  9
$USERR4
 40
0.0
  9
$USERR5
 40
0.0
  9
$WORLDVIEW
 70
     1
  9
$SHADEDGE
 70
     3
  9
$SHADEDIF
 70
    70
  9
$TILEMODE
 70
     1
  9
$MAXACTVP
 70
    64
  9
$PINSBASE
 10
0.0
 20
0.0
 30
0.0
  9
$PLIMCHECK
 70
     0
  9
$PEXTMIN
 10
1.000000000000000E+20
 20
1.000000000000000E+20
 30
1.000000000000000E+20
  9
$PEXTMAX
 10
-1.000000000000000E+20
 20
-1.000000000000000E+20
 30
-1.000000000000000E+20
  9
$PLIMMIN
 10
0.0
 20
0.0
  9
$PLIMMAX
 10
12.0
 20
9.0
  9
$UNITMODE
 70
     0
  9
$VISRETAIN
 70
     1
  9
$PLINEGEN
 70
     0
  9
$PSLTSCALE
 70
     1
  9
$TREEDEPTH
 70
  3020
  9
$CMLSTYLE
  2
Standard
  9
$CMLJUST
 70
     0
  9
$CMLSCALE
 40
1.0
  9
$PROXYGRAPHICS
 70
     1
  9
$MEASUREMENT
 70
     0
  9
$CELWEIGHT
370
    -1
  9
$ENDCAPS
280
     0
  9
$JOINSTYLE
280
     0
  9
$LWDISPLAY
290
     1
  9
$INSUNITS
 70
     1
  9
$HYPERLINKBASE
  1

  9
$STYLESHEET
  1

  9
$XEDIT
290
     1
  9
$CEPSNTYPE
380
     0
  9
$PSTYLEMODE
290
     1
  9
$FINGERPRINTGUID
  2
{DACBD68C-F642-3D1F-2940-FE5E63AC2562}
  9
$VERSIONGUID
  2
{FAEB1C32-E019-11D5-929B-00C0DF256EC4}
  9
$EXTNAMES
290
     1
  9
$PSVPSCALE
 40
0.0
  9
$OLESTARTUP
290
     0
  9
$SORTENTS
280
   127
  9
$INDEXCTL
280
     0
  9
$HIDETEXT
280
     1
  9
$XCLIPFRAME
280
     2
  9
$HALOGAP
280
     0
  9
$OBSCOLOR
 70
   257
  9
$OBSLTYPE
280
     0
  9
$INTERSECTIONDISPLAY
280
     0
  9
$INTERSECTIONCOLOR
 70
   257
  9
$DIMASSOC
280
     2
  9
$PROJECTNAME
  1

  9
$CAMERADISPLAY
290
     0
  9
$LENSLENGTH
 40
50.0
  9
$CAMERAHEIGHT
 40
0.0
  9
$STEPSPERSEC
 40
2.0
  9
$STEPSIZE
 40
6.0
  9
$3DDWFPREC
 40
2.0
  9
$PSOLWIDTH
 40
0.25
  9
$PSOLHEIGHT
 40
4.0
  9
$LOFTANG1
 40
1.570796326794897
  9
$LOFTANG2
 40
1.570796326794897
  9
$LOFTMAG1
 40
0.0
  9
$LOFTMAG2
 40
0.0
  9
$LOFTPARAM
 70
     7
  9
$LOFTNORMALS
280
     1
  9
$LATITUDE
 40
37.795
  9
$LONGITUDE
 40
-122.394
  9
$NORTHDIRECTION
 40
0.0
  9
$TIMEZONE
 70
 -8000
  9
$LIGHTGLYPHDISPLAY
280
     1
  9
$TILEMODELIGHTSYNCH
280
     1
  9
$CMATERIAL
347
3C
  9
$SOLIDHIST
280
     1
  9
$SHOWHIST
280
     1
  9
$DWFFRAME
280
     2
  9
$DGNFRAME
280
     2
  9
$REALWORLDSCALE
290
     1
  9
$INTERFERECOLOR
 62
   256
  9
$CSHADOW
280
     0
  9
$SHADOWPLANELOCATION
 40
0.0
  0
ENDSEC
  0
SECTION
  2
CLASSES
  0
CLASS
  1
ACDBDICTIONARYWDFLT
  2
AcDbDictionaryWithDefault
  3
ObjectDBX Classes
 90
        0
 91
        4
280
     0
281
     0
  0
CLASS
  1
VISUALSTYLE
  2
AcDbVisualStyle
  3
ObjectDBX Classes
 90
     4095
 91
        4
280
     0
281
     0
  0
CLASS
  1
MATERIAL
  2
AcDbMaterial
  3
ObjectDBX Classes
 90
     1153
 91
        4
280
     0
281
     0
  0
CLASS
  1
SUN
  2
AcDbSun
  3
SCENEOE
 90
     1024
 91
        4
280
     0
281
     0
  0
ENDSEC
  0
SECTION
  2
TABLES
  0
TABLE
  2
VPORT
  5
8
330
0
100
AcDbSymbolTable
 70
     1
  0
VPORT
  5
29
330
8
100
AcDbSymbolTableRecord
100
AcDbViewportTableRecord
  2
*Active
 70
     0
 10
0.0
 20
0.0
 11
1.0
 21
1.0
 12
0.0
 22
0.0
 13
0.0
 23
0.0
 14
0.5
 24
0.5
 15
0.5
 25
0.5
 16
0.0
 26
0.0
 36
1.0
 17
91.00082462281999
 27
-128.4993055234307
 37
0.0
 40
256.9986110468615
 41
0.7081814508812795
 42
50.0
 43
0.0
 44
0.0
 50
0.0
 51
0.0
 71
     0
 72
   100
 73
     1
 74
     3
 75
     0
 76
     0
 77
     0
 78
     0
281
     0
 65
     1
110
0.0
120
0.0
130
0.0
111
1.0
121
0.0
131
0.0
112
0.0
122
1.0
132
0.0
 79
     0
146
0.0
 60
     3
 61
     5
292
     1
282
     1
141
0.0
142
0.0
 63
   250
361
3F
  0
ENDTAB
  0
TABLE
  2
LTYPE
  5
5
330
0
100
AcDbSymbolTable
 70
     1
  0
LTYPE
  5
14
330
5
100
AcDbSymbolTableRecord
100
AcDbLinetypeTableRecord
  2
ByBlock
 70
     0
  3

 72
    65
 73
     0
 40
0.0
  0
LTYPE
  5
15
330
5
100
AcDbSymbolTableRecord
100
AcDbLinetypeTableRecord
  2
ByLayer
 70
     0
  3

 72
    65
 73
     0
 40
0.0
  0
LTYPE
  5
16
330
5
100
AcDbSymbolTableRecord
100
AcDbLinetypeTableRecord
  2
Continuous
 70
     0
  3
Solid line
 72
    65
 73
     0
 40
0.0
  0
ENDTAB
  0
TABLE
  2
LAYER
  5
2
330
0
100
AcDbSymbolTable
 70
     2
  0
LAYER
  5
10
330
2
100
AcDbSymbolTableRecord
100
AcDbLayerTableRecord
  2
0
 70
     0
 62
     7
  6
Continuous
370
    -3
390
F
347
3E
  0
LAYER
  5
40
330
2
100
AcDbSymbolTableRecord
100
AcDbLayerTableRecord
  2
_U+30EC_U+30A4_U+30E4_U+30FC 1
 70
     0
 62
     7
  6
Continuous
370
    -3
390
F
347
3E
  0
ENDTAB
  0
TABLE
  2
STYLE
  5
3
330
0
100
AcDbSymbolTable
 70
     1
  0
STYLE
  5
11
330
3
100
AcDbSymbolTableRecord
100
AcDbTextStyleTableRecord
  2
Standard
 70
     0
 40
0.0
 41
1.0
 50
0.0
 71
     0
 42
0.2
  3
txt
  4

  0
ENDTAB
  0
TABLE
  2
VIEW
  5
6
330
0
100
AcDbSymbolTable
 70
     0
  0
ENDTAB
  0
TABLE
  2
UCS
  5
7
330
0
100
AcDbSymbolTable
 70
     0
  0
ENDTAB
  0
TABLE
  2
APPID
  5
9
330
0
100
AcDbSymbolTable
 70
     1
  0
APPID
  5
12
330
9
100
AcDbSymbolTableRecord
100
AcDbRegAppTableRecord
  2
ACAD
 70
     0
  0
ENDTAB
  0
TABLE
  2
DIMSTYLE
  5
A
330
0
100
AcDbSymbolTable
 70
     1
100
AcDbDimStyleTable
  0
DIMSTYLE
105
27
330
A
100
AcDbSymbolTableRecord
100
AcDbDimStyleTableRecord
  2
Standard
 70
     0
178
     0
340
11
  0
ENDTAB
  0
TABLE
  2
BLOCK_RECORD
  5
1
330
0
100
AcDbSymbolTable
 70
     6
  0
BLOCK_RECORD
  5
1F
330
1
100
AcDbSymbolTableRecord
100
AcDbBlockTableRecord
  2
*Model_Space
340
22
 70
     0
280
     1
281
     0
  0
BLOCK_RECORD
  5
1B
330
1
100
AcDbSymbolTableRecord
100
AcDbBlockTableRecord
  2
*Paper_Space
340
1E
 70
     0
280
     1
281
     0
  0
BLOCK_RECORD
  5
23
330
1
100
AcDbSymbolTableRecord
100
AcDbBlockTableRecord
  2
*Paper_Space0
340
26
 70
     0
280
     1
281
     0
  0
BLOCK_RECORD
  5
53
330
1
100
AcDbSymbolTableRecord
100
AcDbBlockTableRecord
  2
block 2
340
0
102
{BLKREFS
331
54
102
}
 70
     0
280
     1
281
     0
  0
BLOCK_RECORD
  5
6E
330
1
100
AcDbSymbolTableRecord
100
AcDbBlockTableRecord
  2
block 3
340
0
102
{BLKREFS
331
6F
102
}
 70
     0
280
     1
281
     0
  0
BLOCK_RECORD
  5
76
330
1
100
AcDbSymbolTableRecord
100
AcDbBlockTableRecord
  2
block 4
340
0
102
{BLKREFS
331
77
102
}
 70
     0
280
     1
281
     0
  0
BLOCK_RECORD
  5
B4
330
1
100
AcDbSymbolTableRecord
100
AcDbBlockTableRecord
  2
block 5
340
0
102
{BLKREFS
331
B5
102
}
 70
     0
280
     1
281
     0
  0
BLOCK_RECORD
  5
CA
330
1
100
AcDbSymbolTableRecord
100
AcDbBlockTableRecord
  2
block 6
340
0
102
{BLKREFS
331
CB
102
}
 70
     0
280
     1
281
     0
  0
ENDTAB
  0
ENDSEC
  0
SECTION
  2
BLOCKS
  0
BLOCK
  5
20
330
1F
100
AcDbEntity
  8
0
100
AcDbBlockBegin
  2
*Model_Space
 70
     0
 10
0.0
 20
0.0
 30
0.0
  3
*Model_Space
  1

  0
ENDBLK
  5
21
330
1F
100
AcDbEntity
  8
0
100
AcDbBlockEnd
  0
BLOCK
  5
1C
330
1B
100
AcDbEntity
 67
     1
  8
0
100
AcDbBlockBegin
  2
*Paper_Space
 70
     0
 10
0.0
 20
0.0
 30
0.0
  3
*Paper_Space
  1

  0
ENDBLK
  5
1D
330
1B
100
AcDbEntity
 67
     1
  8
0
100
AcDbBlockEnd
  0
BLOCK
  5
24
330
23
100
AcDbEntity
  8
0
100
AcDbBlockBegin
  2
*Paper_Space0
 70
     0
 10
0.0
 20
0.0
 30
0.0
  3
*Paper_Space0
  1

  0
ENDBLK
  5
25
330
23
100
AcDbEntity
  8
0
100
AcDbBlockEnd
  0
BLOCK
  5
55
330
53
100
AcDbEntity
  8
0
100
AcDbBlockBegin
  2
block 2
 70
     0
 10
0.0
 20
0.0
 30
0.0
  3
block 2
  1

  0
SPLINE
  5
57
330
53
100
AcDbEntity
  8
_U+30EC_U+30A4_U+30E4_U+30FC 1
370
     0
100
AcDbSpline
210
0.0
220
0.0
230
1.0
 70
    11
 71
     3
 72
    44
 73
    40
 74
     0
 42
0.0000000001
 43
0.0000000001
 12
1.0
 22
0.0
 32
0.0
 13
1.0
 23
0.0
 33
0.0
 40
0.0
 40
0.0
 40
0.0
 40
0.0
 40
1.0
 40
1.0
 40
1.0
 40
2.0
 40
2.0
 40
2.0
 40
3.0
 40
3.0
 40
3.0
 40
4.0
 40
4.0
 40
4.0
 40
5.0
 40
5.0
 40
5.0
 40
6.0
 40
6.0
 40
6.0
 40
7.0
 40
7.0
 40
7.0
 40
8.0
 40
8.0
 40
8.0
 40
9.0
 40
9.0
 40
9.0
 40
10.0
 40
10.0
 40
10.0
 40
11.0
 40
11.0
 40
11.0
 40
12.0
 40
12.0
 40
12.0
 40
13.0
 40
13.0
 40
13.0
 40
13.0
 10
99.80648326497894
 20
-130.916384515882
 30
0.0
 10
99.96530216684896
 20
-131.1492729706849
 30
0.0
 10
100.0393717197818
 20
-131.2488362302086
 30
0.0
 10
100.1830322015168
 20
-131.3008571720359
 30
0.0
 10
100.1830322015168
 20
-131.3008571720359
 30
0.0
 10
100.1830322015168
 20
-130.4685221027995
 30
0.0
 10
100.1830322015168
 20
-130.4685221027995
 30
0.0
 10
100.1830322015168
 20
-130.4685221027995
 30
0.0
 10
100.3883598924376
 20
-130.4685221027995
 30
0.0
 10
100.3883598924376
 20
-130.4685221027995
 30
0.0
 10
100.3883598924376
 20
-130.4685221027995
 30
0.0
 10
100.3883598924376
 20
-131.5675075625942
 30
0.0
 10
100.3883598924376
 20
-131.5675075625942
 30
0.0
 10
100.0307589810687
 20
-131.5334011172903
 30
0.0
 10
99.95255531355353
 20
-131.4634656789397
 30
0.0
 10
99.6542100445309
 20
-131.0521212780009
 30
0.0
 10
99.45542803503199
 20
-130.778580696472
 30
0.0
 10
99.38755965397256
 20
-130.7083007485729
 30
0.0
 10
99.25010034411109
 20
-130.7083007485729
 30
0.0
 10
99.1315890594185
 20
-130.7083007485729
 30
0.0
 10
99.000675430979
 20
-130.785126377894
 30
0.0
 10
99.000675430979
 20
-130.9956217120428
 30
0.0
 10
99.000675430979
 20
-131.2736409177024
 30
0.0
 10
99.23115231894222
 20
-131.2825981659641
 30
0.0
 10
99.34759654634367
 20
-131.2870767900949
 30
0.0
 10
99.34759654634367
 20
-131.2870767900949
 30
0.0
 10
99.34759654634367
 20
-131.5268554358683
 30
0.0
 10
99.34759654634367
 20
-131.5268554358683
 30
0.0
 10
99.22047252293794
 20
-131.5178981876066
 30
0.0
 10
99.10850691966732
 20
-131.5065293725053
 30
0.0
 10
98.98999563497473
 20
-131.4204019853741
 30
0.0
 10
98.82910967581356
 20
-131.3029242293271
 30
0.0
 10
98.7953477400581
 20
-131.1041422198281
 30
0.0
 10
98.7953477400581
 20
-130.9797742728106
 30
0.0
 10
98.7953477400581
 20
-130.6834960610791
 30
0.0
 10
98.97931583897045
 20
-130.4619764213776
 30
0.0
 10
99.25216740140225
 20
-130.4619764213776
 30
0.0
 10
99.48092174162284
 20
-130.4619764213776
 30
0.0
 10
99.58014049159803
 20
-130.5863443683951
 30
0.0
 10
99.80648326497894
 20
-130.916384515882
 30
0.0
  0
HATCH
  5
58
330
53
100
AcDbEntity
  8
_U+30EC_U+30A4_U+30E4_U+30FC 1
 62
   179
420
  2234388
100
AcDbHatch
 10
0.0
 20
0.0
 30
0.0
210
0.0
220
0.0
230
1.0
  2
SOLID
 70
     1
 71
     0
 91
        1
 92
        1
 93
        1
 72
     4
 94
        3
 73
     0
 74
     1
 95
       44
 96
       40
 40
0.0
 40
0.0
 40
0.0
 40
0.0
 40
1.0
 40
1.0
 40
1.0
 40
2.0
 40
2.0
 40
2.0
 40
3.0
 40
3.0
 40
3.0
 40
4.0
 40
4.0
 40
4.0
 40
5.0
 40
5.0
 40
5.0
 40
6.0
 40
6.0
 40
6.0
 40
7.0
 40
7.0
 40
7.0
 40
8.0
 40
8.0
 40
8.0
 40
9.0
 40
9.0
 40
9.0
 40
10.0
 40
10.0
 40
10.0
 40
11.0
 40
11.0
 40
11.0
 40
12.0
 40
12.0
 40
12.0
 40
13.0
 40
13.0
 40
13.0
 40
13.0
 10
99.80648326497894
 20
-130.916384515882
 10
99.96530216684896
 20
-131.1492729706849
 10
100.0393717197818
 20
-131.2488362302086
 10
100.1830322015168
 20
-131.3008571720359
 10
100.1830322015168
 20
-131.3008571720359
 10
100.1830322015168
 20
-130.4685221027995
 10
100.1830322015168
 20
-130.4685221027995
 10
100.1830322015168
 20
-130.4685221027995
 10
100.3883598924376
 20
-130.4685221027995
 10
100.3883598924376
 20
-130.4685221027995
 10
100.3883598924376
 20
-130.4685221027995
 10
100.3883598924376
 20
-131.5675075625942
 10
100.3883598924376
 20
-131.5675075625942
 10
100.0307589810687
 20
-131.5334011172903
 10
99.95255531355353
 20
-131.4634656789397
 10
99.6542100445309
 20
-131.0521212780009
 10
99.45542803503199
 20
-130.778580696472
 10
99.38755965397256
 20
-130.7083007485729
 10
99.25010034411109
 20
-130.7083007485729
 10
99.1315890594185
 20
-130.7083007485729
 10
99.000675430979
 20
-130.785126377894
 10
99.000675430979
 20
-130.9956217120428
 10
99.000675430979
 20
-131.2736409177024
 10
99.23115231894222
 20
-131.2825981659641
 10
99.34759654634367
 20
-131.2870767900949
 10
99.34759654634367
 20
-131.2870767900949
 10
99.34759654634367
 20
-131.5268554358683
 10
99.34759654634367
 20
-131.5268554358683
 10
99.22047252293794
 20
-131.5178981876066
 10
99.10850691966732
 20
-131.5065293725053
 10
98.98999563497473
 20
-131.4204019853741
 10
98.82910967581356
 20
-131.3029242293271
 10
98.7953477400581
 20
-131.1041422198281
 10
98.7953477400581
 20
-130.9797742728106
 10
98.7953477400581
 20
-130.6834960610791
 10
98.97931583897045
 20
-130.4619764213776
 10
99.25216740140225
 20
-130.4619764213776
 10
99.48092174162284
 20
-130.4619764213776
 10
99.58014049159803
 20
-130.5863443683951
 10
99.80648326497894
 20
-130.916384515882
 97
        0
 97
        0
 75
     2
 76
     1
 98
        0
  0
SPLINE
  5
59
330
53
100
AcDbEntity
  8
_U+30EC_U+30A4_U+30E4_U+30FC 1
370
     0
100
AcDbSpline
210
0.0
220
0.0
230
1.0
 70
    11
 71
     3
 72
    26
 73
    22
 74
     0
 42
0.0000000001
 43
0.0000000001
 12
1.0
 22
0.0
 32
0.0
 13
1.0
 23
0.0
 33
0.0
 40
0.0
 40
0.0
 40
0.0
 40
0.0
 40
1.0
 40
1.0
 40
1.0
 40
2.0
 40
2.0
 40
2.0
 40
3.0
 40
3.0
 40
3.0
 40
4.0
 40
4.0
 40
4.0
 40
5.0
 40
5.0
 40
5.0
 40
6.0
 40
6.0
 40
6.0
 40
7.0
 40
7.0
 40
7.0
 40
7.0
 10
100.3883598924376
 20
-129.8101643555683
 30
0.0
 10
100.3883598924376
 20
-129.8101643555683
 30
0.0
 10
99.28420678941507
 20
-129.8101643555683
 30
0.0
 10
99.28420678941507
 20
-129.8101643555683
 30
0.0
 10
99.28420678941507
 20
-129.8101643555683
 30
0.0
 10
99.28420678941507
 20
-130.1625976237094
 30
0.0
 10
99.28420678941507
 20
-130.1625976237094
 30
0.0
 10
99.28420678941507
 20
-130.1625976237094
 30
0.0
 10
99.13606768354933
 20
-130.1625976237094
 30
0.0
 10
99.13606768354933
 20
-130.1625976237094
 30
0.0
 10
99.12125377296275
 20
-129.8077527887286
 30
0.0
 10
98.95830075651043
 20
-129.758143413741
 30
0.0
 10
98.84392358640014
 20
-129.7264485352767
 30
0.0
 10
98.84392358640014
 20
-129.7264485352767
 30
0.0
 10
98.84392358640014
 20
-129.5703857097949
 30
0.0
 10
98.84392358640014
 20
-129.5703857097949
 30
0.0
 10
98.84392358640014
 20
-129.5703857097949
 30
0.0
 10
100.3883598924376
 20
-129.5703857097949
 30
0.0
 10
100.3883598924376
 20
-129.5703857097949
 30
0.0
 10
100.3883598924376
 20
-129.5703857097949
 30
0.0
 10
100.3883598924376
 20
-129.8101643555683
 30
0.0
 10
100.3883598924376
 20
-129.8101643555683
 30
0.0
  0
HATCH
  5
5A
330
53
100
AcDbEntity
  8
_U+30EC_U+30A4_U+30E4_U+30FC 1
 62
   179
420
  2234388
100
AcDbHatch
 10
0.0
 20
0.0
 30
0.0
210
0.0
220
0.0
230
1.0
  2
SOLID
 70
     1
 71
     0
 91
        1
 92
        1
 93
        1
 72
     4
 94
        3
 73
     0
 74
     1
 95
       26
 96
       22
 40
0.0
 40
0.0
 40
0.0
 40
0.0
 40
1.0
 40
1.0
 40
1.0
 40
2.0
 40
2.0
 40
2.0
 40
3.0
 40
3.0
 40
3.0
 40
4.0
 40
4.0
 40
4.0
 40
5.0
 40
5.0
 40
5.0
 40
6.0
 40
6.0
 40
6.0
 40
7.0
 40
7.0
 40
7.0
 40
7.0
 10
100.3883598924376
 20
-129.8101643555683
 10
100.3883598924376
 20
-129.8101643555683
 10
99.28420678941507
 20
-129.8101643555683
 10
99.28420678941507
 20
-129.8101643555683
 10
99.28420678941507
 20
-129.8101643555683
 10
99.28420678941507
 20
-130.1625976237094
 10
99.28420678941507
 20
-130.1625976237094
 10
99.28420678941507
 20
-130.1625976237094
 10
99.13606768354933
 20
-130.1625976237094
 10
99.13606768354933
 20
-130.1625976237094
 10
99.12125377296275
 20
-129.8077527887286
 10
98.95830075651043
 20
-129.758143413741
 10
98.84392358640014
 20
-129.7264485352767
 10
98.84392358640014
 20
-129.7264485352767
 10
98.84392358640014
 20
-129.5703857097949
 10
98.84392358640014
 20
-129.5703857097949
 10
98.84392358640014
 20
-129.5703857097949
 10
100.3883598924376
 20
-129.5703857097949
 10
100.3883598924376
 20
-129.5703857097949
 10
100.3883598924376
 20
-129.5703857097949
 10
100.3883598924376
 20
-129.8101643555683
 10
100.3883598924376
 20
-129.8101643555683
 97
        0
 97
        0
 75
     2
 76
     1
 98
        0
  0
POLYLINE
  5
5B
330
53
100
AcDbEntity
  8
_U+30EC_U+30A4_U+30E4_U+30FC 1
370
     0
100
AcDb2dPolyline
 66
     1
 10
0.0
 20
0.0
 30
0.0
  0
VERTEX
  5
5C
330
5B
100
AcDbEntity
  8
_U+30EC_U+30A4_U+30E4_U+30FC 1
370
     0
100
AcDbVertex
100
AcDb2dVertex
 10
100.3883598924376
 20
-128.9705945858129
 30
0.0
  0
VERTEX
  5
5D
330
5B
100
AcDbEntity
  8
_U+30EC_U+30A4_U+30E4_U+30FC 1
370
     0
100
AcDbVertex
100
AcDb2dVertex
 10
100.1365234124659
 20
-128.9705945858129
 30
0.0
  0
VERTEX
  5
5E
330
5B
100
AcDbEntity
  8
_U+30EC_U+30A4_U+30E4_U+30FC 1
370
     0
100
AcDbVertex
100
AcDb2dVertex
 10
100.1365234124659
 20
-128.7015326284149
 30
0.0
  0
VERTEX
  5
5F
330
5B
100
AcDbEntity
  8
_U+30EC_U+30A4_U+30E4_U+30FC 1
370
     0
100
AcDbVertex
100
AcDb2dVertex
 10
100.3883598924376
 20
-128.7015326284149
 30
0.0
  0
VERTEX
  5
60
330
5B
100
AcDbEntity
  8
_U+30EC_U+30A4_U+30E4_U+30FC 1
370
     0
100
AcDbVertex
100
AcDb2dVertex
 10
100.3883598924376
 20
-128.9705945858129
 30
0.0
  0
SEQEND
  5
61
330
5B
100
AcDbEntity
  8
_U+30EC_U+30A4_U+30E4_U+30FC 1
370
     0
  0
HATCH
  5
62
330
53
100
AcDbEntity
  8
_U+30EC_U+30A4_U+30E4_U+30FC 1
 62
   179
420
  2234388
100
AcDbHatch
 10
0.0
 20
0.0
 30
0.0
210
0.0
220
0.0
230
1.0
  2
SOLID
 70
     1
 71
     0
 91
        1
 92
        1
 93
        4
 72
     1
 10
100.3883598924376
 20
-128.9705945858129
 11
100.1365234124659
 21
-128.9705945858129
 72
     1
 10
100.1365234124659
 20
-128.9705945858129
 11
100.1365234124659
 21
-128.7015326284149
 72
     1
 10
100.1365234124659
 20
-128.7015326284149
 11
100.3883598924376
 21
-128.7015326284149
 72
     1
 10
100.3883598924376
 20
-128.7015326284149
 11
100.3883598924376
 21
-128.9705945858129
 97
        0
 75
     2
 76
     1
 98
        0
  0
SPLINE
  5
63
330
53
100
AcDbEntity
  8
_U+30EC_U+30A4_U+30E4_U+30FC 1
370
     0
100
AcDbSpline
210
0.0
220
0.0
230
1.0
 70
    11
 71
     3
 72
    53
 73
    49
 74
     0
 42
0.0000000001
 43
0.0000000001
 12
1.0
 22
0.0
 32
0.0
 13
1.0
 23
0.0
 33
0.0
 40
0.0
 40
0.0
 40
0.0
 40
0.0
 40
1.0
 40
1.0
 40
1.0
 40
2.0
 40
2.0
 40
2.0
 40
3.0
 40
3.0
 40
3.0
 40
4.0
 40
4.0
 40
4.0
 40
5.0
 40
5.0
 40
5.0
 40
6.0
 40
6.0
 40
6.0
 40
7.0
 40
7.0
 40
7.0
 40
8.0
 40
8.0
 40
8.0
 40
9.0
 40
9.0
 40
9.0
 40
10.0
 40
10.0
 40
10.0
 40
11.0
 40
11.0
 40
11.0
 40
12.0
 40
12.0
 40
12.0
 40
13.0
 40
13.0
 40
13.0
 40
14.0
 40
14.0
 40
14.0
 40
15.0
 40
15.0
 40
15.0
 40
16.0
 40
16.0
 40
16.0
 40
16.0
 10
100.4390027960708
 20
-127.9349988829468
 30
0.0
 10
100.4390027960708
 20
-128.0183701936899
 30
0.0
 10
100.4221218281931
 20
-128.1272352110238
 30
0.0
 10
100.3587320712645
 20
-128.2354112092606
 30
0.0
 10
100.248833525285
 20
-128.4211018559156
 30
0.0
 10
100.117575387297
 20
-128.4434949765697
 30
0.0
 10
100.0097438986087
 20
-128.4638210399327
 30
0.0
 10
100.0097438986087
 20
-128.4638210399327
 30
0.0
 10
100.0097438986087
 20
-128.226453960999
 30
0.0
 10
100.0097438986087
 20
-128.226453960999
 30
0.0
 10
100.2085259081076
 20
-128.1678873377497
 30
0.0
 10
100.2381537292807
 20
-128.0321505756309
 30
0.0
 10
100.2381537292807
 20
-127.9325873161071
 30
0.0
 10
100.2381537292807
 20
-127.7834146815958
 30
0.0
 10
100.138590469757
 20
-127.620806174692
 30
0.0
 10
99.90604652450266
 20
-127.620806174692
 30
0.0
 10
99.6500759299486
 20
-127.620806174692
 30
0.0
 10
99.58014049159803
 20
-127.8126979932204
 30
0.0
 10
99.58014049159803
 20
-127.9415445643688
 30
0.0
 10
99.58014049159803
 20
-127.9756510096728
 30
0.0
 10
99.58014049159803
 20
-128.1272352110238
 30
0.0
 10
99.7093315722949
 20
-128.2219753368681
 30
0.0
 10
99.7093315722949
 20
-128.2219753368681
 30
0.0
 10
99.69038354712602
 20
-128.4097330408142
 30
0.0
 10
99.69038354712602
 20
-128.4097330408142
 30
0.0
 10
99.69038354712602
 20
-128.4097330408142
 30
0.0
 10
98.84392358640014
 20
-128.2808864696659
 30
0.0
 10
98.84392358640014
 20
-128.2808864696659
 30
0.0
 10
98.84392358640014
 20
-128.2808864696659
 30
0.0
 10
98.84392358640014
 20
-127.4488959099781
 30
0.0
 10
98.84392358640014
 20
-127.4488959099781
 30
0.0
 10
98.84392358640014
 20
-127.4488959099781
 30
0.0
 10
99.03857148131675
 20
-127.4488959099781
 30
0.0
 10
99.03857148131675
 20
-127.4488959099781
 30
0.0
 10
99.03857148131675
 20
-127.4488959099781
 30
0.0
 10
99.03857148131675
 20
-128.1065646381122
 30
0.0
 10
99.03857148131675
 20
-128.1065646381122
 30
0.0
 10
99.03857148131675
 20
-128.1065646381122
 30
0.0
 10
99.46162920690543
 20
-128.1768445860114
 30
0.0
 10
99.46162920690543
 20
-128.1768445860114
 30
0.0
 10
99.42786727114998
 20
-128.1113877717916
 30
0.0
 10
99.38755965397256
 20
-128.0231933273692
 30
0.0
 10
99.38755965397256
 20
-127.896413813512
 30
0.0
 10
99.38755965397256
 20
-127.6252847988228
 30
0.0
 10
99.57393931972457
 20
-127.372070280657
 30
0.0
 10
99.88709849933379
 20
-127.372070280657
 30
0.0
 10
100.2043917935253
 20
-127.372070280657
 30
0.0
 10
100.4390027960708
 20
-127.6115044168819
 30
0.0
 10
100.4390027960708
 20
-127.9349988829468
 30
0.0
  0
HATCH
  5
64
330
53
100
AcDbEntity
  8
_U+30EC_U+30A4_U+30E4_U+30FC 1
 62
   179
420
  2234388
100
AcDbHatch
 10
0.0
 20
0.0
 30
0.0
210
0.0
220
0.0
230
1.0
  2
SOLID
 70
     1
 71
     0
 91
        1
 92
        1
 93
        1
 72
     4
 94
        3
 73
     0
 74
     1
 95
       53
 96
       49
 40
0.0
 40
0.0
 40
0.0
 40
0.0
 40
1.0
 40
1.0
 40
1.0
 40
2.0
 40
2.0
 40
2.0
 40
3.0
 40
3.0
 40
3.0
 40
4.0
 40
4.0
 40
4.0
 40
5.0
 40
5.0
 40
5.0
 40
6.0
 40
6.0
 40
6.0
 40
7.0
 40
7.0
 40
7.0
 40
8.0
 40
8.0
 40
8.0
 40
9.0
 40
9.0
 40
9.0
 40
10.0
 40
10.0
 40
10.0
 40
11.0
 40
11.0
 40
11.0
 40
12.0
 40
12.0
 40
12.0
 40
13.0
 40
13.0
 40
13.0
 40
14.0
 40
14.0
 40
14.0
 40
15.0
 40
15.0
 40
15.0
 40
16.0
 40
16.0
 40
16.0
 40
16.0
 10
100.4390027960708
 20
-127.9349988829468
 10
100.4390027960708
 20
-128.0183701936899
 10
100.4221218281931
 20
-128.1272352110238
 10
100.3587320712645
 20
-128.2354112092606
 10
100.248833525285
 20
-128.4211018559156
 10
100.117575387297
 20
-128.4434949765697
 10
100.0097438986087
 20
-128.4638210399327
 10
100.0097438986087
 20
-128.4638210399327
 10
100.0097438986087
 20
-128.226453960999
 10
100.0097438986087
 20
-128.226453960999
 10
100.2085259081076
 20
-128.1678873377497
 10
100.2381537292807
 20
-128.0321505756309
 10
100.2381537292807
 20
-127.9325873161071
 10
100.2381537292807
 20
-127.7834146815958
 10
100.138590469757
 20
-127.620806174692
 10
99.90604652450266
 20
-127.620806174692
 10
99.6500759299486
 20
-127.620806174692
 10
99.58014049159803
 20
-127.8126979932204
 10
99.58014049159803
 20
-127.9415445643688
 10
99.58014049159803
 20
-127.9756510096728
 10
99.58014049159803
 20
-128.1272352110238
 10
99.7093315722949
 20
-128.2219753368681
 10
99.7093315722949
 20
-128.2219753368681
 10
99.69038354712602
 20
-128.4097330408142
 10
99.69038354712602
 20
-128.4097330408142
 10
99.69038354712602
 20
-128.4097330408142
 10
98.84392358640014
 20
-128.2808864696659
 10
98.84392358640014
 20
-128.2808864696659
 10
98.84392358640014
 20
-128.2808864696659
 10
98.84392358640014
 20
-127.4488959099781
 10
98.84392358640014
 20
-127.4488959099781
 10
98.84392358640014
 20
-127.4488959099781
 10
99.03857148131675
 20
-127.4488959099781
 10
99.03857148131675
 20
-127.4488959099781
 10
99.03857148131675
 20
-127.4488959099781
 10
99.03857148131675
 20
-128.1065646381122
 10
99.03857148131675
 20
-128.1065646381122
 10
99.03857148131675
 20
-128.1065646381122
 10
99.46162920690543
 20
-128.1768445860114
 10
99.46162920690543
 20
-128.1768445860114
 10
99.42786727114998
 20
-128.1113877717916
 10
99.38755965397256
 20
-128.0231933273692
 10
99.38755965397256
 20
-127.896413813512
 10
99.38755965397256
 20
-127.6252847988228
 10
99.57393931972457
 20
-127.372070280657
 10
99.88709849933379
 20
-127.372070280657
 10
100.2043917935253
 20
-127.372070280657
 10
100.4390027960708
 20
-127.6115044168819
 10
100.4390027960708
 20
-127.9349988829468
 97
        0
 97
        0
 75
     2
 76
     1
 98
        0
  0
ENDBLK
  5
56
330
53
100
AcDbEntity
  8
0
100
AcDbBlockEnd
  0
BLOCK
  5
70
330
6E
100
AcDbEntity
  8
0
100
AcDbBlockBegin
  2
block 3
 70
     0
 10
0.0
 20
0.0
 30
0.0
  3
block 3
  1

  0
SPLINE
  5
72
330
6E
100
AcDbEntity
  8
_U+30EC_U+30A4_U+30E4_U+30FC 1
370
     0
100
AcDbSpline
210
0.0
220
0.0
230
1.0
 70
    11
 71
     3
 72
    26
 73
    22
 74
     0
 42
0.0000000001
 43
0.0000000001
 12
1.0
 22
0.0
 32
0.0
 13
1.0
 23
0.0
 33
0.0
 40
0.0
 40
0.0
 40
0.0
 40
0.0
 40
1.0
 40
1.0
 40
1.0
 40
2.0
 40
2.0
 40
2.0
 40
3.0
 40
3.0
 40
3.0
 40
4.0
 40
4.0
 40
4.0
 40
5.0
 40
5.0
 40
5.0
 40
6.0
 40
6.0
 40
6.0
 40
7.0
 40
7.0
 40
7.0
 40
7.0
 10
100.3883598924376
 20
-140.8248236410091
 30
0.0
 10
100.3883598924376
 20
-140.8248236410091
 30
0.0
 10
99.28420678941507
 20
-140.8248236410091
 30
0.0
 10
99.28420678941507
 20
-140.8248236410091
 30
0.0
 10
99.28420678941507
 20
-140.8248236410091
 30
0.0
 10
99.28420678941507
 20
-141.1772569091501
 30
0.0
 10
99.28420678941507
 20
-141.1772569091501
 30
0.0
 10
99.28420678941507
 20
-141.1772569091501
 30
0.0
 10
99.13606768354933
 20
-141.1772569091501
 30
0.0
 10
99.13606768354933
 20
-141.1772569091501
 30
0.0
 10
99.12125377296275
 20
-140.8224120741694
 30
0.0
 10
98.95830075651043
 20
-140.7728026991818
 30
0.0
 10
98.84392358640014
 20
-140.7411078207175
 30
0.0
 10
98.84392358640014
 20
-140.7411078207175
 30
0.0
 10
98.84392358640014
 20
-140.5850449952357
 30
0.0
 10
98.84392358640014
 20
-140.5850449952357
 30
0.0
 10
98.84392358640014
 20
-140.5850449952357
 30
0.0
 10
100.3883598924376
 20
-140.5850449952357
 30
0.0
 10
100.3883598924376
 20
-140.5850449952357
 30
0.0
 10
100.3883598924376
 20
-140.5850449952357
 30
0.0
 10
100.3883598924376
 20
-140.8248236410091
 30
0.0
 10
100.3883598924376
 20
-140.8248236410091
 30
0.0
  0
HATCH
  5
73
330
6E
100
AcDbEntity
  8
_U+30EC_U+30A4_U+30E4_U+30FC 1
 62
   179
420
  2234388
100
AcDbHatch
 10
0.0
 20
0.0
 30
0.0
210
0.0
220
0.0
230
1.0
  2
SOLID
 70
     1
 71
     0
 91
        1
 92
        1
 93
        1
 72
     4
 94
        3
 73
     0
 74
     1
 95
       26
 96
       22
 40
0.0
 40
0.0
 40
0.0
 40
0.0
 40
1.0
 40
1.0
 40
1.0
 40
2.0
 40
2.0
 40
2.0
 40
3.0
 40
3.0
 40
3.0
 40
4.0
 40
4.0
 40
4.0
 40
5.0
 40
5.0
 40
5.0
 40
6.0
 40
6.0
 40
6.0
 40
7.0
 40
7.0
 40
7.0
 40
7.0
 10
100.3883598924376
 20
-140.8248236410091
 10
100.3883598924376
 20
-140.8248236410091
 10
99.28420678941507
 20
-140.8248236410091
 10
99.28420678941507
 20
-140.8248236410091
 10
99.28420678941507
 20
-140.8248236410091
 10
99.28420678941507
 20
-141.1772569091501
 10
99.28420678941507
 20
-141.1772569091501
 10
99.28420678941507
 20
-141.1772569091501
 10
99.13606768354933
 20
-141.1772569091501
 10
99.13606768354933
 20
-141.1772569091501
 10
99.12125377296275
 20
-140.8224120741694
 10
98.95830075651043
 20
-140.7728026991818
 10
98.84392358640014
 20
-140.7411078207175
 10
98.84392358640014
 20
-140.7411078207175
 10
98.84392358640014
 20
-140.5850449952357
 10
98.84392358640014
 20
-140.5850449952357
 10
98.84392358640014
 20
-140.5850449952357
 10
100.3883598924376
 20
-140.5850449952357
 10
100.3883598924376
 20
-140.5850449952357
 10
100.3883598924376
 20
-140.5850449952357
 10
100.3883598924376
 20
-140.8248236410091
 10
100.3883598924376
 20
-140.8248236410091
 97
        0
 97
        0
 75
     2
 76
     1
 98
        0
  0
ENDBLK
  5
71
330
6E
100
AcDbEntity
  8
0
100
AcDbBlockEnd
  0
BLOCK
  5
78
330
76
100
AcDbEntity
  8
0
100
AcDbBlockBegin
  2
block 4
 70
     0
 10
0.0
 20
0.0
 30
0.0
  3
block 4
  1

  0
SPLINE
  5
7A
330
76
100
AcDbEntity
  8
_U+30EC_U+30A4_U+30E4_U+30FC 1
370
     0
100
AcDbSpline
210
0.0
220
0.0
230
1.0
 70
    11
 71
     3
 72
    26
 73
    22
 74
     0
 42
0.0000000001
 43
0.0000000001
 12
1.0
 22
0.0
 32
0.0
 13
1.0
 23
0.0
 33
0.0
 40
0.0
 40
0.0
 40
0.0
 40
0.0
 40
1.0
 40
1.0
 40
1.0
 40
2.0
 40
2.0
 40
2.0
 40
3.0
 40
3.0
 40
3.0
 40
4.0
 40
4.0
 40
4.0
 40
5.0
 40
5.0
 40
5.0
 40
6.0
 40
6.0
 40
6.0
 40
7.0
 40
7.0
 40
7.0
 40
7.0
 10
81.79569632286706
 20
-129.2324218426919
 30
0.0
 10
81.79569632286706
 20
-129.2324218426919
 30
0.0
 10
81.79569632286706
 20
-128.1282687396693
 30
0.0
 10
81.79569632286706
 20
-128.1282687396693
 30
0.0
 10
81.79569632286706
 20
-128.1282687396693
 30
0.0
 10
81.46565617538012
 20
-128.1282687396693
 30
0.0
 10
81.46565617538012
 20
-128.1282687396693
 30
0.0
 10
81.46565617538012
 20
-128.1282687396693
 30
0.0
 10
81.46565617538012
 20
-127.9801296338036
 30
0.0
 10
81.46565617538012
 20
-127.9801296338036
 30
0.0
 10
81.7977633801582
 20
-127.9654879779913
 30
0.0
 10
81.84427216920908
 20
-127.802534961539
 30
0.0
 10
81.87389999038223
 20
-127.6883300462029
 30
0.0
 10
81.87389999038223
 20
-127.6883300462029
 30
0.0
 10
82.01997203895682
 20
-127.6883300462029
 30
0.0
 10
82.01997203895682
 20
-127.6883300462029
 30
0.0
 10
82.01997203895682
 20
-127.6883300462029
 30
0.0
 10
82.01997203895682
 20
-129.2324218426919
 30
0.0
 10
82.01997203895682
 20
-129.2324218426919
 30
0.0
 10
82.01997203895682
 20
-129.2324218426919
 30
0.0
 10
81.79569632286706
 20
-129.2324218426919
 30
0.0
 10
81.79569632286706
 20
-129.2324218426919
 30
0.0
  0
HATCH
  5
7B
330
76
100
AcDbEntity
  8
_U+30EC_U+30A4_U+30E4_U+30FC 1
 62
   179
420
  2234388
100
AcDbHatch
 10
0.0
 20
0.0
 30
0.0
210
0.0
220
0.0
230
1.0
  2
SOLID
 70
     1
 71
     0
 91
        1
 92
        1
 93
        1
 72
     4
 94
        3
 73
     0
 74
     1
 95
       26
 96
       22
 40
0.0
 40
0.0
 40
0.0
 40
0.0
 40
1.0
 40
1.0
 40
1.0
 40
2.0
 40
2.0
 40
2.0
 40
3.0
 40
3.0
 40
3.0
 40
4.0
 40
4.0
 40
4.0
 40
5.0
 40
5.0
 40
5.0
 40
6.0
 40
6.0
 40
6.0
 40
7.0
 40
7.0
 40
7.0
 40
7.0
 10
81.79569632286706
 20
-129.2324218426919
 10
81.79569632286706
 20
-129.2324218426919
 10
81.79569632286706
 20
-128.1282687396693
 10
81.79569632286706
 20
-128.1282687396693
 10
81.79569632286706
 20
-128.1282687396693
 10
81.46565617538012
 20
-128.1282687396693
 10
81.46565617538012
 20
-128.1282687396693
 10
81.46565617538012
 20
-128.1282687396693
 10
81.46565617538012
 20
-127.9801296338036
 10
81.46565617538012
 20
-127.9801296338036
 10
81.7977633801582
 20
-127.9654879779913
 10
81.84427216920908
 20
-127.802534961539
 10
81.87389999038223
 20
-127.6883300462029
 10
81.87389999038223
 20
-127.6883300462029
 10
82.01997203895682
 20
-127.6883300462029
 10
82.01997203895682
 20
-127.6883300462029
 10
82.01997203895682
 20
-127.6883300462029
 10
82.01997203895682
 20
-129.2324218426919
 10
82.01997203895682
 20
-129.2324218426919
 10
82.01997203895682
 20
-129.2324218426919
 10
81.79569632286706
 20
-129.2324218426919
 10
81.79569632286706
 20
-129.2324218426919
 97
        0
 97
        0
 75
     2
 76
     1
 98
        0
  0
ENDBLK
  5
79
330
76
100
AcDbEntity
  8
0
100
AcDbBlockEnd
  0
BLOCK
  5
B6
330
B4
100
AcDbEntity
  8
0
100
AcDbBlockBegin
  2
block 5
 70
     0
 10
0.0
 20
0.0
 30
0.0
  3
block 5
  1

  0
SPLINE
  5
B8
330
B4
100
AcDbEntity
  8
_U+30EC_U+30A4_U+30E4_U+30FC 1
370
     0
100
AcDbSpline
210
0.0
220
0.0
230
1.0
 70
    11
 71
     3
 72
    26
 73
    22
 74
     0
 42
0.0000000001
 43
0.0000000001
 12
1.0
 22
0.0
 32
0.0
 13
1.0
 23
0.0
 33
0.0
 40
0.0
 40
0.0
 40
0.0
 40
0.0
 40
1.0
 40
1.0
 40
1.0
 40
2.0
 40
2.0
 40
2.0
 40
3.0
 40
3.0
 40
3.0
 40
4.0
 40
4.0
 40
4.0
 40
5.0
 40
5.0
 40
5.0
 40
6.0
 40
6.0
 40
6.0
 40
7.0
 40
7.0
 40
7.0
 40
7.0
 10
87.7913682506216
 20
-144.6426784577629
 30
0.0
 10
87.7913682506216
 20
-144.6426784577629
 30
0.0
 10
87.7913682506216
 20
-143.5385253547404
 30
0.0
 10
87.7913682506216
 20
-143.5385253547404
 30
0.0
 10
87.7913682506216
 20
-143.5385253547404
 30
0.0
 10
87.43893498248055
 20
-143.5385253547404
 30
0.0
 10
87.43893498248055
 20
-143.5385253547404
 30
0.0
 10
87.43893498248055
 20
-143.5385253547404
 30
0.0
 10
87.43893498248055
 20
-143.3903862488746
 30
0.0
 10
87.43893498248055
 20
-143.3903862488746
 30
0.0
 10
87.79377981746129
 20
-143.3755723382881
 30
0.0
 10
87.84338919244888
 20
-143.2126193218357
 30
0.0
 10
87.87508407091318
 20
-143.0982421517255
 30
0.0
 10
87.87508407091318
 20
-143.0982421517255
 30
0.0
 10
88.031146896395
 20
-143.0982421517255
 30
0.0
 10
88.031146896395
 20
-143.0982421517255
 30
0.0
 10
88.031146896395
 20
-143.0982421517255
 30
0.0
 10
88.031146896395
 20
-144.6426784577629
 30
0.0
 10
88.031146896395
 20
-144.6426784577629
 30
0.0
 10
88.031146896395
 20
-144.6426784577629
 30
0.0
 10
87.7913682506216
 20
-144.6426784577629
 30
0.0
 10
87.7913682506216
 20
-144.6426784577629
 30
0.0
  0
HATCH
  5
B9
330
B4
100
AcDbEntity
  8
_U+30EC_U+30A4_U+30E4_U+30FC 1
 62
   179
420
  2234388
100
AcDbHatch
 10
0.0
 20
0.0
 30
0.0
210
0.0
220
0.0
230
1.0
  2
SOLID
 70
     1
 71
     0
 91
        1
 92
        1
 93
        1
 72
     4
 94
        3
 73
     0
 74
     1
 95
       26
 96
       22
 40
0.0
 40
0.0
 40
0.0
 40
0.0
 40
1.0
 40
1.0
 40
1.0
 40
2.0
 40
2.0
 40
2.0
 40
3.0
 40
3.0
 40
3.0
 40
4.0
 40
4.0
 40
4.0
 40
5.0
 40
5.0
 40
5.0
 40
6.0
 40
6.0
 40
6.0
 40
7.0
 40
7.0
 40
7.0
 40
7.0
 10
87.7913682506216
 20
-144.6426784577629
 10
87.7913682506216
 20
-144.6426784577629
 10
87.7913682506216
 20
-143.5385253547404
 10
87.7913682506216
 20
-143.5385253547404
 10
87.7913682506216
 20
-143.5385253547404
 10
87.43893498248055
 20
-143.5385253547404
 10
87.43893498248055
 20
-143.5385253547404
 10
87.43893498248055
 20
-143.5385253547404
 10
87.43893498248055
 20
-143.3903862488746
 10
87.43893498248055
 20
-143.3903862488746
 10
87.79377981746129
 20
-143.3755723382881
 10
87.84338919244888
 20
-143.2126193218357
 10
87.87508407091318
 20
-143.0982421517255
 10
87.87508407091318
 20
-143.0982421517255
 10
88.031146896395
 20
-143.0982421517255
 10
88.031146896395
 20
-143.0982421517255
 10
88.031146896395
 20
-143.0982421517255
 10
88.031146896395
 20
-144.6426784577629
 10
88.031146896395
 20
-144.6426784577629
 10
88.031146896395
 20
-144.6426784577629
 10
87.7913682506216
 20
-144.6426784577629
 10
87.7913682506216
 20
-144.6426784577629
 97
        0
 97
        0
 75
     2
 76
     1
 98
        0
  0
SPLINE
  5
BA
330
B4
100
AcDbEntity
  8
_U+30EC_U+30A4_U+30E4_U+30FC 1
370
     0
100
AcDbSpline
210
0.0
220
0.0
230
1.0
 70
    11
 71
     3
 72
    29
 73
    25
 74
     0
 42
0.0000000001
 43
0.0000000001
 12
1.0
 22
0.0
 32
0.0
 13
1.0
 23
0.0
 33
0.0
 40
0.0
 40
0.0
 40
0.0
 40
0.0
 40
1.0
 40
1.0
 40
1.0
 40
2.0
 40
2.0
 40
2.0
 40
3.0
 40
3.0
 40
3.0
 40
4.0
 40
4.0
 40
4.0
 40
5.0
 40
5.0
 40
5.0
 40
6.0
 40
6.0
 40
6.0
 40
7.0
 40
7.0
 40
7.0
 40
8.0
 40
8.0
 40
8.0
 40
8.0
 10
89.10119355411359
 20
-144.6933213613961
 30
0.0
 10
88.81628415748344
 20
-144.6933213613961
 30
0.0
 10
88.54515514279427
 20
-144.5558620515347
 30
0.0
 10
88.54515514279427
 20
-144.2068738788788
 30
0.0
 10
88.54515514279427
 20
-143.9509032843248
 30
0.0
 10
88.69673934414526
 20
-143.8558186489319
 30
0.0
 10
88.80973847606145
 20
-143.7944959492944
 30
0.0
 10
88.67641328078228
 20
-143.7352403069481
 30
0.0
 10
88.59476451778187
 20
-143.6208631368378
 30
0.0
 10
88.59476451778187
 20
-143.4599771776767
 30
0.0
 10
88.59476451778187
 20
-143.1850585579537
 30
0.0
 10
88.80732690922179
 20
-143.0496663053834
 30
0.0
 10
89.10119355411359
 20
-143.0496663053834
 30
0.0
 10
89.40436195681558
 20
-143.0496663053834
 30
0.0
 10
89.60762259044532
 20
-143.1936712966669
 30
0.0
 10
89.60762259044532
 20
-143.4599771776767
 30
0.0
 10
89.60762259044532
 20
-143.6208631368378
 30
0.0
 10
89.52425127970227
 20
-143.7352403069481
 30
0.0
 10
89.39058157487459
 20
-143.7944959492944
 30
0.0
 10
89.48566621026748
 20
-143.8451388529276
 30
0.0
 10
89.65516490814177
 20
-143.9402234883205
 30
0.0
 10
89.65516490814177
 20
-144.2027397642966
 30
0.0
 10
89.65516490814177
 20
-144.5772216435432
 30
0.0
 10
89.35681963911914
 20
-144.6933213613961
 30
0.0
 10
89.10119355411359
 20
-144.6933213613961
 30
0.0
  0
SPLINE
  5
BB
330
B4
100
AcDbEntity
  8
_U+30EC_U+30A4_U+30E4_U+30FC 1
370
     0
100
AcDbSpline
210
0.0
220
0.0
230
1.0
 70
    11
 71
     3
 72
    17
 73
    13
 74
     0
 42
0.0000000001
 43
0.0000000001
 12
1.0
 22
0.0
 32
0.0
 13
1.0
 23
0.0
 33
0.0
 40
0.0
 40
0.0
 40
0.0
 40
0.0
 40
1.0
 40
1.0
 40
1.0
 40
2.0
 40
2.0
 40
2.0
 40
3.0
 40
3.0
 40
3.0
 40
4.0
 40
4.0
 40
4.0
 40
4.0
 10
89.10119355411359
 20
-143.9023274379828
 30
0.0
 10
88.94754229547145
 20
-143.9023274379828
 30
0.0
 10
88.78493378856766
 20
-143.989143844211
 30
0.0
 10
88.78493378856766
 20
-144.1920599682923
 30
0.0
 10
88.78493378856766
 20
-144.3973876592132
 30
0.0
 10
88.92032604113798
 20
-144.4986734664795
 30
0.0
 10
89.10119355411359
 20
-144.4986734664795
 30
0.0
 10
89.30032007316103
 20
-144.4986734664795
 30
0.0
 10
89.41779782920806
 20
-144.3760280672046
 30
0.0
 10
89.41779782920806
 20
-144.1982611401657
 30
0.0
 10
89.41779782920806
 20
-143.9763969909156
 30
0.0
 10
89.24382050720294
 20
-143.9023274379828
 30
0.0
 10
89.10119355411359
 20
-143.9023274379828
 30
0.0
  0
SPLINE
  5
BC
330
B4
100
AcDbEntity
  8
_U+30EC_U+30A4_U+30E4_U+30FC 1
370
     0
100
AcDbSpline
210
0.0
220
0.0
230
1.0
 70
    11
 71
     3
 72
    17
 73
    13
 74
     0
 42
0.0000000001
 43
0.0000000001
 12
1.0
 22
0.0
 32
0.0
 13
1.0
 23
0.0
 33
0.0
 40
0.0
 40
0.0
 40
0.0
 40
0.0
 40
1.0
 40
1.0
 40
1.0
 40
2.0
 40
2.0
 40
2.0
 40
3.0
 40
3.0
 40
3.0
 40
4.0
 40
4.0
 40
4.0
 40
4.0
 10
89.10119355411359
 20
-143.2422471430089
 30
0.0
 10
88.92514917481732
 20
-143.2422471430089
 30
0.0
 10
88.83454316355525
 20
-143.3373317784018
 30
0.0
 10
88.83454316355525
 20
-143.4727240309721
 30
0.0
 10
88.83454316355525
 20
-143.595369430247
 30
0.0
 10
88.91136879287633
 20
-143.7138807149396
 30
0.0
 10
89.10119355411359
 20
-143.7138807149396
 30
0.0
 10
89.29136282489938
 20
-143.7138807149396
 30
0.0
 10
89.36818845422046
 20
-143.595369430247
 30
0.0
 10
89.36818845422046
 20
-143.4727240309721
 30
0.0
 10
89.36818845422046
 20
-143.3373317784018
 30
0.0
 10
89.27551538566723
 20
-143.2422471430089
 30
0.0
 10
89.10119355411359
 20
-143.2422471430089
 30
0.0
  0
HATCH
  5
BD
330
B4
100
AcDbEntity
  8
_U+30EC_U+30A4_U+30E4_U+30FC 1
 62
   179
420
  2234388
100
AcDbHatch
 10
0.0
 20
0.0
 30
0.0
210
0.0
220
0.0
230
1.0
  2
SOLID
 70
     1
 71
     0
 91
        3
 92
        1
 93
        1
 72
     4
 94
        3
 73
     0
 74
     1
 95
       29
 96
       25
 40
0.0
 40
0.0
 40
0.0
 40
0.0
 40
1.0
 40
1.0
 40
1.0
 40
2.0
 40
2.0
 40
2.0
 40
3.0
 40
3.0
 40
3.0
 40
4.0
 40
4.0
 40
4.0
 40
5.0
 40
5.0
 40
5.0
 40
6.0
 40
6.0
 40
6.0
 40
7.0
 40
7.0
 40
7.0
 40
8.0
 40
8.0
 40
8.0
 40
8.0
 10
89.10119355411359
 20
-144.6933213613961
 10
88.81628415748344
 20
-144.6933213613961
 10
88.54515514279427
 20
-144.5558620515347
 10
88.54515514279427
 20
-144.2068738788788
 10
88.54515514279427
 20
-143.9509032843248
 10
88.69673934414526
 20
-143.8558186489319
 10
88.80973847606145
 20
-143.7944959492944
 10
88.67641328078228
 20
-143.7352403069481
 10
88.59476451778187
 20
-143.6208631368378
 10
88.59476451778187
 20
-143.4599771776767
 10
88.59476451778187
 20
-143.1850585579537
 10
88.80732690922179
 20
-143.0496663053834
 10
89.10119355411359
 20
-143.0496663053834
 10
89.40436195681558
 20
-143.0496663053834
 10
89.60762259044532
 20
-143.1936712966669
 10
89.60762259044532
 20
-143.4599771776767
 10
89.60762259044532
 20
-143.6208631368378
 10
89.52425127970227
 20
-143.7352403069481
 10
89.39058157487459
 20
-143.7944959492944
 10
89.48566621026748
 20
-143.8451388529276
 10
89.65516490814177
 20
-143.9402234883205
 10
89.65516490814177
 20
-144.2027397642966
 10
89.65516490814177
 20
-144.5772216435432
 10
89.35681963911914
 20
-144.6933213613961
 10
89.10119355411359
 20
-144.6933213613961
 97
        0
 97
        0
 92
        1
 93
        1
 72
     4
 94
        3
 73
     0
 74
     1
 95
       17
 96
       13
 40
0.0
 40
0.0
 40
0.0
 40
0.0
 40
1.0
 40
1.0
 40
1.0
 40
2.0
 40
2.0
 40
2.0
 40
3.0
 40
3.0
 40
3.0
 40
4.0
 40
4.0
 40
4.0
 40
4.0
 10
89.10119355411359
 20
-143.9023274379828
 10
88.94754229547145
 20
-143.9023274379828
 10
88.78493378856766
 20
-143.989143844211
 10
88.78493378856766
 20
-144.1920599682923
 10
88.78493378856766
 20
-144.3973876592132
 10
88.92032604113798
 20
-144.4986734664795
 10
89.10119355411359
 20
-144.4986734664795
 10
89.30032007316103
 20
-144.4986734664795
 10
89.41779782920806
 20
-144.3760280672046
 10
89.41779782920806
 20
-144.1982611401657
 10
89.41779782920806
 20
-143.9763969909156
 10
89.24382050720294
 20
-143.9023274379828
 10
89.10119355411359
 20
-143.9023274379828
 97
        0
 97
        0
 92
        1
 93
        1
 72
     4
 94
        3
 73
     0
 74
     1
 95
       17
 96
       13
 40
0.0
 40
0.0
 40
0.0
 40
0.0
 40
1.0
 40
1.0
 40
1.0
 40
2.0
 40
2.0
 40
2.0
 40
3.0
 40
3.0
 40
3.0
 40
4.0
 40
4.0
 40
4.0
 40
4.0
 10
89.10119355411359
 20
-143.2422471430089
 10
88.92514917481732
 20
-143.2422471430089
 10
88.83454316355525
 20
-143.3373317784018
 10
88.83454316355525
 20
-143.4727240309721
 10
88.83454316355525
 20
-143.595369430247
 10
88.91136879287633
 20
-143.7138807149396
 10
89.10119355411359
 20
-143.7138807149396
 10
89.29136282489938
 20
-143.7138807149396
 10
89.36818845422046
 20
-143.595369430247
 10
89.36818845422046
 20
-143.4727240309721
 10
89.36818845422046
 20
-143.3373317784018
 10
89.27551538566723
 20
-143.2422471430089
 10
89.10119355411359
 20
-143.2422471430089
 97
        0
 97
        0
 75
     2
 76
     1
 98
        0
  0
ENDBLK
  5
B7
330
B4
100
AcDbEntity
  8
0
100
AcDbBlockEnd
  0
BLOCK
  5
CC
330
CA
100
AcDbEntity
  8
0
100
AcDbBlockBegin
  2
block 6
 70
     0
 10
0.0
 20
0.0
 30
0.0
  3
block 6
  1

  0
SPLINE
  5
CE
330
CA
100
AcDbEntity
  8
_U+30EC_U+30A4_U+30E4_U+30FC 1
370
     0
100
AcDbSpline
210
0.0
220
0.0
230
1.0
 70
    11
 71
     3
 72
    29
 73
    25
 74
     0
 42
0.0000000001
 43
0.0000000001
 12
1.0
 22
0.0
 32
0.0
 13
1.0
 23
0.0
 33
0.0
 40
0.0
 40
0.0
 40
0.0
 40
0.0
 40
1.0
 40
1.0
 40
1.0
 40
2.0
 40
2.0
 40
2.0
 40
3.0
 40
3.0
 40
3.0
 40
4.0
 40
4.0
 40
4.0
 40
5.0
 40
5.0
 40
5.0
 40
6.0
 40
6.0
 40
6.0
 40
7.0
 40
7.0
 40
7.0
 40
8.0
 40
8.0
 40
8.0
 40
8.0
 10
83.5103203458759
 20
-113.0437459027286
 30
0.0
 10
83.22541094924573
 20
-113.0437459027286
 30
0.0
 10
82.9541096797823
 20
-112.9061143380929
 30
0.0
 10
82.9541096797823
 20
-112.5571261654371
 30
0.0
 10
82.9541096797823
 20
-112.3011555708831
 30
0.0
 10
83.10552162635904
 20
-112.2058986807159
 30
0.0
 10
83.2186930130495
 20
-112.1445759810784
 30
0.0
 10
83.08519556299606
 20
-112.0853203387321
 30
0.0
 10
83.00389130954417
 20
-111.9711154233961
 30
0.0
 10
83.00389130954417
 20
-111.8104017190092
 30
0.0
 10
83.00389130954417
 20
-111.535310844512
 30
0.0
 10
83.21628144620982
 20
-111.3999185919417
 30
0.0
 10
83.5103203458759
 20
-111.3999185919417
 30
0.0
 10
83.81331649380363
 20
-111.3999185919417
 30
0.0
 10
84.01674938220762
 20
-111.5437513284509
 30
0.0
 10
84.01674938220762
 20
-111.8104017190092
 30
0.0
 10
84.01674938220762
 20
-111.9711154233961
 30
0.0
 10
83.93303356191605
 20
-112.0853203387321
 30
0.0
 10
83.79970836663688
 20
-112.1445759810784
 30
0.0
 10
83.89462074725552
 20
-112.1953911394859
 30
0.0
 10
84.0641194451298
 20
-112.290648029653
 30
0.0
 10
84.0641194451298
 20
-112.5529920508548
 30
0.0
 10
84.0641194451298
 20
-112.9273016753272
 30
0.0
 10
83.76577417610717
 20
-113.0437459027286
 30
0.0
 10
83.5103203458759
 20
-113.0437459027286
 30
0.0
  0
SPLINE
  5
CF
330
CA
100
AcDbEntity
  8
_U+30EC_U+30A4_U+30E4_U+30FC 1
370
     0
100
AcDbSpline
210
0.0
220
0.0
230
1.0
 70
    11
 71
     3
 72
    17
 73
    13
 74
     0
 42
0.0000000001
 43
0.0000000001
 12
1.0
 22
0.0
 32
0.0
 13
1.0
 23
0.0
 33
0.0
 40
0.0
 40
0.0
 40
0.0
 40
0.0
 40
1.0
 40
1.0
 40
1.0
 40
2.0
 40
2.0
 40
2.0
 40
3.0
 40
3.0
 40
3.0
 40
4.0
 40
4.0
 40
4.0
 40
4.0
 10
83.5103203458759
 20
-112.252579724541
 30
0.0
 10
83.35649683245948
 20
-112.252579724541
 30
0.0
 10
83.19371607078143
 20
-112.3392238759951
 30
0.0
 10
83.19371607078143
 20
-112.5423122548505
 30
0.0
 10
83.19371607078143
 20
-112.7474676909972
 30
0.0
 10
83.32945283290027
 20
-112.849098007812
 30
0.0
 10
83.5103203458759
 20
-112.849098007812
 30
0.0
 10
83.70927461014908
 20
-112.849098007812
 30
0.0
 10
83.82675236619609
 20
-112.7264526085371
 30
0.0
 10
83.82675236619609
 20
-112.5486856814983
 30
0.0
 10
83.82675236619609
 20
-112.3264770226996
 30
0.0
 10
83.65277504419097
 20
-112.252579724541
 30
0.0
 10
83.5103203458759
 20
-112.252579724541
 30
0.0
  0
SPLINE
  5
D0
330
CA
100
AcDbEntity
  8
_U+30EC_U+30A4_U+30E4_U+30FC 1
370
     0
100
AcDbSpline
210
0.0
220
0.0
230
1.0
 70
    11
 71
     3
 72
    17
 73
    13
 74
     0
 42
0.0000000001
 43
0.0000000001
 12
1.0
 22
0.0
 32
0.0
 13
1.0
 23
0.0
 33
0.0
 40
0.0
 40
0.0
 40
0.0
 40
0.0
 40
1.0
 40
1.0
 40
1.0
 40
2.0
 40
2.0
 40
2.0
 40
3.0
 40
3.0
 40
3.0
 40
4.0
 40
4.0
 40
4.0
 40
4.0
 10
83.5103203458759
 20
-111.5924994295672
 30
0.0
 10
83.3339314570311
 20
-111.5924994295672
 30
0.0
 10
83.2434977005433
 20
-111.68758406496
 30
0.0
 10
83.2434977005433
 20
-111.8229763175304
 30
0.0
 10
83.2434977005433
 20
-111.9457939715795
 30
0.0
 10
83.32032332986437
 20
-112.0643052562721
 30
0.0
 10
83.5103203458759
 20
-112.0643052562721
 30
0.0
 10
83.70014510711316
 20
-112.0643052562721
 30
0.0
 10
83.77714299120849
 20
-111.9457939715795
 30
0.0
 10
83.77714299120849
 20
-111.8229763175304
 30
0.0
 10
83.77714299120849
 20
-111.68758406496
 30
0.0
 10
83.68429766788101
 20
-111.5924994295672
 30
0.0
 10
83.5103203458759
 20
-111.5924994295672
 30
0.0
  0
HATCH
  5
D1
330
CA
100
AcDbEntity
  8
_U+30EC_U+30A4_U+30E4_U+30FC 1
 62
   179
420
  2234388
100
AcDbHatch
 10
0.0
 20
0.0
 30
0.0
210
0.0
220
0.0
230
1.0
  2
SOLID
 70
     1
 71
     0
 91
        3
 92
        1
 93
        1
 72
     4
 94
        3
 73
     0
 74
     1
 95
       29
 96
       25
 40
0.0
 40
0.0
 40
0.0
 40
0.0
 40
1.0
 40
1.0
 40
1.0
 40
2.0
 40
2.0
 40
2.0
 40
3.0
 40
3.0
 40
3.0
 40
4.0
 40
4.0
 40
4.0
 40
5.0
 40
5.0
 40
5.0
 40
6.0
 40
6.0
 40
6.0
 40
7.0
 40
7.0
 40
7.0
 40
8.0
 40
8.0
 40
8.0
 40
8.0
 10
83.5103203458759
 20
-113.0437459027286
 10
83.22541094924573
 20
-113.0437459027286
 10
82.9541096797823
 20
-112.9061143380929
 10
82.9541096797823
 20
-112.5571261654371
 10
82.9541096797823
 20
-112.3011555708831
 10
83.10552162635904
 20
-112.2058986807159
 10
83.2186930130495
 20
-112.1445759810784
 10
83.08519556299606
 20
-112.0853203387321
 10
83.00389130954417
 20
-111.9711154233961
 10
83.00389130954417
 20
-111.8104017190092
 10
83.00389130954417
 20
-111.535310844512
 10
83.21628144620982
 20
-111.3999185919417
 10
83.5103203458759
 20
-111.3999185919417
 10
83.81331649380363
 20
-111.3999185919417
 10
84.01674938220762
 20
-111.5437513284509
 10
84.01674938220762
 20
-111.8104017190092
 10
84.01674938220762
 20
-111.9711154233961
 10
83.93303356191605
 20
-112.0853203387321
 10
83.79970836663688
 20
-112.1445759810784
 10
83.89462074725552
 20
-112.1953911394859
 10
84.0641194451298
 20
-112.290648029653
 10
84.0641194451298
 20
-112.5529920508548
 10
84.0641194451298
 20
-112.9273016753272
 10
83.76577417610717
 20
-113.0437459027286
 10
83.5103203458759
 20
-113.0437459027286
 97
        0
 97
        0
 92
        1
 93
        1
 72
     4
 94
        3
 73
     0
 74
     1
 95
       17
 96
       13
 40
0.0
 40
0.0
 40
0.0
 40
0.0
 40
1.0
 40
1.0
 40
1.0
 40
2.0
 40
2.0
 40
2.0
 40
3.0
 40
3.0
 40
3.0
 40
4.0
 40
4.0
 40
4.0
 40
4.0
 10
83.5103203458759
 20
-112.252579724541
 10
83.35649683245948
 20
-112.252579724541
 10
83.19371607078143
 20
-112.3392238759951
 10
83.19371607078143
 20
-112.5423122548505
 10
83.19371607078143
 20
-112.7474676909972
 10
83.32945283290027
 20
-112.849098007812
 10
83.5103203458759
 20
-112.849098007812
 10
83.70927461014908
 20
-112.849098007812
 10
83.82675236619609
 20
-112.7264526085371
 10
83.82675236619609
 20
-112.5486856814983
 10
83.82675236619609
 20
-112.3264770226996
 10
83.65277504419097
 20
-112.252579724541
 10
83.5103203458759
 20
-112.252579724541
 97
        0
 97
        0
 92
        1
 93
        1
 72
     4
 94
        3
 73
     0
 74
     1
 95
       17
 96
       13
 40
0.0
 40
0.0
 40
0.0
 40
0.0
 40
1.0
 40
1.0
 40
1.0
 40
2.0
 40
2.0
 40
2.0
 40
3.0
 40
3.0
 40
3.0
 40
4.0
 40
4.0
 40
4.0
 40
4.0
 10
83.5103203458759
 20
-111.5924994295672
 10
83.3339314570311
 20
-111.5924994295672
 10
83.2434977005433
 20
-111.68758406496
 10
83.2434977005433
 20
-111.8229763175304
 10
83.2434977005433
 20
-111.9457939715795
 10
83.32032332986437
 20
-112.0643052562721
 10
83.5103203458759
 20
-112.0643052562721
 10
83.70014510711316
 20
-112.0643052562721
 10
83.77714299120849
 20
-111.9457939715795
 10
83.77714299120849
 20
-111.8229763175304
 10
83.77714299120849
 20
-111.68758406496
 10
83.68429766788101
 20
-111.5924994295672
 10
83.5103203458759
 20
-111.5924994295672
 97
        0
 97
        0
 75
     2
 76
     1
 98
        0
  0
ENDBLK
  5
CD
330
CA
100
AcDbEntity
  8
0
100
AcDbBlockEnd
  0
ENDSEC
  0
SECTION
  2
ENTITIES
  0
SPLINE
  5
41
330
1F
100
AcDbEntity
  8
_U+30EC_U+30A4_U+30E4_U+30FC 1
 62
   179
420
  2234388
370
     9
100
AcDbSpline
210
0.0
220
0.0
230
1.0
 70
    11
 71
     3
 72
    17
 73
    13
 74
     0
 42
0.0000000001
 43
0.0000000001
 12
1.0
 22
0.0
 32
0.0
 13
1.0
 23
0.0
 33
0.0
 40
0.0
 40
0.0
 40
0.0
 40
0.0
 40
1.0
 40
1.0
 40
1.0
 40
2.0
 40
2.0
 40
2.0
 40
3.0
 40
3.0
 40
3.0
 40
4.0
 40
4.0
 40
4.0
 40
4.0
 10
101.4374021343385
 20
-118.7407313592039
 30
0.0
 10
101.4374021343385
 20
-118.6859449703285
 30
0.0
 10
101.3925993577037
 20
-118.6411774703397
 30
0.0
 10
101.3374954702207
 20
-118.6411774703397
 30
0.0
 10
101.2823563049607
 20
-118.6411774703397
 30
0.0
 10
101.2375888061028
 20
-118.6859449703285
 30
0.0
 10
101.2375888061028
 20
-118.7407313592039
 30
0.0
 10
101.2375888061028
 20
-118.7965408036343
 30
0.0
 10
101.2823563049607
 20
-118.8413083036229
 30
0.0
 10
101.3374954702207
 20
-118.8413083036229
 30
0.0
 10
101.3925993577037
 20
-118.8413083036229
 30
0.0
 10
101.4374021343385
 20
-118.7965408036343
 30
0.0
 10
101.4374021343385
 20
-118.7407313592039
 30
0.0
  0
SPLINE
  5
42
330
1F
100
AcDbEntity
  8
_U+30EC_U+30A4_U+30E4_U+30FC 1
 62
   179
420
  2234388
370
     9
100
AcDbSpline
210
0.0
220
0.0
230
1.0
 70
    11
 71
     3
 72
    17
 73
    13
 74
     0
 42
0.0000000001
 43
0.0000000001
 12
1.0
 22
0.0
 32
0.0
 13
1.0
 23
0.0
 33
0.0
 40
0.0
 40
0.0
 40
0.0
 40
0.0
 40
1.0
 40
1.0
 40
1.0
 40
2.0
 40
2.0
 40
2.0
 40
3.0
 40
3.0
 40
3.0
 40
4.0
 40
4.0
 40
4.0
 40
4.0
 10
101.4374021343385
 20
-140.2387974649402
 30
0.0
 10
101.4374021343385
 20
-140.1836935760653
 30
0.0
 10
101.3925993577037
 20
-140.1388907982986
 30
0.0
 10
101.3374954702207
 20
-140.1388907982986
 30
0.0
 10
101.2823563049607
 20
-140.1388907982986
 30
0.0
 10
101.2375888061028
 20
-140.1836935760653
 30
0.0
 10
101.2375888061028
 20
-140.2387974649402
 30
0.0
 10
101.2375888061028
 20
-140.2939366315933
 30
0.0
 10
101.2823563049607
 20
-140.3387041315819
 30
0.0
 10
101.3374954702207
 20
-140.3387041315819
 30
0.0
 10
101.3925993577037
 20
-140.3387041315819
 30
0.0
 10
101.4374021343385
 20
-140.2939366315933
 30
0.0
 10
101.4374021343385
 20
-140.2387974649402
 30
0.0
  0
POLYLINE
  5
43
330
1F
100
AcDbEntity
  8
_U+30EC_U+30A4_U+30E4_U+30FC 1
 62
   179
420
  2234388
370
     9
100
AcDb2dPolyline
 66
     1
 10
0.0
 20
0.0
 30
0.0
  0
VERTEX
  5
44
330
43
100
AcDbEntity
  8
_U+30EC_U+30A4_U+30E4_U+30FC 1
 62
   179
420
  2234388
370
     9
100
AcDbVertex
100
AcDb2dVertex
 10
97.4596916802628
 20
-143.7789930196108
 30
0.0
  0
VERTEX
  5
45
330
43
100
AcDbEntity
  8
_U+30EC_U+30A4_U+30E4_U+30FC 1
 62
   179
420
  2234388
370
     9
100
AcDbVertex
100
AcDb2dVertex
 10
97.4596916802628
 20
-146.2388066301071
 30
0.0
  0
SEQEND
  5
46
330
43
100
AcDbEntity
  8
_U+30EC_U+30A4_U+30E4_U+30FC 1
 62
   179
420
  2234388
370
     9
  0
POLYLINE
  5
47
330
1F
100
AcDbEntity
  8
_U+30EC_U+30A4_U+30E4_U+30FC 1
 62
   179
420
  2234388
370
     9
100
AcDb2dPolyline
 66
     1
 10
0.0
 20
0.0
 30
0.0
  0
VERTEX
  5
48
330
47
100
AcDbEntity
  8
_U+30EC_U+30A4_U+30E4_U+30FC 1
 62
   179
420
  2234388
370
     9
100
AcDbVertex
100
AcDb2dVertex
 10
101.3374954702207
 20
-140.2387974649402
 30
0.0
  0
VERTEX
  5
49
330
47
100
AcDbEntity
  8
_U+30EC_U+30A4_U+30E4_U+30FC 1
 62
   179
420
  2234388
370
     9
100
AcDbVertex
100
AcDb2dVertex
 10
101.3374954702207
 20
-118.7414016369812
 30
0.0
  0
SEQEND
  5
4A
330
47
100
AcDbEntity
  8
_U+30EC_U+30A4_U+30E4_U+30FC 1
 62
   179
420
  2234388
370
     9
  0
POLYLINE
  5
4B
330
1F
100
AcDbEntity
  8
_U+30EC_U+30A4_U+30E4_U+30FC 1
 62
   179
420
  2234388
370
     9
100
AcDb2dPolyline
 66
     1
 10
0.0
 20
0.0
 30
0.0
  0
VERTEX
  5
4C
330
4B
100
AcDbEntity
  8
_U+30EC_U+30A4_U+30E4_U+30FC 1
 62
   179
420
  2234388
370
     9
100
AcDbVertex
100
AcDb2dVertex
 10
100.3418507733994
 20
-140.2387974649402
 30
0.0
  0
VERTEX
  5
4D
330
4B
100
AcDbEntity
  8
_U+30EC_U+30A4_U+30E4_U+30FC 1
 62
   179
420
  2234388
370
     9
100
AcDbVertex
100
AcDb2dVertex
 10
102.3372323891597
 20
-140.2387974649402
 30
0.0
  0
SEQEND
  5
4E
330
4B
100
AcDbEntity
  8
_U+30EC_U+30A4_U+30E4_U+30FC 1
 62
   179
420
  2234388
370
     9
  0
POLYLINE
  5
4F
330
1F
100
AcDbEntity
  8
_U+30EC_U+30A4_U+30E4_U+30FC 1
 62
   179
420
  2234388
370
     9
100
AcDb2dPolyline
 66
     1
 10
0.0
 20
0.0
 30
0.0
  0
VERTEX
  5
50
330
4F
100
AcDbEntity
  8
_U+30EC_U+30A4_U+30E4_U+30FC 1
 62
   179
420
  2234388
370
     9
100
AcDbVertex
100
AcDb2dVertex
 10
100.3418507733994
 20
-118.7407313592039
 30
0.0
  0
VERTEX
  5
51
330
4F
100
AcDbEntity
  8
_U+30EC_U+30A4_U+30E4_U+30FC 1
 62
   179
420
  2234388
370
     9
100
AcDbVertex
100
AcDb2dVertex
 10
102.3372323891597
 20
-118.7407313592039
 30
0.0
  0
SEQEND
  5
52
330
4F
100
AcDbEntity
  8
_U+30EC_U+30A4_U+30E4_U+30FC 1
 62
   179
420
  2234388
370
     9
  0
INSERT
  5
54
330
1F
100
AcDbEntity
  8
_U+30EC_U+30A4_U+30E4_U+30FC 1
100
AcDbBlockReference
  2
block 2
 10
0.0
 20
0.0
 30
0.0
  0
SPLINE
  5
65
330
1F
100
AcDbEntity
  8
_U+30EC_U+30A4_U+30E4_U+30FC 1
 62
   179
420
  2234388
370
     9
100
AcDbSpline
210
0.0
220
0.0
230
1.0
 70
    11
 71
     3
 72
    17
 73
    13
 74
     0
 42
0.0000000001
 43
0.0000000001
 12
1.0
 22
0.0
 32
0.0
 13
1.0
 23
0.0
 33
0.0
 40
0.0
 40
0.0
 40
0.0
 40
0.0
 40
1.0
 40
1.0
 40
1.0
 40
2.0
 40
2.0
 40
2.0
 40
3.0
 40
3.0
 40
3.0
 40
4.0
 40
4.0
 40
4.0
 40
4.0
 10
101.4374021343385
 20
-141.3019638535631
 30
0.0
 10
101.4374021343385
 20
-141.2465071869105
 30
0.0
 10
101.3925993577037
 20
-141.2017044091437
 30
0.0
 10
101.3374954702207
 20
-141.2017044091437
 30
0.0
 10
101.2823563049607
 20
-141.2017044091437
 30
0.0
 10
101.2375888061028
 20
-141.2465071869105
 30
0.0
 10
101.2375888061028
 20
-141.3019638535631
 30
0.0
 10
101.2375888061028
 20
-141.3571030202162
 30
0.0
 10
101.2823563049607
 20
-141.4018705202048
 30
0.0
 10
101.3374954702207
 20
-141.4018705202048
 30
0.0
 10
101.3925993577037
 20
-141.4018705202048
 30
0.0
 10
101.4374021343385
 20
-141.3571030202162
 30
0.0
 10
101.4374021343385
 20
-141.3019638535631
 30
0.0
  0
POLYLINE
  5
66
330
1F
100
AcDbEntity
  8
_U+30EC_U+30A4_U+30E4_U+30FC 1
 62
   179
420
  2234388
370
     9
100
AcDb2dPolyline
 66
     1
 10
0.0
 20
0.0
 30
0.0
  0
VERTEX
  5
67
330
66
100
AcDbEntity
  8
_U+30EC_U+30A4_U+30E4_U+30FC 1
 62
   179
420
  2234388
370
     9
100
AcDbVertex
100
AcDb2dVertex
 10
101.3374954702207
 20
-138.9489713541518
 30
0.0
  0
VERTEX
  5
68
330
66
100
AcDbEntity
  8
_U+30EC_U+30A4_U+30E4_U+30FC 1
 62
   179
420
  2234388
370
     9
100
AcDbVertex
100
AcDb2dVertex
 10
101.3374954702207
 20
-141.301611075786
 30
0.0
  0
SEQEND
  5
69
330
66
100
AcDbEntity
  8
_U+30EC_U+30A4_U+30E4_U+30FC 1
 62
   179
420
  2234388
370
     9
  0
POLYLINE
  5
6A
330
1F
100
AcDbEntity
  8
_U+30EC_U+30A4_U+30E4_U+30FC 1
 62
   179
420
  2234388
370
     9
100
AcDb2dPolyline
 66
     1
 10
0.0
 20
0.0
 30
0.0
  0
VERTEX
  5
6B
330
6A
100
AcDbEntity
  8
_U+30EC_U+30A4_U+30E4_U+30FC 1
 62
   179
420
  2234388
370
     9
100
AcDbVertex
100
AcDb2dVertex
 10
100.3418507733994
 20
-141.301611075786
 30
0.0
  0
VERTEX
  5
6C
330
6A
100
AcDbEntity
  8
_U+30EC_U+30A4_U+30E4_U+30FC 1
 62
   179
420
  2234388
370
     9
100
AcDbVertex
100
AcDb2dVertex
 10
102.3372323891597
 20
-141.301611075786
 30
0.0
  0
SEQEND
  5
6D
330
6A
100
AcDbEntity
  8
_U+30EC_U+30A4_U+30E4_U+30FC 1
 62
   179
420
  2234388
370
     9
  0
INSERT
  5
6F
330
1F
100
AcDbEntity
  8
_U+30EC_U+30A4_U+30E4_U+30FC 1
100
AcDbBlockReference
  2
block 3
 10
0.0
 20
0.0
 30
0.0
  0
SPLINE
  5
74
330
1F
100
AcDbEntity
  8
_U+30EC_U+30A4_U+30E4_U+30FC 1
 62
   179
420
  2234388
370
     9
100
AcDbSpline
210
0.0
220
0.0
230
1.0
 70
    11
 71
     3
 72
    17
 73
    13
 74
     0
 42
0.0000000001
 43
0.0000000001
 12
1.0
 22
0.0
 32
0.0
 13
1.0
 23
0.0
 33
0.0
 40
0.0
 40
0.0
 40
0.0
 40
0.0
 40
1.0
 40
1.0
 40
1.0
 40
2.0
 40
2.0
 40
2.0
 40
3.0
 40
3.0
 40
3.0
 40
4.0
 40
4.0
 40
4.0
 40
4.0
 10
83.0712270473431
 20
-129.4687388565216
 30
0.0
 10
83.0712270473431
 20
-129.4136349676467
 30
0.0
 10
83.02645954848522
 20
-129.3688321898799
 30
0.0
 10
82.97132038322526
 20
-129.3688321898799
 30
0.0
 10
82.91621649574219
 20
-129.3688321898799
 30
0.0
 10
82.87141371910744
 20
-129.4136349676467
 30
0.0
 10
82.87141371910744
 20
-129.4687388565216
 30
0.0
 10
82.87141371910744
 20
-129.5238780231746
 30
0.0
 10
82.91621649574219
 20
-129.5686808009414
 30
0.0
 10
82.97132038322526
 20
-129.5686808009414
 30
0.0
 10
83.02645954848522
 20
-129.5686808009414
 30
0.0
 10
83.0712270473431
 20
-129.5238780231746
 30
0.0
 10
83.0712270473431
 20
-129.4687388565216
 30
0.0
  0
SPLINE
  5
75
330
1F
100
AcDbEntity
  8
_U+30EC_U+30A4_U+30E4_U+30FC 1
 62
   179
420
  2234388
370
     9
100
AcDbSpline
210
0.0
220
0.0
230
1.0
 70
    11
 71
     3
 72
    17
 73
    13
 74
     0
 42
0.0000000001
 43
0.0000000001
 12
1.0
 22
0.0
 32
0.0
 13
1.0
 23
0.0
 33
0.0
 40
0.0
 40
0.0
 40
0.0
 40
0.0
 40
1.0
 40
1.0
 40
1.0
 40
2.0
 40
2.0
 40
2.0
 40
3.0
 40
3.0
 40
3.0
 40
4.0
 40
4.0
 40
4.0
 40
4.0
 10
84.07099924405901
 20
-129.4687388565216
 30
0.0
 10
84.07099924405901
 20
-129.4136349676467
 30
0.0
 10
84.02623174520113
 20
-129.3688321898799
 30
0.0
 10
83.97109257994117
 20
-129.3688321898799
 30
0.0
 10
83.9159886924581
 20
-129.3688321898799
 30
0.0
 10
83.87118591582335
 20
-129.4136349676467
 30
0.0
 10
83.87118591582335
 20
-129.4687388565216
 30
0.0
 10
83.87118591582335
 20
-129.5238780231746
 30
0.0
 10
83.9159886924581
 20
-129.5686808009414
 30
0.0
 10
83.97109257994117
 20
-129.5686808009414
 30
0.0
 10
84.02623174520113
 20
-129.5686808009414
 30
0.0
 10
84.07099924405901
 20
-129.5238780231746
 30
0.0
 10
84.07099924405901
 20
-129.4687388565216
 30
0.0
  0
INSERT
  5
77
330
1F
100
AcDbEntity
  8
_U+30EC_U+30A4_U+30E4_U+30FC 1
100
AcDbBlockReference
  2
block 4
 10
0.0
 20
0.0
 30
0.0
  0
SPLINE
  5
7C
330
1F
100
AcDbEntity
  8
_U+30EC_U+30A4_U+30E4_U+30FC 1
 62
   253
420
 11711154
370
     9
100
AcDbSpline
210
0.0
220
0.0
230
1.0
 70
    11
 71
     3
 72
    56
 73
    52
 74
     0
 42
0.0000000001
 43
0.0000000001
 12
1.0
 22
0.0
 32
0.0
 13
1.0
 23
0.0
 33
0.0
 40
0.0
 40
0.0
 40
0.0
 40
0.0
 40
1.0
 40
1.0
 40
1.0
 40
2.0
 40
2.0
 40
2.0
 40
3.0
 40
3.0
 40
3.0
 40
4.0
 40
4.0
 40
4.0
 40
5.0
 40
5.0
 40
5.0
 40
6.0
 40
6.0
 40
6.0
 40
7.0
 40
7.0
 40
7.0
 40
8.0
 40
8.0
 40
8.0
 40
9.0
 40
9.0
 40
9.0
 40
10.0
 40
10.0
 40
10.0
 40
11.0
 40
11.0
 40
11.0
 40
12.0
 40
12.0
 40
12.0
 40
13.0
 40
13.0
 40
13.0
 40
14.0
 40
14.0
 40
14.0
 40
15.0
 40
15.0
 40
15.0
 40
16.0
 40
16.0
 40
16.0
 40
17.0
 40
17.0
 40
17.0
 40
17.0
 10
79.78083352017693
 20
-117.754752748339
 30
0.0
 10
79.78083352017693
 20
-117.754752748339
 30
0.0
 10
83.60247508934539
 20
-117.6079971928204
 30
0.0
 10
83.74958341892568
 20
-117.6079971928204
 30
0.0
 10
83.74958341892568
 20
-117.6079971928204
 30
0.0
 10
87.10097222231352
 20
-117.4901694150718
 30
0.0
 10
87.30699443927968
 20
-117.96077497051
 30
0.0
 10
87.30699443927968
 20
-117.96077497051
 30
0.0
 10
87.65977220805733
 20
-118.6077341370147
 30
0.0
 10
87.07169166750496
 20
-118.7248916369853
 30
0.0
 10
87.07169166750496
 20
-118.7248916369853
 30
0.0
 10
83.98488619070038
 20
-118.7248916369853
 30
0.0
 10
83.98488619070038
 20
-118.7248916369853
 30
0.0
 10
83.98488619070038
 20
-118.7248916369853
 30
0.0
 10
84.01416674550893
 20
-140.2178071871679
 30
0.0
 10
84.01416674550893
 20
-140.2178071871679
 30
0.0
 10
84.01416674550893
 20
-140.2178071871679
 30
0.0
 10
86.54252501433847
 20
-140.2767210760419
 30
0.0
 10
86.54252501433847
 20
-140.2767210760419
 30
0.0
 10
86.54252501433847
 20
-140.2767210760419
 30
0.0
 10
87.3066416615109
 20
-140.4238294093382
 30
0.0
 10
87.27736110670234
 20
-140.8058877425763
 30
0.0
 10
87.27736110670234
 20
-140.8058877425763
 30
0.0
 10
97.00838308066552
 20
-140.6880599648283
 30
0.0
 10
97.00838308066552
 20
-140.6880599648283
 30
0.0
 10
97.00838308066552
 20
-140.6880599648283
 30
0.0
 10
97.53754973383202
 20
-140.8937294092209
 30
0.0
 10
97.47863584644615
 20
-141.3054210757851
 30
0.0
 10
97.47863584644615
 20
-141.3054210757851
 30
0.0
 10
79.42805575139926
 20
-141.2761405202367
 30
0.0
 10
79.42805575139926
 20
-141.2761405202367
 30
0.0
 10
79.42805575139926
 20
-141.2761405202367
 30
0.0
 10
79.75155296536838
 20
-140.5116710759835
 30
0.0
 10
79.75155296536838
 20
-140.5116710759835
 30
0.0
 10
79.75155296536838
 20
-140.5116710759835
 30
0.0
 10
80.1336112889546
 20
-140.3060016315903
 30
0.0
 10
80.1336112889546
 20
-140.3060016315903
 30
0.0
 10
80.1336112889546
 20
-140.3060016315903
 30
0.0
 10
80.86880015908724
 20
-140.2470877427163
 30
0.0
 10
80.86880015908724
 20
-140.2470877427163
 30
0.0
 10
80.86880015908724
 20
-140.2470877427163
 30
0.0
 10
82.98546677175325
 20
-140.1885266316195
 30
0.0
 10
82.98546677175325
 20
-140.1885266316195
 30
0.0
 10
82.98546677175325
 20
-140.1885266316195
 30
0.0
 10
82.95583343917593
 20
-118.7248916369853
 30
0.0
 10
82.95583343917593
 20
-118.7248916369853
 30
0.0
 10
82.95583343917593
 20
-118.7248916369853
 30
0.0
 10
79.98685573714307
 20
-118.7248916369853
 30
0.0
 10
79.98685573714307
 20
-118.7248916369853
 30
0.0
 10
79.98685573714307
 20
-118.7248916369853
 30
0.0
 10
78.98708354042718
 20
-118.3431508037476
 30
0.0
 10
79.78083352017693
 20
-117.754752748339
 30
0.0
  0
HATCH
  5
7D
330
1F
100
AcDbEntity
  8
_U+30EC_U+30A4_U+30E4_U+30FC 1
 62
   253
420
 11711154
100
AcDbHatch
 10
0.0
 20
0.0
 30
0.0
210
0.0
220
0.0
230
1.0
  2
SOLID
 70
     1
 71
     0
 91
        1
 92
        1
 93
        1
 72
     4
 94
        3
 73
     0
 74
     1
 95
       56
 96
       52
 40
0.0
 40
0.0
 40
0.0
 40
0.0
 40
1.0
 40
1.0
 40
1.0
 40
2.0
 40
2.0
 40
2.0
 40
3.0
 40
3.0
 40
3.0
 40
4.0
 40
4.0
 40
4.0
 40
5.0
 40
5.0
 40
5.0
 40
6.0
 40
6.0
 40
6.0
 40
7.0
 40
7.0
 40
7.0
 40
8.0
 40
8.0
 40
8.0
 40
9.0
 40
9.0
 40
9.0
 40
10.0
 40
10.0
 40
10.0
 40
11.0
 40
11.0
 40
11.0
 40
12.0
 40
12.0
 40
12.0
 40
13.0
 40
13.0
 40
13.0
 40
14.0
 40
14.0
 40
14.0
 40
15.0
 40
15.0
 40
15.0
 40
16.0
 40
16.0
 40
16.0
 40
17.0
 40
17.0
 40
17.0
 40
17.0
 10
79.78083352017693
 20
-117.754752748339
 10
79.78083352017693
 20
-117.754752748339
 10
83.60247508934539
 20
-117.6079971928204
 10
83.74958341892568
 20
-117.6079971928204
 10
83.74958341892568
 20
-117.6079971928204
 10
87.10097222231352
 20
-117.4901694150718
 10
87.30699443927968
 20
-117.96077497051
 10
87.30699443927968
 20
-117.96077497051
 10
87.65977220805733
 20
-118.6077341370147
 10
87.07169166750496
 20
-118.7248916369853
 10
87.07169166750496
 20
-118.7248916369853
 10
83.98488619070038
 20
-118.7248916369853
 10
83.98488619070038
 20
-118.7248916369853
 10
83.98488619070038
 20
-118.7248916369853
 10
84.01416674550893
 20
-140.2178071871679
 10
84.01416674550893
 20
-140.2178071871679
 10
84.01416674550893
 20
-140.2178071871679
 10
86.54252501433847
 20
-140.2767210760419
 10
86.54252501433847
 20
-140.2767210760419
 10
86.54252501433847
 20
-140.2767210760419
 10
87.3066416615109
 20
-140.4238294093382
 10
87.27736110670234
 20
-140.8058877425763
 10
87.27736110670234
 20
-140.8058877425763
 10
97.00838308066552
 20
-140.6880599648283
 10
97.00838308066552
 20
-140.6880599648283
 10
97.00838308066552
 20
-140.6880599648283
 10
97.53754973383202
 20
-140.8937294092209
 10
97.47863584644615
 20
-141.3054210757851
 10
97.47863584644615
 20
-141.3054210757851
 10
79.42805575139926
 20
-141.2761405202367
 10
79.42805575139926
 20
-141.2761405202367
 10
79.42805575139926
 20
-141.2761405202367
 10
79.75155296536838
 20
-140.5116710759835
 10
79.75155296536838
 20
-140.5116710759835
 10
79.75155296536838
 20
-140.5116710759835
 10
80.1336112889546
 20
-140.3060016315903
 10
80.1336112889546
 20
-140.3060016315903
 10
80.1336112889546
 20
-140.3060016315903
 10
80.86880015908724
 20
-140.2470877427163
 10
80.86880015908724
 20
-140.2470877427163
 10
80.86880015908724
 20
-140.2470877427163
 10
82.98546677175325
 20
-140.1885266316195
 10
82.98546677175325
 20
-140.1885266316195
 10
82.98546677175325
 20
-140.1885266316195
 10
82.95583343917593
 20
-118.7248916369853
 10
82.95583343917593
 20
-118.7248916369853
 10
82.95583343917593
 20
-118.7248916369853
 10
79.98685573714307
 20
-118.7248916369853
 10
79.98685573714307
 20
-118.7248916369853
 10
79.98685573714307
 20
-118.7248916369853
 10
78.98708354042718
 20
-118.3431508037476
 10
79.78083352017693
 20
-117.754752748339
 97
        0
 97
        0
 75
     2
 76
     1
 98
        0
  0
POLYLINE
  5
7E
330
1F
100
AcDbEntity
  8
_U+30EC_U+30A4_U+30E4_U+30FC 1
 62
   179
420
  2234388
370
    25
100
AcDb2dPolyline
 66
     1
 10
0.0
 20
0.0
 30
0.0
  0
VERTEX
  5
7F
330
7E
100
AcDbEntity
  8
_U+30EC_U+30A4_U+30E4_U+30FC 1
 62
   179
420
  2234388
370
    25
100
AcDbVertex
100
AcDb2dVertex
 10
82.96789843886812
 20
-118.7386499703155
 30
0.0
  0
VERTEX
  5
80
330
7E
100
AcDbEntity
  8
_U+30EC_U+30A4_U+30E4_U+30FC 1
 62
   179
420
  2234388
370
    25
100
AcDbVertex
100
AcDb2dVertex
 10
82.96789843886812
 20
-140.239150242718
 30
0.0
  0
SEQEND
  5
81
330
7E
100
AcDbEntity
  8
_U+30EC_U+30A4_U+30E4_U+30FC 1
 62
   179
420
  2234388
370
    25
  0
POLYLINE
  5
82
330
1F
100
AcDbEntity
  8
_U+30EC_U+30A4_U+30E4_U+30FC 1
 62
   179
420
  2234388
370
    25
100
AcDb2dPolyline
 66
     1
 10
0.0
 20
0.0
 30
0.0
  0
VERTEX
  5
83
330
82
100
AcDbEntity
  8
_U+30EC_U+30A4_U+30E4_U+30FC 1
 62
   179
420
  2234388
370
    25
100
AcDbVertex
100
AcDb2dVertex
 10
83.96767063558403
 20
-118.7386499703155
 30
0.0
  0
VERTEX
  5
84
330
82
100
AcDbEntity
  8
_U+30EC_U+30A4_U+30E4_U+30FC 1
 62
   179
420
  2234388
370
    25
100
AcDbVertex
100
AcDb2dVertex
 10
83.96767063558403
 20
-140.239150242718
 30
0.0
  0
SEQEND
  5
85
330
82
100
AcDbEntity
  8
_U+30EC_U+30A4_U+30E4_U+30FC 1
 62
   179
420
  2234388
370
    25
  0
POLYLINE
  5
86
330
1F
100
AcDbEntity
  8
_U+30EC_U+30A4_U+30E4_U+30FC 1
 62
   179
420
  2234388
370
     9
100
AcDb2dPolyline
 66
     1
 10
0.0
 20
0.0
 30
0.0
  0
VERTEX
  5
87
330
86
100
AcDbEntity
  8
_U+30EC_U+30A4_U+30E4_U+30FC 1
 62
   179
420
  2234388
370
     9
100
AcDbVertex
100
AcDb2dVertex
 10
84.83236422463497
 20
-129.4687388565216
 30
0.0
  0
VERTEX
  5
88
330
86
100
AcDbEntity
  8
_U+30EC_U+30A4_U+30E4_U+30FC 1
 62
   179
420
  2234388
370
     9
100
AcDbVertex
100
AcDb2dVertex
 10
80.99385987811893
 20
-129.4687388565216
 30
0.0
  0
SEQEND
  5
89
330
86
100
AcDbEntity
  8
_U+30EC_U+30A4_U+30E4_U+30FC 1
 62
   179
420
  2234388
370
     9
  0
POLYLINE
  5
8A
330
1F
100
AcDbEntity
  8
_U+30EC_U+30A4_U+30E4_U+30FC 1
 62
   179
420
  2234388
370
    25
100
AcDb2dPolyline
 66
     1
 10
0.0
 20
0.0
 30
0.0
  0
VERTEX
  5
8B
330
8A
100
AcDbEntity
  8
_U+30EC_U+30A4_U+30E4_U+30FC 1
 62
   179
420
  2234388
370
    25
100
AcDbVertex
100
AcDb2dVertex
 10
80.4674448915489
 20
-140.239150242718
 30
0.0
  0
VERTEX
  5
8C
330
8A
100
AcDbEntity
  8
_U+30EC_U+30A4_U+30E4_U+30FC 1
 62
   179
420
  2234388
370
    25
100
AcDbVertex
100
AcDb2dVertex
 10
82.96789843886812
 20
-140.239150242718
 30
0.0
  0
SEQEND
  5
8D
330
8A
100
AcDbEntity
  8
_U+30EC_U+30A4_U+30E4_U+30FC 1
 62
   179
420
  2234388
370
    25
  0
POLYLINE
  5
8E
330
1F
100
AcDbEntity
  8
_U+30EC_U+30A4_U+30E4_U+30FC 1
 62
   179
420
  2234388
370
    25
100
AcDb2dPolyline
 66
     1
 10
0.0
 20
0.0
 30
0.0
  0
VERTEX
  5
8F
330
8E
100
AcDbEntity
  8
_U+30EC_U+30A4_U+30E4_U+30FC 1
 62
   179
420
  2234388
370
    25
100
AcDbVertex
100
AcDb2dVertex
 10
79.46767269483298
 20
-141.2389224646905
 30
0.0
  0
VERTEX
  5
90
330
8E
100
AcDbEntity
  8
_U+30EC_U+30A4_U+30E4_U+30FC 1
 62
   179
420
  2234388
370
    25
100
AcDbVertex
100
AcDb2dVertex
 10
97.46759390228341
 20
-141.2389224646905
 30
0.0
  0
SEQEND
  5
91
330
8E
100
AcDbEntity
  8
_U+30EC_U+30A4_U+30E4_U+30FC 1
 62
   179
420
  2234388
370
    25
  0
POLYLINE
  5
92
330
1F
100
AcDbEntity
  8
_U+30EC_U+30A4_U+30E4_U+30FC 1
 62
   179
420
  2234388
370
    25
100
AcDb2dPolyline
 66
     1
 10
0.0
 20
0.0
 30
0.0
  0
VERTEX
  5
93
330
92
100
AcDbEntity
  8
_U+30EC_U+30A4_U+30E4_U+30FC 1
 62
   179
420
  2234388
370
    25
100
AcDbVertex
100
AcDb2dVertex
 10
87.33352332749175
 20
-140.7386835759262
 30
0.0
  0
VERTEX
  5
94
330
92
100
AcDbEntity
  8
_U+30EC_U+30A4_U+30E4_U+30FC 1
 62
   179
420
  2234388
370
    25
100
AcDbVertex
100
AcDb2dVertex
 10
96.96770780392545
 20
-140.7386835759262
 30
0.0
  0
SEQEND
  5
95
330
92
100
AcDbEntity
  8
_U+30EC_U+30A4_U+30E4_U+30FC 1
 62
   179
420
  2234388
370
    25
  0
POLYLINE
  5
96
330
1F
100
AcDbEntity
  8
_U+30EC_U+30A4_U+30E4_U+30FC 1
 62
   179
420
  2234388
370
    25
100
AcDb2dPolyline
 66
     1
 10
0.0
 20
0.0
 30
0.0
  0
VERTEX
  5
97
330
96
100
AcDbEntity
  8
_U+30EC_U+30A4_U+30E4_U+30FC 1
 62
   179
420
  2234388
370
    25
100
AcDbVertex
100
AcDb2dVertex
 10
79.96791157095971
 20
-118.7386499703155
 30
0.0
  0
VERTEX
  5
98
330
96
100
AcDbEntity
  8
_U+30EC_U+30A4_U+30E4_U+30FC 1
 62
   179
420
  2234388
370
    25
100
AcDbVertex
100
AcDb2dVertex
 10
82.96789843886812
 20
-118.7386499703155
 30
0.0
  0
SEQEND
  5
99
330
96
100
AcDbEntity
  8
_U+30EC_U+30A4_U+30E4_U+30FC 1
 62
   179
420
  2234388
370
    25
  0
POLYLINE
  5
9A
330
1F
100
AcDbEntity
  8
_U+30EC_U+30A4_U+30E4_U+30FC 1
 62
   179
420
  2234388
370
    25
100
AcDb2dPolyline
 66
     1
 10
0.0
 20
0.0
 30
0.0
  0
VERTEX
  5
9B
330
9A
100
AcDbEntity
  8
_U+30EC_U+30A4_U+30E4_U+30FC 1
 62
   179
420
  2234388
370
    25
100
AcDbVertex
100
AcDb2dVertex
 10
83.96767063558403
 20
-118.7386499703155
 30
0.0
  0
VERTEX
  5
9C
330
9A
100
AcDbEntity
  8
_U+30EC_U+30A4_U+30E4_U+30FC 1
 62
   179
420
  2234388
370
    25
100
AcDbVertex
100
AcDb2dVertex
 10
86.96765750349243
 20
-118.7386499703155
 30
0.0
  0
SEQEND
  5
9D
330
9A
100
AcDbEntity
  8
_U+30EC_U+30A4_U+30E4_U+30FC 1
 62
   179
420
  2234388
370
    25
  0
POLYLINE
  5
9E
330
1F
100
AcDbEntity
  8
_U+30EC_U+30A4_U+30E4_U+30FC 1
 62
   179
420
  2234388
370
    25
100
AcDb2dPolyline
 66
     1
 10
0.0
 20
0.0
 30
0.0
  0
VERTEX
  5
9F
330
9E
100
AcDbEntity
  8
_U+30EC_U+30A4_U+30E4_U+30FC 1
 62
   179
420
  2234388
370
    25
100
AcDbVertex
100
AcDb2dVertex
 10
83.96767063558403
 20
-140.239150242718
 30
0.0
  0
VERTEX
  5
A0
330
9E
100
AcDbEntity
  8
_U+30EC_U+30A4_U+30E4_U+30FC 1
 62
   179
420
  2234388
370
    25
100
AcDbVertex
100
AcDb2dVertex
 10
86.46777140513449
 20
-140.239150242718
 30
0.0
  0
SEQEND
  5
A1
330
9E
100
AcDbEntity
  8
_U+30EC_U+30A4_U+30E4_U+30FC 1
 62
   179
420
  2234388
370
    25
  0
SPLINE
  5
A2
330
1F
100
AcDbEntity
  8
_U+30EC_U+30A4_U+30E4_U+30FC 1
 62
   179
420
  2234388
370
    25
100
AcDbSpline
210
0.0
220
0.0
230
1.0
 70
     8
 71
     3
 72
     8
 73
     4
 74
     0
 42
0.0000000001
 43
0.0000000001
 12
1.0
 22
0.0
 32
0.0
 13
1.0
 23
0.0
 33
0.0
 40
0.0
 40
0.0
 40
0.0
 40
0.0
 40
1.0
 40
1.0
 40
1.0
 40
1.0
 10
97.46759390228341
 20
-141.2389224646905
 30
0.0
 10
97.46759390228341
 20
-140.9626269092041
 30
0.0
 10
97.24368585244022
 20
-140.7386835759262
 30
0.0
 10
96.96770780392545
 20
-140.7386835759262
 30
0.0
  0
SPLINE
  5
A3
330
1F
100
AcDbEntity
  8
_U+30EC_U+30A4_U+30E4_U+30FC 1
 62
   179
420
  2234388
370
     9
100
AcDbSpline
210
0.0
220
0.0
230
1.0
 70
    11
 71
     3
 72
    17
 73
    13
 74
     0
 42
0.0000000001
 43
0.0000000001
 12
1.0
 22
0.0
 32
0.0
 13
1.0
 23
0.0
 33
0.0
 40
0.0
 40
0.0
 40
0.0
 40
0.0
 40
1.0
 40
1.0
 40
1.0
 40
2.0
 40
2.0
 40
2.0
 40
3.0
 40
3.0
 40
3.0
 40
4.0
 40
4.0
 40
4.0
 40
4.0
 10
79.56757935895082
 20
-145.2393519081348
 30
0.0
 10
79.56757935895082
 20
-145.1835424637043
 30
0.0
 10
79.52277658231606
 20
-145.1387749637151
 30
0.0
 10
79.46767269483298
 20
-145.1387749637151
 30
0.0
 10
79.41253352957304
 20
-145.1387749637151
 30
0.0
 10
79.36776603071516
 20
-145.1835424637043
 30
0.0
 10
79.36776603071516
 20
-145.2393519081348
 30
0.0
 10
79.36776603071516
 20
-145.2944910747872
 30
0.0
 10
79.41253352957304
 20
-145.3392938525539
 30
0.0
 10
79.46767269483298
 20
-145.3392938525539
 30
0.0
 10
79.52277658231606
 20
-145.3392938525539
 30
0.0
 10
79.56757935895082
 20
-145.2944910747872
 30
0.0
 10
79.56757935895082
 20
-145.2393519081348
 30
0.0
  0
SPLINE
  5
A4
330
1F
100
AcDbEntity
  8
_U+30EC_U+30A4_U+30E4_U+30FC 1
 62
   179
420
  2234388
370
     9
100
AcDbSpline
210
0.0
220
0.0
230
1.0
 70
    11
 71
     3
 72
    17
 73
    13
 74
     0
 42
0.0000000001
 43
0.0000000001
 12
1.0
 22
0.0
 32
0.0
 13
1.0
 23
0.0
 33
0.0
 40
0.0
 40
0.0
 40
0.0
 40
0.0
 40
1.0
 40
1.0
 40
1.0
 40
2.0
 40
2.0
 40
2.0
 40
3.0
 40
3.0
 40
3.0
 40
4.0
 40
4.0
 40
4.0
 40
4.0
 10
97.56750056640124
 20
-145.2393519081348
 30
0.0
 10
97.56750056640124
 20
-145.1835424637043
 30
0.0
 10
97.52273306754336
 20
-145.1387749637151
 30
0.0
 10
97.46759390228341
 20
-145.1387749637151
 30
0.0
 10
97.41249001480034
 20
-145.1387749637151
 30
0.0
 10
97.36768723816557
 20
-145.1835424637043
 30
0.0
 10
97.36768723816557
 20
-145.2393519081348
 30
0.0
 10
97.36768723816557
 20
-145.2944910747872
 30
0.0
 10
97.41249001480034
 20
-145.3392938525539
 30
0.0
 10
97.46759390228341
 20
-145.3392938525539
 30
0.0
 10
97.52273306754336
 20
-145.3392938525539
 30
0.0
 10
97.56750056640124
 20
-145.2944910747872
 30
0.0
 10
97.56750056640124
 20
-145.2393519081348
 30
0.0
  0
SPLINE
  5
A5
330
1F
100
AcDbEntity
  8
_U+30EC_U+30A4_U+30E4_U+30FC 1
 62
   179
420
  2234388
370
    25
100
AcDbSpline
210
0.0
220
0.0
230
1.0
 70
     8
 71
     3
 72
     8
 73
     4
 74
     0
 42
0.0000000001
 43
0.0000000001
 12
1.0
 22
0.0
 32
0.0
 13
1.0
 23
0.0
 33
0.0
 40
0.0
 40
0.0
 40
0.0
 40
0.0
 40
1.0
 40
1.0
 40
1.0
 40
1.0
 10
87.33352332749175
 20
-140.7386835759262
 30
0.0
 10
87.15505305426713
 20
-140.4293327426704
 30
0.0
 10
86.82502945157563
 20
-140.239150242718
 30
0.0
 10
86.46777140513449
 20
-140.239150242718
 30
0.0
  0
SPLINE
  5
A6
330
1F
100
AcDbEntity
  8
_U+30EC_U+30A4_U+30E4_U+30FC 1
 62
   179
420
  2234388
370
    25
100
AcDbSpline
210
0.0
220
0.0
230
1.0
 70
     8
 71
     3
 72
    11
 73
     7
 74
     0
 42
0.0000000001
 43
0.0000000001
 12
1.0
 22
0.0
 32
0.0
 13
1.0
 23
0.0
 33
0.0
 40
0.0
 40
0.0
 40
0.0
 40
0.0
 40
1.0
 40
1.0
 40
1.0
 40
2.0
 40
2.0
 40
2.0
 40
2.0
 10
86.96765750349243
 20
-118.7386499703155
 30
0.0
 10
87.2439530519991
 20
-118.7386499703155
 30
0.0
 10
87.4675436018504
 20
-118.5147419148157
 30
0.0
 10
87.4675436018504
 20
-118.2391166371069
 30
0.0
 10
87.4675436018504
 20
-117.9793663593939
 30
0.0
 10
87.2691083115162
 20
-117.7630077483369
 30
0.0
 10
87.01037889129141
 20
-117.7409591372313
 30
0.0
  0
SPLINE
  5
A7
330
1F
100
AcDbEntity
  8
_U+30EC_U+30A4_U+30E4_U+30FC 1
 62
   179
420
  2234388
370
    25
100
AcDbSpline
210
0.0
220
0.0
230
1.0
 70
     8
 71
     3
 72
    11
 73
     7
 74
     0
 42
0.0000000001
 43
0.0000000001
 12
1.0
 22
0.0
 32
0.0
 13
1.0
 23
0.0
 33
0.0
 40
0.0
 40
0.0
 40
0.0
 40
0.0
 40
1.0
 40
1.0
 40
1.0
 40
2.0
 40
2.0
 40
2.0
 40
2.0
 10
79.92483740539197
 20
-117.7409591372313
 30
0.0
 10
79.64956491241476
 20
-117.7643835816701
 30
0.0
 10
79.44562408428439
 20
-118.0069183038317
 30
0.0
 10
79.46940130589999
 20
-118.2818380259849
 30
0.0
 10
79.49180269421738
 20
-118.5402124703651
 30
0.0
 10
79.70812602203185
 20
-118.7386499703155
 30
0.0
 10
79.96791157095971
 20
-118.7386499703155
 30
0.0
  0
SPLINE
  5
A8
330
1F
100
AcDbEntity
  8
_U+30EC_U+30A4_U+30E4_U+30FC 1
 62
   179
420
  2234388
370
    25
100
AcDbSpline
210
0.0
220
0.0
230
1.0
 70
     8
 71
     3
 72
     8
 73
     4
 74
     0
 42
0.0000000001
 43
0.0000000001
 12
1.0
 22
0.0
 32
0.0
 13
1.0
 23
0.0
 33
0.0
 40
0.0
 40
0.0
 40
0.0
 40
0.0
 40
1.0
 40
1.0
 40
1.0
 40
1.0
 10
80.4674448915489
 20
-140.239150242718
 30
0.0
 10
79.91552407229624
 20
-140.239150242718
 30
0.0
 10
79.46767269483298
 20
-140.6870369092725
 30
0.0
 10
79.46767269483298
 20
-141.2389224646905
 30
0.0
  0
SPLINE
  5
A9
330
1F
100
AcDbEntity
  8
_U+30EC_U+30A4_U+30E4_U+30FC 1
 62
   179
420
  2234388
370
     9
100
AcDbSpline
210
0.0
220
0.0
230
1.0
 70
    11
 71
     3
 72
    17
 73
    13
 74
     0
 42
0.0000000001
 43
0.0000000001
 12
1.0
 22
0.0
 32
0.0
 13
1.0
 23
0.0
 33
0.0
 40
0.0
 40
0.0
 40
0.0
 40
0.0
 40
1.0
 40
1.0
 40
1.0
 40
2.0
 40
2.0
 40
2.0
 40
3.0
 40
3.0
 40
3.0
 40
4.0
 40
4.0
 40
4.0
 40
4.0
 10
87.56776776596013
 20
-113.588941082714
 30
0.0
 10
87.56776776596013
 20
-113.5338019160609
 30
0.0
 10
87.52300026710223
 20
-113.4890344160723
 30
0.0
 10
87.4675436018504
 20
-113.4890344160723
 30
0.0
 10
87.41240443659044
 20
-113.4890344160723
 30
0.0
 10
87.36763693773256
 20
-113.5338019160609
 30
0.0
 10
87.36763693773256
 20
-113.588941082714
 30
0.0
 10
87.36763693773256
 20
-113.6440449715889
 30
0.0
 10
87.41240443659044
 20
-113.6888477493556
 30
0.0
 10
87.4675436018504
 20
-113.6888477493556
 30
0.0
 10
87.52300026710223
 20
-113.6888477493556
 30
0.0
 10
87.56776776596013
 20
-113.6440449715889
 30
0.0
 10
87.56776776596013
 20
-113.588941082714
 30
0.0
  0
SPLINE
  5
AA
330
1F
100
AcDbEntity
  8
_U+30EC_U+30A4_U+30E4_U+30FC 1
 62
   179
420
  2234388
370
     9
100
AcDbSpline
210
0.0
220
0.0
230
1.0
 70
    11
 71
     3
 72
    17
 73
    13
 74
     0
 42
0.0000000001
 43
0.0000000001
 12
1.0
 22
0.0
 32
0.0
 13
1.0
 23
0.0
 33
0.0
 40
0.0
 40
0.0
 40
0.0
 40
0.0
 40
1.0
 40
1.0
 40
1.0
 40
2.0
 40
2.0
 40
2.0
 40
3.0
 40
3.0
 40
3.0
 40
4.0
 40
4.0
 40
4.0
 40
4.0
 10
79.56757935895082
 20
-113.588941082714
 30
0.0
 10
79.56757935895082
 20
-113.5338019160609
 30
0.0
 10
79.52277658231606
 20
-113.4890344160723
 30
0.0
 10
79.46767269483298
 20
-113.4890344160723
 30
0.0
 10
79.41253352957304
 20
-113.4890344160723
 30
0.0
 10
79.36776603071516
 20
-113.5338019160609
 30
0.0
 10
79.36776603071516
 20
-113.588941082714
 30
0.0
 10
79.36776603071516
 20
-113.6440449715889
 30
0.0
 10
79.41253352957304
 20
-113.6888477493556
 30
0.0
 10
79.46767269483298
 20
-113.6888477493556
 30
0.0
 10
79.52277658231606
 20
-113.6888477493556
 30
0.0
 10
79.56757935895082
 20
-113.6440449715889
 30
0.0
 10
79.56757935895082
 20
-113.588941082714
 30
0.0
  0
SPLINE
  5
AB
330
1F
100
AcDbEntity
  8
_U+30EC_U+30A4_U+30E4_U+30FC 1
 62
   179
420
  2234388
370
    25
100
AcDbSpline
210
0.0
220
0.0
230
1.0
 70
     8
 71
     3
 72
     8
 73
     4
 74
     0
 42
0.0000000001
 43
0.0000000001
 12
1.0
 22
0.0
 32
0.0
 13
1.0
 23
0.0
 33
0.0
 40
0.0
 40
0.0
 40
0.0
 40
0.0
 40
1.0
 40
1.0
 40
1.0
 40
1.0
 10
87.01037889129141
 20
-117.7409591372313
 30
0.0
 10
84.6528708958809
 20
-117.538394137282
 30
0.0
 10
82.28231012302561
 20
-117.538394137282
 30
0.0
 10
79.92483740539197
 20
-117.7409591372313
 30
0.0
  0
POLYLINE
  5
AC
330
1F
100
AcDbEntity
  8
_U+30EC_U+30A4_U+30E4_U+30FC 1
 62
   179
420
  2234388
370
     9
100
AcDb2dPolyline
 66
     1
 10
0.0
 20
0.0
 30
0.0
  0
VERTEX
  5
AD
330
AC
100
AcDbEntity
  8
_U+30EC_U+30A4_U+30E4_U+30FC 1
 62
   179
420
  2234388
370
     9
100
AcDbVertex
100
AcDb2dVertex
 10
79.46767269483298
 20
-145.2393519081348
 30
0.0
  0
VERTEX
  5
AE
330
AC
100
AcDbEntity
  8
_U+30EC_U+30A4_U+30E4_U+30FC 1
 62
   179
420
  2234388
370
     9
100
AcDbVertex
100
AcDb2dVertex
 10
97.46759390228341
 20
-145.2393519081348
 30
0.0
  0
SEQEND
  5
AF
330
AC
100
AcDbEntity
  8
_U+30EC_U+30A4_U+30E4_U+30FC 1
 62
   179
420
  2234388
370
     9
  0
POLYLINE
  5
B0
330
1F
100
AcDbEntity
  8
_U+30EC_U+30A4_U+30E4_U+30FC 1
 62
   179
420
  2234388
370
     9
100
AcDb2dPolyline
 66
     1
 10
0.0
 20
0.0
 30
0.0
  0
VERTEX
  5
B1
330
B0
100
AcDbEntity
  8
_U+30EC_U+30A4_U+30E4_U+30FC 1
 62
   179
420
  2234388
370
     9
100
AcDbVertex
100
AcDb2dVertex
 10
79.46767269483298
 20
-142.9786813531444
 30
0.0
  0
VERTEX
  5
B2
330
B0
100
AcDbEntity
  8
_U+30EC_U+30A4_U+30E4_U+30FC 1
 62
   179
420
  2234388
370
     9
100
AcDbVertex
100
AcDb2dVertex
 10
79.46767269483298
 20
-146.2391241301067
 30
0.0
  0
SEQEND
  5
B3
330
B0
100
AcDbEntity
  8
_U+30EC_U+30A4_U+30E4_U+30FC 1
 62
   179
420
  2234388
370
     9
  0
INSERT
  5
B5
330
1F
100
AcDbEntity
  8
_U+30EC_U+30A4_U+30E4_U+30FC 1
100
AcDbBlockReference
  2
block 5
 10
0.0
 20
0.0
 30
0.0
  0
POLYLINE
  5
BE
330
1F
100
AcDbEntity
  8
_U+30EC_U+30A4_U+30E4_U+30FC 1
 62
   179
420
  2234388
370
     9
100
AcDb2dPolyline
 66
     1
 10
0.0
 20
0.0
 30
0.0
  0
VERTEX
  5
BF
330
BE
100
AcDbEntity
  8
_U+30EC_U+30A4_U+30E4_U+30FC 1
 62
   179
420
  2234388
370
     9
100
AcDbVertex
100
AcDb2dVertex
 10
79.46767269483298
 20
-113.588941082714
 30
0.0
  0
VERTEX
  5
C0
330
BE
100
AcDbEntity
  8
_U+30EC_U+30A4_U+30E4_U+30FC 1
 62
   179
420
  2234388
370
     9
100
AcDbVertex
100
AcDb2dVertex
 10
87.4675436018504
 20
-113.588941082714
 30
0.0
  0
SEQEND
  5
C1
330
BE
100
AcDbEntity
  8
_U+30EC_U+30A4_U+30E4_U+30FC 1
 62
   179
420
  2234388
370
     9
  0
POLYLINE
  5
C2
330
1F
100
AcDbEntity
  8
_U+30EC_U+30A4_U+30E4_U+30FC 1
 62
   179
420
  2234388
370
     9
100
AcDb2dPolyline
 66
     1
 10
0.0
 20
0.0
 30
0.0
  0
VERTEX
  5
C3
330
C2
100
AcDbEntity
  8
_U+30EC_U+30A4_U+30E4_U+30FC 1
 62
   179
420
  2234388
370
     9
100
AcDbVertex
100
AcDb2dVertex
 10
79.46767269483298
 20
-115.7489994155072
 30
0.0
  0
VERTEX
  5
C4
330
C2
100
AcDbEntity
  8
_U+30EC_U+30A4_U+30E4_U+30FC 1
 62
   179
420
  2234388
370
     9
100
AcDbVertex
100
AcDb2dVertex
 10
79.46767269483298
 20
-112.5891688607418
 30
0.0
  0
SEQEND
  5
C5
330
C2
100
AcDbEntity
  8
_U+30EC_U+30A4_U+30E4_U+30FC 1
 62
   179
420
  2234388
370
     9
  0
POLYLINE
  5
C6
330
1F
100
AcDbEntity
  8
_U+30EC_U+30A4_U+30E4_U+30FC 1
 62
   179
420
  2234388
370
     9
100
AcDb2dPolyline
 66
     1
 10
0.0
 20
0.0
 30
0.0
  0
VERTEX
  5
C7
330
C6
100
AcDbEntity
  8
_U+30EC_U+30A4_U+30E4_U+30FC 1
 62
   179
420
  2234388
370
     9
100
AcDbVertex
100
AcDb2dVertex
 10
87.4675436018504
 20
-115.7489994155072
 30
0.0
  0
VERTEX
  5
C8
330
C6
100
AcDbEntity
  8
_U+30EC_U+30A4_U+30E4_U+30FC 1
 62
   179
420
  2234388
370
     9
100
AcDbVertex
100
AcDb2dVertex
 10
87.4675436018504
 20
-112.5891688607418
 30
0.0
  0
SEQEND
  5
C9
330
C6
100
AcDbEntity
  8
_U+30EC_U+30A4_U+30E4_U+30FC 1
 62
   179
420
  2234388
370
     9
  0
INSERT
  5
CB
330
1F
100
AcDbEntity
  8
_U+30EC_U+30A4_U+30E4_U+30FC 1
100
AcDbBlockReference
  2
block 6
 10
0.0
 20
0.0
 30
0.0
  0
ENDSEC
  0
SECTION
  2
OBJECTS
  0
DICTIONARY
  5
C
330
0
100
AcDbDictionary
281
     1
  3
ACAD_GROUP
350
D
  3
ACAD_LAYOUT
350
1A
  3
ACAD_MATERIAL
350
3B
  3
ACAD_MLEADERSTYLE
350
D3
  3
ACAD_MLINESTYLE
350
17
  3
ACAD_PLOTSETTINGS
350
19
  3
ACAD_PLOTSTYLENAME
350
E
  3
ACAD_TABLESTYLE
350
D2
  3
ACAD_VISUALSTYLE
350
2A
  0
SUN
  5
3F
330
29
100
AcDbSun
 90
        1
290
     0
 63
     7
421
 16777215
 40
1.0
291
     1
 91
  2455826
 92
 54000000
292
     0
 70
     2
 71
   256
280
     1
  0
DICTIONARY
  5
D
102
{ACAD_REACTORS
330
C
102
}
330
C
100
AcDbDictionary
281
     1
  0
DICTIONARY
  5
1A
102
{ACAD_REACTORS
330
C
102
}
330
C
100
AcDbDictionary
281
     1
  3
Layout1
350
1E
  3
Layout2
350
26
  3
Model
350
22
  0
DICTIONARY
  5
3B
102
{ACAD_REACTORS
330
C
102
}
330
C
100
AcDbDictionary
281
     1
  3
ByBlock
350
3D
  3
ByLayer
350
3C
  3
Global
350
3E
  0
DICTIONARY
  5
D3
102
{ACAD_REACTORS
330
C
102
}
330
C
100
AcDbDictionary
281
     1
  0
DICTIONARY
  5
17
102
{ACAD_REACTORS
330
C
102
}
330
C
100
AcDbDictionary
281
     1
  3
Standard
350
18
  0
DICTIONARY
  5
19
102
{ACAD_REACTORS
330
C
102
}
330
C
100
AcDbDictionary
281
     1
  0
ACDBDICTIONARYWDFLT
  5
E
102
{ACAD_REACTORS
330
C
102
}
330
C
100
AcDbDictionary
281
     1
  3
Normal
350
F
100
AcDbDictionaryWithDefault
340
F
  0
DICTIONARY
  5
D2
102
{ACAD_REACTORS
330
C
102
}
330
C
100
AcDbDictionary
281
     1
  0
DICTIONARY
  5
2A
102
{ACAD_REACTORS
330
C
102
}
330
C
100
AcDbDictionary
281
     1
  3
2dWireframe
350
2F
  3
3D Hidden
350
31
  3
3dWireframe
350
30
  3
Basic
350
32
  3
Brighten
350
36
  3
ColorChange
350
3A
  3
Conceptual
350
34
  3
Dim
350
35
  3
Facepattern
350
39
  3
Flat
350
2B
  3
FlatWithEdges
350
2C
  3
Gouraud
350
2D
  3
GouraudWithEdges
350
2E
  3
Linepattern
350
38
  3
Realistic
350
33
  3
Thicken
350
37
  0
LAYOUT
  5
1E
102
{ACAD_REACTORS
330
1A
102
}
330
1A
100
AcDbPlotSettings
  1

  2
none_device
  4

  6

 40
0.0
 41
0.0
 42
0.0
 43
0.0
 44
0.0
 45
0.0
 46
0.0
 47
0.0
 48
0.0
 49
0.0
140
0.0
141
0.0
142
1.0
143
1.0
 70
   688
 72
     0
 73
     0
 74
     5
  7

 75
    16
 76
     0
 77
     2
 78
   300
147
1.0
148
0.0
149
0.0
100
AcDbLayout
  1
Layout1
 70
     1
 71
     1
 10
0.0
 20
0.0
 11
12.0
 21
9.0
 12
0.0
 22
0.0
 32
0.0
 14
1.000000000000000E+20
 24
1.000000000000000E+20
 34
1.000000000000000E+20
 15
-1.000000000000000E+20
 25
-1.000000000000000E+20
 35
-1.000000000000000E+20
146
0.0
 13
0.0
 23
0.0
 33
0.0
 16
1.0
 26
0.0
 36
0.0
 17
0.0
 27
1.0
 37
0.0
 76
     0
330
1B
  0
LAYOUT
  5
26
102
{ACAD_REACTORS
330
1A
102
}
330
1A
100
AcDbPlotSettings
  1

  2
none_device
  4

  6

 40
0.0
 41
0.0
 42
0.0
 43
0.0
 44
0.0
 45
0.0
 46
0.0
 47
0.0
 48
0.0
 49
0.0
140
0.0
141
0.0
142
1.0
143
1.0
 70
   688
 72
     0
 73
     0
 74
     5
  7

 75
    16
 76
     0
 77
     2
 78
   300
147
1.0
148
0.0
149
0.0
100
AcDbLayout
  1
Layout2
 70
     1
 71
     2
 10
0.0
 20
0.0
 11
0.0
 21
0.0
 12
0.0
 22
0.0
 32
0.0
 14
0.0
 24
0.0
 34
0.0
 15
0.0
 25
0.0
 35
0.0
146
0.0
 13
0.0
 23
0.0
 33
0.0
 16
1.0
 26
0.0
 36
0.0
 17
0.0
 27
1.0
 37
0.0
 76
     0
330
23
  0
LAYOUT
  5
22
102
{ACAD_REACTORS
330
1A
102
}
330
1A
100
AcDbPlotSettings
  1

  2
none_device
  4

  6

 40
0.0
 41
0.0
 42
0.0
 43
0.0
 44
0.0
 45
0.0
 46
0.0
 47
0.0
 48
0.0
 49
0.0
140
0.0
141
0.0
142
1.0
143
1.0
 70
  1712
 72
     0
 73
     0
 74
     0
  7

 75
     0
 76
     0
 77
     2
 78
   300
147
1.0
148
0.0
149
0.0
100
AcDbLayout
  1
Model
 70
     1
 71
     0
 10
0.0
 20
0.0
 11
12.0
 21
9.0
 12
0.0
 22
0.0
 32
0.0
 14
1.000000000000000E+20
 24
1.000000000000000E+20
 34
1.000000000000000E+20
 15
-1.000000000000000E+20
 25
-1.000000000000000E+20
 35
-1.000000000000000E+20
146
0.0
 13
0.0
 23
0.0
 33
0.0
 16
1.0
 26
0.0
 36
0.0
 17
0.0
 27
1.0
 37
0.0
 76
     0
330
1F
331
29
  0
MATERIAL
  5
3D
102
{ACAD_REACTORS
330
3B
102
}
330
3B
100
AcDbMaterial
  1
ByBlock
 72
     1
 94
      127
  0
MATERIAL
  5
3C
102
{ACAD_REACTORS
330
3B
102
}
330
3B
100
AcDbMaterial
  1
ByLayer
 72
     1
 94
      127
  0
MATERIAL
  5
3E
102
{ACAD_REACTORS
330
3B
102
}
330
3B
100
AcDbMaterial
  1
Global
 72
     1
 94
      127
  0
MLINESTYLE
  5
18
102
{ACAD_REACTORS
330
17
102
}
330
17
100
AcDbMlineStyle
  2
Standard
 70
     0
  3

 62
   256
 51
90.0
 52
90.0
 71
     2
 49
0.5
 62
   256
  6
BYLAYER
 49
-0.5
 62
   256
  6
BYLAYER
  0
ACDBPLACEHOLDER
  5
F
102
{ACAD_REACTORS
330
E
102
}
330
E
  0
VISUALSTYLE
  5
2F
102
{ACAD_REACTORS
330
2A
102
}
330
2A
100
AcDbVisualStyle
  2
2dWireframe
 70
     4
177
     2
291
     0
 71
     0
176
     1
 72
     2
176
     1
 73
     0
176
     1
 90
        0
176
     1
 40
-0.6
176
     1
 41
-30.0
176
     1
 62
     5
 63
     7
421
 16777215
176
     1
 74
     1
176
     1
 91
        4
176
     1
 64
     7
176
     1
 65
   257
176
     1
 75
     1
176
     1
175
     1
176
     1
 42
1.0
176
     1
 92
        0
176
     1
 66
   257
176
     1
 43
1.0
176
     1
 76
     1
176
     1
 77
     6
176
     1
 78
     2
176
     1
 67
     7
176
     1
 79
     5
176
     1
170
     0
176
     1
171
     0
176
     1
290
     0
176
     1
 93
        1
176
     1
 44
0.0
176
     1
173
     0
176
     1
  0
VISUALSTYLE
  5
31
102
{ACAD_REACTORS
330
2A
102
}
330
2A
100
AcDbVisualStyle
  2
3D Hidden
 70
     6
177
     2
291
     0
 71
     1
176
     1
 72
     2
176
     1
 73
     2
176
     1
 90
        0
176
     1
 40
-0.6
176
     1
 41
-30.0
176
     1
 62
     5
 63
     7
421
 16777215
176
     1
 74
     2
176
     1
 91
        2
176
     1
 64
     7
176
     1
 65
   257
176
     1
 75
     2
176
     1
175
     1
176
     1
 42
40.0
176
     1
 92
        0
176
     1
 66
   257
176
     1
 43
1.0
176
     1
 76
     1
176
     1
 77
     6
176
     1
 78
     2
176
     1
 67
     7
176
     1
 79
     3
176
     1
170
     0
176
     1
171
     0
176
     1
290
     0
176
     1
 93
        1
176
     1
 44
0.0
176
     1
173
     0
176
     1
  0
VISUALSTYLE
  5
30
102
{ACAD_REACTORS
330
2A
102
}
330
2A
100
AcDbVisualStyle
  2
3dWireframe
 70
     5
177
     2
291
     0
 71
     0
176
     1
 72
     2
176
     1
 73
     0
176
     1
 90
        0
176
     1
 40
-0.6
176
     1
 41
-30.0
176
     1
 62
     5
 63
     7
421
 16777215
176
     1
 74
     1
176
     1
 91
        4
176
     1
 64
     7
176
     1
 65
   257
176
     1
 75
     1
176
     1
175
     1
176
     1
 42
1.0
176
     1
 92
        0
176
     1
 66
   257
176
     1
 43
1.0
176
     1
 76
     1
176
     1
 77
     6
176
     1
 78
     2
176
     1
 67
     7
176
     1
 79
     5
176
     1
170
     0
176
     1
171
     0
176
     1
290
     0
176
     1
 93
        1
176
     1
 44
0.0
176
     1
173
     0
176
     1
  0
VISUALSTYLE
  5
32
102
{ACAD_REACTORS
330
2A
102
}
330
2A
100
AcDbVisualStyle
  2
Basic
 70
     7
177
     2
291
     1
 71
     1
176
     1
 72
     0
176
     1
 73
     1
176
     1
 90
        0
176
     1
 40
-0.6
176
     1
 41
-30.0
176
     1
 62
     5
 63
     7
421
 16777215
176
     1
 74
     0
176
     1
 91
        4
176
     1
 64
     7
176
     1
 65
   257
176
     1
 75
     1
176
     1
175
     1
176
     1
 42
1.0
176
     1
 92
        8
176
     1
 66
     7
176
     1
 43
1.0
176
     1
 76
     1
176
     1
 77
     6
176
     1
 78
     2
176
     1
 67
     7
176
     1
 79
     5
176
     1
170
     0
176
     1
171
     0
176
     1
290
     0
176
     1
 93
        1
176
     1
 44
0.0
176
     1
173
     0
176
     1
  0
VISUALSTYLE
  5
36
102
{ACAD_REACTORS
330
2A
102
}
330
2A
100
AcDbVisualStyle
  2
Brighten
 70
    12
177
     2
291
     1
 71
     2
176
     1
 72
     2
176
     1
 73
     0
176
     1
 90
        0
176
     1
 40
-0.6
176
     1
 41
-30.0
176
     1
 62
     5
 63
     7
421
 16777215
176
     1
 74
     1
176
     1
 91
        4
176
     1
 64
     7
176
     1
 65
   257
176
     1
 75
     1
176
     1
175
     1
176
     1
 42
1.0
176
     1
 92
        8
176
     1
 66
     7
176
     1
 43
1.0
176
     1
 76
     1
176
     1
 77
     6
176
     1
 78
     2
176
     1
 67
     7
176
     1
 79
     5
176
     1
170
     0
176
     1
171
     0
176
     1
290
     0
176
     1
 93
        1
176
     1
 44
50.0
176
     1
173
     0
176
     1
  0
VISUALSTYLE
  5
3A
102
{ACAD_REACTORS
330
2A
102
}
330
2A
100
AcDbVisualStyle
  2
ColorChange
 70
    16
177
     2
291
     1
 71
     2
176
     1
 72
     2
176
     1
 73
     3
176
     1
 90
        0
176
     1
 40
-0.6
176
     1
 41
-30.0
176
     1
 62
     5
 63
     8
421
  8421504
176
     1
 74
     1
176
     1
 91
        4
176
     1
 64
     7
176
     1
 65
   257
176
     1
 75
     1
176
     1
175
     1
176
     1
 42
1.0
176
     1
 92
        8
176
     1
 66
     8
424
  8421504
176
     1
 43
1.0
176
     1
 76
     1
176
     1
 77
     6
176
     1
 78
     2
176
     1
 67
     7
176
     1
 79
     5
176
     1
170
     0
176
     1
171
     0
176
     1
290
     0
176
     1
 93
        1
176
     1
 44
0.0
176
     1
173
     0
176
     1
  0
VISUALSTYLE
  5
34
102
{ACAD_REACTORS
330
2A
102
}
330
2A
100
AcDbVisualStyle
  2
Conceptual
 70
     9
177
     2
291
     0
 71
     3
176
     1
 72
     2
176
     1
 73
     0
176
     1
 90
        0
176
     1
 40
-0.6
176
     1
 41
-30.0
176
     1
 62
     5
 63
     7
421
 16777215
176
     1
 74
     2
176
     1
 91
        2
176
     1
 64
     7
176
     1
 65
   257
176
     1
 75
     1
176
     1
175
     1
176
     1
 42
40.0
176
     1
 92
        8
176
     1
 66
     7
176
     1
 43
1.0
176
     1
 76
     1
176
     1
 77
     6
176
     1
 78
     2
176
     1
 67
     7
176
     1
 79
     3
176
     1
170
     0
176
     1
171
     0
176
     1
290
     0
176
     1
 93
        1
176
     1
 44
0.0
176
     1
173
     0
176
     1
  0
VISUALSTYLE
  5
35
102
{ACAD_REACTORS
330
2A
102
}
330
2A
100
AcDbVisualStyle
  2
Dim
 70
    11
177
     2
291
     1
 71
     2
176
     1
 72
     2
176
     1
 73
     0
176
     1
 90
        0
176
     1
 40
-0.6
176
     1
 41
-30.0
176
     1
 62
     5
 63
     7
421
 16777215
176
     1
 74
     1
176
     1
 91
        4
176
     1
 64
     7
176
     1
 65
   257
176
     1
 75
     1
176
     1
175
     1
176
     1
 42
1.0
176
     1
 92
        8
176
     1
 66
     7
176
     1
 43
1.0
176
     1
 76
     1
176
     1
 77
     6
176
     1
 78
     2
176
     1
 67
     7
176
     1
 79
     5
176
     1
170
     0
176
     1
171
     0
176
     1
290
     0
176
     1
 93
        1
176
     1
 44
-50.0
176
     1
173
     0
176
     1
  0
VISUALSTYLE
  5
39
102
{ACAD_REACTORS
330
2A
102
}
330
2A
100
AcDbVisualStyle
  2
Facepattern
 70
    15
177
     2
291
     1
 71
     2
176
     1
 72
     2
176
     1
 73
     0
176
     1
 90
        0
176
     1
 40
-0.6
176
     1
 41
-30.0
176
     1
 62
     5
 63
     7
421
 16777215
176
     1
 74
     1
176
     1
 91
        4
176
     1
 64
     7
176
     1
 65
   257
176
     1
 75
     1
176
     1
175
     1
176
     1
 42
1.0
176
     1
 92
        8
176
     1
 66
     7
176
     1
 43
1.0
176
     1
 76
     1
176
     1
 77
     6
176
     1
 78
     2
176
     1
 67
     7
176
     1
 79
     5
176
     1
170
     0
176
     1
171
     0
176
     1
290
     0
176
     1
 93
        1
176
     1
 44
0.0
176
     1
173
     0
176
     1
  0
VISUALSTYLE
  5
2B
102
{ACAD_REACTORS
330
2A
102
}
330
2A
100
AcDbVisualStyle
  2
Flat
 70
     0
177
     2
291
     1
 71
     2
176
     1
 72
     1
176
     1
 73
     1
176
     1
 90
        2
176
     1
 40
-0.6
176
     1
 41
30.0
176
     1
 62
     5
 63
     7
421
 16777215
176
     1
 74
     0
176
     1
 91
        4
176
     1
 64
     7
176
     1
 65
   257
176
     1
 75
     1
176
     1
175
     1
176
     1
 42
1.0
176
     1
 92
        8
176
     1
 66
     7
176
     1
 43
1.0
176
     1
 76
     1
176
     1
 77
     6
176
     1
 78
     2
176
     1
 67
     7
176
     1
 79
     5
176
     1
170
     0
176
     1
171
     0
176
     1
290
     0
176
     1
 93
       13
176
     1
 44
0.0
176
     1
173
     0
176
     1
  0
VISUALSTYLE
  5
2C
102
{ACAD_REACTORS
330
2A
102
}
330
2A
100
AcDbVisualStyle
  2
FlatWithEdges
 70
     1
177
     2
291
     1
 71
     2
176
     1
 72
     1
176
     1
 73
     1
176
     1
 90
        2
176
     1
 40
-0.6
176
     1
 41
30.0
176
     1
 62
     5
 63
     7
421
 16777215
176
     1
 74
     1
176
     1
 91
        4
176
     1
 64
     7
176
     1
 65
   257
176
     1
 75
     1
176
     1
175
     1
176
     1
 42
1.0
176
     1
 92
        0
176
     1
 66
   257
176
     1
 43
1.0
176
     1
 76
     1
176
     1
 77
     6
176
     1
 78
     2
176
     1
 67
     7
176
     1
 79
     5
176
     1
170
     0
176
     1
171
     0
176
     1
290
     0
176
     1
 93
       13
176
     1
 44
0.0
176
     1
173
     0
176
     1
  0
VISUALSTYLE
  5
2D
102
{ACAD_REACTORS
330
2A
102
}
330
2A
100
AcDbVisualStyle
  2
Gouraud
 70
     2
177
     2
291
     1
 71
     2
176
     1
 72
     2
176
     1
 73
     1
176
     1
 90
        2
176
     1
 40
-0.6
176
     1
 41
30.0
176
     1
 62
     5
 63
     7
421
 16777215
176
     1
 74
     0
176
     1
 91
        4
176
     1
 64
     7
176
     1
 65
   257
176
     1
 75
     1
176
     1
175
     1
176
     1
 42
1.0
176
     1
 92
        0
176
     1
 66
     7
176
     1
 43
1.0
176
     1
 76
     1
176
     1
 77
     6
176
     1
 78
     2
176
     1
 67
     7
176
     1
 79
     5
176
     1
170
     0
176
     1
171
     0
176
     1
290
     0
176
     1
 93
       13
176
     1
 44
0.0
176
     1
173
     0
176
     1
  0
VISUALSTYLE
  5
2E
102
{ACAD_REACTORS
330
2A
102
}
330
2A
100
AcDbVisualStyle
  2
GouraudWithEdges
 70
     3
177
     2
291
     1
 71
     2
176
     1
 72
     2
176
     1
 73
     1
176
     1
 90
        2
176
     1
 40
-0.6
176
     1
 41
30.0
176
     1
 62
     5
 63
     7
421
 16777215
176
     1
 74
     1
176
     1
 91
        4
176
     1
 64
     7
176
     1
 65
   257
176
     1
 75
     1
176
     1
175
     1
176
     1
 42
1.0
176
     1
 92
        0
176
     1
 66
   257
176
     1
 43
1.0
176
     1
 76
     1
176
     1
 77
     6
176
     1
 78
     2
176
     1
 67
     7
176
     1
 79
     5
176
     1
170
     0
176
     1
171
     0
176
     1
290
     0
176
     1
 93
       13
176
     1
 44
0.0
176
     1
173
     0
176
     1
  0
VISUALSTYLE
  5
38
102
{ACAD_REACTORS
330
2A
102
}
330
2A
100
AcDbVisualStyle
  2
Linepattern
 70
    14
177
     2
291
     1
 71
     2
176
     1
 72
     2
176
     1
 73
     0
176
     1
 90
        0
176
     1
 40
-0.6
176
     1
 41
-30.0
176
     1
 62
     5
 63
     7
421
 16777215
176
     1
 74
     1
176
     1
 91
        4
176
     1
 64
     7
176
     1
 65
   257
176
     1
 75
     7
176
     1
175
     7
176
     1
 42
1.0
176
     1
 92
        8
176
     1
 66
     7
176
     1
 43
1.0
176
     1
 76
     1
176
     1
 77
     6
176
     1
 78
     2
176
     1
 67
     7
176
     1
 79
     5
176
     1
170
     0
176
     1
171
     0
176
     1
290
     0
176
     1
 93
        1
176
     1
 44
0.0
176
     1
173
     0
176
     1
  0
VISUALSTYLE
  5
33
102
{ACAD_REACTORS
330
2A
102
}
330
2A
100
AcDbVisualStyle
  2
Realistic
 70
     8
177
     2
291
     0
 71
     2
176
     1
 72
     2
176
     1
 73
     0
176
     1
 90
        0
176
     1
 40
-0.6
176
     1
 41
-30.0
176
     1
 62
     5
 63
     7
421
 16777215
176
     1
 74
     1
176
     1
 91
        0
176
     1
 64
     7
176
     1
 65
   257
176
     1
 75
     1
176
     1
175
     1
176
     1
 42
1.0
176
     1
 92
        8
176
     1
 66
     8
424
  7895160
176
     1
 43
1.0
176
     1
 76
     1
176
     1
 77
     6
176
     1
 78
     2
176
     1
 67
     7
176
     1
 79
     5
176
     1
170
     0
176
     1
171
     0
176
     1
290
     0
176
     1
 93
       13
176
     1
 44
0.0
176
     1
173
     0
176
     1
  0
VISUALSTYLE
  5
37
102
{ACAD_REACTORS
330
2A
102
}
330
2A
100
AcDbVisualStyle
  2
Thicken
 70
    13
177
     2
291
     1
 71
     2
176
     1
 72
     2
176
     1
 73
     0
176
     1
 90
        0
176
     1
 40
-0.6
176
     1
 41
-30.0
176
     1
 62
     5
 63
     7
421
 16777215
176
     1
 74
     1
176
     1
 91
        4
176
     1
 64
     7
176
     1
 65
   257
176
     1
 75
     1
176
     1
175
     1
176
     1
 42
1.0
176
     1
 92
       12
176
     1
 66
     7
176
     1
 43
1.0
176
     1
 76
     1
176
     1
 77
     6
176
     1
 78
     2
176
     1
 67
     7
176
     1
 79
     5
176
     1
170
     0
176
     1
171
     0
176
     1
290
     0
176
     1
 93
        1
176
     1
 44
0.0
176
     1
173
     0
176
     1
  0
ENDSEC
  0
EOF
