  0
SECTION
  2
HEADER
  9
$ACADVER
  1
AC1024
  9
$ACADMAINTVER
 70
     6
  9
$DWGCODEPAGE
  3
UNDEFINED
  9
$INSBASE
 10
0.0
 20
0.0
 30
0.0
  9
$EXTMIN
 10
1.000000000000000E+20
 20
1.000000000000000E+20
 30
1.000000000000000E+20
  9
$EXTMAX
 10
-1.000000000000000E+20
 20
-1.000000000000000E+20
 30
-1.000000000000000E+20
  9
$LIMMIN
 10
0.0
 20
0.0
  9
$LIMMAX
 10
12.0
 20
9.0
  9
$ORTHOMODE
 70
     0
  9
$REGENMODE
 70
     1
  9
$FILLMODE
 70
     1
  9
$QTEXTMODE
 70
     0
  9
$MIRRTEXT
 70
     1
  9
$LTSCALE
 40
1.0
  9
$ATTMODE
 70
     1
  9
$TEXTSIZE
 40
0.2
  9
$TRACEWID
 40
0.05
  9
$TEXTSTYLE
  7
Standard
  9
$CLAYER
  8
0
  9
$CELTYPE
  6
ByLayer
  9
$CECOLOR
 62
   256
  9
$CELTSCALE
 40
1.0
  9
$DISPSILH
 70
     0
  9
$DIMSCALE
 40
1.0
  9
$DIMASZ
 40
0.18
  9
$DIMEXO
 40
0.0625
  9
$DIMDLI
 40
0.38
  9
$DIMRND
 40
0.0
  9
$DIMDLE
 40
0.0
  9
$DIMEXE
 40
0.18
  9
$DIMTP
 40
0.0
  9
$DIMTM
 40
0.0
  9
$DIMTXT
 40
0.18
  9
$DIMCEN
 40
0.09
  9
$DIMTSZ
 40
0.0
  9
$DIMTOL
 70
     0
  9
$DIMLIM
 70
     0
  9
$DIMTIH
 70
     1
  9
$DIMTOH
 70
     1
  9
$DIMSE1
 70
     0
  9
$DIMSE2
 70
     0
  9
$DIMTAD
 70
     0
  9
$DIMZIN
 70
     0
  9
$DIMBLK
  1

  9
$DIMASO
 70
     1
  9
$DIMSHO
 70
     1
  9
$DIMPOST
  1

  9
$DIMAPOST
  1

  9
$DIMALT
 70
     0
  9
$DIMALTD
 70
     2
  9
$DIMALTF
 40
25.4
  9
$DIMLFAC
 40
1.0
  9
$DIMTOFL
 70
     0
  9
$DIMTVP
 40
0.0
  9
$DIMTIX
 70
     0
  9
$DIMSOXD
 70
     0
  9
$DIMSAH
 70
     0
  9
$DIMBLK1
  1

  9
$DIMBLK2
  1

  9
$DIMSTYLE
  2
Standard
  9
$DIMCLRD
 70
     0
  9
$DIMCLRE
 70
     0
  9
$DIMCLRT
 70
     0
  9
$DIMTFAC
 40
1.0
  9
$DIMGAP
 40
0.09
  9
$DIMJUST
 70
     0
  9
$DIMSD1
 70
     0
  9
$DIMSD2
 70
     0
  9
$DIMTOLJ
 70
     1
  9
$DIMTZIN
 70
     0
  9
$DIMALTZ
 70
     0
  9
$DIMALTTZ
 70
     0
  9
$DIMUPT
 70
     0
  9
$DIMDEC
 70
     4
  9
$DIMTDEC
 70
     4
  9
$DIMALTU
 70
     2
  9
$DIMALTTD
 70
     2
  9
$DIMTXSTY
  7
Standard
  9
$DIMAUNIT
 70
     0
  9
$DIMADEC
 70
     0
  9
$DIMALTRND
 40
0.0
  9
$DIMAZIN
 70
     0
  9
$DIMDSEP
 70
    46
  9
$DIMATFIT
 70
     3
  9
$DIMFRAC
 70
     0
  9
$DIMLDRBLK
  1

  9
$DIMLUNIT
 70
     2
  9
$DIMLWD
 70
    -2
  9
$DIMLWE
 70
    -2
  9
$DIMTMOVE
 70
     0
  9
$DIMFXL
 40
1.0
  9
$DIMFXLON
 70
     0
  9
$DIMJOGANG
 40
0.7853981633974483
  9
$DIMTFILL
 70
     0
  9
$DIMTFILLCLR
 70
     0
  9
$DIMARCSYM
 70
     0
  9
$DIMLTYPE
  6

  9
$DIMLTEX1
  6

  9
$DIMLTEX2
  6

  9
$DIMTXTDIRECTION
 70
     0
  9
$LUNITS
 70
     2
  9
$LUPREC
 70
     4
  9
$SKETCHINC
 40
0.1
  9
$FILLETRAD
 40
0.5
  9
$AUNITS
 70
     0
  9
$AUPREC
 70
     0
  9
$MENU
  1
.
  9
$ELEVATION
 40
0.0
  9
$PELEVATION
 40
0.0
  9
$THICKNESS
 40
0.0
  9
$LIMCHECK
 70
     0
  9
$CHAMFERA
 40
0.5
  9
$CHAMFERB
 40
0.5
  9
$CHAMFERC
 40
1.0
  9
$CHAMFERD
 40
0.0
  9
$SKPOLY
 70
     0
  9
$TDCREATE
 40
2457917.622152778
  9
$TDUCREATE
 40
2457917.247152778
  9
$TDUPDATE
 40
2457917.622152778
  9
$TDUUPDATE
 40
2457917.247152778
  9
$TDINDWG
 40
0.0000000116
  9
$TDUSRTIMER
 40
0.0000000116
  9
$USRTIMER
 70
     1
  9
$ANGBASE
 50
0.0
  9
$ANGDIR
 70
     0
  9
$PDMODE
 70
     0
  9
$PDSIZE
 40
0.0
  9
$PLINEWID
 40
0.0
  9
$SPLFRAME
 70
     0
  9
$SPLINETYPE
 70
     6
  9
$SPLINESEGS
 70
     8
  9
$HANDSEED
  5
A1
  9
$SURFTAB1
 70
     6
  9
$SURFTAB2
 70
     6
  9
$SURFTYPE
 70
     6
  9
$SURFU
 70
     6
  9
$SURFV
 70
     6
  9
$UCSBASE
  2

  9
$UCSNAME
  2

  9
$UCSORG
 10
0.0
 20
0.0
 30
0.0
  9
$UCSXDIR
 10
1.0
 20
0.0
 30
0.0
  9
$UCSYDIR
 10
0.0
 20
1.0
 30
0.0
  9
$UCSORTHOREF
  2

  9
$UCSORTHOVIEW
 70
     0
  9
$UCSORGTOP
 10
0.0
 20
0.0
 30
0.0
  9
$UCSORGBOTTOM
 10
0.0
 20
0.0
 30
0.0
  9
$UCSORGLEFT
 10
0.0
 20
0.0
 30
0.0
  9
$UCSORGRIGHT
 10
0.0
 20
0.0
 30
0.0
  9
$UCSORGFRONT
 10
0.0
 20
0.0
 30
0.0
  9
$UCSORGBACK
 10
0.0
 20
0.0
 30
0.0
  9
$PUCSBASE
  2

  9
$PUCSNAME
  2

  9
$PUCSORG
 10
0.0
 20
0.0
 30
0.0
  9
$PUCSXDIR
 10
1.0
 20
0.0
 30
0.0
  9
$PUCSYDIR
 10
0.0
 20
1.0
 30
0.0
  9
$PUCSORTHOREF
  2

  9
$PUCSORTHOVIEW
 70
     0
  9
$PUCSORGTOP
 10
0.0
 20
0.0
 30
0.0
  9
$PUCSORGBOTTOM
 10
0.0
 20
0.0
 30
0.0
  9
$PUCSORGLEFT
 10
0.0
 20
0.0
 30
0.0
  9
$PUCSORGRIGHT
 10
0.0
 20
0.0
 30
0.0
  9
$PUCSORGFRONT
 10
0.0
 20
0.0
 30
0.0
  9
$PUCSORGBACK
 10
0.0
 20
0.0
 30
0.0
  9
$USERI1
 70
     0
  9
$USERI2
 70
     0
  9
$USERI3
 70
     0
  9
$USERI4
 70
     0
  9
$USERI5
 70
     0
  9
$USERR1
 40
0.0
  9
$USERR2
 40
0.0
  9
$USERR3
 40
0.0
  9
$USERR4
 40
0.0
  9
$USERR5
 40
0.0
  9
$WORLDVIEW
 70
     1
  9
$SHADEDGE
 70
     3
  9
$SHADEDIF
 70
    70
  9
$TILEMODE
 70
     1
  9
$MAXACTVP
 70
    64
  9
$PINSBASE
 10
0.0
 20
0.0
 30
0.0
  9
$PLIMCHECK
 70
     0
  9
$PEXTMIN
 10
1.000000000000000E+20
 20
1.000000000000000E+20
 30
1.000000000000000E+20
  9
$PEXTMAX
 10
-1.000000000000000E+20
 20
-1.000000000000000E+20
 30
-1.000000000000000E+20
  9
$PLIMMIN
 10
0.0
 20
0.0
  9
$PLIMMAX
 10
12.0
 20
9.0
  9
$UNITMODE
 70
     0
  9
$VISRETAIN
 70
     1
  9
$PLINEGEN
 70
     0
  9
$PSLTSCALE
 70
     1
  9
$TREEDEPTH
 70
  3020
  9
$CMLSTYLE
  2
Standard
  9
$CMLJUST
 70
     0
  9
$CMLSCALE
 40
1.0
  9
$PROXYGRAPHICS
 70
     1
  9
$MEASUREMENT
 70
     0
  9
$CELWEIGHT
370
    -1
  9
$ENDCAPS
280
     0
  9
$JOINSTYLE
280
     0
  9
$LWDISPLAY
290
     1
  9
$INSUNITS
 70
     1
  9
$HYPERLINKBASE
  1

  9
$STYLESHEET
  1

  9
$XEDIT
290
     1
  9
$CEPSNTYPE
380
     0
  9
$PSTYLEMODE
290
     1
  9
$FINGERPRINTGUID
  2
{6A3E2461-03EA-05B2-DBF1-27244BA4A39B}
  9
$VERSIONGUID
  2
{FAEB1C32-E019-11D5-929B-00C0DF256EC4}
  9
$EXTNAMES
290
     1
  9
$PSVPSCALE
 40
0.0
  9
$OLESTARTUP
290
     0
  9
$SORTENTS
280
   127
  9
$INDEXCTL
280
     0
  9
$HIDETEXT
280
     1
  9
$XCLIPFRAME
280
     2
  9
$HALOGAP
280
     0
  9
$OBSCOLOR
 70
   257
  9
$OBSLTYPE
280
     0
  9
$INTERSECTIONDISPLAY
280
     0
  9
$INTERSECTIONCOLOR
 70
   257
  9
$DIMASSOC
280
     2
  9
$PROJECTNAME
  1

  9
$CAMERADISPLAY
290
     0
  9
$LENSLENGTH
 40
50.0
  9
$CAMERAHEIGHT
 40
0.0
  9
$STEPSPERSEC
 40
2.0
  9
$STEPSIZE
 40
6.0
  9
$3DDWFPREC
 40
2.0
  9
$PSOLWIDTH
 40
0.25
  9
$PSOLHEIGHT
 40
4.0
  9
$LOFTANG1
 40
1.570796326794897
  9
$LOFTANG2
 40
1.570796326794897
  9
$LOFTMAG1
 40
0.0
  9
$LOFTMAG2
 40
0.0
  9
$LOFTPARAM
 70
     7
  9
$LOFTNORMALS
280
     1
  9
$LATITUDE
 40
37.795
  9
$LONGITUDE
 40
-122.394
  9
$NORTHDIRECTION
 40
0.0
  9
$TIMEZONE
 70
 -8000
  9
$LIGHTGLYPHDISPLAY
280
     1
  9
$TILEMODELIGHTSYNCH
280
     1
  9
$CMATERIAL
347
3C
  9
$SOLIDHIST
280
     1
  9
$SHOWHIST
280
     1
  9
$DWFFRAME
280
     2
  9
$DGNFRAME
280
     2
  9
$REALWORLDSCALE
290
     1
  9
$INTERFERECOLOR
 62
   256
  9
$CSHADOW
280
     0
  9
$SHADOWPLANELOCATION
 40
0.0
  0
ENDSEC
  0
SECTION
  2
CLASSES
  0
CLASS
  1
ACDBDICTIONARYWDFLT
  2
AcDbDictionaryWithDefault
  3
ObjectDBX Classes
 90
        0
 91
        4
280
     0
281
     0
  0
CLASS
  1
VISUALSTYLE
  2
AcDbVisualStyle
  3
ObjectDBX Classes
 90
     4095
 91
        4
280
     0
281
     0
  0
CLASS
  1
MATERIAL
  2
AcDbMaterial
  3
ObjectDBX Classes
 90
     1153
 91
        4
280
     0
281
     0
  0
CLASS
  1
SUN
  2
AcDbSun
  3
SCENEOE
 90
     1024
 91
        4
280
     0
281
     0
  0
ENDSEC
  0
SECTION
  2
TABLES
  0
TABLE
  2
VPORT
  5
8
330
0
100
AcDbSymbolTable
 70
     1
  0
VPORT
  5
29
330
8
100
AcDbSymbolTableRecord
100
AcDbViewportTableRecord
  2
*Active
 70
     0
 10
0.0
 20
0.0
 11
1.0
 21
1.0
 12
0.0
 22
0.0
 13
0.0
 23
0.0
 14
0.5
 24
0.5
 15
0.5
 25
0.5
 16
0.0
 26
0.0
 36
1.0
 17
91.00082462281999
 27
-128.4993055234307
 37
0.0
 40
256.9986110468615
 41
0.7081814508812795
 42
50.0
 43
0.0
 44
0.0
 50
0.0
 51
0.0
 71
     0
 72
   100
 73
     1
 74
     3
 75
     0
 76
     0
 77
     0
 78
     0
281
     0
 65
     1
110
0.0
120
0.0
130
0.0
111
1.0
121
0.0
131
0.0
112
0.0
122
1.0
132
0.0
 79
     0
146
0.0
 60
     3
 61
     5
292
     1
282
     1
141
0.0
142
0.0
 63
   250
361
3F
  0
ENDTAB
  0
TABLE
  2
LTYPE
  5
5
330
0
100
AcDbSymbolTable
 70
     1
  0
LTYPE
  5
14
330
5
100
AcDbSymbolTableRecord
100
AcDbLinetypeTableRecord
  2
ByBlock
 70
     0
  3

 72
    65
 73
     0
 40
0.0
  0
LTYPE
  5
15
330
5
100
AcDbSymbolTableRecord
100
AcDbLinetypeTableRecord
  2
ByLayer
 70
     0
  3

 72
    65
 73
     0
 40
0.0
  0
LTYPE
  5
16
330
5
100
AcDbSymbolTableRecord
100
AcDbLinetypeTableRecord
  2
Continuous
 70
     0
  3
Solid line
 72
    65
 73
     0
 40
0.0
  0
ENDTAB
  0
TABLE
  2
LAYER
  5
2
330
0
100
AcDbSymbolTable
 70
     2
  0
LAYER
  5
10
330
2
100
AcDbSymbolTableRecord
100
AcDbLayerTableRecord
  2
0
 70
     0
 62
     7
  6
Continuous
370
    -3
390
F
347
3E
  0
LAYER
  5
40
330
2
100
AcDbSymbolTableRecord
100
AcDbLayerTableRecord
  2
_U+30EC_U+30A4_U+30E4_U+30FC 1
 70
     0
 62
     7
  6
Continuous
370
    -3
390
F
347
3E
  0
ENDTAB
  0
TABLE
  2
STYLE
  5
3
330
0
100
AcDbSymbolTable
 70
     1
  0
STYLE
  5
11
330
3
100
AcDbSymbolTableRecord
100
AcDbTextStyleTableRecord
  2
Standard
 70
     0
 40
0.0
 41
1.0
 50
0.0
 71
     0
 42
0.2
  3
txt
  4

  0
ENDTAB
  0
TABLE
  2
VIEW
  5
6
330
0
100
AcDbSymbolTable
 70
     0
  0
ENDTAB
  0
TABLE
  2
UCS
  5
7
330
0
100
AcDbSymbolTable
 70
     0
  0
ENDTAB
  0
TABLE
  2
APPID
  5
9
330
0
100
AcDbSymbolTable
 70
     1
  0
APPID
  5
12
330
9
100
AcDbSymbolTableRecord
100
AcDbRegAppTableRecord
  2
ACAD
 70
     0
  0
ENDTAB
  0
TABLE
  2
DIMSTYLE
  5
A
330
0
100
AcDbSymbolTable
 70
     1
100
AcDbDimStyleTable
  0
DIMSTYLE
105
27
330
A
100
AcDbSymbolTableRecord
100
AcDbDimStyleTableRecord
  2
Standard
 70
     0
178
     0
340
11
  0
ENDTAB
  0
TABLE
  2
BLOCK_RECORD
  5
1
330
0
100
AcDbSymbolTable
 70
     5
  0
BLOCK_RECORD
  5
1F
330
1
100
AcDbSymbolTableRecord
100
AcDbBlockTableRecord
  2
*Model_Space
340
22
 70
     0
280
     1
281
     0
  0
BLOCK_RECORD
  5
1B
330
1
100
AcDbSymbolTableRecord
100
AcDbBlockTableRecord
  2
*Paper_Space
340
1E
 70
     0
280
     1
281
     0
  0
BLOCK_RECORD
  5
23
330
1
100
AcDbSymbolTableRecord
100
AcDbBlockTableRecord
  2
*Paper_Space0
340
26
 70
     0
280
     1
281
     0
  0
BLOCK_RECORD
  5
51
330
1
100
AcDbSymbolTableRecord
100
AcDbBlockTableRecord
  2
block 2
340
0
102
{BLKREFS
331
52
102
}
 70
     0
280
     1
281
     0
  0
BLOCK_RECORD
  5
77
330
1
100
AcDbSymbolTableRecord
100
AcDbBlockTableRecord
  2
block 3
340
0
102
{BLKREFS
331
78
102
}
 70
     0
280
     1
281
     0
  0
BLOCK_RECORD
  5
89
330
1
100
AcDbSymbolTableRecord
100
AcDbBlockTableRecord
  2
block 4
340
0
102
{BLKREFS
331
8A
102
}
 70
     0
280
     1
281
     0
  0
BLOCK_RECORD
  5
99
330
1
100
AcDbSymbolTableRecord
100
AcDbBlockTableRecord
  2
block 5
340
0
102
{BLKREFS
331
9A
102
}
 70
     0
280
     1
281
     0
  0
ENDTAB
  0
ENDSEC
  0
SECTION
  2
BLOCKS
  0
BLOCK
  5
20
330
1F
100
AcDbEntity
  8
0
100
AcDbBlockBegin
  2
*Model_Space
 70
     0
 10
0.0
 20
0.0
 30
0.0
  3
*Model_Space
  1

  0
ENDBLK
  5
21
330
1F
100
AcDbEntity
  8
0
100
AcDbBlockEnd
  0
BLOCK
  5
1C
330
1B
100
AcDbEntity
 67
     1
  8
0
100
AcDbBlockBegin
  2
*Paper_Space
 70
     0
 10
0.0
 20
0.0
 30
0.0
  3
*Paper_Space
  1

  0
ENDBLK
  5
1D
330
1B
100
AcDbEntity
 67
     1
  8
0
100
AcDbBlockEnd
  0
BLOCK
  5
24
330
23
100
AcDbEntity
  8
0
100
AcDbBlockBegin
  2
*Paper_Space0
 70
     0
 10
0.0
 20
0.0
 30
0.0
  3
*Paper_Space0
  1

  0
ENDBLK
  5
25
330
23
100
AcDbEntity
  8
0
100
AcDbBlockEnd
  0
BLOCK
  5
53
330
51
100
AcDbEntity
  8
0
100
AcDbBlockBegin
  2
block 2
 70
     0
 10
0.0
 20
0.0
 30
0.0
  3
block 2
  1

  0
SPLINE
  5
55
330
51
100
AcDbEntity
  8
_U+30EC_U+30A4_U+30E4_U+30FC 1
370
     0
100
AcDbSpline
210
0.0
220
0.0
230
1.0
 70
    11
 71
     3
 72
    26
 73
    22
 74
     0
 42
0.0000000001
 43
0.0000000001
 12
1.0
 22
0.0
 32
0.0
 13
1.0
 23
0.0
 33
0.0
 40
0.0
 40
0.0
 40
0.0
 40
0.0
 40
1.0
 40
1.0
 40
1.0
 40
2.0
 40
2.0
 40
2.0
 40
3.0
 40
3.0
 40
3.0
 40
4.0
 40
4.0
 40
4.0
 40
5.0
 40
5.0
 40
5.0
 40
6.0
 40
6.0
 40
6.0
 40
7.0
 40
7.0
 40
7.0
 40
7.0
 10
85.07525497005064
 20
-118.740728051912
 30
0.0
 10
85.07525497005064
 20
-118.740728051912
 30
0.0
 10
85.07525497005064
 20
-117.6365749488895
 30
0.0
 10
85.07525497005064
 20
-117.6365749488895
 30
0.0
 10
85.07525497005064
 20
-117.6365749488895
 30
0.0
 10
84.7452148225637
 20
-117.6365749488895
 30
0.0
 10
84.7452148225637
 20
-117.6365749488895
 30
0.0
 10
84.7452148225637
 20
-117.6365749488895
 30
0.0
 10
84.7452148225637
 20
-117.4884358430237
 30
0.0
 10
84.7452148225637
 20
-117.4884358430237
 30
0.0
 10
85.07732202734178
 20
-117.4736219324372
 30
0.0
 10
85.12383081639265
 20
-117.3106689159848
 30
0.0
 10
85.1534586375658
 20
-117.1962917458745
 30
0.0
 10
85.1534586375658
 20
-117.1962917458745
 30
0.0
 10
85.2995306861404
 20
-117.1962917458745
 30
0.0
 10
85.2995306861404
 20
-117.1962917458745
 30
0.0
 10
85.2995306861404
 20
-117.1962917458745
 30
0.0
 10
85.2995306861404
 20
-118.740728051912
 30
0.0
 10
85.2995306861404
 20
-118.740728051912
 30
0.0
 10
85.2995306861404
 20
-118.740728051912
 30
0.0
 10
85.07525497005064
 20
-118.740728051912
 30
0.0
 10
85.07525497005064
 20
-118.740728051912
 30
0.0
  0
HATCH
  5
56
330
51
100
AcDbEntity
  8
_U+30EC_U+30A4_U+30E4_U+30FC 1
 62
     7
420
 16777215
100
AcDbHatch
 10
0.0
 20
0.0
 30
0.0
210
0.0
220
0.0
230
1.0
  2
SOLID
 70
     1
 71
     0
 91
        1
 92
        1
 93
        1
 72
     4
 94
        3
 73
     0
 74
     1
 95
       26
 96
       22
 40
0.0
 40
0.0
 40
0.0
 40
0.0
 40
1.0
 40
1.0
 40
1.0
 40
2.0
 40
2.0
 40
2.0
 40
3.0
 40
3.0
 40
3.0
 40
4.0
 40
4.0
 40
4.0
 40
5.0
 40
5.0
 40
5.0
 40
6.0
 40
6.0
 40
6.0
 40
7.0
 40
7.0
 40
7.0
 40
7.0
 10
85.07525497005064
 20
-118.740728051912
 10
85.07525497005064
 20
-118.740728051912
 10
85.07525497005064
 20
-117.6365749488895
 10
85.07525497005064
 20
-117.6365749488895
 10
85.07525497005064
 20
-117.6365749488895
 10
84.7452148225637
 20
-117.6365749488895
 10
84.7452148225637
 20
-117.6365749488895
 10
84.7452148225637
 20
-117.6365749488895
 10
84.7452148225637
 20
-117.4884358430237
 10
84.7452148225637
 20
-117.4884358430237
 10
85.07732202734178
 20
-117.4736219324372
 10
85.12383081639265
 20
-117.3106689159848
 10
85.1534586375658
 20
-117.1962917458745
 10
85.1534586375658
 20
-117.1962917458745
 10
85.2995306861404
 20
-117.1962917458745
 10
85.2995306861404
 20
-117.1962917458745
 10
85.2995306861404
 20
-117.1962917458745
 10
85.2995306861404
 20
-118.740728051912
 10
85.2995306861404
 20
-118.740728051912
 10
85.2995306861404
 20
-118.740728051912
 10
85.07525497005064
 20
-118.740728051912
 10
85.07525497005064
 20
-118.740728051912
 97
        0
 97
        0
 75
     2
 76
     1
 98
        0
  0
SPLINE
  5
57
330
51
100
AcDbEntity
  8
_U+30EC_U+30A4_U+30E4_U+30FC 1
370
     0
100
AcDbSpline
210
0.0
220
0.0
230
1.0
 70
    11
 71
     3
 72
    44
 73
    40
 74
     0
 42
0.0000000001
 43
0.0000000001
 12
1.0
 22
0.0
 32
0.0
 13
1.0
 23
0.0
 33
0.0
 40
0.0
 40
0.0
 40
0.0
 40
0.0
 40
1.0
 40
1.0
 40
1.0
 40
2.0
 40
2.0
 40
2.0
 40
3.0
 40
3.0
 40
3.0
 40
4.0
 40
4.0
 40
4.0
 40
5.0
 40
5.0
 40
5.0
 40
6.0
 40
6.0
 40
6.0
 40
7.0
 40
7.0
 40
7.0
 40
8.0
 40
8.0
 40
8.0
 40
9.0
 40
9.0
 40
9.0
 40
10.0
 40
10.0
 40
10.0
 40
11.0
 40
11.0
 40
11.0
 40
12.0
 40
12.0
 40
12.0
 40
13.0
 40
13.0
 40
13.0
 40
13.0
 10
86.39369301225575
 20
-118.1588514244533
 30
0.0
 10
86.17596297758796
 20
-118.3176703263234
 30
0.0
 10
86.0829453994862
 20
-118.3917398792562
 30
0.0
 10
86.03402504359566
 20
-118.5354003609912
 30
0.0
 10
86.03402504359566
 20
-118.5354003609912
 30
0.0
 10
86.81261662326213
 20
-118.5354003609912
 30
0.0
 10
86.81261662326213
 20
-118.5354003609912
 30
0.0
 10
86.81261662326213
 20
-118.5354003609912
 30
0.0
 10
86.81261662326213
 20
-118.740728051912
 30
0.0
 10
86.81261662326213
 20
-118.740728051912
 30
0.0
 10
86.81261662326213
 20
-118.740728051912
 30
0.0
 10
85.78460013046357
 20
-118.740728051912
 30
0.0
 10
85.78460013046357
 20
-118.740728051912
 30
0.0
 10
85.81629500892788
 20
-118.3831271405431
 30
0.0
 10
85.88175182314762
 20
-118.3049234730279
 30
0.0
 10
86.26691349839855
 20
-118.0065782040053
 30
0.0
 10
86.52288409295262
 20
-117.8077961945064
 30
0.0
 10
86.58834090717237
 20
-117.739927813447
 30
0.0
 10
86.58834090717237
 20
-117.6024685035855
 30
0.0
 10
86.58834090717237
 20
-117.4839572188929
 30
0.0
 10
86.51633841153064
 20
-117.3530435904534
 30
0.0
 10
86.31962345932287
 20
-117.3530435904534
 30
0.0
 10
86.05951875018651
 20
-117.3530435904534
 30
0.0
 10
86.05090601147339
 20
-117.5835204784166
 30
0.0
 10
86.04677189689109
 20
-117.6999647058181
 30
0.0
 10
86.04677189689109
 20
-117.6999647058181
 30
0.0
 10
85.82249618080132
 20
-117.6999647058181
 30
0.0
 10
85.82249618080132
 20
-117.6999647058181
 30
0.0
 10
85.83110891951445
 20
-117.5728406824123
 30
0.0
 10
85.84178871551872
 20
-117.4608750791417
 30
0.0
 10
85.92205944032504
 20
-117.3423637944491
 30
0.0
 10
86.03195798630452
 20
-117.181477835288
 30
0.0
 10
86.21833765205653
 20
-117.1477158995325
 30
0.0
 10
86.33443736990945
 20
-117.1477158995325
 30
0.0
 10
86.61176755647206
 20
-117.1477158995325
 30
0.0
 10
86.8191623046841
 20
-117.3316839984449
 30
0.0
 10
86.8191623046841
 20
-117.6045355608767
 30
0.0
 10
86.8191623046841
 20
-117.8332899010972
 30
0.0
 10
86.70271807728265
 20
-117.9325086510724
 30
0.0
 10
86.39369301225575
 20
-118.1588514244533
 30
0.0
  0
HATCH
  5
58
330
51
100
AcDbEntity
  8
_U+30EC_U+30A4_U+30E4_U+30FC 1
 62
     7
420
 16777215
100
AcDbHatch
 10
0.0
 20
0.0
 30
0.0
210
0.0
220
0.0
230
1.0
  2
SOLID
 70
     1
 71
     0
 91
        1
 92
        1
 93
        1
 72
     4
 94
        3
 73
     0
 74
     1
 95
       44
 96
       40
 40
0.0
 40
0.0
 40
0.0
 40
0.0
 40
1.0
 40
1.0
 40
1.0
 40
2.0
 40
2.0
 40
2.0
 40
3.0
 40
3.0
 40
3.0
 40
4.0
 40
4.0
 40
4.0
 40
5.0
 40
5.0
 40
5.0
 40
6.0
 40
6.0
 40
6.0
 40
7.0
 40
7.0
 40
7.0
 40
8.0
 40
8.0
 40
8.0
 40
9.0
 40
9.0
 40
9.0
 40
10.0
 40
10.0
 40
10.0
 40
11.0
 40
11.0
 40
11.0
 40
12.0
 40
12.0
 40
12.0
 40
13.0
 40
13.0
 40
13.0
 40
13.0
 10
86.39369301225575
 20
-118.1588514244533
 10
86.17596297758796
 20
-118.3176703263234
 10
86.0829453994862
 20
-118.3917398792562
 10
86.03402504359566
 20
-118.5354003609912
 10
86.03402504359566
 20
-118.5354003609912
 10
86.81261662326213
 20
-118.5354003609912
 10
86.81261662326213
 20
-118.5354003609912
 10
86.81261662326213
 20
-118.5354003609912
 10
86.81261662326213
 20
-118.740728051912
 10
86.81261662326213
 20
-118.740728051912
 10
86.81261662326213
 20
-118.740728051912
 10
85.78460013046357
 20
-118.740728051912
 10
85.78460013046357
 20
-118.740728051912
 10
85.81629500892788
 20
-118.3831271405431
 10
85.88175182314762
 20
-118.3049234730279
 10
86.26691349839855
 20
-118.0065782040053
 10
86.52288409295262
 20
-117.8077961945064
 10
86.58834090717237
 20
-117.739927813447
 10
86.58834090717237
 20
-117.6024685035855
 10
86.58834090717237
 20
-117.4839572188929
 10
86.51633841153064
 20
-117.3530435904534
 10
86.31962345932287
 20
-117.3530435904534
 10
86.05951875018651
 20
-117.3530435904534
 10
86.05090601147339
 20
-117.5835204784166
 10
86.04677189689109
 20
-117.6999647058181
 10
86.04677189689109
 20
-117.6999647058181
 10
85.82249618080132
 20
-117.6999647058181
 10
85.82249618080132
 20
-117.6999647058181
 10
85.83110891951445
 20
-117.5728406824123
 10
85.84178871551872
 20
-117.4608750791417
 10
85.92205944032504
 20
-117.3423637944491
 10
86.03195798630452
 20
-117.181477835288
 10
86.21833765205653
 20
-117.1477158995325
 10
86.33443736990945
 20
-117.1477158995325
 10
86.61176755647206
 20
-117.1477158995325
 10
86.8191623046841
 20
-117.3316839984449
 10
86.8191623046841
 20
-117.6045355608767
 10
86.8191623046841
 20
-117.8332899010972
 10
86.70271807728265
 20
-117.9325086510724
 10
86.39369301225575
 20
-118.1588514244533
 97
        0
 97
        0
 75
     2
 76
     1
 98
        0
  0
ENDBLK
  5
54
330
51
100
AcDbEntity
  8
0
100
AcDbBlockEnd
  0
BLOCK
  5
79
330
77
100
AcDbEntity
  8
0
100
AcDbBlockBegin
  2
block 3
 70
     0
 10
0.0
 20
0.0
 30
0.0
  3
block 3
  1

  0
SPLINE
  5
7B
330
77
100
AcDbEntity
  8
_U+30EC_U+30A4_U+30E4_U+30FC 1
370
     0
100
AcDbSpline
210
0.0
220
0.0
230
1.0
 70
    11
 71
     3
 72
    26
 73
    22
 74
     0
 42
0.0000000001
 43
0.0000000001
 12
1.0
 22
0.0
 32
0.0
 13
1.0
 23
0.0
 33
0.0
 40
0.0
 40
0.0
 40
0.0
 40
0.0
 40
1.0
 40
1.0
 40
1.0
 40
2.0
 40
2.0
 40
2.0
 40
3.0
 40
3.0
 40
3.0
 40
4.0
 40
4.0
 40
4.0
 40
5.0
 40
5.0
 40
5.0
 40
6.0
 40
6.0
 40
6.0
 40
7.0
 40
7.0
 40
7.0
 40
7.0
 10
104.4160210242432
 20
-131.5819769636323
 30
0.0
 10
104.4160210242432
 20
-131.5819769636323
 30
0.0
 10
103.3118679212207
 20
-131.5819769636323
 30
0.0
 10
103.3118679212207
 20
-131.5819769636323
 30
0.0
 10
103.3118679212207
 20
-131.5819769636323
 30
0.0
 10
103.3118679212207
 20
-131.9120171111192
 30
0.0
 10
103.3118679212207
 20
-131.9120171111192
 30
0.0
 10
103.3118679212207
 20
-131.9120171111192
 30
0.0
 10
103.1637288153549
 20
-131.9120171111192
 30
0.0
 10
103.1637288153549
 20
-131.9120171111192
 30
0.0
 10
103.1489149047683
 20
-131.5799099063411
 30
0.0
 10
102.985961888316
 20
-131.5334011172903
 30
0.0
 10
102.8715847182057
 20
-131.5037732961171
 30
0.0
 10
102.8715847182057
 20
-131.5037732961171
 30
0.0
 10
102.8715847182057
 20
-131.3577012475425
 30
0.0
 10
102.8715847182057
 20
-131.3577012475425
 30
0.0
 10
102.8715847182057
 20
-131.3577012475425
 30
0.0
 10
104.4160210242432
 20
-131.3577012475425
 30
0.0
 10
104.4160210242432
 20
-131.3577012475425
 30
0.0
 10
104.4160210242432
 20
-131.3577012475425
 30
0.0
 10
104.4160210242432
 20
-131.5819769636323
 30
0.0
 10
104.4160210242432
 20
-131.5819769636323
 30
0.0
  0
HATCH
  5
7C
330
77
100
AcDbEntity
  8
_U+30EC_U+30A4_U+30E4_U+30FC 1
 62
     7
420
 16777215
100
AcDbHatch
 10
0.0
 20
0.0
 30
0.0
210
0.0
220
0.0
230
1.0
  2
SOLID
 70
     1
 71
     0
 91
        1
 92
        1
 93
        1
 72
     4
 94
        3
 73
     0
 74
     1
 95
       26
 96
       22
 40
0.0
 40
0.0
 40
0.0
 40
0.0
 40
1.0
 40
1.0
 40
1.0
 40
2.0
 40
2.0
 40
2.0
 40
3.0
 40
3.0
 40
3.0
 40
4.0
 40
4.0
 40
4.0
 40
5.0
 40
5.0
 40
5.0
 40
6.0
 40
6.0
 40
6.0
 40
7.0
 40
7.0
 40
7.0
 40
7.0
 10
104.4160210242432
 20
-131.5819769636323
 10
104.4160210242432
 20
-131.5819769636323
 10
103.3118679212207
 20
-131.5819769636323
 10
103.3118679212207
 20
-131.5819769636323
 10
103.3118679212207
 20
-131.5819769636323
 10
103.3118679212207
 20
-131.9120171111192
 10
103.3118679212207
 20
-131.9120171111192
 10
103.3118679212207
 20
-131.9120171111192
 10
103.1637288153549
 20
-131.9120171111192
 10
103.1637288153549
 20
-131.9120171111192
 10
103.1489149047683
 20
-131.5799099063411
 10
102.985961888316
 20
-131.5334011172903
 10
102.8715847182057
 20
-131.5037732961171
 10
102.8715847182057
 20
-131.5037732961171
 10
102.8715847182057
 20
-131.3577012475425
 10
102.8715847182057
 20
-131.3577012475425
 10
102.8715847182057
 20
-131.3577012475425
 10
104.4160210242432
 20
-131.3577012475425
 10
104.4160210242432
 20
-131.3577012475425
 10
104.4160210242432
 20
-131.3577012475425
 10
104.4160210242432
 20
-131.5819769636323
 10
104.4160210242432
 20
-131.5819769636323
 97
        0
 97
        0
 75
     2
 76
     1
 98
        0
  0
SPLINE
  5
7D
330
77
100
AcDbEntity
  8
_U+30EC_U+30A4_U+30E4_U+30FC 1
370
     0
100
AcDbSpline
210
0.0
220
0.0
230
1.0
 70
    11
 71
     3
 72
    44
 73
    40
 74
     0
 42
0.0000000001
 43
0.0000000001
 12
1.0
 22
0.0
 32
0.0
 13
1.0
 23
0.0
 33
0.0
 40
0.0
 40
0.0
 40
0.0
 40
0.0
 40
1.0
 40
1.0
 40
1.0
 40
2.0
 40
2.0
 40
2.0
 40
3.0
 40
3.0
 40
3.0
 40
4.0
 40
4.0
 40
4.0
 40
5.0
 40
5.0
 40
5.0
 40
6.0
 40
6.0
 40
6.0
 40
7.0
 40
7.0
 40
7.0
 40
8.0
 40
8.0
 40
8.0
 40
9.0
 40
9.0
 40
9.0
 40
10.0
 40
10.0
 40
10.0
 40
11.0
 40
11.0
 40
11.0
 40
12.0
 40
12.0
 40
12.0
 40
13.0
 40
13.0
 40
13.0
 40
13.0
 10
103.8341443967845
 20
-130.2635389214272
 30
0.0
 10
103.9929632986545
 20
-130.481268956095
 30
0.0
 10
104.0670328515874
 20
-130.5742865341967
 30
0.0
 10
104.2106933333223
 20
-130.6232068900873
 30
0.0
 10
104.2106933333223
 20
-130.6232068900873
 30
0.0
 10
104.2106933333223
 20
-129.8446153104208
 30
0.0
 10
104.2106933333223
 20
-129.8446153104208
 30
0.0
 10
104.2106933333223
 20
-129.8446153104208
 30
0.0
 10
104.4160210242432
 20
-129.8446153104208
 30
0.0
 10
104.4160210242432
 20
-129.8446153104208
 30
0.0
 10
104.4160210242432
 20
-129.8446153104208
 30
0.0
 10
104.4160210242432
 20
-130.8726318032193
 30
0.0
 10
104.4160210242432
 20
-130.8726318032193
 30
0.0
 10
104.0584201128743
 20
-130.8409369247551
 30
0.0
 10
103.9802164453591
 20
-130.7754801105353
 30
0.0
 10
103.6818711763365
 20
-130.3903184352844
 30
0.0
 10
103.4830891668376
 20
-130.1343478407303
 30
0.0
 10
103.4152207857781
 20
-130.0688910265106
 30
0.0
 10
103.2777614759167
 20
-130.0688910265106
 30
0.0
 10
103.1592501912241
 20
-130.0688910265106
 30
0.0
 10
103.0283365627846
 20
-130.1408935221523
 30
0.0
 10
103.0283365627846
 20
-130.3376084743601
 30
0.0
 10
103.0283365627846
 20
-130.5977131834964
 30
0.0
 10
103.2588134507478
 20
-130.6063259222095
 30
0.0
 10
103.3752576781492
 20
-130.6104600367918
 30
0.0
 10
103.3752576781492
 20
-130.6104600367918
 30
0.0
 10
103.3752576781492
 20
-130.8347357528816
 30
0.0
 10
103.3752576781492
 20
-130.8347357528816
 30
0.0
 10
103.2481336547435
 20
-130.8261230141685
 30
0.0
 10
103.1361680514729
 20
-130.8154432181642
 30
0.0
 10
103.0176567667803
 20
-130.7351724933579
 30
0.0
 10
102.8567708076191
 20
-130.6252739473784
 30
0.0
 10
102.8230088718637
 20
-130.4388942816264
 30
0.0
 10
102.8230088718637
 20
-130.3227945637735
 30
0.0
 10
102.8230088718637
 20
-130.0454643772109
 30
0.0
 10
103.006976970776
 20
-129.8380696289988
 30
0.0
 10
103.2798285332078
 20
-129.8380696289988
 30
0.0
 10
103.5085828734284
 20
-129.8380696289988
 30
0.0
 10
103.6078016234036
 20
-129.9545138564003
 30
0.0
 10
103.8341443967845
 20
-130.2635389214272
 30
0.0
  0
HATCH
  5
7E
330
77
100
AcDbEntity
  8
_U+30EC_U+30A4_U+30E4_U+30FC 1
 62
     7
420
 16777215
100
AcDbHatch
 10
0.0
 20
0.0
 30
0.0
210
0.0
220
0.0
230
1.0
  2
SOLID
 70
     1
 71
     0
 91
        1
 92
        1
 93
        1
 72
     4
 94
        3
 73
     0
 74
     1
 95
       44
 96
       40
 40
0.0
 40
0.0
 40
0.0
 40
0.0
 40
1.0
 40
1.0
 40
1.0
 40
2.0
 40
2.0
 40
2.0
 40
3.0
 40
3.0
 40
3.0
 40
4.0
 40
4.0
 40
4.0
 40
5.0
 40
5.0
 40
5.0
 40
6.0
 40
6.0
 40
6.0
 40
7.0
 40
7.0
 40
7.0
 40
8.0
 40
8.0
 40
8.0
 40
9.0
 40
9.0
 40
9.0
 40
10.0
 40
10.0
 40
10.0
 40
11.0
 40
11.0
 40
11.0
 40
12.0
 40
12.0
 40
12.0
 40
13.0
 40
13.0
 40
13.0
 40
13.0
 10
103.8341443967845
 20
-130.2635389214272
 10
103.9929632986545
 20
-130.481268956095
 10
104.0670328515874
 20
-130.5742865341967
 10
104.2106933333223
 20
-130.6232068900873
 10
104.2106933333223
 20
-130.6232068900873
 10
104.2106933333223
 20
-129.8446153104208
 10
104.2106933333223
 20
-129.8446153104208
 10
104.2106933333223
 20
-129.8446153104208
 10
104.4160210242432
 20
-129.8446153104208
 10
104.4160210242432
 20
-129.8446153104208
 10
104.4160210242432
 20
-129.8446153104208
 10
104.4160210242432
 20
-130.8726318032193
 10
104.4160210242432
 20
-130.8726318032193
 10
104.0584201128743
 20
-130.8409369247551
 10
103.9802164453591
 20
-130.7754801105353
 10
103.6818711763365
 20
-130.3903184352844
 10
103.4830891668376
 20
-130.1343478407303
 10
103.4152207857781
 20
-130.0688910265106
 10
103.2777614759167
 20
-130.0688910265106
 10
103.1592501912241
 20
-130.0688910265106
 10
103.0283365627846
 20
-130.1408935221523
 10
103.0283365627846
 20
-130.3376084743601
 10
103.0283365627846
 20
-130.5977131834964
 10
103.2588134507478
 20
-130.6063259222095
 10
103.3752576781492
 20
-130.6104600367918
 10
103.3752576781492
 20
-130.6104600367918
 10
103.3752576781492
 20
-130.8347357528816
 10
103.3752576781492
 20
-130.8347357528816
 10
103.2481336547435
 20
-130.8261230141685
 10
103.1361680514729
 20
-130.8154432181642
 10
103.0176567667803
 20
-130.7351724933579
 10
102.8567708076191
 20
-130.6252739473784
 10
102.8230088718637
 20
-130.4388942816264
 10
102.8230088718637
 20
-130.3227945637735
 10
102.8230088718637
 20
-130.0454643772109
 10
103.006976970776
 20
-129.8380696289988
 10
103.2798285332078
 20
-129.8380696289988
 10
103.5085828734284
 20
-129.8380696289988
 10
103.6078016234036
 20
-129.9545138564003
 10
103.8341443967845
 20
-130.2635389214272
 97
        0
 97
        0
 75
     2
 76
     1
 98
        0
  0
POLYLINE
  5
7F
330
77
100
AcDbEntity
  8
_U+30EC_U+30A4_U+30E4_U+30FC 1
370
     0
100
AcDb2dPolyline
 66
     1
 10
0.0
 20
0.0
 30
0.0
  0
VERTEX
  5
80
330
7F
100
AcDbEntity
  8
_U+30EC_U+30A4_U+30E4_U+30FC 1
370
     0
100
AcDbVertex
100
AcDb2dVertex
 10
104.4160210242432
 20
-129.619650575234
 30
0.0
  0
VERTEX
  5
81
330
7F
100
AcDbEntity
  8
_U+30EC_U+30A4_U+30E4_U+30FC 1
370
     0
100
AcDbVertex
100
AcDb2dVertex
 10
104.1641845442715
 20
-129.619650575234
 30
0.0
  0
VERTEX
  5
82
330
7F
100
AcDbEntity
  8
_U+30EC_U+30A4_U+30E4_U+30FC 1
370
     0
100
AcDbVertex
100
AcDb2dVertex
 10
104.1641845442715
 20
-129.3678140952622
 30
0.0
  0
VERTEX
  5
83
330
7F
100
AcDbEntity
  8
_U+30EC_U+30A4_U+30E4_U+30FC 1
370
     0
100
AcDbVertex
100
AcDb2dVertex
 10
104.4160210242432
 20
-129.3678140952622
 30
0.0
  0
VERTEX
  5
84
330
7F
100
AcDbEntity
  8
_U+30EC_U+30A4_U+30E4_U+30FC 1
370
     0
100
AcDbVertex
100
AcDb2dVertex
 10
104.4160210242432
 20
-129.619650575234
 30
0.0
  0
SEQEND
  5
85
330
7F
100
AcDbEntity
  8
_U+30EC_U+30A4_U+30E4_U+30FC 1
370
     0
  0
HATCH
  5
86
330
77
100
AcDbEntity
  8
_U+30EC_U+30A4_U+30E4_U+30FC 1
 62
     7
420
 16777215
100
AcDbHatch
 10
0.0
 20
0.0
 30
0.0
210
0.0
220
0.0
230
1.0
  2
SOLID
 70
     1
 71
     0
 91
        1
 92
        1
 93
        4
 72
     1
 10
104.4160210242432
 20
-129.619650575234
 11
104.1641845442715
 21
-129.619650575234
 72
     1
 10
104.1641845442715
 20
-129.619650575234
 11
104.1641845442715
 21
-129.3678140952622
 72
     1
 10
104.1641845442715
 20
-129.3678140952622
 11
104.4160210242432
 21
-129.3678140952622
 72
     1
 10
104.4160210242432
 20
-129.3678140952622
 11
104.4160210242432
 21
-129.619650575234
 97
        0
 75
     2
 76
     1
 98
        0
  0
SPLINE
  5
87
330
77
100
AcDbEntity
  8
_U+30EC_U+30A4_U+30E4_U+30FC 1
370
     0
100
AcDbSpline
210
0.0
220
0.0
230
1.0
 70
    11
 71
     3
 72
    53
 73
    49
 74
     0
 42
0.0000000001
 43
0.0000000001
 12
1.0
 22
0.0
 32
0.0
 13
1.0
 23
0.0
 33
0.0
 40
0.0
 40
0.0
 40
0.0
 40
0.0
 40
1.0
 40
1.0
 40
1.0
 40
2.0
 40
2.0
 40
2.0
 40
3.0
 40
3.0
 40
3.0
 40
4.0
 40
4.0
 40
4.0
 40
5.0
 40
5.0
 40
5.0
 40
6.0
 40
6.0
 40
6.0
 40
7.0
 40
7.0
 40
7.0
 40
8.0
 40
8.0
 40
8.0
 40
9.0
 40
9.0
 40
9.0
 40
10.0
 40
10.0
 40
10.0
 40
11.0
 40
11.0
 40
11.0
 40
12.0
 40
12.0
 40
12.0
 40
13.0
 40
13.0
 40
13.0
 40
14.0
 40
14.0
 40
14.0
 40
15.0
 40
15.0
 40
15.0
 40
16.0
 40
16.0
 40
16.0
 40
16.0
 10
104.4666639278764
 20
-128.6505452152332
 30
0.0
 10
104.4666639278764
 20
-128.7287488827484
 30
0.0
 10
104.4497829599987
 20
-128.8303791995633
 30
0.0
 10
104.3863932030701
 20
-128.9320095163781
 30
0.0
 10
104.2764946570906
 20
-129.1052978192862
 30
0.0
 10
104.1452365191026
 20
-129.1266574112947
 30
0.0
 10
104.0374050304143
 20
-129.1456054364636
 30
0.0
 10
104.0374050304143
 20
-129.1456054364636
 30
0.0
 10
104.0374050304143
 20
-128.923396777665
 30
0.0
 10
104.0374050304143
 20
-128.923396777665
 30
0.0
 10
104.2361870399132
 20
-128.8686197594495
 30
0.0
 10
104.2658148610863
 20
-128.7414957360438
 30
0.0
 10
104.2658148610863
 20
-128.6484781579421
 30
0.0
 10
104.2658148610863
 20
-128.5089517907894
 30
0.0
 10
104.1662516015626
 20
-128.3566785703414
 30
0.0
 10
103.9337076563082
 20
-128.3566785703414
 30
0.0
 10
103.6777370617542
 20
-128.3566785703414
 30
0.0
 10
103.6078016234036
 20
-128.5365125546714
 30
0.0
 10
103.6078016234036
 20
-128.6570908966552
 30
0.0
 10
103.6078016234036
 20
-128.6887857751195
 30
0.0
 10
103.6078016234036
 20
-128.8303791995633
 30
0.0
 10
103.7369927041005
 20
-128.9192626630827
 30
0.0
 10
103.7369927041005
 20
-128.9192626630827
 30
0.0
 10
103.7180446789316
 20
-129.0949625328304
 30
0.0
 10
103.7180446789316
 20
-129.0949625328304
 30
0.0
 10
103.7180446789316
 20
-129.0949625328304
 30
0.0
 10
102.8715847182057
 20
-128.9743841908467
 30
0.0
 10
102.8715847182057
 20
-128.9743841908467
 30
0.0
 10
102.8715847182057
 20
-128.9743841908467
 30
0.0
 10
102.8715847182057
 20
-128.1957926111802
 30
0.0
 10
102.8715847182057
 20
-128.1957926111802
 30
0.0
 10
102.8715847182057
 20
-128.1957926111802
 30
0.0
 10
103.0662326131223
 20
-128.1957926111802
 30
0.0
 10
103.0662326131223
 20
-128.1957926111802
 30
0.0
 10
103.0662326131223
 20
-128.1957926111802
 30
0.0
 10
103.0662326131223
 20
-128.8114311743944
 30
0.0
 10
103.0662326131223
 20
-128.8114311743944
 30
0.0
 10
103.0662326131223
 20
-128.8114311743944
 30
0.0
 10
103.489290338711
 20
-128.8768879886141
 30
0.0
 10
103.489290338711
 20
-128.8768879886141
 30
0.0
 10
103.4555284029556
 20
-128.8155652889767
 30
0.0
 10
103.4152207857781
 20
-128.7332275068792
 30
0.0
 10
103.4152207857781
 20
-128.6147162221866
 30
0.0
 10
103.4152207857781
 20
-128.3608126849237
 30
0.0
 10
103.6016004515302
 20
-128.1237901155385
 30
0.0
 10
103.9147596311394
 20
-128.1237901155385
 30
0.0
 10
104.2320529253309
 20
-128.1237901155385
 30
0.0
 10
104.4666639278764
 20
-128.3480658316283
 30
0.0
 10
104.4666639278764
 20
-128.6505452152332
 30
0.0
  0
HATCH
  5
88
330
77
100
AcDbEntity
  8
_U+30EC_U+30A4_U+30E4_U+30FC 1
 62
     7
420
 16777215
100
AcDbHatch
 10
0.0
 20
0.0
 30
0.0
210
0.0
220
0.0
230
1.0
  2
SOLID
 70
     1
 71
     0
 91
        1
 92
        1
 93
        1
 72
     4
 94
        3
 73
     0
 74
     1
 95
       53
 96
       49
 40
0.0
 40
0.0
 40
0.0
 40
0.0
 40
1.0
 40
1.0
 40
1.0
 40
2.0
 40
2.0
 40
2.0
 40
3.0
 40
3.0
 40
3.0
 40
4.0
 40
4.0
 40
4.0
 40
5.0
 40
5.0
 40
5.0
 40
6.0
 40
6.0
 40
6.0
 40
7.0
 40
7.0
 40
7.0
 40
8.0
 40
8.0
 40
8.0
 40
9.0
 40
9.0
 40
9.0
 40
10.0
 40
10.0
 40
10.0
 40
11.0
 40
11.0
 40
11.0
 40
12.0
 40
12.0
 40
12.0
 40
13.0
 40
13.0
 40
13.0
 40
14.0
 40
14.0
 40
14.0
 40
15.0
 40
15.0
 40
15.0
 40
16.0
 40
16.0
 40
16.0
 40
16.0
 10
104.4666639278764
 20
-128.6505452152332
 10
104.4666639278764
 20
-128.7287488827484
 10
104.4497829599987
 20
-128.8303791995633
 10
104.3863932030701
 20
-128.9320095163781
 10
104.2764946570906
 20
-129.1052978192862
 10
104.1452365191026
 20
-129.1266574112947
 10
104.0374050304143
 20
-129.1456054364636
 10
104.0374050304143
 20
-129.1456054364636
 10
104.0374050304143
 20
-128.923396777665
 10
104.0374050304143
 20
-128.923396777665
 10
104.2361870399132
 20
-128.8686197594495
 10
104.2658148610863
 20
-128.7414957360438
 10
104.2658148610863
 20
-128.6484781579421
 10
104.2658148610863
 20
-128.5089517907894
 10
104.1662516015626
 20
-128.3566785703414
 10
103.9337076563082
 20
-128.3566785703414
 10
103.6777370617542
 20
-128.3566785703414
 10
103.6078016234036
 20
-128.5365125546714
 10
103.6078016234036
 20
-128.6570908966552
 10
103.6078016234036
 20
-128.6887857751195
 10
103.6078016234036
 20
-128.8303791995633
 10
103.7369927041005
 20
-128.9192626630827
 10
103.7369927041005
 20
-128.9192626630827
 10
103.7180446789316
 20
-129.0949625328304
 10
103.7180446789316
 20
-129.0949625328304
 10
103.7180446789316
 20
-129.0949625328304
 10
102.8715847182057
 20
-128.9743841908467
 10
102.8715847182057
 20
-128.9743841908467
 10
102.8715847182057
 20
-128.9743841908467
 10
102.8715847182057
 20
-128.1957926111802
 10
102.8715847182057
 20
-128.1957926111802
 10
102.8715847182057
 20
-128.1957926111802
 10
103.0662326131223
 20
-128.1957926111802
 10
103.0662326131223
 20
-128.1957926111802
 10
103.0662326131223
 20
-128.1957926111802
 10
103.0662326131223
 20
-128.8114311743944
 10
103.0662326131223
 20
-128.8114311743944
 10
103.0662326131223
 20
-128.8114311743944
 10
103.489290338711
 20
-128.8768879886141
 10
103.489290338711
 20
-128.8768879886141
 10
103.4555284029556
 20
-128.8155652889767
 10
103.4152207857781
 20
-128.7332275068792
 10
103.4152207857781
 20
-128.6147162221866
 10
103.4152207857781
 20
-128.3608126849237
 10
103.6016004515302
 20
-128.1237901155385
 10
103.9147596311394
 20
-128.1237901155385
 10
104.2320529253309
 20
-128.1237901155385
 10
104.4666639278764
 20
-128.3480658316283
 10
104.4666639278764
 20
-128.6505452152332
 97
        0
 97
        0
 75
     2
 76
     1
 98
        0
  0
ENDBLK
  5
7A
330
77
100
AcDbEntity
  8
0
100
AcDbBlockEnd
  0
BLOCK
  5
8B
330
89
100
AcDbEntity
  8
0
100
AcDbBlockBegin
  2
block 4
 70
     0
 10
0.0
 20
0.0
 30
0.0
  3
block 4
  1

  0
SPLINE
  5
8D
330
89
100
AcDbEntity
  8
_U+30EC_U+30A4_U+30E4_U+30FC 1
370
     0
100
AcDbSpline
210
0.0
220
0.0
230
1.0
 70
    11
 71
     3
 72
    26
 73
    22
 74
     0
 42
0.0000000001
 43
0.0000000001
 12
1.0
 22
0.0
 32
0.0
 13
1.0
 23
0.0
 33
0.0
 40
0.0
 40
0.0
 40
0.0
 40
0.0
 40
1.0
 40
1.0
 40
1.0
 40
2.0
 40
2.0
 40
2.0
 40
3.0
 40
3.0
 40
3.0
 40
4.0
 40
4.0
 40
4.0
 40
5.0
 40
5.0
 40
5.0
 40
6.0
 40
6.0
 40
6.0
 40
7.0
 40
7.0
 40
7.0
 40
7.0
 10
104.4160210242432
 20
-120.4680989282163
 30
0.0
 10
104.4160210242432
 20
-120.4680989282163
 30
0.0
 10
103.3118679212207
 20
-120.4680989282163
 30
0.0
 10
103.3118679212207
 20
-120.4680989282163
 30
0.0
 10
103.3118679212207
 20
-120.4680989282163
 30
0.0
 10
103.3118679212207
 20
-120.7981390757032
 30
0.0
 10
103.3118679212207
 20
-120.7981390757032
 30
0.0
 10
103.3118679212207
 20
-120.7981390757032
 30
0.0
 10
103.1637288153549
 20
-120.7981390757032
 30
0.0
 10
103.1637288153549
 20
-120.7981390757032
 30
0.0
 10
103.1489149047683
 20
-120.4660318709252
 30
0.0
 10
102.985961888316
 20
-120.4195230818743
 30
0.0
 10
102.8715847182057
 20
-120.3898952607011
 30
0.0
 10
102.8715847182057
 20
-120.3898952607011
 30
0.0
 10
102.8715847182057
 20
-120.2438232121265
 30
0.0
 10
102.8715847182057
 20
-120.2438232121265
 30
0.0
 10
102.8715847182057
 20
-120.2438232121265
 30
0.0
 10
104.4160210242432
 20
-120.2438232121265
 30
0.0
 10
104.4160210242432
 20
-120.2438232121265
 30
0.0
 10
104.4160210242432
 20
-120.2438232121265
 30
0.0
 10
104.4160210242432
 20
-120.4680989282163
 30
0.0
 10
104.4160210242432
 20
-120.4680989282163
 30
0.0
  0
HATCH
  5
8E
330
89
100
AcDbEntity
  8
_U+30EC_U+30A4_U+30E4_U+30FC 1
 62
     7
420
 16777215
100
AcDbHatch
 10
0.0
 20
0.0
 30
0.0
210
0.0
220
0.0
230
1.0
  2
SOLID
 70
     1
 71
     0
 91
        1
 92
        1
 93
        1
 72
     4
 94
        3
 73
     0
 74
     1
 95
       26
 96
       22
 40
0.0
 40
0.0
 40
0.0
 40
0.0
 40
1.0
 40
1.0
 40
1.0
 40
2.0
 40
2.0
 40
2.0
 40
3.0
 40
3.0
 40
3.0
 40
4.0
 40
4.0
 40
4.0
 40
5.0
 40
5.0
 40
5.0
 40
6.0
 40
6.0
 40
6.0
 40
7.0
 40
7.0
 40
7.0
 40
7.0
 10
104.4160210242432
 20
-120.4680989282163
 10
104.4160210242432
 20
-120.4680989282163
 10
103.3118679212207
 20
-120.4680989282163
 10
103.3118679212207
 20
-120.4680989282163
 10
103.3118679212207
 20
-120.4680989282163
 10
103.3118679212207
 20
-120.7981390757032
 10
103.3118679212207
 20
-120.7981390757032
 10
103.3118679212207
 20
-120.7981390757032
 10
103.1637288153549
 20
-120.7981390757032
 10
103.1637288153549
 20
-120.7981390757032
 10
103.1489149047683
 20
-120.4660318709252
 10
102.985961888316
 20
-120.4195230818743
 10
102.8715847182057
 20
-120.3898952607011
 10
102.8715847182057
 20
-120.3898952607011
 10
102.8715847182057
 20
-120.2438232121265
 10
102.8715847182057
 20
-120.2438232121265
 10
102.8715847182057
 20
-120.2438232121265
 10
104.4160210242432
 20
-120.2438232121265
 10
104.4160210242432
 20
-120.2438232121265
 10
104.4160210242432
 20
-120.2438232121265
 10
104.4160210242432
 20
-120.4680989282163
 10
104.4160210242432
 20
-120.4680989282163
 97
        0
 97
        0
 75
     2
 76
     1
 98
        0
  0
POLYLINE
  5
8F
330
89
100
AcDbEntity
  8
_U+30EC_U+30A4_U+30E4_U+30FC 1
370
     0
100
AcDb2dPolyline
 66
     1
 10
0.0
 20
0.0
 30
0.0
  0
VERTEX
  5
90
330
8F
100
AcDbEntity
  8
_U+30EC_U+30A4_U+30E4_U+30FC 1
370
     0
100
AcDbVertex
100
AcDb2dVertex
 10
104.4160210242432
 20
-119.6826171575794
 30
0.0
  0
VERTEX
  5
91
330
8F
100
AcDbEntity
  8
_U+30EC_U+30A4_U+30E4_U+30FC 1
370
     0
100
AcDbVertex
100
AcDb2dVertex
 10
104.1641845442715
 20
-119.6826171575794
 30
0.0
  0
VERTEX
  5
92
330
8F
100
AcDbEntity
  8
_U+30EC_U+30A4_U+30E4_U+30FC 1
370
     0
100
AcDbVertex
100
AcDb2dVertex
 10
104.1641845442715
 20
-119.4307806776076
 30
0.0
  0
VERTEX
  5
93
330
8F
100
AcDbEntity
  8
_U+30EC_U+30A4_U+30E4_U+30FC 1
370
     0
100
AcDbVertex
100
AcDb2dVertex
 10
104.4160210242432
 20
-119.4307806776076
 30
0.0
  0
VERTEX
  5
94
330
8F
100
AcDbEntity
  8
_U+30EC_U+30A4_U+30E4_U+30FC 1
370
     0
100
AcDbVertex
100
AcDb2dVertex
 10
104.4160210242432
 20
-119.6826171575794
 30
0.0
  0
SEQEND
  5
95
330
8F
100
AcDbEntity
  8
_U+30EC_U+30A4_U+30E4_U+30FC 1
370
     0
  0
HATCH
  5
96
330
89
100
AcDbEntity
  8
_U+30EC_U+30A4_U+30E4_U+30FC 1
 62
     7
420
 16777215
100
AcDbHatch
 10
0.0
 20
0.0
 30
0.0
210
0.0
220
0.0
230
1.0
  2
SOLID
 70
     1
 71
     0
 91
        1
 92
        1
 93
        4
 72
     1
 10
104.4160210242432
 20
-119.6826171575794
 11
104.1641845442715
 21
-119.6826171575794
 72
     1
 10
104.1641845442715
 20
-119.6826171575794
 11
104.1641845442715
 21
-119.4307806776076
 72
     1
 10
104.1641845442715
 20
-119.4307806776076
 11
104.4160210242432
 21
-119.4307806776076
 72
     1
 10
104.4160210242432
 20
-119.4307806776076
 11
104.4160210242432
 21
-119.6826171575794
 97
        0
 75
     2
 76
     1
 98
        0
  0
SPLINE
  5
97
330
89
100
AcDbEntity
  8
_U+30EC_U+30A4_U+30E4_U+30FC 1
370
     0
100
AcDbSpline
210
0.0
220
0.0
230
1.0
 70
    11
 71
     3
 72
    53
 73
    49
 74
     0
 42
0.0000000001
 43
0.0000000001
 12
1.0
 22
0.0
 32
0.0
 13
1.0
 23
0.0
 33
0.0
 40
0.0
 40
0.0
 40
0.0
 40
0.0
 40
1.0
 40
1.0
 40
1.0
 40
2.0
 40
2.0
 40
2.0
 40
3.0
 40
3.0
 40
3.0
 40
4.0
 40
4.0
 40
4.0
 40
5.0
 40
5.0
 40
5.0
 40
6.0
 40
6.0
 40
6.0
 40
7.0
 40
7.0
 40
7.0
 40
8.0
 40
8.0
 40
8.0
 40
9.0
 40
9.0
 40
9.0
 40
10.0
 40
10.0
 40
10.0
 40
11.0
 40
11.0
 40
11.0
 40
12.0
 40
12.0
 40
12.0
 40
13.0
 40
13.0
 40
13.0
 40
14.0
 40
14.0
 40
14.0
 40
15.0
 40
15.0
 40
15.0
 40
16.0
 40
16.0
 40
16.0
 40
16.0
 10
104.4666639278764
 20
-118.7135117975786
 30
0.0
 10
104.4666639278764
 20
-118.7917154650937
 30
0.0
 10
104.4497829599987
 20
-118.8933457819086
 30
0.0
 10
104.3863932030701
 20
-118.9949760987235
 30
0.0
 10
104.2764946570906
 20
-119.1682644016315
 30
0.0
 10
104.1452365191026
 20
-119.1896239936401
 30
0.0
 10
104.0374050304143
 20
-119.208572018809
 30
0.0
 10
104.0374050304143
 20
-119.208572018809
 30
0.0
 10
104.0374050304143
 20
-118.9863633600104
 30
0.0
 10
104.0374050304143
 20
-118.9863633600104
 30
0.0
 10
104.2361870399132
 20
-118.9315863417949
 30
0.0
 10
104.2658148610863
 20
-118.8044623183892
 30
0.0
 10
104.2658148610863
 20
-118.7114447402874
 30
0.0
 10
104.2658148610863
 20
-118.5719183731348
 30
0.0
 10
104.1662516015626
 20
-118.4196451526868
 30
0.0
 10
103.9337076563082
 20
-118.4196451526868
 30
0.0
 10
103.6777370617542
 20
-118.4196451526868
 30
0.0
 10
103.6078016234036
 20
-118.5994791370168
 30
0.0
 10
103.6078016234036
 20
-118.7200574790005
 30
0.0
 10
103.6078016234036
 20
-118.7517523574649
 30
0.0
 10
103.6078016234036
 20
-118.8933457819086
 30
0.0
 10
103.7369927041005
 20
-118.9822292454281
 30
0.0
 10
103.7369927041005
 20
-118.9822292454281
 30
0.0
 10
103.7180446789316
 20
-119.1579291151758
 30
0.0
 10
103.7180446789316
 20
-119.1579291151758
 30
0.0
 10
103.7180446789316
 20
-119.1579291151758
 30
0.0
 10
102.8715847182057
 20
-119.0373507731921
 30
0.0
 10
102.8715847182057
 20
-119.0373507731921
 30
0.0
 10
102.8715847182057
 20
-119.0373507731921
 30
0.0
 10
102.8715847182057
 20
-118.2587591935256
 30
0.0
 10
102.8715847182057
 20
-118.2587591935256
 30
0.0
 10
102.8715847182057
 20
-118.2587591935256
 30
0.0
 10
103.0662326131223
 20
-118.2587591935256
 30
0.0
 10
103.0662326131223
 20
-118.2587591935256
 30
0.0
 10
103.0662326131223
 20
-118.2587591935256
 30
0.0
 10
103.0662326131223
 20
-118.8743977567397
 30
0.0
 10
103.0662326131223
 20
-118.8743977567397
 30
0.0
 10
103.0662326131223
 20
-118.8743977567397
 30
0.0
 10
103.489290338711
 20
-118.9398545709595
 30
0.0
 10
103.489290338711
 20
-118.9398545709595
 30
0.0
 10
103.4555284029556
 20
-118.878531871322
 30
0.0
 10
103.4152207857781
 20
-118.7961940892246
 30
0.0
 10
103.4152207857781
 20
-118.677682804532
 30
0.0
 10
103.4152207857781
 20
-118.4237792672691
 30
0.0
 10
103.6016004515302
 20
-118.1867566978839
 30
0.0
 10
103.9147596311394
 20
-118.1867566978839
 30
0.0
 10
104.2320529253309
 20
-118.1867566978839
 30
0.0
 10
104.4666639278764
 20
-118.4110324139736
 30
0.0
 10
104.4666639278764
 20
-118.7135117975786
 30
0.0
  0
HATCH
  5
98
330
89
100
AcDbEntity
  8
_U+30EC_U+30A4_U+30E4_U+30FC 1
 62
     7
420
 16777215
100
AcDbHatch
 10
0.0
 20
0.0
 30
0.0
210
0.0
220
0.0
230
1.0
  2
SOLID
 70
     1
 71
     0
 91
        1
 92
        1
 93
        1
 72
     4
 94
        3
 73
     0
 74
     1
 95
       53
 96
       49
 40
0.0
 40
0.0
 40
0.0
 40
0.0
 40
1.0
 40
1.0
 40
1.0
 40
2.0
 40
2.0
 40
2.0
 40
3.0
 40
3.0
 40
3.0
 40
4.0
 40
4.0
 40
4.0
 40
5.0
 40
5.0
 40
5.0
 40
6.0
 40
6.0
 40
6.0
 40
7.0
 40
7.0
 40
7.0
 40
8.0
 40
8.0
 40
8.0
 40
9.0
 40
9.0
 40
9.0
 40
10.0
 40
10.0
 40
10.0
 40
11.0
 40
11.0
 40
11.0
 40
12.0
 40
12.0
 40
12.0
 40
13.0
 40
13.0
 40
13.0
 40
14.0
 40
14.0
 40
14.0
 40
15.0
 40
15.0
 40
15.0
 40
16.0
 40
16.0
 40
16.0
 40
16.0
 10
104.4666639278764
 20
-118.7135117975786
 10
104.4666639278764
 20
-118.7917154650937
 10
104.4497829599987
 20
-118.8933457819086
 10
104.3863932030701
 20
-118.9949760987235
 10
104.2764946570906
 20
-119.1682644016315
 10
104.1452365191026
 20
-119.1896239936401
 10
104.0374050304143
 20
-119.208572018809
 10
104.0374050304143
 20
-119.208572018809
 10
104.0374050304143
 20
-118.9863633600104
 10
104.0374050304143
 20
-118.9863633600104
 10
104.2361870399132
 20
-118.9315863417949
 10
104.2658148610863
 20
-118.8044623183892
 10
104.2658148610863
 20
-118.7114447402874
 10
104.2658148610863
 20
-118.5719183731348
 10
104.1662516015626
 20
-118.4196451526868
 10
103.9337076563082
 20
-118.4196451526868
 10
103.6777370617542
 20
-118.4196451526868
 10
103.6078016234036
 20
-118.5994791370168
 10
103.6078016234036
 20
-118.7200574790005
 10
103.6078016234036
 20
-118.7517523574649
 10
103.6078016234036
 20
-118.8933457819086
 10
103.7369927041005
 20
-118.9822292454281
 10
103.7369927041005
 20
-118.9822292454281
 10
103.7180446789316
 20
-119.1579291151758
 10
103.7180446789316
 20
-119.1579291151758
 10
103.7180446789316
 20
-119.1579291151758
 10
102.8715847182057
 20
-119.0373507731921
 10
102.8715847182057
 20
-119.0373507731921
 10
102.8715847182057
 20
-119.0373507731921
 10
102.8715847182057
 20
-118.2587591935256
 10
102.8715847182057
 20
-118.2587591935256
 10
102.8715847182057
 20
-118.2587591935256
 10
103.0662326131223
 20
-118.2587591935256
 10
103.0662326131223
 20
-118.2587591935256
 10
103.0662326131223
 20
-118.2587591935256
 10
103.0662326131223
 20
-118.8743977567397
 10
103.0662326131223
 20
-118.8743977567397
 10
103.0662326131223
 20
-118.8743977567397
 10
103.489290338711
 20
-118.9398545709595
 10
103.489290338711
 20
-118.9398545709595
 10
103.4555284029556
 20
-118.878531871322
 10
103.4152207857781
 20
-118.7961940892246
 10
103.4152207857781
 20
-118.677682804532
 10
103.4152207857781
 20
-118.4237792672691
 10
103.6016004515302
 20
-118.1867566978839
 10
103.9147596311394
 20
-118.1867566978839
 10
104.2320529253309
 20
-118.1867566978839
 10
104.4666639278764
 20
-118.4110324139736
 10
104.4666639278764
 20
-118.7135117975786
 97
        0
 97
        0
 75
     2
 76
     1
 98
        0
  0
ENDBLK
  5
8C
330
89
100
AcDbEntity
  8
0
100
AcDbBlockEnd
  0
BLOCK
  5
9B
330
99
100
AcDbEntity
  8
0
100
AcDbBlockBegin
  2
block 5
 70
     0
 10
0.0
 20
0.0
 30
0.0
  3
block 5
  1

  0
SPLINE
  5
9D
330
99
100
AcDbEntity
  8
_U+30EC_U+30A4_U+30E4_U+30FC 1
370
     0
100
AcDbSpline
210
0.0
220
0.0
230
1.0
 70
    11
 71
     3
 72
    26
 73
    22
 74
     0
 42
0.0000000001
 43
0.0000000001
 12
1.0
 22
0.0
 32
0.0
 13
1.0
 23
0.0
 33
0.0
 40
0.0
 40
0.0
 40
0.0
 40
0.0
 40
1.0
 40
1.0
 40
1.0
 40
2.0
 40
2.0
 40
2.0
 40
3.0
 40
3.0
 40
3.0
 40
4.0
 40
4.0
 40
4.0
 40
5.0
 40
5.0
 40
5.0
 40
6.0
 40
6.0
 40
6.0
 40
7.0
 40
7.0
 40
7.0
 40
7.0
 10
104.4160210242432
 20
-139.1391384200763
 30
0.0
 10
104.4160210242432
 20
-139.1391384200763
 30
0.0
 10
103.3118679212207
 20
-139.1391384200763
 30
0.0
 10
103.3118679212207
 20
-139.1391384200763
 30
0.0
 10
103.3118679212207
 20
-139.1391384200763
 30
0.0
 10
103.3118679212207
 20
-139.4691785675633
 30
0.0
 10
103.3118679212207
 20
-139.4691785675633
 30
0.0
 10
103.3118679212207
 20
-139.4691785675633
 30
0.0
 10
103.1637288153549
 20
-139.4691785675633
 30
0.0
 10
103.1637288153549
 20
-139.4691785675633
 30
0.0
 10
103.1489149047683
 20
-139.1370713627852
 30
0.0
 10
102.985961888316
 20
-139.0905625737343
 30
0.0
 10
102.8715847182057
 20
-139.0609347525612
 30
0.0
 10
102.8715847182057
 20
-139.0609347525612
 30
0.0
 10
102.8715847182057
 20
-138.9148627039866
 30
0.0
 10
102.8715847182057
 20
-138.9148627039866
 30
0.0
 10
102.8715847182057
 20
-138.9148627039866
 30
0.0
 10
104.4160210242432
 20
-138.9148627039866
 30
0.0
 10
104.4160210242432
 20
-138.9148627039866
 30
0.0
 10
104.4160210242432
 20
-138.9148627039866
 30
0.0
 10
104.4160210242432
 20
-139.1391384200763
 30
0.0
 10
104.4160210242432
 20
-139.1391384200763
 30
0.0
  0
HATCH
  5
9E
330
99
100
AcDbEntity
  8
_U+30EC_U+30A4_U+30E4_U+30FC 1
 62
     7
420
 16777215
100
AcDbHatch
 10
0.0
 20
0.0
 30
0.0
210
0.0
220
0.0
230
1.0
  2
SOLID
 70
     1
 71
     0
 91
        1
 92
        1
 93
        1
 72
     4
 94
        3
 73
     0
 74
     1
 95
       26
 96
       22
 40
0.0
 40
0.0
 40
0.0
 40
0.0
 40
1.0
 40
1.0
 40
1.0
 40
2.0
 40
2.0
 40
2.0
 40
3.0
 40
3.0
 40
3.0
 40
4.0
 40
4.0
 40
4.0
 40
5.0
 40
5.0
 40
5.0
 40
6.0
 40
6.0
 40
6.0
 40
7.0
 40
7.0
 40
7.0
 40
7.0
 10
104.4160210242432
 20
-139.1391384200763
 10
104.4160210242432
 20
-139.1391384200763
 10
103.3118679212207
 20
-139.1391384200763
 10
103.3118679212207
 20
-139.1391384200763
 10
103.3118679212207
 20
-139.1391384200763
 10
103.3118679212207
 20
-139.4691785675633
 10
103.3118679212207
 20
-139.4691785675633
 10
103.3118679212207
 20
-139.4691785675633
 10
103.1637288153549
 20
-139.4691785675633
 10
103.1637288153549
 20
-139.4691785675633
 10
103.1489149047683
 20
-139.1370713627852
 10
102.985961888316
 20
-139.0905625737343
 10
102.8715847182057
 20
-139.0609347525612
 10
102.8715847182057
 20
-139.0609347525612
 10
102.8715847182057
 20
-138.9148627039866
 10
102.8715847182057
 20
-138.9148627039866
 10
102.8715847182057
 20
-138.9148627039866
 10
104.4160210242432
 20
-138.9148627039866
 10
104.4160210242432
 20
-138.9148627039866
 10
104.4160210242432
 20
-138.9148627039866
 10
104.4160210242432
 20
-139.1391384200763
 10
104.4160210242432
 20
-139.1391384200763
 97
        0
 97
        0
 75
     2
 76
     1
 98
        0
  0
ENDBLK
  5
9C
330
99
100
AcDbEntity
  8
0
100
AcDbBlockEnd
  0
ENDSEC
  0
SECTION
  2
ENTITIES
  0
SPLINE
  5
41
330
1F
100
AcDbEntity
  8
_U+30EC_U+30A4_U+30E4_U+30FC 1
370
     0
100
AcDbSpline
210
0.0
220
0.0
230
1.0
 70
    11
 71
     3
 72
    50
 73
    46
 74
     0
 42
0.0000000001
 43
0.0000000001
 12
1.0
 22
0.0
 32
0.0
 13
1.0
 23
0.0
 33
0.0
 40
0.0
 40
0.0
 40
0.0
 40
0.0
 40
1.0
 40
1.0
 40
1.0
 40
2.0
 40
2.0
 40
2.0
 40
3.0
 40
3.0
 40
3.0
 40
4.0
 40
4.0
 40
4.0
 40
5.0
 40
5.0
 40
5.0
 40
6.0
 40
6.0
 40
6.0
 40
7.0
 40
7.0
 40
7.0
 40
8.0
 40
8.0
 40
8.0
 40
9.0
 40
9.0
 40
9.0
 40
10.0
 40
10.0
 40
10.0
 40
11.0
 40
11.0
 40
11.0
 40
12.0
 40
12.0
 40
12.0
 40
13.0
 40
13.0
 40
13.0
 40
14.0
 40
14.0
 40
14.0
 40
15.0
 40
15.0
 40
15.0
 40
15.0
 10
86.31893446448719
 20
-131.388026356042
 30
0.0
 10
86.31893446448719
 20
-131.388026356042
 30
0.0
 10
86.3223916866212
 20
-123.1590613580991
 30
0.0
 10
86.3223916866212
 20
-123.1590613580991
 30
0.0
 10
86.3223916866212
 20
-123.1590613580991
 30
0.0
 10
90.24185853107171
 20
-123.1590613580991
 30
0.0
 10
90.24185853107171
 20
-123.1590613580991
 30
0.0
 10
90.24185853107171
 20
-123.1590613580991
 30
0.0
 10
90.5719174115401
 20
-123.6563721913081
 30
0.0
 10
90.5719174115401
 20
-123.6563721913081
 30
0.0
 10
90.5719174115401
 20
-123.6563721913081
 30
0.0
 10
91.8135187687531
 20
-123.6563721913081
 30
0.0
 10
91.8135187687531
 20
-123.6563721913081
 30
0.0
 10
91.8135187687531
 20
-123.6563721913081
 30
0.0
 10
90.80997184991128
 20
-122.1613705250152
 30
0.0
 10
90.80997184991128
 20
-122.1613705250152
 30
0.0
 10
90.80997184991128
 20
-122.1613705250152
 30
0.0
 10
80.98800376715722
 20
-122.1613705250152
 30
0.0
 10
80.98800376715722
 20
-122.1613705250152
 30
0.0
 10
80.98800376715722
 20
-122.1613705250152
 30
0.0
 10
79.77395435368575
 20
-123.6563721913081
 30
0.0
 10
79.77395435368575
 20
-123.6563721913081
 30
0.0
 10
79.77395435368575
 20
-123.6563721913081
 30
0.0
 10
81.09203793116976
 20
-123.6563721913081
 30
0.0
 10
81.09203793116976
 20
-123.6563721913081
 30
0.0
 10
81.09203793116976
 20
-123.6563721913081
 30
0.0
 10
81.49064153211164
 20
-123.1590613580991
 30
0.0
 10
81.49064153211164
 20
-123.1590613580991
 30
0.0
 10
81.49064153211164
 20
-123.1590613580991
 30
0.0
 10
85.3005708793567
 20
-123.1590613580991
 30
0.0
 10
85.3005708793567
 20
-123.1590613580991
 30
0.0
 10
85.3005708793567
 20
-123.1590613580991
 30
0.0
 10
85.3005708793567
 20
-131.3583930227158
 30
0.0
 10
85.3005708793567
 20
-131.3583930227158
 30
0.0
 10
84.74935561564159
 20
-131.5799021893275
 30
0.0
 10
84.29494257167907
 20
-132.1166535780818
 30
0.0
 10
84.29494257167907
 20
-132.7474555223685
 30
0.0
 10
84.29494257167907
 20
-133.5759894110507
 30
0.0
 10
84.9663844989936
 20
-134.2474313553273
 30
0.0
 10
85.79491836674484
 20
-134.2474313553273
 30
0.0
 10
86.62348751227294
 20
-134.2474313553273
 30
0.0
 10
87.29492943958748
 20
-133.5759894110507
 30
0.0
 10
87.29492943958748
 20
-132.7474555223685
 30
0.0
 10
87.29492943958748
 20
-132.1363033002994
 30
0.0
 10
86.84326806222143
 20
-131.6219533004278
 30
0.0
 10
86.31893446448719
 20
-131.388026356042
 30
0.0
  0
HATCH
  5
42
330
1F
100
AcDbEntity
  8
_U+30EC_U+30A4_U+30E4_U+30FC 1
 62
   253
420
 11711154
100
AcDbHatch
 10
0.0
 20
0.0
 30
0.0
210
0.0
220
0.0
230
1.0
  2
SOLID
 70
     1
 71
     0
 91
        1
 92
        1
 93
        1
 72
     4
 94
        3
 73
     0
 74
     1
 95
       50
 96
       46
 40
0.0
 40
0.0
 40
0.0
 40
0.0
 40
1.0
 40
1.0
 40
1.0
 40
2.0
 40
2.0
 40
2.0
 40
3.0
 40
3.0
 40
3.0
 40
4.0
 40
4.0
 40
4.0
 40
5.0
 40
5.0
 40
5.0
 40
6.0
 40
6.0
 40
6.0
 40
7.0
 40
7.0
 40
7.0
 40
8.0
 40
8.0
 40
8.0
 40
9.0
 40
9.0
 40
9.0
 40
10.0
 40
10.0
 40
10.0
 40
11.0
 40
11.0
 40
11.0
 40
12.0
 40
12.0
 40
12.0
 40
13.0
 40
13.0
 40
13.0
 40
14.0
 40
14.0
 40
14.0
 40
15.0
 40
15.0
 40
15.0
 40
15.0
 10
86.31893446448719
 20
-131.388026356042
 10
86.31893446448719
 20
-131.388026356042
 10
86.3223916866212
 20
-123.1590613580991
 10
86.3223916866212
 20
-123.1590613580991
 10
86.3223916866212
 20
-123.1590613580991
 10
90.24185853107171
 20
-123.1590613580991
 10
90.24185853107171
 20
-123.1590613580991
 10
90.24185853107171
 20
-123.1590613580991
 10
90.5719174115401
 20
-123.6563721913081
 10
90.5719174115401
 20
-123.6563721913081
 10
90.5719174115401
 20
-123.6563721913081
 10
91.8135187687531
 20
-123.6563721913081
 10
91.8135187687531
 20
-123.6563721913081
 10
91.8135187687531
 20
-123.6563721913081
 10
90.80997184991128
 20
-122.1613705250152
 10
90.80997184991128
 20
-122.1613705250152
 10
90.80997184991128
 20
-122.1613705250152
 10
80.98800376715722
 20
-122.1613705250152
 10
80.98800376715722
 20
-122.1613705250152
 10
80.98800376715722
 20
-122.1613705250152
 10
79.77395435368575
 20
-123.6563721913081
 10
79.77395435368575
 20
-123.6563721913081
 10
79.77395435368575
 20
-123.6563721913081
 10
81.09203793116976
 20
-123.6563721913081
 10
81.09203793116976
 20
-123.6563721913081
 10
81.09203793116976
 20
-123.6563721913081
 10
81.49064153211164
 20
-123.1590613580991
 10
81.49064153211164
 20
-123.1590613580991
 10
81.49064153211164
 20
-123.1590613580991
 10
85.3005708793567
 20
-123.1590613580991
 10
85.3005708793567
 20
-123.1590613580991
 10
85.3005708793567
 20
-123.1590613580991
 10
85.3005708793567
 20
-131.3583930227158
 10
85.3005708793567
 20
-131.3583930227158
 10
84.74935561564159
 20
-131.5799021893275
 10
84.29494257167907
 20
-132.1166535780818
 10
84.29494257167907
 20
-132.7474555223685
 10
84.29494257167907
 20
-133.5759894110507
 10
84.9663844989936
 20
-134.2474313553273
 10
85.79491836674484
 20
-134.2474313553273
 10
86.62348751227294
 20
-134.2474313553273
 10
87.29492943958748
 20
-133.5759894110507
 10
87.29492943958748
 20
-132.7474555223685
 10
87.29492943958748
 20
-132.1363033002994
 10
86.84326806222143
 20
-131.6219533004278
 10
86.31893446448719
 20
-131.388026356042
 97
        0
 97
        0
 75
     2
 76
     1
 98
        0
  0
SPLINE
  5
43
330
1F
100
AcDbEntity
  8
_U+30EC_U+30A4_U+30E4_U+30FC 1
 62
     7
420
 16777215
370
     9
100
AcDbSpline
210
0.0
220
0.0
230
1.0
 70
    11
 71
     3
 72
    17
 73
    13
 74
     0
 42
0.0000000001
 43
0.0000000001
 12
1.0
 22
0.0
 32
0.0
 13
1.0
 23
0.0
 33
0.0
 40
0.0
 40
0.0
 40
0.0
 40
0.0
 40
1.0
 40
1.0
 40
1.0
 40
2.0
 40
2.0
 40
2.0
 40
3.0
 40
3.0
 40
3.0
 40
4.0
 40
4.0
 40
4.0
 40
4.0
 10
79.8889972022501
 20
-119.3370669146102
 30
0.0
 10
79.8889972022501
 20
-119.2819630257349
 30
0.0
 10
79.84422768522627
 20
-119.2371602479685
 30
0.0
 10
79.78908851996633
 20
-119.2371602479685
 30
0.0
 10
79.73398463248324
 20
-119.2371602479685
 30
0.0
 10
79.68918185584849
 20
-119.2819630257349
 30
0.0
 10
79.68918185584849
 20
-119.3370669146102
 30
0.0
 10
79.68918185584849
 20
-119.3928763590406
 30
0.0
 10
79.73398463248324
 20
-119.4376791368073
 30
0.0
 10
79.78908851996633
 20
-119.4376791368073
 30
0.0
 10
79.84422768522627
 20
-119.4376791368073
 30
0.0
 10
79.8889972022501
 20
-119.3928763590406
 30
0.0
 10
79.8889972022501
 20
-119.3370669146102
 30
0.0
  0
SPLINE
  5
44
330
1F
100
AcDbEntity
  8
_U+30EC_U+30A4_U+30E4_U+30FC 1
 62
     7
420
 16777215
370
     9
100
AcDbSpline
210
0.0
220
0.0
230
1.0
 70
    11
 71
     3
 72
    17
 73
    13
 74
     0
 42
0.0000000001
 43
0.0000000001
 12
1.0
 22
0.0
 32
0.0
 13
1.0
 23
0.0
 33
0.0
 40
0.0
 40
0.0
 40
0.0
 40
0.0
 40
1.0
 40
1.0
 40
1.0
 40
2.0
 40
2.0
 40
2.0
 40
3.0
 40
3.0
 40
3.0
 40
4.0
 40
4.0
 40
4.0
 40
4.0
 10
91.89861108813646
 20
-119.3391483034986
 30
0.0
 10
91.89861108813646
 20
-119.2840091368458
 30
0.0
 10
91.85380831036974
 20
-119.2392416368569
 30
0.0
 10
91.79870210246445
 20
-119.2392416368569
 30
0.0
 10
91.74356293720449
 20
-119.2392416368569
 30
0.0
 10
91.69879543834661
 20
-119.2840091368458
 30
0.0
 10
91.69879543834661
 20
-119.3391483034986
 30
0.0
 10
91.69879543834661
 20
-119.394957747929
 30
0.0
 10
91.74356293720449
 20
-119.4397252479179
 30
0.0
 10
91.79870210246445
 20
-119.4397252479179
 30
0.0
 10
91.85380831036974
 20
-119.4397252479179
 30
0.0
 10
91.89861108813646
 20
-119.394957747929
 30
0.0
 10
91.89861108813646
 20
-119.3391483034986
 30
0.0
  0
POLYLINE
  5
45
330
1F
100
AcDbEntity
  8
_U+30EC_U+30A4_U+30E4_U+30FC 1
 62
     7
420
 16777215
370
     9
100
AcDb2dPolyline
 66
     1
 10
0.0
 20
0.0
 30
0.0
  0
VERTEX
  5
46
330
45
100
AcDbEntity
  8
_U+30EC_U+30A4_U+30E4_U+30FC 1
 62
     7
420
 16777215
370
     9
100
AcDbVertex
100
AcDb2dVertex
 10
79.7911699088021
 20
-119.3370669146102
 30
0.0
  0
VERTEX
  5
47
330
45
100
AcDbEntity
  8
_U+30EC_U+30A4_U+30E4_U+30FC 1
 62
     7
420
 16777215
370
     9
100
AcDbVertex
100
AcDb2dVertex
 10
91.80007793576267
 20
-119.3370669146102
 30
0.0
  0
SEQEND
  5
48
330
45
100
AcDbEntity
  8
_U+30EC_U+30A4_U+30E4_U+30FC 1
 62
     7
420
 16777215
370
     9
  0
POLYLINE
  5
49
330
1F
100
AcDbEntity
  8
_U+30EC_U+30A4_U+30E4_U+30FC 1
 62
     7
420
 16777215
370
     9
100
AcDb2dPolyline
 66
     1
 10
0.0
 20
0.0
 30
0.0
  0
VERTEX
  5
4A
330
49
100
AcDbEntity
  8
_U+30EC_U+30A4_U+30E4_U+30FC 1
 62
     7
420
 16777215
370
     9
100
AcDbVertex
100
AcDb2dVertex
 10
79.78908851996633
 20
-117.8770255260865
 30
0.0
  0
VERTEX
  5
4B
330
49
100
AcDbEntity
  8
_U+30EC_U+30A4_U+30E4_U+30FC 1
 62
     7
420
 16777215
370
     9
100
AcDbVertex
100
AcDb2dVertex
 10
79.78908851996633
 20
-120.3375446921379
 30
0.0
  0
SEQEND
  5
4C
330
49
100
AcDbEntity
  8
_U+30EC_U+30A4_U+30E4_U+30FC 1
 62
     7
420
 16777215
370
     9
  0
POLYLINE
  5
4D
330
1F
100
AcDbEntity
  8
_U+30EC_U+30A4_U+30E4_U+30FC 1
 62
     7
420
 16777215
370
     9
100
AcDb2dPolyline
 66
     1
 10
0.0
 20
0.0
 30
0.0
  0
VERTEX
  5
4E
330
4D
100
AcDbEntity
  8
_U+30EC_U+30A4_U+30E4_U+30FC 1
 62
     7
420
 16777215
370
     9
100
AcDbVertex
100
AcDb2dVertex
 10
91.79799654692688
 20
-117.8770255260865
 30
0.0
  0
VERTEX
  5
4F
330
4D
100
AcDbEntity
  8
_U+30EC_U+30A4_U+30E4_U+30FC 1
 62
     7
420
 16777215
370
     9
100
AcDbVertex
100
AcDb2dVertex
 10
91.79799654692688
 20
-120.3375446921379
 30
0.0
  0
SEQEND
  5
50
330
4D
100
AcDbEntity
  8
_U+30EC_U+30A4_U+30E4_U+30FC 1
 62
     7
420
 16777215
370
     9
  0
INSERT
  5
52
330
1F
100
AcDbEntity
  8
_U+30EC_U+30A4_U+30E4_U+30FC 1
100
AcDbBlockReference
  2
block 2
 10
0.0
 20
0.0
 30
0.0
  0
SPLINE
  5
59
330
1F
100
AcDbEntity
  8
_U+30EC_U+30A4_U+30E4_U+30FC 1
 62
     7
420
 16777215
370
    25
100
AcDbSpline
210
0.0
220
0.0
230
1.0
 70
    11
 71
     3
 72
    50
 73
    46
 74
     0
 42
0.0000000001
 43
0.0000000001
 12
1.0
 22
0.0
 32
0.0
 13
1.0
 23
0.0
 33
0.0
 40
0.0
 40
0.0
 40
0.0
 40
0.0
 40
1.0
 40
1.0
 40
1.0
 40
2.0
 40
2.0
 40
2.0
 40
3.0
 40
3.0
 40
3.0
 40
4.0
 40
4.0
 40
4.0
 40
5.0
 40
5.0
 40
5.0
 40
6.0
 40
6.0
 40
6.0
 40
7.0
 40
7.0
 40
7.0
 40
8.0
 40
8.0
 40
8.0
 40
9.0
 40
9.0
 40
9.0
 40
10.0
 40
10.0
 40
10.0
 40
11.0
 40
11.0
 40
11.0
 40
12.0
 40
12.0
 40
12.0
 40
13.0
 40
13.0
 40
13.0
 40
14.0
 40
14.0
 40
14.0
 40
15.0
 40
15.0
 40
15.0
 40
15.0
 10
86.31893446448719
 20
-131.388026356042
 30
0.0
 10
86.31893446448719
 20
-131.388026356042
 30
0.0
 10
86.3223916866212
 20
-123.1590613580991
 30
0.0
 10
86.3223916866212
 20
-123.1590613580991
 30
0.0
 10
86.3223916866212
 20
-123.1590613580991
 30
0.0
 10
90.24185853107171
 20
-123.1590613580991
 30
0.0
 10
90.24185853107171
 20
-123.1590613580991
 30
0.0
 10
90.24185853107171
 20
-123.1590613580991
 30
0.0
 10
90.5719174115401
 20
-123.6563721913081
 30
0.0
 10
90.5719174115401
 20
-123.6563721913081
 30
0.0
 10
90.5719174115401
 20
-123.6563721913081
 30
0.0
 10
91.8135187687531
 20
-123.6563721913081
 30
0.0
 10
91.8135187687531
 20
-123.6563721913081
 30
0.0
 10
91.8135187687531
 20
-123.6563721913081
 30
0.0
 10
90.80997184991128
 20
-122.1613705250152
 30
0.0
 10
90.80997184991128
 20
-122.1613705250152
 30
0.0
 10
90.80997184991128
 20
-122.1613705250152
 30
0.0
 10
80.98800376715722
 20
-122.1613705250152
 30
0.0
 10
80.98800376715722
 20
-122.1613705250152
 30
0.0
 10
80.98800376715722
 20
-122.1613705250152
 30
0.0
 10
79.77395435368575
 20
-123.6563721913081
 30
0.0
 10
79.77395435368575
 20
-123.6563721913081
 30
0.0
 10
79.77395435368575
 20
-123.6563721913081
 30
0.0
 10
81.09203793116976
 20
-123.6563721913081
 30
0.0
 10
81.09203793116976
 20
-123.6563721913081
 30
0.0
 10
81.09203793116976
 20
-123.6563721913081
 30
0.0
 10
81.49064153211164
 20
-123.1590613580991
 30
0.0
 10
81.49064153211164
 20
-123.1590613580991
 30
0.0
 10
81.49064153211164
 20
-123.1590613580991
 30
0.0
 10
85.3005708793567
 20
-123.1590613580991
 30
0.0
 10
85.3005708793567
 20
-123.1590613580991
 30
0.0
 10
85.3005708793567
 20
-123.1590613580991
 30
0.0
 10
85.3005708793567
 20
-131.3583930227158
 30
0.0
 10
85.3005708793567
 20
-131.3583930227158
 30
0.0
 10
84.74935561564159
 20
-131.5799021893275
 30
0.0
 10
84.29494257167907
 20
-132.1166535780818
 30
0.0
 10
84.29494257167907
 20
-132.7474555223685
 30
0.0
 10
84.29494257167907
 20
-133.5759894110507
 30
0.0
 10
84.9663844989936
 20
-134.2474313553273
 30
0.0
 10
85.79491836674484
 20
-134.2474313553273
 30
0.0
 10
86.62348751227294
 20
-134.2474313553273
 30
0.0
 10
87.29492943958748
 20
-133.5759894110507
 30
0.0
 10
87.29492943958748
 20
-132.7474555223685
 30
0.0
 10
87.29492943958748
 20
-132.1363033002994
 30
0.0
 10
86.84326806222143
 20
-131.6219533004278
 30
0.0
 10
86.31893446448719
 20
-131.388026356042
 30
0.0
  0
SPLINE
  5
5A
330
1F
100
AcDbEntity
  8
_U+30EC_U+30A4_U+30E4_U+30FC 1
 62
     7
420
 16777215
370
    25
100
AcDbSpline
210
0.0
220
0.0
230
1.0
 70
    11
 71
     3
 72
    89
 73
    85
 74
     0
 42
0.0000000001
 43
0.0000000001
 12
1.0
 22
0.0
 32
0.0
 13
1.0
 23
0.0
 33
0.0
 40
0.0
 40
0.0
 40
0.0
 40
0.0
 40
1.0
 40
1.0
 40
1.0
 40
2.0
 40
2.0
 40
2.0
 40
3.0
 40
3.0
 40
3.0
 40
4.0
 40
4.0
 40
4.0
 40
5.0
 40
5.0
 40
5.0
 40
6.0
 40
6.0
 40
6.0
 40
7.0
 40
7.0
 40
7.0
 40
8.0
 40
8.0
 40
8.0
 40
9.0
 40
9.0
 40
9.0
 40
10.0
 40
10.0
 40
10.0
 40
11.0
 40
11.0
 40
11.0
 40
12.0
 40
12.0
 40
12.0
 40
13.0
 40
13.0
 40
13.0
 40
14.0
 40
14.0
 40
14.0
 40
15.0
 40
15.0
 40
15.0
 40
16.0
 40
16.0
 40
16.0
 40
17.0
 40
17.0
 40
17.0
 40
18.0
 40
18.0
 40
18.0
 40
19.0
 40
19.0
 40
19.0
 40
20.0
 40
20.0
 40
20.0
 40
21.0
 40
21.0
 40
21.0
 40
22.0
 40
22.0
 40
22.0
 40
23.0
 40
23.0
 40
23.0
 40
24.0
 40
24.0
 40
24.0
 40
25.0
 40
25.0
 40
25.0
 40
26.0
 40
26.0
 40
26.0
 40
27.0
 40
27.0
 40
27.0
 40
28.0
 40
28.0
 40
28.0
 40
28.0
 10
83.74577341902288
 20
-131.0848491338957
 30
0.0
 10
83.74577341902288
 20
-131.0848491338957
 30
0.0
 10
83.48291870350664
 20
-130.7927138561908
 30
0.0
 10
83.48291870350664
 20
-130.7927138561908
 30
0.0
 10
83.24073886807858
 20
-130.5429471895864
 30
0.0
 10
83.26553704238584
 20
-130.5126083007053
 30
0.0
 10
83.44986342657218
 20
-130.3627483007425
 30
0.0
 10
83.58490675646026
 20
-130.2528580229923
 30
0.0
 10
83.9025499790243
 20
-130.0668383008167
 30
0.0
 10
84.04104841148978
 20
-130.1584546896828
 30
0.0
 10
84.04104841148978
 20
-130.1584546896828
 30
0.0
 10
85.12897977262324
 20
-131.2402124671901
 30
0.0
 10
85.12897977262324
 20
-131.2402124671901
 30
0.0
 10
84.57159089795452
 20
-131.5158377448991
 30
0.0
 10
84.11474368738745
 20
-132.0897719114221
 30
0.0
 10
84.11474368738745
 20
-132.7536644112562
 30
0.0
 10
84.11474368738745
 20
-133.1277852444959
 30
0.0
 10
84.23638146206198
 20
-133.4733310777426
 30
0.0
 10
84.44240367902813
 20
-133.7530838554503
 30
0.0
 10
84.44240367902813
 20
-133.7530838554503
 30
0.0
 10
82.60856109045903
 20
-136.2411196881617
 30
0.0
 10
82.60856109045903
 20
-136.2411196881617
 30
0.0
 10
83.3874944235975
 20
-136.2411196881617
 30
0.0
 10
84.49542617767543
 20
-136.2404494103844
 30
0.0
 10
85.78976781132069
 20
-136.2397438548288
 30
0.0
 10
87.08442694495784
 20
-136.2404494103844
 30
0.0
 10
88.19236080558099
 20
-136.2411196881617
 30
0.0
 10
88.97129411904207
 20
-136.2411196881617
 30
0.0
 10
88.97129411904207
 20
-136.2411196881617
 30
0.0
 10
87.13748472138201
 20
-133.7530838554503
 30
0.0
 10
87.13748472138201
 20
-133.7530838554503
 30
0.0
 10
87.34350693834816
 20
-133.4733310777426
 30
0.0
 10
87.46510943524582
 20
-133.1277852444959
 30
0.0
 10
87.46510943524582
 20
-132.7536644112562
 30
0.0
 10
87.46510943524582
 20
-132.0897719114221
 30
0.0
 10
86.97831139210952
 20
-131.5151321893436
 30
0.0
 10
86.42056973967203
 20
-131.2395421894121
 30
0.0
 10
86.42056973967203
 20
-131.2395421894121
 30
0.0
 10
87.50818360081358
 20
-130.1577844119048
 30
0.0
 10
87.50818360081358
 20
-130.1577844119048
 30
0.0
 10
87.64668415283569
 20
-130.0657799674834
 30
0.0
 10
87.96432525584311
 20
-130.2521877452149
 30
0.0
 10
88.09936858573118
 20
-130.3617252451874
 30
0.0
 10
88.28365969214065
 20
-130.5115852451502
 30
0.0
 10
88.30845996928572
 20
-130.5415713562535
 30
0.0
 10
88.06627803101985
 20
-130.7916555228575
 30
0.0
 10
88.06627803101985
 20
-130.7916555228575
 30
0.0
 10
87.80342331550361
 20
-131.08382607834
 30
0.0
 10
87.80342331550361
 20
-131.08382607834
 30
0.0
 10
88.1778969170611
 20
-131.5378863560047
 30
0.0
 10
88.40251052244184
 20
-132.1194052447476
 30
0.0
 10
88.40251052244184
 20
-132.7539819112558
 30
0.0
 10
88.40251052244184
 20
-133.1185071889428
 30
0.0
 10
88.32810969100663
 20
-133.4657463555227
 30
0.0
 10
88.19373886684032
 20
-133.7813413554437
 30
0.0
 10
88.19373886684032
 20
-133.7813413554437
 30
0.0
 10
90.15987297760779
 20
-136.2349107992747
 30
0.0
 10
90.15987297760779
 20
-136.2349107992747
 30
0.0
 10
90.15987297760779
 20
-136.2349107992747
 30
0.0
 10
96.80511253029583
 20
-136.2362866326076
 30
0.0
 10
96.80511253029583
 20
-136.2362866326076
 30
0.0
 10
96.80511253029583
 20
-136.2362866326076
 30
0.0
 10
96.80511253029583
 20
-137.1857527434812
 30
0.0
 10
96.80511253029583
 20
-137.1857527434812
 30
0.0
 10
96.80511253029583
 20
-137.1857527434812
 30
0.0
 10
85.78976781132069
 20
-137.1857527434812
 30
0.0
 10
85.78976781132069
 20
-137.1857527434812
 30
0.0
 10
85.78976781132069
 20
-137.1857527434812
 30
0.0
 10
74.80059920278885
 20
-137.1857527434812
 30
0.0
 10
74.80059920278885
 20
-137.1857527434812
 30
0.0
 10
74.80059920278885
 20
-137.1857527434812
 30
0.0
 10
74.80059920278885
 20
-136.2362866326076
 30
0.0
 10
74.80059920278885
 20
-136.2362866326076
 30
0.0
 10
74.80059920278885
 20
-136.2362866326076
 30
0.0
 10
81.42001542280235
 20
-136.2349107992747
 30
0.0
 10
81.42001542280235
 20
-136.2349107992747
 30
0.0
 10
81.42001542280235
 20
-136.2349107992747
 30
0.0
 10
83.38576370598527
 20
-133.7813413554437
 30
0.0
 10
83.38576370598527
 20
-133.7813413554437
 30
0.0
 10
83.25142593163473
 20
-133.4657463555227
 30
0.0
 10
83.17734260019142
 20
-133.1185071889428
 30
0.0
 10
83.17734260019142
 20
-132.7539819112558
 30
0.0
 10
83.17734260019142
 20
-132.1194052447476
 30
0.0
 10
83.37129981746538
 20
-131.5385566337821
 30
0.0
 10
83.74577341902288
 20
-131.0848491338957
 30
0.0
  0
SPLINE
  5
5B
330
1F
100
AcDbEntity
  8
_U+30EC_U+30A4_U+30E4_U+30FC 1
 62
     7
420
 16777215
370
     9
100
AcDbSpline
210
0.0
220
0.0
230
1.0
 70
    11
 71
     3
 72
    17
 73
    13
 74
     0
 42
0.0000000001
 43
0.0000000001
 12
1.0
 22
0.0
 32
0.0
 13
1.0
 23
0.0
 33
0.0
 40
0.0
 40
0.0
 40
0.0
 40
0.0
 40
1.0
 40
1.0
 40
1.0
 40
2.0
 40
2.0
 40
2.0
 40
3.0
 40
3.0
 40
3.0
 40
4.0
 40
4.0
 40
4.0
 40
4.0
 10
105.2883242583155
 20
-136.2025257992827
 30
0.0
 10
105.2883242583155
 20
-136.1474219104078
 30
0.0
 10
105.2435214816807
 20
-136.1026191326411
 30
0.0
 10
105.1884175941977
 20
-136.1026191326411
 30
0.0
 10
105.1332784289377
 20
-136.1026191326411
 30
0.0
 10
105.0885109300798
 20
-136.1474219104078
 30
0.0
 10
105.0885109300798
 20
-136.2025257992827
 30
0.0
 10
105.0885109300798
 20
-136.2583352437132
 30
0.0
 10
105.1332784289377
 20
-136.3031380214799
 30
0.0
 10
105.1884175941977
 20
-136.3031380214799
 30
0.0
 10
105.2435214816807
 20
-136.3031380214799
 30
0.0
 10
105.2883242583155
 20
-136.2583352437132
 30
0.0
 10
105.2883242583155
 20
-136.2025257992827
 30
0.0
  0
POLYLINE
  5
5C
330
1F
100
AcDbEntity
  8
_U+30EC_U+30A4_U+30E4_U+30FC 1
 62
     7
420
 16777215
370
     9
100
AcDb2dPolyline
 66
     1
 10
0.0
 20
0.0
 30
0.0
  0
VERTEX
  5
5D
330
5C
100
AcDbEntity
  8
_U+30EC_U+30A4_U+30E4_U+30FC 1
 62
     7
420
 16777215
370
     9
100
AcDbVertex
100
AcDb2dVertex
 10
105.1884175941977
 20
-140.5692091315246
 30
0.0
  0
VERTEX
  5
5E
330
5C
100
AcDbEntity
  8
_U+30EC_U+30A4_U+30E4_U+30FC 1
 62
     7
420
 16777215
370
     9
100
AcDbVertex
100
AcDb2dVertex
 10
105.1884175941977
 20
-123.5828180246599
 30
0.0
  0
SEQEND
  5
5F
330
5C
100
AcDbEntity
  8
_U+30EC_U+30A4_U+30E4_U+30FC 1
 62
     7
420
 16777215
370
     9
  0
POLYLINE
  5
60
330
1F
100
AcDbEntity
  8
_U+30EC_U+30A4_U+30E4_U+30FC 1
 62
     7
420
 16777215
370
     9
100
AcDb2dPolyline
 66
     1
 10
0.0
 20
0.0
 30
0.0
  0
VERTEX
  5
61
330
60
100
AcDbEntity
  8
_U+30EC_U+30A4_U+30E4_U+30FC 1
 62
     7
420
 16777215
370
     9
100
AcDbVertex
100
AcDb2dVertex
 10
98.85803220014371
 20
-136.2025257992827
 30
0.0
  0
VERTEX
  5
62
330
60
100
AcDbEntity
  8
_U+30EC_U+30A4_U+30E4_U+30FC 1
 62
     7
420
 16777215
370
     9
100
AcDbVertex
100
AcDb2dVertex
 10
106.6601711677612
 20
-136.2025257992827
 30
0.0
  0
SEQEND
  5
63
330
60
100
AcDbEntity
  8
_U+30EC_U+30A4_U+30E4_U+30FC 1
 62
     7
420
 16777215
370
     9
  0
SPLINE
  5
64
330
1F
100
AcDbEntity
  8
_U+30EC_U+30A4_U+30E4_U+30FC 1
 62
     7
420
 16777215
370
     9
100
AcDbSpline
210
0.0
220
0.0
230
1.0
 70
    11
 71
     3
 72
    17
 73
    13
 74
     0
 42
0.0000000001
 43
0.0000000001
 12
1.0
 22
0.0
 32
0.0
 13
1.0
 23
0.0
 33
0.0
 40
0.0
 40
0.0
 40
0.0
 40
0.0
 40
1.0
 40
1.0
 40
1.0
 40
2.0
 40
2.0
 40
2.0
 40
3.0
 40
3.0
 40
3.0
 40
4.0
 40
4.0
 40
4.0
 40
4.0
 10
105.2883242583155
 20
-137.1678669101524
 30
0.0
 10
105.2883242583155
 20
-137.1127277434993
 30
0.0
 10
105.2435214816807
 20
-137.0679602435108
 30
0.0
 10
105.1884175941977
 20
-137.0679602435108
 30
0.0
 10
105.1332784289377
 20
-137.0679602435108
 30
0.0
 10
105.0885109300798
 20
-137.1127277434993
 30
0.0
 10
105.0885109300798
 20
-137.1678669101524
 30
0.0
 10
105.0885109300798
 20
-137.2236763545829
 30
0.0
 10
105.1332784289377
 20
-137.2684438545721
 30
0.0
 10
105.1884175941977
 20
-137.2684438545721
 30
0.0
 10
105.2435214816807
 20
-137.2684438545721
 30
0.0
 10
105.2883242583155
 20
-137.2236763545829
 30
0.0
 10
105.2883242583155
 20
-137.1678669101524
 30
0.0
  0
POLYLINE
  5
65
330
1F
100
AcDbEntity
  8
_U+30EC_U+30A4_U+30E4_U+30FC 1
 62
     7
420
 16777215
370
     9
100
AcDb2dPolyline
 66
     1
 10
0.0
 20
0.0
 30
0.0
  0
VERTEX
  5
66
330
65
100
AcDbEntity
  8
_U+30EC_U+30A4_U+30E4_U+30FC 1
 62
     7
420
 16777215
370
     9
100
AcDbVertex
100
AcDb2dVertex
 10
98.85803220014371
 20
-137.1678669101524
 30
0.0
  0
VERTEX
  5
67
330
65
100
AcDbEntity
  8
_U+30EC_U+30A4_U+30E4_U+30FC 1
 62
     7
420
 16777215
370
     9
100
AcDbVertex
100
AcDb2dVertex
 10
106.6601711677612
 20
-137.1678669101524
 30
0.0
  0
SEQEND
  5
68
330
65
100
AcDbEntity
  8
_U+30EC_U+30A4_U+30E4_U+30FC 1
 62
     7
420
 16777215
370
     9
  0
SPLINE
  5
69
330
1F
100
AcDbEntity
  8
_U+30EC_U+30A4_U+30E4_U+30FC 1
 62
     7
420
 16777215
370
     9
100
AcDbSpline
210
0.0
220
0.0
230
1.0
 70
    11
 71
     3
 72
    17
 73
    13
 74
     0
 42
0.0000000001
 43
0.0000000001
 12
1.0
 22
0.0
 32
0.0
 13
1.0
 23
0.0
 33
0.0
 40
0.0
 40
0.0
 40
0.0
 40
0.0
 40
1.0
 40
1.0
 40
1.0
 40
2.0
 40
2.0
 40
2.0
 40
3.0
 40
3.0
 40
3.0
 40
4.0
 40
4.0
 40
4.0
 40
4.0
 10
105.2883242583155
 20
-123.6827246913016
 30
0.0
 10
105.2883242583155
 20
-123.6275855246488
 30
0.0
 10
105.2435214816807
 20
-123.5828180246599
 30
0.0
 10
105.1884175941977
 20
-123.5828180246599
 30
0.0
 10
105.1332784289377
 20
-123.5828180246599
 30
0.0
 10
105.0885109300798
 20
-123.6275855246488
 30
0.0
 10
105.0885109300798
 20
-123.6827246913016
 30
0.0
 10
105.0885109300798
 20
-123.738534135732
 30
0.0
 10
105.1332784289377
 20
-123.7833016357209
 30
0.0
 10
105.1884175941977
 20
-123.7833016357209
 30
0.0
 10
105.2435214816807
 20
-123.7833016357209
 30
0.0
 10
105.2883242583155
 20
-123.738534135732
 30
0.0
 10
105.2883242583155
 20
-123.6827246913016
 30
0.0
  0
POLYLINE
  5
6A
330
1F
100
AcDbEntity
  8
_U+30EC_U+30A4_U+30E4_U+30FC 1
 62
     7
420
 16777215
370
     9
100
AcDb2dPolyline
 66
     1
 10
0.0
 20
0.0
 30
0.0
  0
VERTEX
  5
6B
330
6A
100
AcDbEntity
  8
_U+30EC_U+30A4_U+30E4_U+30FC 1
 62
     7
420
 16777215
370
     9
100
AcDbVertex
100
AcDb2dVertex
 10
94.2722739838028
 20
-123.6827246913016
 30
0.0
  0
VERTEX
  5
6C
330
6A
100
AcDbEntity
  8
_U+30EC_U+30A4_U+30E4_U+30FC 1
 62
     7
420
 16777215
370
     9
100
AcDbVertex
100
AcDb2dVertex
 10
106.5933197805779
 20
-123.6827246913016
 30
0.0
  0
SEQEND
  5
6D
330
6A
100
AcDbEntity
  8
_U+30EC_U+30A4_U+30E4_U+30FC 1
 62
     7
420
 16777215
370
     9
  0
POLYLINE
  5
6E
330
1F
100
AcDbEntity
  8
_U+30EC_U+30A4_U+30E4_U+30FC 1
 62
     7
420
 16777215
370
     9
100
AcDb2dPolyline
 66
     1
 10
0.0
 20
0.0
 30
0.0
  0
VERTEX
  5
6F
330
6E
100
AcDbEntity
  8
_U+30EC_U+30A4_U+30E4_U+30FC 1
 62
     7
420
 16777215
370
     9
100
AcDbVertex
100
AcDb2dVertex
 10
105.1884175941977
 20
-123.6458594135329
 30
0.0
  0
VERTEX
  5
70
330
6E
100
AcDbEntity
  8
_U+30EC_U+30A4_U+30E4_U+30FC 1
 62
     7
420
 16777215
370
     9
100
AcDbVertex
100
AcDb2dVertex
 10
105.1884175941977
 20
-117.2297135818036
 30
0.0
  0
SEQEND
  5
71
330
6E
100
AcDbEntity
  8
_U+30EC_U+30A4_U+30E4_U+30FC 1
 62
     7
420
 16777215
370
     9
  0
SPLINE
  5
72
330
1F
100
AcDbEntity
  8
_U+30EC_U+30A4_U+30E4_U+30FC 1
 62
     7
420
 16777215
370
     9
100
AcDbSpline
210
0.0
220
0.0
230
1.0
 70
    11
 71
     3
 72
    17
 73
    13
 74
     0
 42
0.0000000001
 43
0.0000000001
 12
1.0
 22
0.0
 32
0.0
 13
1.0
 23
0.0
 33
0.0
 40
0.0
 40
0.0
 40
0.0
 40
0.0
 40
1.0
 40
1.0
 40
1.0
 40
2.0
 40
2.0
 40
2.0
 40
3.0
 40
3.0
 40
3.0
 40
4.0
 40
4.0
 40
4.0
 40
4.0
 10
105.2883242583155
 20
-122.1613705250152
 30
0.0
 10
105.2883242583155
 20
-122.1062313583625
 30
0.0
 10
105.2435214816807
 20
-122.0614638583736
 30
0.0
 10
105.1884175941977
 20
-122.0614638583736
 30
0.0
 10
105.1332784289377
 20
-122.0614638583736
 30
0.0
 10
105.0885109300798
 20
-122.1062313583625
 30
0.0
 10
105.0885109300798
 20
-122.1613705250152
 30
0.0
 10
105.0885109300798
 20
-122.2171799694457
 30
0.0
 10
105.1332784289377
 20
-122.2619474694346
 30
0.0
 10
105.1884175941977
 20
-122.2619474694346
 30
0.0
 10
105.2435214816807
 20
-122.2619474694346
 30
0.0
 10
105.2883242583155
 20
-122.2171799694457
 30
0.0
 10
105.2883242583155
 20
-122.1613705250152
 30
0.0
  0
POLYLINE
  5
73
330
1F
100
AcDbEntity
  8
_U+30EC_U+30A4_U+30E4_U+30FC 1
 62
     7
420
 16777215
370
     9
100
AcDb2dPolyline
 66
     1
 10
0.0
 20
0.0
 30
0.0
  0
VERTEX
  5
74
330
73
100
AcDbEntity
  8
_U+30EC_U+30A4_U+30E4_U+30FC 1
 62
     7
420
 16777215
370
     9
100
AcDbVertex
100
AcDb2dVertex
 10
94.2722739838028
 20
-122.1613705250152
 30
0.0
  0
VERTEX
  5
75
330
73
100
AcDbEntity
  8
_U+30EC_U+30A4_U+30E4_U+30FC 1
 62
     7
420
 16777215
370
     9
100
AcDbVertex
100
AcDb2dVertex
 10
106.5933197805779
 20
-122.1613705250152
 30
0.0
  0
SEQEND
  5
76
330
73
100
AcDbEntity
  8
_U+30EC_U+30A4_U+30E4_U+30FC 1
 62
     7
420
 16777215
370
     9
  0
INSERT
  5
78
330
1F
100
AcDbEntity
  8
_U+30EC_U+30A4_U+30E4_U+30FC 1
100
AcDbBlockReference
  2
block 3
 10
0.0
 20
0.0
 30
0.0
  0
INSERT
  5
8A
330
1F
100
AcDbEntity
  8
_U+30EC_U+30A4_U+30E4_U+30FC 1
100
AcDbBlockReference
  2
block 4
 10
0.0
 20
0.0
 30
0.0
  0
INSERT
  5
9A
330
1F
100
AcDbEntity
  8
_U+30EC_U+30A4_U+30E4_U+30FC 1
100
AcDbBlockReference
  2
block 5
 10
0.0
 20
0.0
 30
0.0
  0
ENDSEC
  0
SECTION
  2
OBJECTS
  0
DICTIONARY
  5
C
330
0
100
AcDbDictionary
281
     1
  3
ACAD_GROUP
350
D
  3
ACAD_LAYOUT
350
1A
  3
ACAD_MATERIAL
350
3B
  3
ACAD_MLEADERSTYLE
350
A0
  3
ACAD_MLINESTYLE
350
17
  3
ACAD_PLOTSETTINGS
350
19
  3
ACAD_PLOTSTYLENAME
350
E
  3
ACAD_TABLESTYLE
350
9F
  3
ACAD_VISUALSTYLE
350
2A
  0
SUN
  5
3F
330
29
100
AcDbSun
 90
        1
290
     0
 63
     7
421
 16777215
 40
1.0
291
     1
 91
  2455826
 92
 54000000
292
     0
 70
     2
 71
   256
280
     1
  0
DICTIONARY
  5
D
102
{ACAD_REACTORS
330
C
102
}
330
C
100
AcDbDictionary
281
     1
  0
DICTIONARY
  5
1A
102
{ACAD_REACTORS
330
C
102
}
330
C
100
AcDbDictionary
281
     1
  3
Layout1
350
1E
  3
Layout2
350
26
  3
Model
350
22
  0
DICTIONARY
  5
3B
102
{ACAD_REACTORS
330
C
102
}
330
C
100
AcDbDictionary
281
     1
  3
ByBlock
350
3D
  3
ByLayer
350
3C
  3
Global
350
3E
  0
DICTIONARY
  5
A0
102
{ACAD_REACTORS
330
C
102
}
330
C
100
AcDbDictionary
281
     1
  0
DICTIONARY
  5
17
102
{ACAD_REACTORS
330
C
102
}
330
C
100
AcDbDictionary
281
     1
  3
Standard
350
18
  0
DICTIONARY
  5
19
102
{ACAD_REACTORS
330
C
102
}
330
C
100
AcDbDictionary
281
     1
  0
ACDBDICTIONARYWDFLT
  5
E
102
{ACAD_REACTORS
330
C
102
}
330
C
100
AcDbDictionary
281
     1
  3
Normal
350
F
100
AcDbDictionaryWithDefault
340
F
  0
DICTIONARY
  5
9F
102
{ACAD_REACTORS
330
C
102
}
330
C
100
AcDbDictionary
281
     1
  0
DICTIONARY
  5
2A
102
{ACAD_REACTORS
330
C
102
}
330
C
100
AcDbDictionary
281
     1
  3
2dWireframe
350
2F
  3
3D Hidden
350
31
  3
3dWireframe
350
30
  3
Basic
350
32
  3
Brighten
350
36
  3
ColorChange
350
3A
  3
Conceptual
350
34
  3
Dim
350
35
  3
Facepattern
350
39
  3
Flat
350
2B
  3
FlatWithEdges
350
2C
  3
Gouraud
350
2D
  3
GouraudWithEdges
350
2E
  3
Linepattern
350
38
  3
Realistic
350
33
  3
Thicken
350
37
  0
LAYOUT
  5
1E
102
{ACAD_REACTORS
330
1A
102
}
330
1A
100
AcDbPlotSettings
  1

  2
none_device
  4

  6

 40
0.0
 41
0.0
 42
0.0
 43
0.0
 44
0.0
 45
0.0
 46
0.0
 47
0.0
 48
0.0
 49
0.0
140
0.0
141
0.0
142
1.0
143
1.0
 70
   688
 72
     0
 73
     0
 74
     5
  7

 75
    16
 76
     0
 77
     2
 78
   300
147
1.0
148
0.0
149
0.0
100
AcDbLayout
  1
Layout1
 70
     1
 71
     1
 10
0.0
 20
0.0
 11
12.0
 21
9.0
 12
0.0
 22
0.0
 32
0.0
 14
1.000000000000000E+20
 24
1.000000000000000E+20
 34
1.000000000000000E+20
 15
-1.000000000000000E+20
 25
-1.000000000000000E+20
 35
-1.000000000000000E+20
146
0.0
 13
0.0
 23
0.0
 33
0.0
 16
1.0
 26
0.0
 36
0.0
 17
0.0
 27
1.0
 37
0.0
 76
     0
330
1B
  0
LAYOUT
  5
26
102
{ACAD_REACTORS
330
1A
102
}
330
1A
100
AcDbPlotSettings
  1

  2
none_device
  4

  6

 40
0.0
 41
0.0
 42
0.0
 43
0.0
 44
0.0
 45
0.0
 46
0.0
 47
0.0
 48
0.0
 49
0.0
140
0.0
141
0.0
142
1.0
143
1.0
 70
   688
 72
     0
 73
     0
 74
     5
  7

 75
    16
 76
     0
 77
     2
 78
   300
147
1.0
148
0.0
149
0.0
100
AcDbLayout
  1
Layout2
 70
     1
 71
     2
 10
0.0
 20
0.0
 11
0.0
 21
0.0
 12
0.0
 22
0.0
 32
0.0
 14
0.0
 24
0.0
 34
0.0
 15
0.0
 25
0.0
 35
0.0
146
0.0
 13
0.0
 23
0.0
 33
0.0
 16
1.0
 26
0.0
 36
0.0
 17
0.0
 27
1.0
 37
0.0
 76
     0
330
23
  0
LAYOUT
  5
22
102
{ACAD_REACTORS
330
1A
102
}
330
1A
100
AcDbPlotSettings
  1

  2
none_device
  4

  6

 40
0.0
 41
0.0
 42
0.0
 43
0.0
 44
0.0
 45
0.0
 46
0.0
 47
0.0
 48
0.0
 49
0.0
140
0.0
141
0.0
142
1.0
143
1.0
 70
  1712
 72
     0
 73
     0
 74
     0
  7

 75
     0
 76
     0
 77
     2
 78
   300
147
1.0
148
0.0
149
0.0
100
AcDbLayout
  1
Model
 70
     1
 71
     0
 10
0.0
 20
0.0
 11
12.0
 21
9.0
 12
0.0
 22
0.0
 32
0.0
 14
1.000000000000000E+20
 24
1.000000000000000E+20
 34
1.000000000000000E+20
 15
-1.000000000000000E+20
 25
-1.000000000000000E+20
 35
-1.000000000000000E+20
146
0.0
 13
0.0
 23
0.0
 33
0.0
 16
1.0
 26
0.0
 36
0.0
 17
0.0
 27
1.0
 37
0.0
 76
     0
330
1F
331
29
  0
MATERIAL
  5
3D
102
{ACAD_REACTORS
330
3B
102
}
330
3B
100
AcDbMaterial
  1
ByBlock
 72
     1
 94
      127
  0
MATERIAL
  5
3C
102
{ACAD_REACTORS
330
3B
102
}
330
3B
100
AcDbMaterial
  1
ByLayer
 72
     1
 94
      127
  0
MATERIAL
  5
3E
102
{ACAD_REACTORS
330
3B
102
}
330
3B
100
AcDbMaterial
  1
Global
 72
     1
 94
      127
  0
MLINESTYLE
  5
18
102
{ACAD_REACTORS
330
17
102
}
330
17
100
AcDbMlineStyle
  2
Standard
 70
     0
  3

 62
   256
 51
90.0
 52
90.0
 71
     2
 49
0.5
 62
   256
  6
BYLAYER
 49
-0.5
 62
   256
  6
BYLAYER
  0
ACDBPLACEHOLDER
  5
F
102
{ACAD_REACTORS
330
E
102
}
330
E
  0
VISUALSTYLE
  5
2F
102
{ACAD_REACTORS
330
2A
102
}
330
2A
100
AcDbVisualStyle
  2
2dWireframe
 70
     4
177
     2
291
     0
 71
     0
176
     1
 72
     2
176
     1
 73
     0
176
     1
 90
        0
176
     1
 40
-0.6
176
     1
 41
-30.0
176
     1
 62
     5
 63
     7
421
 16777215
176
     1
 74
     1
176
     1
 91
        4
176
     1
 64
     7
176
     1
 65
   257
176
     1
 75
     1
176
     1
175
     1
176
     1
 42
1.0
176
     1
 92
        0
176
     1
 66
   257
176
     1
 43
1.0
176
     1
 76
     1
176
     1
 77
     6
176
     1
 78
     2
176
     1
 67
     7
176
     1
 79
     5
176
     1
170
     0
176
     1
171
     0
176
     1
290
     0
176
     1
 93
        1
176
     1
 44
0.0
176
     1
173
     0
176
     1
  0
VISUALSTYLE
  5
31
102
{ACAD_REACTORS
330
2A
102
}
330
2A
100
AcDbVisualStyle
  2
3D Hidden
 70
     6
177
     2
291
     0
 71
     1
176
     1
 72
     2
176
     1
 73
     2
176
     1
 90
        0
176
     1
 40
-0.6
176
     1
 41
-30.0
176
     1
 62
     5
 63
     7
421
 16777215
176
     1
 74
     2
176
     1
 91
        2
176
     1
 64
     7
176
     1
 65
   257
176
     1
 75
     2
176
     1
175
     1
176
     1
 42
40.0
176
     1
 92
        0
176
     1
 66
   257
176
     1
 43
1.0
176
     1
 76
     1
176
     1
 77
     6
176
     1
 78
     2
176
     1
 67
     7
176
     1
 79
     3
176
     1
170
     0
176
     1
171
     0
176
     1
290
     0
176
     1
 93
        1
176
     1
 44
0.0
176
     1
173
     0
176
     1
  0
VISUALSTYLE
  5
30
102
{ACAD_REACTORS
330
2A
102
}
330
2A
100
AcDbVisualStyle
  2
3dWireframe
 70
     5
177
     2
291
     0
 71
     0
176
     1
 72
     2
176
     1
 73
     0
176
     1
 90
        0
176
     1
 40
-0.6
176
     1
 41
-30.0
176
     1
 62
     5
 63
     7
421
 16777215
176
     1
 74
     1
176
     1
 91
        4
176
     1
 64
     7
176
     1
 65
   257
176
     1
 75
     1
176
     1
175
     1
176
     1
 42
1.0
176
     1
 92
        0
176
     1
 66
   257
176
     1
 43
1.0
176
     1
 76
     1
176
     1
 77
     6
176
     1
 78
     2
176
     1
 67
     7
176
     1
 79
     5
176
     1
170
     0
176
     1
171
     0
176
     1
290
     0
176
     1
 93
        1
176
     1
 44
0.0
176
     1
173
     0
176
     1
  0
VISUALSTYLE
  5
32
102
{ACAD_REACTORS
330
2A
102
}
330
2A
100
AcDbVisualStyle
  2
Basic
 70
     7
177
     2
291
     1
 71
     1
176
     1
 72
     0
176
     1
 73
     1
176
     1
 90
        0
176
     1
 40
-0.6
176
     1
 41
-30.0
176
     1
 62
     5
 63
     7
421
 16777215
176
     1
 74
     0
176
     1
 91
        4
176
     1
 64
     7
176
     1
 65
   257
176
     1
 75
     1
176
     1
175
     1
176
     1
 42
1.0
176
     1
 92
        8
176
     1
 66
     7
176
     1
 43
1.0
176
     1
 76
     1
176
     1
 77
     6
176
     1
 78
     2
176
     1
 67
     7
176
     1
 79
     5
176
     1
170
     0
176
     1
171
     0
176
     1
290
     0
176
     1
 93
        1
176
     1
 44
0.0
176
     1
173
     0
176
     1
  0
VISUALSTYLE
  5
36
102
{ACAD_REACTORS
330
2A
102
}
330
2A
100
AcDbVisualStyle
  2
Brighten
 70
    12
177
     2
291
     1
 71
     2
176
     1
 72
     2
176
     1
 73
     0
176
     1
 90
        0
176
     1
 40
-0.6
176
     1
 41
-30.0
176
     1
 62
     5
 63
     7
421
 16777215
176
     1
 74
     1
176
     1
 91
        4
176
     1
 64
     7
176
     1
 65
   257
176
     1
 75
     1
176
     1
175
     1
176
     1
 42
1.0
176
     1
 92
        8
176
     1
 66
     7
176
     1
 43
1.0
176
     1
 76
     1
176
     1
 77
     6
176
     1
 78
     2
176
     1
 67
     7
176
     1
 79
     5
176
     1
170
     0
176
     1
171
     0
176
     1
290
     0
176
     1
 93
        1
176
     1
 44
50.0
176
     1
173
     0
176
     1
  0
VISUALSTYLE
  5
3A
102
{ACAD_REACTORS
330
2A
102
}
330
2A
100
AcDbVisualStyle
  2
ColorChange
 70
    16
177
     2
291
     1
 71
     2
176
     1
 72
     2
176
     1
 73
     3
176
     1
 90
        0
176
     1
 40
-0.6
176
     1
 41
-30.0
176
     1
 62
     5
 63
     8
421
  8421504
176
     1
 74
     1
176
     1
 91
        4
176
     1
 64
     7
176
     1
 65
   257
176
     1
 75
     1
176
     1
175
     1
176
     1
 42
1.0
176
     1
 92
        8
176
     1
 66
     8
424
  8421504
176
     1
 43
1.0
176
     1
 76
     1
176
     1
 77
     6
176
     1
 78
     2
176
     1
 67
     7
176
     1
 79
     5
176
     1
170
     0
176
     1
171
     0
176
     1
290
     0
176
     1
 93
        1
176
     1
 44
0.0
176
     1
173
     0
176
     1
  0
VISUALSTYLE
  5
34
102
{ACAD_REACTORS
330
2A
102
}
330
2A
100
AcDbVisualStyle
  2
Conceptual
 70
     9
177
     2
291
     0
 71
     3
176
     1
 72
     2
176
     1
 73
     0
176
     1
 90
        0
176
     1
 40
-0.6
176
     1
 41
-30.0
176
     1
 62
     5
 63
     7
421
 16777215
176
     1
 74
     2
176
     1
 91
        2
176
     1
 64
     7
176
     1
 65
   257
176
     1
 75
     1
176
     1
175
     1
176
     1
 42
40.0
176
     1
 92
        8
176
     1
 66
     7
176
     1
 43
1.0
176
     1
 76
     1
176
     1
 77
     6
176
     1
 78
     2
176
     1
 67
     7
176
     1
 79
     3
176
     1
170
     0
176
     1
171
     0
176
     1
290
     0
176
     1
 93
        1
176
     1
 44
0.0
176
     1
173
     0
176
     1
  0
VISUALSTYLE
  5
35
102
{ACAD_REACTORS
330
2A
102
}
330
2A
100
AcDbVisualStyle
  2
Dim
 70
    11
177
     2
291
     1
 71
     2
176
     1
 72
     2
176
     1
 73
     0
176
     1
 90
        0
176
     1
 40
-0.6
176
     1
 41
-30.0
176
     1
 62
     5
 63
     7
421
 16777215
176
     1
 74
     1
176
     1
 91
        4
176
     1
 64
     7
176
     1
 65
   257
176
     1
 75
     1
176
     1
175
     1
176
     1
 42
1.0
176
     1
 92
        8
176
     1
 66
     7
176
     1
 43
1.0
176
     1
 76
     1
176
     1
 77
     6
176
     1
 78
     2
176
     1
 67
     7
176
     1
 79
     5
176
     1
170
     0
176
     1
171
     0
176
     1
290
     0
176
     1
 93
        1
176
     1
 44
-50.0
176
     1
173
     0
176
     1
  0
VISUALSTYLE
  5
39
102
{ACAD_REACTORS
330
2A
102
}
330
2A
100
AcDbVisualStyle
  2
Facepattern
 70
    15
177
     2
291
     1
 71
     2
176
     1
 72
     2
176
     1
 73
     0
176
     1
 90
        0
176
     1
 40
-0.6
176
     1
 41
-30.0
176
     1
 62
     5
 63
     7
421
 16777215
176
     1
 74
     1
176
     1
 91
        4
176
     1
 64
     7
176
     1
 65
   257
176
     1
 75
     1
176
     1
175
     1
176
     1
 42
1.0
176
     1
 92
        8
176
     1
 66
     7
176
     1
 43
1.0
176
     1
 76
     1
176
     1
 77
     6
176
     1
 78
     2
176
     1
 67
     7
176
     1
 79
     5
176
     1
170
     0
176
     1
171
     0
176
     1
290
     0
176
     1
 93
        1
176
     1
 44
0.0
176
     1
173
     0
176
     1
  0
VISUALSTYLE
  5
2B
102
{ACAD_REACTORS
330
2A
102
}
330
2A
100
AcDbVisualStyle
  2
Flat
 70
     0
177
     2
291
     1
 71
     2
176
     1
 72
     1
176
     1
 73
     1
176
     1
 90
        2
176
     1
 40
-0.6
176
     1
 41
30.0
176
     1
 62
     5
 63
     7
421
 16777215
176
     1
 74
     0
176
     1
 91
        4
176
     1
 64
     7
176
     1
 65
   257
176
     1
 75
     1
176
     1
175
     1
176
     1
 42
1.0
176
     1
 92
        8
176
     1
 66
     7
176
     1
 43
1.0
176
     1
 76
     1
176
     1
 77
     6
176
     1
 78
     2
176
     1
 67
     7
176
     1
 79
     5
176
     1
170
     0
176
     1
171
     0
176
     1
290
     0
176
     1
 93
       13
176
     1
 44
0.0
176
     1
173
     0
176
     1
  0
VISUALSTYLE
  5
2C
102
{ACAD_REACTORS
330
2A
102
}
330
2A
100
AcDbVisualStyle
  2
FlatWithEdges
 70
     1
177
     2
291
     1
 71
     2
176
     1
 72
     1
176
     1
 73
     1
176
     1
 90
        2
176
     1
 40
-0.6
176
     1
 41
30.0
176
     1
 62
     5
 63
     7
421
 16777215
176
     1
 74
     1
176
     1
 91
        4
176
     1
 64
     7
176
     1
 65
   257
176
     1
 75
     1
176
     1
175
     1
176
     1
 42
1.0
176
     1
 92
        0
176
     1
 66
   257
176
     1
 43
1.0
176
     1
 76
     1
176
     1
 77
     6
176
     1
 78
     2
176
     1
 67
     7
176
     1
 79
     5
176
     1
170
     0
176
     1
171
     0
176
     1
290
     0
176
     1
 93
       13
176
     1
 44
0.0
176
     1
173
     0
176
     1
  0
VISUALSTYLE
  5
2D
102
{ACAD_REACTORS
330
2A
102
}
330
2A
100
AcDbVisualStyle
  2
Gouraud
 70
     2
177
     2
291
     1
 71
     2
176
     1
 72
     2
176
     1
 73
     1
176
     1
 90
        2
176
     1
 40
-0.6
176
     1
 41
30.0
176
     1
 62
     5
 63
     7
421
 16777215
176
     1
 74
     0
176
     1
 91
        4
176
     1
 64
     7
176
     1
 65
   257
176
     1
 75
     1
176
     1
175
     1
176
     1
 42
1.0
176
     1
 92
        0
176
     1
 66
     7
176
     1
 43
1.0
176
     1
 76
     1
176
     1
 77
     6
176
     1
 78
     2
176
     1
 67
     7
176
     1
 79
     5
176
     1
170
     0
176
     1
171
     0
176
     1
290
     0
176
     1
 93
       13
176
     1
 44
0.0
176
     1
173
     0
176
     1
  0
VISUALSTYLE
  5
2E
102
{ACAD_REACTORS
330
2A
102
}
330
2A
100
AcDbVisualStyle
  2
GouraudWithEdges
 70
     3
177
     2
291
     1
 71
     2
176
     1
 72
     2
176
     1
 73
     1
176
     1
 90
        2
176
     1
 40
-0.6
176
     1
 41
30.0
176
     1
 62
     5
 63
     7
421
 16777215
176
     1
 74
     1
176
     1
 91
        4
176
     1
 64
     7
176
     1
 65
   257
176
     1
 75
     1
176
     1
175
     1
176
     1
 42
1.0
176
     1
 92
        0
176
     1
 66
   257
176
     1
 43
1.0
176
     1
 76
     1
176
     1
 77
     6
176
     1
 78
     2
176
     1
 67
     7
176
     1
 79
     5
176
     1
170
     0
176
     1
171
     0
176
     1
290
     0
176
     1
 93
       13
176
     1
 44
0.0
176
     1
173
     0
176
     1
  0
VISUALSTYLE
  5
38
102
{ACAD_REACTORS
330
2A
102
}
330
2A
100
AcDbVisualStyle
  2
Linepattern
 70
    14
177
     2
291
     1
 71
     2
176
     1
 72
     2
176
     1
 73
     0
176
     1
 90
        0
176
     1
 40
-0.6
176
     1
 41
-30.0
176
     1
 62
     5
 63
     7
421
 16777215
176
     1
 74
     1
176
     1
 91
        4
176
     1
 64
     7
176
     1
 65
   257
176
     1
 75
     7
176
     1
175
     7
176
     1
 42
1.0
176
     1
 92
        8
176
     1
 66
     7
176
     1
 43
1.0
176
     1
 76
     1
176
     1
 77
     6
176
     1
 78
     2
176
     1
 67
     7
176
     1
 79
     5
176
     1
170
     0
176
     1
171
     0
176
     1
290
     0
176
     1
 93
        1
176
     1
 44
0.0
176
     1
173
     0
176
     1
  0
VISUALSTYLE
  5
33
102
{ACAD_REACTORS
330
2A
102
}
330
2A
100
AcDbVisualStyle
  2
Realistic
 70
     8
177
     2
291
     0
 71
     2
176
     1
 72
     2
176
     1
 73
     0
176
     1
 90
        0
176
     1
 40
-0.6
176
     1
 41
-30.0
176
     1
 62
     5
 63
     7
421
 16777215
176
     1
 74
     1
176
     1
 91
        0
176
     1
 64
     7
176
     1
 65
   257
176
     1
 75
     1
176
     1
175
     1
176
     1
 42
1.0
176
     1
 92
        8
176
     1
 66
     8
424
  7895160
176
     1
 43
1.0
176
     1
 76
     1
176
     1
 77
     6
176
     1
 78
     2
176
     1
 67
     7
176
     1
 79
     5
176
     1
170
     0
176
     1
171
     0
176
     1
290
     0
176
     1
 93
       13
176
     1
 44
0.0
176
     1
173
     0
176
     1
  0
VISUALSTYLE
  5
37
102
{ACAD_REACTORS
330
2A
102
}
330
2A
100
AcDbVisualStyle
  2
Thicken
 70
    13
177
     2
291
     1
 71
     2
176
     1
 72
     2
176
     1
 73
     0
176
     1
 90
        0
176
     1
 40
-0.6
176
     1
 41
-30.0
176
     1
 62
     5
 63
     7
421
 16777215
176
     1
 74
     1
176
     1
 91
        4
176
     1
 64
     7
176
     1
 65
   257
176
     1
 75
     1
176
     1
175
     1
176
     1
 42
1.0
176
     1
 92
       12
176
     1
 66
     7
176
     1
 43
1.0
176
     1
 76
     1
176
     1
 77
     6
176
     1
 78
     2
176
     1
 67
     7
176
     1
 79
     5
176
     1
170
     0
176
     1
171
     0
176
     1
290
     0
176
     1
 93
        1
176
     1
 44
0.0
176
     1
173
     0
176
     1
  0
ENDSEC
  0
EOF
