  0
SECTION
  2
HEADER
  9
$ACADVER
  1
AC1024
  9
$ACADMAINTVER
 70
     6
  9
$DWGCODEPAGE
  3
UNDEFINED
  9
$INSBASE
 10
0.0
 20
0.0
 30
0.0
  9
$EXTMIN
 10
1.000000000000000E+20
 20
1.000000000000000E+20
 30
1.000000000000000E+20
  9
$EXTMAX
 10
-1.000000000000000E+20
 20
-1.000000000000000E+20
 30
-1.000000000000000E+20
  9
$LIMMIN
 10
0.0
 20
0.0
  9
$LIMMAX
 10
12.0
 20
9.0
  9
$ORTHOMODE
 70
     0
  9
$REGENMODE
 70
     1
  9
$FILLMODE
 70
     1
  9
$QTEXTMODE
 70
     0
  9
$MIRRTEXT
 70
     1
  9
$LTSCALE
 40
1.0
  9
$ATTMODE
 70
     1
  9
$TEXTSIZE
 40
0.2
  9
$TRACEWID
 40
0.05
  9
$TEXTSTYLE
  7
Standard
  9
$CLAYER
  8
0
  9
$CELTYPE
  6
ByLayer
  9
$CECOLOR
 62
   256
  9
$CELTSCALE
 40
1.0
  9
$DISPSILH
 70
     0
  9
$DIMSCALE
 40
1.0
  9
$DIMASZ
 40
0.18
  9
$DIMEXO
 40
0.0625
  9
$DIMDLI
 40
0.38
  9
$DIMRND
 40
0.0
  9
$DIMDLE
 40
0.0
  9
$DIMEXE
 40
0.18
  9
$DIMTP
 40
0.0
  9
$DIMTM
 40
0.0
  9
$DIMTXT
 40
0.18
  9
$DIMCEN
 40
0.09
  9
$DIMTSZ
 40
0.0
  9
$DIMTOL
 70
     0
  9
$DIMLIM
 70
     0
  9
$DIMTIH
 70
     1
  9
$DIMTOH
 70
     1
  9
$DIMSE1
 70
     0
  9
$DIMSE2
 70
     0
  9
$DIMTAD
 70
     0
  9
$DIMZIN
 70
     0
  9
$DIMBLK
  1

  9
$DIMASO
 70
     1
  9
$DIMSHO
 70
     1
  9
$DIMPOST
  1

  9
$DIMAPOST
  1

  9
$DIMALT
 70
     0
  9
$DIMALTD
 70
     2
  9
$DIMALTF
 40
25.4
  9
$DIMLFAC
 40
1.0
  9
$DIMTOFL
 70
     0
  9
$DIMTVP
 40
0.0
  9
$DIMTIX
 70
     0
  9
$DIMSOXD
 70
     0
  9
$DIMSAH
 70
     0
  9
$DIMBLK1
  1

  9
$DIMBLK2
  1

  9
$DIMSTYLE
  2
Standard
  9
$DIMCLRD
 70
     0
  9
$DIMCLRE
 70
     0
  9
$DIMCLRT
 70
     0
  9
$DIMTFAC
 40
1.0
  9
$DIMGAP
 40
0.09
  9
$DIMJUST
 70
     0
  9
$DIMSD1
 70
     0
  9
$DIMSD2
 70
     0
  9
$DIMTOLJ
 70
     1
  9
$DIMTZIN
 70
     0
  9
$DIMALTZ
 70
     0
  9
$DIMALTTZ
 70
     0
  9
$DIMUPT
 70
     0
  9
$DIMDEC
 70
     4
  9
$DIMTDEC
 70
     4
  9
$DIMALTU
 70
     2
  9
$DIMALTTD
 70
     2
  9
$DIMTXSTY
  7
Standard
  9
$DIMAUNIT
 70
     0
  9
$DIMADEC
 70
     0
  9
$DIMALTRND
 40
0.0
  9
$DIMAZIN
 70
     0
  9
$DIMDSEP
 70
    46
  9
$DIMATFIT
 70
     3
  9
$DIMFRAC
 70
     0
  9
$DIMLDRBLK
  1

  9
$DIMLUNIT
 70
     2
  9
$DIMLWD
 70
    -2
  9
$DIMLWE
 70
    -2
  9
$DIMTMOVE
 70
     0
  9
$DIMFXL
 40
1.0
  9
$DIMFXLON
 70
     0
  9
$DIMJOGANG
 40
0.7853981633974483
  9
$DIMTFILL
 70
     0
  9
$DIMTFILLCLR
 70
     0
  9
$DIMARCSYM
 70
     0
  9
$DIMLTYPE
  6

  9
$DIMLTEX1
  6

  9
$DIMLTEX2
  6

  9
$DIMTXTDIRECTION
 70
     0
  9
$LUNITS
 70
     2
  9
$LUPREC
 70
     4
  9
$SKETCHINC
 40
0.1
  9
$FILLETRAD
 40
0.5
  9
$AUNITS
 70
     0
  9
$AUPREC
 70
     0
  9
$MENU
  1
.
  9
$ELEVATION
 40
0.0
  9
$PELEVATION
 40
0.0
  9
$THICKNESS
 40
0.0
  9
$LIMCHECK
 70
     0
  9
$CHAMFERA
 40
0.5
  9
$CHAMFERB
 40
0.5
  9
$CHAMFERC
 40
1.0
  9
$CHAMFERD
 40
0.0
  9
$SKPOLY
 70
     0
  9
$TDCREATE
 40
2457917.622141204
  9
$TDUCREATE
 40
2457917.247141204
  9
$TDUPDATE
 40
2457917.622141204
  9
$TDUUPDATE
 40
2457917.247141204
  9
$TDINDWG
 40
0.0000000116
  9
$TDUSRTIMER
 40
0.0000000116
  9
$USRTIMER
 70
     1
  9
$ANGBASE
 50
0.0
  9
$ANGDIR
 70
     0
  9
$PDMODE
 70
     0
  9
$PDSIZE
 40
0.0
  9
$PLINEWID
 40
0.0
  9
$SPLFRAME
 70
     0
  9
$SPLINETYPE
 70
     6
  9
$SPLINESEGS
 70
     8
  9
$HANDSEED
  5
A0
  9
$SURFTAB1
 70
     6
  9
$SURFTAB2
 70
     6
  9
$SURFTYPE
 70
     6
  9
$SURFU
 70
     6
  9
$SURFV
 70
     6
  9
$UCSBASE
  2

  9
$UCSNAME
  2

  9
$UCSORG
 10
0.0
 20
0.0
 30
0.0
  9
$UCSXDIR
 10
1.0
 20
0.0
 30
0.0
  9
$UCSYDIR
 10
0.0
 20
1.0
 30
0.0
  9
$UCSORTHOREF
  2

  9
$UCSORTHOVIEW
 70
     0
  9
$UCSORGTOP
 10
0.0
 20
0.0
 30
0.0
  9
$UCSORGBOTTOM
 10
0.0
 20
0.0
 30
0.0
  9
$UCSORGLEFT
 10
0.0
 20
0.0
 30
0.0
  9
$UCSORGRIGHT
 10
0.0
 20
0.0
 30
0.0
  9
$UCSORGFRONT
 10
0.0
 20
0.0
 30
0.0
  9
$UCSORGBACK
 10
0.0
 20
0.0
 30
0.0
  9
$PUCSBASE
  2

  9
$PUCSNAME
  2

  9
$PUCSORG
 10
0.0
 20
0.0
 30
0.0
  9
$PUCSXDIR
 10
1.0
 20
0.0
 30
0.0
  9
$PUCSYDIR
 10
0.0
 20
1.0
 30
0.0
  9
$PUCSORTHOREF
  2

  9
$PUCSORTHOVIEW
 70
     0
  9
$PUCSORGTOP
 10
0.0
 20
0.0
 30
0.0
  9
$PUCSORGBOTTOM
 10
0.0
 20
0.0
 30
0.0
  9
$PUCSORGLEFT
 10
0.0
 20
0.0
 30
0.0
  9
$PUCSORGRIGHT
 10
0.0
 20
0.0
 30
0.0
  9
$PUCSORGFRONT
 10
0.0
 20
0.0
 30
0.0
  9
$PUCSORGBACK
 10
0.0
 20
0.0
 30
0.0
  9
$USERI1
 70
     0
  9
$USERI2
 70
     0
  9
$USERI3
 70
     0
  9
$USERI4
 70
     0
  9
$USERI5
 70
     0
  9
$USERR1
 40
0.0
  9
$USERR2
 40
0.0
  9
$USERR3
 40
0.0
  9
$USERR4
 40
0.0
  9
$USERR5
 40
0.0
  9
$WORLDVIEW
 70
     1
  9
$SHADEDGE
 70
     3
  9
$SHADEDIF
 70
    70
  9
$TILEMODE
 70
     1
  9
$MAXACTVP
 70
    64
  9
$PINSBASE
 10
0.0
 20
0.0
 30
0.0
  9
$PLIMCHECK
 70
     0
  9
$PEXTMIN
 10
1.000000000000000E+20
 20
1.000000000000000E+20
 30
1.000000000000000E+20
  9
$PEXTMAX
 10
-1.000000000000000E+20
 20
-1.000000000000000E+20
 30
-1.000000000000000E+20
  9
$PLIMMIN
 10
0.0
 20
0.0
  9
$PLIMMAX
 10
12.0
 20
9.0
  9
$UNITMODE
 70
     0
  9
$VISRETAIN
 70
     1
  9
$PLINEGEN
 70
     0
  9
$PSLTSCALE
 70
     1
  9
$TREEDEPTH
 70
  3020
  9
$CMLSTYLE
  2
Standard
  9
$CMLJUST
 70
     0
  9
$CMLSCALE
 40
1.0
  9
$PROXYGRAPHICS
 70
     1
  9
$MEASUREMENT
 70
     0
  9
$CELWEIGHT
370
    -1
  9
$ENDCAPS
280
     0
  9
$JOINSTYLE
280
     0
  9
$LWDISPLAY
290
     1
  9
$INSUNITS
 70
     1
  9
$HYPERLINKBASE
  1

  9
$STYLESHEET
  1

  9
$XEDIT
290
     1
  9
$CEPSNTYPE
380
     0
  9
$PSTYLEMODE
290
     1
  9
$FINGERPRINTGUID
  2
{83D995C3-B54F-AD8B-CF6A-79FC547F0AED}
  9
$VERSIONGUID
  2
{FAEB1C32-E019-11D5-929B-00C0DF256EC4}
  9
$EXTNAMES
290
     1
  9
$PSVPSCALE
 40
0.0
  9
$OLESTARTUP
290
     0
  9
$SORTENTS
280
   127
  9
$INDEXCTL
280
     0
  9
$HIDETEXT
280
     1
  9
$XCLIPFRAME
280
     2
  9
$HALOGAP
280
     0
  9
$OBSCOLOR
 70
   257
  9
$OBSLTYPE
280
     0
  9
$INTERSECTIONDISPLAY
280
     0
  9
$INTERSECTIONCOLOR
 70
   257
  9
$DIMASSOC
280
     2
  9
$PROJECTNAME
  1

  9
$CAMERADISPLAY
290
     0
  9
$LENSLENGTH
 40
50.0
  9
$CAMERAHEIGHT
 40
0.0
  9
$STEPSPERSEC
 40
2.0
  9
$STEPSIZE
 40
6.0
  9
$3DDWFPREC
 40
2.0
  9
$PSOLWIDTH
 40
0.25
  9
$PSOLHEIGHT
 40
4.0
  9
$LOFTANG1
 40
1.570796326794897
  9
$LOFTANG2
 40
1.570796326794897
  9
$LOFTMAG1
 40
0.0
  9
$LOFTMAG2
 40
0.0
  9
$LOFTPARAM
 70
     7
  9
$LOFTNORMALS
280
     1
  9
$LATITUDE
 40
37.795
  9
$LONGITUDE
 40
-122.394
  9
$NORTHDIRECTION
 40
0.0
  9
$TIMEZONE
 70
 -8000
  9
$LIGHTGLYPHDISPLAY
280
     1
  9
$TILEMODELIGHTSYNCH
280
     1
  9
$CMATERIAL
347
3C
  9
$SOLIDHIST
280
     1
  9
$SHOWHIST
280
     1
  9
$DWFFRAME
280
     2
  9
$DGNFRAME
280
     2
  9
$REALWORLDSCALE
290
     1
  9
$INTERFERECOLOR
 62
   256
  9
$CSHADOW
280
     0
  9
$SHADOWPLANELOCATION
 40
0.0
  0
ENDSEC
  0
SECTION
  2
CLASSES
  0
CLASS
  1
ACDBDICTIONARYWDFLT
  2
AcDbDictionaryWithDefault
  3
ObjectDBX Classes
 90
        0
 91
        4
280
     0
281
     0
  0
CLASS
  1
VISUALSTYLE
  2
AcDbVisualStyle
  3
ObjectDBX Classes
 90
     4095
 91
        4
280
     0
281
     0
  0
CLASS
  1
MATERIAL
  2
AcDbMaterial
  3
ObjectDBX Classes
 90
     1153
 91
        4
280
     0
281
     0
  0
CLASS
  1
SUN
  2
AcDbSun
  3
SCENEOE
 90
     1024
 91
        4
280
     0
281
     0
  0
ENDSEC
  0
SECTION
  2
TABLES
  0
TABLE
  2
VPORT
  5
8
330
0
100
AcDbSymbolTable
 70
     1
  0
VPORT
  5
29
330
8
100
AcDbSymbolTableRecord
100
AcDbViewportTableRecord
  2
*Active
 70
     0
 10
0.0
 20
0.0
 11
1.0
 21
1.0
 12
0.0
 22
0.0
 13
0.0
 23
0.0
 14
0.5
 24
0.5
 15
0.5
 25
0.5
 16
0.0
 26
0.0
 36
1.0
 17
91.00082462281999
 27
-128.4993055234307
 37
0.0
 40
256.9986110468615
 41
0.7081814508812795
 42
50.0
 43
0.0
 44
0.0
 50
0.0
 51
0.0
 71
     0
 72
   100
 73
     1
 74
     3
 75
     0
 76
     0
 77
     0
 78
     0
281
     0
 65
     1
110
0.0
120
0.0
130
0.0
111
1.0
121
0.0
131
0.0
112
0.0
122
1.0
132
0.0
 79
     0
146
0.0
 60
     3
 61
     5
292
     1
282
     1
141
0.0
142
0.0
 63
   250
361
3F
  0
ENDTAB
  0
TABLE
  2
LTYPE
  5
5
330
0
100
AcDbSymbolTable
 70
     1
  0
LTYPE
  5
14
330
5
100
AcDbSymbolTableRecord
100
AcDbLinetypeTableRecord
  2
ByBlock
 70
     0
  3

 72
    65
 73
     0
 40
0.0
  0
LTYPE
  5
15
330
5
100
AcDbSymbolTableRecord
100
AcDbLinetypeTableRecord
  2
ByLayer
 70
     0
  3

 72
    65
 73
     0
 40
0.0
  0
LTYPE
  5
16
330
5
100
AcDbSymbolTableRecord
100
AcDbLinetypeTableRecord
  2
Continuous
 70
     0
  3
Solid line
 72
    65
 73
     0
 40
0.0
  0
ENDTAB
  0
TABLE
  2
LAYER
  5
2
330
0
100
AcDbSymbolTable
 70
     2
  0
LAYER
  5
10
330
2
100
AcDbSymbolTableRecord
100
AcDbLayerTableRecord
  2
0
 70
     0
 62
     7
  6
Continuous
370
    -3
390
F
347
3E
  0
LAYER
  5
40
330
2
100
AcDbSymbolTableRecord
100
AcDbLayerTableRecord
  2
_U+30EC_U+30A4_U+30E4_U+30FC 1
 70
     0
 62
     7
  6
Continuous
370
    -3
390
F
347
3E
  0
ENDTAB
  0
TABLE
  2
STYLE
  5
3
330
0
100
AcDbSymbolTable
 70
     1
  0
STYLE
  5
11
330
3
100
AcDbSymbolTableRecord
100
AcDbTextStyleTableRecord
  2
Standard
 70
     0
 40
0.0
 41
1.0
 50
0.0
 71
     0
 42
0.2
  3
txt
  4

  0
ENDTAB
  0
TABLE
  2
VIEW
  5
6
330
0
100
AcDbSymbolTable
 70
     0
  0
ENDTAB
  0
TABLE
  2
UCS
  5
7
330
0
100
AcDbSymbolTable
 70
     0
  0
ENDTAB
  0
TABLE
  2
APPID
  5
9
330
0
100
AcDbSymbolTable
 70
     1
  0
APPID
  5
12
330
9
100
AcDbSymbolTableRecord
100
AcDbRegAppTableRecord
  2
ACAD
 70
     0
  0
ENDTAB
  0
TABLE
  2
DIMSTYLE
  5
A
330
0
100
AcDbSymbolTable
 70
     1
100
AcDbDimStyleTable
  0
DIMSTYLE
105
27
330
A
100
AcDbSymbolTableRecord
100
AcDbDimStyleTableRecord
  2
Standard
 70
     0
178
     0
340
11
  0
ENDTAB
  0
TABLE
  2
BLOCK_RECORD
  5
1
330
0
100
AcDbSymbolTable
 70
     5
  0
BLOCK_RECORD
  5
1F
330
1
100
AcDbSymbolTableRecord
100
AcDbBlockTableRecord
  2
*Model_Space
340
22
 70
     0
280
     1
281
     0
  0
BLOCK_RECORD
  5
1B
330
1
100
AcDbSymbolTableRecord
100
AcDbBlockTableRecord
  2
*Paper_Space
340
1E
 70
     0
280
     1
281
     0
  0
BLOCK_RECORD
  5
23
330
1
100
AcDbSymbolTableRecord
100
AcDbBlockTableRecord
  2
*Paper_Space0
340
26
 70
     0
280
     1
281
     0
  0
BLOCK_RECORD
  5
51
330
1
100
AcDbSymbolTableRecord
100
AcDbBlockTableRecord
  2
block 2
340
0
102
{BLKREFS
331
52
102
}
 70
     0
280
     1
281
     0
  0
BLOCK_RECORD
  5
77
330
1
100
AcDbSymbolTableRecord
100
AcDbBlockTableRecord
  2
block 3
340
0
102
{BLKREFS
331
78
102
}
 70
     0
280
     1
281
     0
  0
BLOCK_RECORD
  5
88
330
1
100
AcDbSymbolTableRecord
100
AcDbBlockTableRecord
  2
block 4
340
0
102
{BLKREFS
331
89
102
}
 70
     0
280
     1
281
     0
  0
BLOCK_RECORD
  5
98
330
1
100
AcDbSymbolTableRecord
100
AcDbBlockTableRecord
  2
block 5
340
0
102
{BLKREFS
331
99
102
}
 70
     0
280
     1
281
     0
  0
ENDTAB
  0
ENDSEC
  0
SECTION
  2
BLOCKS
  0
BLOCK
  5
20
330
1F
100
AcDbEntity
  8
0
100
AcDbBlockBegin
  2
*Model_Space
 70
     0
 10
0.0
 20
0.0
 30
0.0
  3
*Model_Space
  1

  0
ENDBLK
  5
21
330
1F
100
AcDbEntity
  8
0
100
AcDbBlockEnd
  0
BLOCK
  5
1C
330
1B
100
AcDbEntity
 67
     1
  8
0
100
AcDbBlockBegin
  2
*Paper_Space
 70
     0
 10
0.0
 20
0.0
 30
0.0
  3
*Paper_Space
  1

  0
ENDBLK
  5
1D
330
1B
100
AcDbEntity
 67
     1
  8
0
100
AcDbBlockEnd
  0
BLOCK
  5
24
330
23
100
AcDbEntity
  8
0
100
AcDbBlockBegin
  2
*Paper_Space0
 70
     0
 10
0.0
 20
0.0
 30
0.0
  3
*Paper_Space0
  1

  0
ENDBLK
  5
25
330
23
100
AcDbEntity
  8
0
100
AcDbBlockEnd
  0
BLOCK
  5
53
330
51
100
AcDbEntity
  8
0
100
AcDbBlockBegin
  2
block 2
 70
     0
 10
0.0
 20
0.0
 30
0.0
  3
block 2
  1

  0
SPLINE
  5
55
330
51
100
AcDbEntity
  8
_U+30EC_U+30A4_U+30E4_U+30FC 1
370
     0
100
AcDbSpline
210
0.0
220
0.0
230
1.0
 70
    11
 71
     3
 72
    26
 73
    22
 74
     0
 42
0.0000000001
 43
0.0000000001
 12
1.0
 22
0.0
 32
0.0
 13
1.0
 23
0.0
 33
0.0
 40
0.0
 40
0.0
 40
0.0
 40
0.0
 40
1.0
 40
1.0
 40
1.0
 40
2.0
 40
2.0
 40
2.0
 40
3.0
 40
3.0
 40
3.0
 40
4.0
 40
4.0
 40
4.0
 40
5.0
 40
5.0
 40
5.0
 40
6.0
 40
6.0
 40
6.0
 40
7.0
 40
7.0
 40
7.0
 40
7.0
 10
85.14777423001514
 20
-120.2269422442488
 30
0.0
 10
85.14777423001514
 20
-120.2269422442488
 30
0.0
 10
85.14777423001514
 20
-119.1227891412262
 30
0.0
 10
85.14777423001514
 20
-119.1227891412262
 30
0.0
 10
85.14777423001514
 20
-119.1227891412262
 30
0.0
 10
84.8177340825282
 20
-119.1227891412262
 30
0.0
 10
84.8177340825282
 20
-119.1227891412262
 30
0.0
 10
84.8177340825282
 20
-119.1227891412262
 30
0.0
 10
84.8177340825282
 20
-118.9746500353605
 30
0.0
 10
84.8177340825282
 20
-118.9746500353605
 30
0.0
 10
85.14984128730629
 20
-118.9598361247739
 30
0.0
 10
85.19635007635716
 20
-118.7968831083216
 30
0.0
 10
85.22597789753031
 20
-118.6825059382113
 30
0.0
 10
85.22597789753031
 20
-118.6825059382113
 30
0.0
 10
85.37204994610491
 20
-118.6825059382113
 30
0.0
 10
85.37204994610491
 20
-118.6825059382113
 30
0.0
 10
85.37204994610491
 20
-118.6825059382113
 30
0.0
 10
85.37204994610491
 20
-120.2269422442488
 30
0.0
 10
85.37204994610491
 20
-120.2269422442488
 30
0.0
 10
85.37204994610491
 20
-120.2269422442488
 30
0.0
 10
85.14777423001514
 20
-120.2269422442488
 30
0.0
 10
85.14777423001514
 20
-120.2269422442488
 30
0.0
  0
HATCH
  5
56
330
51
100
AcDbEntity
  8
_U+30EC_U+30A4_U+30E4_U+30FC 1
 62
     7
420
 16777215
100
AcDbHatch
 10
0.0
 20
0.0
 30
0.0
210
0.0
220
0.0
230
1.0
  2
SOLID
 70
     1
 71
     0
 91
        1
 92
        1
 93
        1
 72
     4
 94
        3
 73
     0
 74
     1
 95
       26
 96
       22
 40
0.0
 40
0.0
 40
0.0
 40
0.0
 40
1.0
 40
1.0
 40
1.0
 40
2.0
 40
2.0
 40
2.0
 40
3.0
 40
3.0
 40
3.0
 40
4.0
 40
4.0
 40
4.0
 40
5.0
 40
5.0
 40
5.0
 40
6.0
 40
6.0
 40
6.0
 40
7.0
 40
7.0
 40
7.0
 40
7.0
 10
85.14777423001514
 20
-120.2269422442488
 10
85.14777423001514
 20
-120.2269422442488
 10
85.14777423001514
 20
-119.1227891412262
 10
85.14777423001514
 20
-119.1227891412262
 10
85.14777423001514
 20
-119.1227891412262
 10
84.8177340825282
 20
-119.1227891412262
 10
84.8177340825282
 20
-119.1227891412262
 10
84.8177340825282
 20
-119.1227891412262
 10
84.8177340825282
 20
-118.9746500353605
 10
84.8177340825282
 20
-118.9746500353605
 10
85.14984128730629
 20
-118.9598361247739
 10
85.19635007635716
 20
-118.7968831083216
 10
85.22597789753031
 20
-118.6825059382113
 10
85.22597789753031
 20
-118.6825059382113
 10
85.37204994610491
 20
-118.6825059382113
 10
85.37204994610491
 20
-118.6825059382113
 10
85.37204994610491
 20
-118.6825059382113
 10
85.37204994610491
 20
-120.2269422442488
 10
85.37204994610491
 20
-120.2269422442488
 10
85.37204994610491
 20
-120.2269422442488
 10
85.14777423001514
 20
-120.2269422442488
 10
85.14777423001514
 20
-120.2269422442488
 97
        0
 97
        0
 75
     2
 76
     1
 98
        0
  0
SPLINE
  5
57
330
51
100
AcDbEntity
  8
_U+30EC_U+30A4_U+30E4_U+30FC 1
370
     0
100
AcDbSpline
210
0.0
220
0.0
230
1.0
 70
    11
 71
     3
 72
    44
 73
    40
 74
     0
 42
0.0000000001
 43
0.0000000001
 12
1.0
 22
0.0
 32
0.0
 13
1.0
 23
0.0
 33
0.0
 40
0.0
 40
0.0
 40
0.0
 40
0.0
 40
1.0
 40
1.0
 40
1.0
 40
2.0
 40
2.0
 40
2.0
 40
3.0
 40
3.0
 40
3.0
 40
4.0
 40
4.0
 40
4.0
 40
5.0
 40
5.0
 40
5.0
 40
6.0
 40
6.0
 40
6.0
 40
7.0
 40
7.0
 40
7.0
 40
8.0
 40
8.0
 40
8.0
 40
9.0
 40
9.0
 40
9.0
 40
10.0
 40
10.0
 40
10.0
 40
11.0
 40
11.0
 40
11.0
 40
12.0
 40
12.0
 40
12.0
 40
13.0
 40
13.0
 40
13.0
 40
13.0
 10
86.46621227222026
 20
-119.6450656167901
 30
0.0
 10
86.24848223755247
 20
-119.8038845186601
 30
0.0
 10
86.15546465945071
 20
-119.877954071593
 30
0.0
 10
86.10654430356017
 20
-120.0216145533279
 30
0.0
 10
86.10654430356017
 20
-120.0216145533279
 30
0.0
 10
86.88513588322664
 20
-120.0216145533279
 30
0.0
 10
86.88513588322664
 20
-120.0216145533279
 30
0.0
 10
86.88513588322664
 20
-120.0216145533279
 30
0.0
 10
86.88513588322664
 20
-120.2269422442488
 30
0.0
 10
86.88513588322664
 20
-120.2269422442488
 30
0.0
 10
86.88513588322664
 20
-120.2269422442488
 30
0.0
 10
85.85711939042808
 20
-120.2269422442488
 30
0.0
 10
85.85711939042808
 20
-120.2269422442488
 30
0.0
 10
85.88881426889239
 20
-119.8693413328799
 30
0.0
 10
85.95427108311213
 20
-119.7911376653647
 30
0.0
 10
86.33943275836306
 20
-119.4927923963421
 30
0.0
 10
86.59540335291713
 20
-119.2940103868432
 30
0.0
 10
86.66086016713687
 20
-119.2261420057837
 30
0.0
 10
86.66086016713687
 20
-119.0886826959223
 30
0.0
 10
86.66086016713687
 20
-118.9701714112297
 30
0.0
 10
86.58885767149515
 20
-118.8392577827902
 30
0.0
 10
86.39214271928738
 20
-118.8392577827902
 30
0.0
 10
86.13203801015102
 20
-118.8392577827902
 30
0.0
 10
86.1234252714379
 20
-119.0697346707534
 30
0.0
 10
86.1192911568556
 20
-119.1861788981549
 30
0.0
 10
86.1192911568556
 20
-119.1861788981549
 30
0.0
 10
85.89501544076583
 20
-119.1861788981549
 30
0.0
 10
85.89501544076583
 20
-119.1861788981549
 30
0.0
 10
85.90362817947896
 20
-119.0590548747491
 30
0.0
 10
85.91430797548323
 20
-118.9470892714785
 30
0.0
 10
85.99457870028955
 20
-118.8285779867859
 30
0.0
 10
86.10447724626903
 20
-118.6676920276248
 30
0.0
 10
86.29085691202104
 20
-118.6339300918693
 30
0.0
 10
86.40695662987396
 20
-118.6339300918693
 30
0.0
 10
86.68428681643657
 20
-118.6339300918693
 30
0.0
 10
86.89168156464861
 20
-118.8178981907816
 30
0.0
 10
86.89168156464861
 20
-119.0907497532134
 30
0.0
 10
86.89168156464861
 20
-119.319504093434
 30
0.0
 10
86.77523733724716
 20
-119.4187228434092
 30
0.0
 10
86.46621227222026
 20
-119.6450656167901
 30
0.0
  0
HATCH
  5
58
330
51
100
AcDbEntity
  8
_U+30EC_U+30A4_U+30E4_U+30FC 1
 62
     7
420
 16777215
100
AcDbHatch
 10
0.0
 20
0.0
 30
0.0
210
0.0
220
0.0
230
1.0
  2
SOLID
 70
     1
 71
     0
 91
        1
 92
        1
 93
        1
 72
     4
 94
        3
 73
     0
 74
     1
 95
       44
 96
       40
 40
0.0
 40
0.0
 40
0.0
 40
0.0
 40
1.0
 40
1.0
 40
1.0
 40
2.0
 40
2.0
 40
2.0
 40
3.0
 40
3.0
 40
3.0
 40
4.0
 40
4.0
 40
4.0
 40
5.0
 40
5.0
 40
5.0
 40
6.0
 40
6.0
 40
6.0
 40
7.0
 40
7.0
 40
7.0
 40
8.0
 40
8.0
 40
8.0
 40
9.0
 40
9.0
 40
9.0
 40
10.0
 40
10.0
 40
10.0
 40
11.0
 40
11.0
 40
11.0
 40
12.0
 40
12.0
 40
12.0
 40
13.0
 40
13.0
 40
13.0
 40
13.0
 10
86.46621227222026
 20
-119.6450656167901
 10
86.24848223755247
 20
-119.8038845186601
 10
86.15546465945071
 20
-119.877954071593
 10
86.10654430356017
 20
-120.0216145533279
 10
86.10654430356017
 20
-120.0216145533279
 10
86.88513588322664
 20
-120.0216145533279
 10
86.88513588322664
 20
-120.0216145533279
 10
86.88513588322664
 20
-120.0216145533279
 10
86.88513588322664
 20
-120.2269422442488
 10
86.88513588322664
 20
-120.2269422442488
 10
86.88513588322664
 20
-120.2269422442488
 10
85.85711939042808
 20
-120.2269422442488
 10
85.85711939042808
 20
-120.2269422442488
 10
85.88881426889239
 20
-119.8693413328799
 10
85.95427108311213
 20
-119.7911376653647
 10
86.33943275836306
 20
-119.4927923963421
 10
86.59540335291713
 20
-119.2940103868432
 10
86.66086016713687
 20
-119.2261420057837
 10
86.66086016713687
 20
-119.0886826959223
 10
86.66086016713687
 20
-118.9701714112297
 10
86.58885767149515
 20
-118.8392577827902
 10
86.39214271928738
 20
-118.8392577827902
 10
86.13203801015102
 20
-118.8392577827902
 10
86.1234252714379
 20
-119.0697346707534
 10
86.1192911568556
 20
-119.1861788981549
 10
86.1192911568556
 20
-119.1861788981549
 10
85.89501544076583
 20
-119.1861788981549
 10
85.89501544076583
 20
-119.1861788981549
 10
85.90362817947896
 20
-119.0590548747491
 10
85.91430797548323
 20
-118.9470892714785
 10
85.99457870028955
 20
-118.8285779867859
 10
86.10447724626903
 20
-118.6676920276248
 10
86.29085691202104
 20
-118.6339300918693
 10
86.40695662987396
 20
-118.6339300918693
 10
86.68428681643657
 20
-118.6339300918693
 10
86.89168156464861
 20
-118.8178981907816
 10
86.89168156464861
 20
-119.0907497532134
 10
86.89168156464861
 20
-119.319504093434
 10
86.77523733724716
 20
-119.4187228434092
 10
86.46621227222026
 20
-119.6450656167901
 97
        0
 97
        0
 75
     2
 76
     1
 98
        0
  0
ENDBLK
  5
54
330
51
100
AcDbEntity
  8
0
100
AcDbBlockEnd
  0
BLOCK
  5
79
330
77
100
AcDbEntity
  8
0
100
AcDbBlockBegin
  2
block 3
 70
     0
 10
0.0
 20
0.0
 30
0.0
  3
block 3
  1

  0
SPLINE
  5
7B
330
77
100
AcDbEntity
  8
_U+30EC_U+30A4_U+30E4_U+30FC 1
370
     0
100
AcDbSpline
210
0.0
220
0.0
230
1.0
 70
    11
 71
     3
 72
    32
 73
    28
 74
     0
 42
0.0000000001
 43
0.0000000001
 12
1.0
 22
0.0
 32
0.0
 13
1.0
 23
0.0
 33
0.0
 40
0.0
 40
0.0
 40
0.0
 40
0.0
 40
1.0
 40
1.0
 40
1.0
 40
2.0
 40
2.0
 40
2.0
 40
3.0
 40
3.0
 40
3.0
 40
4.0
 40
4.0
 40
4.0
 40
5.0
 40
5.0
 40
5.0
 40
6.0
 40
6.0
 40
6.0
 40
7.0
 40
7.0
 40
7.0
 40
8.0
 40
8.0
 40
8.0
 40
9.0
 40
9.0
 40
9.0
 40
9.0
 10
104.4863009721423
 20
-131.1661539385626
 30
0.0
 10
104.4863009721423
 20
-131.3394422414707
 30
0.0
 10
104.4167100433403
 20
-131.585077549569
 30
0.0
 10
104.0846028385622
 20
-131.6229735999068
 30
0.0
 10
104.0846028385622
 20
-131.6229735999068
 30
0.0
 10
104.0846028385622
 20
-131.4093776798213
 30
0.0
 10
104.0846028385622
 20
-131.4093776798213
 30
0.0
 10
104.1438584809085
 20
-131.398697883817
 30
0.0
 10
104.2916530772257
 20
-131.3670030053527
 30
0.0
 10
104.2916530772257
 20
-131.1640868812715
 30
0.0
 10
104.2916530772257
 20
-130.8719427841223
 30
0.0
 10
103.9616129297388
 20
-130.8340467337846
 30
0.0
 10
103.7566297483664
 20
-130.8212998804891
 30
0.0
 10
103.8369004731727
 20
-130.9122504012997
 30
0.0
 10
103.8940890582279
 20
-130.9797742728106
 30
0.0
 10
103.8940890582279
 20
-131.1616753144318
 30
0.0
 10
103.8940890582279
 20
-131.3415092987618
 30
0.0
 10
103.7883246268307
 20
-131.6443331919153
 30
0.0
 10
103.3821478691197
 20
-131.6443331919153
 30
0.0
 10
103.0627875176371
 20
-131.6443331919153
 30
0.0
 10
102.8426459161296
 20
-131.4452066728679
 30
0.0
 10
102.8426459161296
 20
-131.1279133786764
 30
0.0
 10
102.8426459161296
 20
-130.6139051322771
 30
0.0
 10
103.3969617797063
 20
-130.6032253362728
 30
0.0
 10
103.6105576997918
 20
-130.6032253362728
 30
0.0
 10
103.841034587755
 20
-130.6032253362728
 30
0.0
 10
104.4863009721423
 20
-130.6225178709902
 30
0.0
 10
104.4863009721423
 20
-131.1661539385626
 30
0.0
  0
SPLINE
  5
7C
330
77
100
AcDbEntity
  8
_U+30EC_U+30A4_U+30E4_U+30FC 1
370
     0
100
AcDbSpline
210
0.0
220
0.0
230
1.0
 70
    11
 71
     3
 72
    17
 73
    13
 74
     0
 42
0.0000000001
 43
0.0000000001
 12
1.0
 22
0.0
 32
0.0
 13
1.0
 23
0.0
 33
0.0
 40
0.0
 40
0.0
 40
0.0
 40
0.0
 40
1.0
 40
1.0
 40
1.0
 40
2.0
 40
2.0
 40
2.0
 40
3.0
 40
3.0
 40
3.0
 40
4.0
 40
4.0
 40
4.0
 40
4.0
 10
103.0352267537551
 20
-131.1258463213852
 30
0.0
 10
103.0352267537551
 20
-131.2443576060778
 30
0.0
 10
103.0924153388102
 20
-131.4200574758256
 30
0.0
 10
103.3780137545374
 20
-131.4200574758256
 30
0.0
 10
103.6043565279184
 20
-131.4200574758256
 30
0.0
 10
103.6994411633112
 20
-131.2801865991244
 30
0.0
 10
103.6994411633112
 20
-131.1447943465541
 30
0.0
 10
103.6994411633112
 20
-130.8826225801266
 30
0.0
 10
103.4899793578081
 20
-130.8443820202403
 30
0.0
 10
103.3735351304066
 20
-130.8443820202403
 30
0.0
 10
103.1981797702074
 20
-130.8443820202403
 30
0.0
 10
103.0352267537551
 20
-130.9398111651817
 30
0.0
 10
103.0352267537551
 20
-131.1258463213852
 30
0.0
  0
HATCH
  5
7D
330
77
100
AcDbEntity
  8
_U+30EC_U+30A4_U+30E4_U+30FC 1
 62
     7
420
 16777215
100
AcDbHatch
 10
0.0
 20
0.0
 30
0.0
210
0.0
220
0.0
230
1.0
  2
SOLID
 70
     1
 71
     0
 91
        2
 92
        1
 93
        1
 72
     4
 94
        3
 73
     0
 74
     1
 95
       32
 96
       28
 40
0.0
 40
0.0
 40
0.0
 40
0.0
 40
1.0
 40
1.0
 40
1.0
 40
2.0
 40
2.0
 40
2.0
 40
3.0
 40
3.0
 40
3.0
 40
4.0
 40
4.0
 40
4.0
 40
5.0
 40
5.0
 40
5.0
 40
6.0
 40
6.0
 40
6.0
 40
7.0
 40
7.0
 40
7.0
 40
8.0
 40
8.0
 40
8.0
 40
9.0
 40
9.0
 40
9.0
 40
9.0
 10
104.4863009721423
 20
-131.1661539385626
 10
104.4863009721423
 20
-131.3394422414707
 10
104.4167100433403
 20
-131.585077549569
 10
104.0846028385622
 20
-131.6229735999068
 10
104.0846028385622
 20
-131.6229735999068
 10
104.0846028385622
 20
-131.4093776798213
 10
104.0846028385622
 20
-131.4093776798213
 10
104.1438584809085
 20
-131.398697883817
 10
104.2916530772257
 20
-131.3670030053527
 10
104.2916530772257
 20
-131.1640868812715
 10
104.2916530772257
 20
-130.8719427841223
 10
103.9616129297388
 20
-130.8340467337846
 10
103.7566297483664
 20
-130.8212998804891
 10
103.8369004731727
 20
-130.9122504012997
 10
103.8940890582279
 20
-130.9797742728106
 10
103.8940890582279
 20
-131.1616753144318
 10
103.8940890582279
 20
-131.3415092987618
 10
103.7883246268307
 20
-131.6443331919153
 10
103.3821478691197
 20
-131.6443331919153
 10
103.0627875176371
 20
-131.6443331919153
 10
102.8426459161296
 20
-131.4452066728679
 10
102.8426459161296
 20
-131.1279133786764
 10
102.8426459161296
 20
-130.6139051322771
 10
103.3969617797063
 20
-130.6032253362728
 10
103.6105576997918
 20
-130.6032253362728
 10
103.841034587755
 20
-130.6032253362728
 10
104.4863009721423
 20
-130.6225178709902
 10
104.4863009721423
 20
-131.1661539385626
 97
        0
 97
        0
 92
        1
 93
        1
 72
     4
 94
        3
 73
     0
 74
     1
 95
       17
 96
       13
 40
0.0
 40
0.0
 40
0.0
 40
0.0
 40
1.0
 40
1.0
 40
1.0
 40
2.0
 40
2.0
 40
2.0
 40
3.0
 40
3.0
 40
3.0
 40
4.0
 40
4.0
 40
4.0
 40
4.0
 10
103.0352267537551
 20
-131.1258463213852
 10
103.0352267537551
 20
-131.2443576060778
 10
103.0924153388102
 20
-131.4200574758256
 10
103.3780137545374
 20
-131.4200574758256
 10
103.6043565279184
 20
-131.4200574758256
 10
103.6994411633112
 20
-131.2801865991244
 10
103.6994411633112
 20
-131.1447943465541
 10
103.6994411633112
 20
-130.8826225801266
 10
103.4899793578081
 20
-130.8443820202403
 10
103.3735351304066
 20
-130.8443820202403
 10
103.1981797702074
 20
-130.8443820202403
 10
103.0352267537551
 20
-130.9398111651817
 10
103.0352267537551
 20
-131.1258463213852
 97
        0
 97
        0
 75
     2
 76
     1
 98
        0
  0
POLYLINE
  5
7E
330
77
100
AcDbEntity
  8
_U+30EC_U+30A4_U+30E4_U+30FC 1
370
     0
100
AcDb2dPolyline
 66
     1
 10
0.0
 20
0.0
 30
0.0
  0
VERTEX
  5
7F
330
7E
100
AcDbEntity
  8
_U+30EC_U+30A4_U+30E4_U+30FC 1
370
     0
100
AcDbVertex
100
AcDb2dVertex
 10
104.4356580685091
 20
-130.3868733397991
 30
0.0
  0
VERTEX
  5
80
330
7E
100
AcDbEntity
  8
_U+30EC_U+30A4_U+30E4_U+30FC 1
370
     0
100
AcDbVertex
100
AcDb2dVertex
 10
104.1838215885374
 20
-130.3868733397991
 30
0.0
  0
VERTEX
  5
81
330
7E
100
AcDbEntity
  8
_U+30EC_U+30A4_U+30E4_U+30FC 1
370
     0
100
AcDbVertex
100
AcDb2dVertex
 10
104.1838215885374
 20
-130.1350368598274
 30
0.0
  0
VERTEX
  5
82
330
7E
100
AcDbEntity
  8
_U+30EC_U+30A4_U+30E4_U+30FC 1
370
     0
100
AcDbVertex
100
AcDb2dVertex
 10
104.4356580685091
 20
-130.1350368598274
 30
0.0
  0
VERTEX
  5
83
330
7E
100
AcDbEntity
  8
_U+30EC_U+30A4_U+30E4_U+30FC 1
370
     0
100
AcDbVertex
100
AcDb2dVertex
 10
104.4356580685091
 20
-130.3868733397991
 30
0.0
  0
SEQEND
  5
84
330
7E
100
AcDbEntity
  8
_U+30EC_U+30A4_U+30E4_U+30FC 1
370
     0
  0
HATCH
  5
85
330
77
100
AcDbEntity
  8
_U+30EC_U+30A4_U+30E4_U+30FC 1
 62
     7
420
 16777215
100
AcDbHatch
 10
0.0
 20
0.0
 30
0.0
210
0.0
220
0.0
230
1.0
  2
SOLID
 70
     1
 71
     0
 91
        1
 92
        1
 93
        4
 72
     1
 10
104.4356580685091
 20
-130.3868733397991
 11
104.1838215885374
 21
-130.3868733397991
 72
     1
 10
104.1838215885374
 20
-130.3868733397991
 11
104.1838215885374
 21
-130.1350368598274
 72
     1
 10
104.1838215885374
 20
-130.1350368598274
 11
104.4356580685091
 21
-130.1350368598274
 72
     1
 10
104.4356580685091
 20
-130.1350368598274
 11
104.4356580685091
 21
-130.3868733397991
 97
        0
 75
     2
 76
     1
 98
        0
  0
SPLINE
  5
86
330
77
100
AcDbEntity
  8
_U+30EC_U+30A4_U+30E4_U+30FC 1
370
     0
100
AcDbSpline
210
0.0
220
0.0
230
1.0
 70
    11
 71
     3
 72
    53
 73
    49
 74
     0
 42
0.0000000001
 43
0.0000000001
 12
1.0
 22
0.0
 32
0.0
 13
1.0
 23
0.0
 33
0.0
 40
0.0
 40
0.0
 40
0.0
 40
0.0
 40
1.0
 40
1.0
 40
1.0
 40
2.0
 40
2.0
 40
2.0
 40
3.0
 40
3.0
 40
3.0
 40
4.0
 40
4.0
 40
4.0
 40
5.0
 40
5.0
 40
5.0
 40
6.0
 40
6.0
 40
6.0
 40
7.0
 40
7.0
 40
7.0
 40
8.0
 40
8.0
 40
8.0
 40
9.0
 40
9.0
 40
9.0
 40
10.0
 40
10.0
 40
10.0
 40
11.0
 40
11.0
 40
11.0
 40
12.0
 40
12.0
 40
12.0
 40
13.0
 40
13.0
 40
13.0
 40
14.0
 40
14.0
 40
14.0
 40
15.0
 40
15.0
 40
15.0
 40
16.0
 40
16.0
 40
16.0
 40
16.0
 10
104.4863009721423
 20
-129.4177679797984
 30
0.0
 10
104.4863009721423
 20
-129.4959716473135
 30
0.0
 10
104.4694200042646
 20
-129.5976019641284
 30
0.0
 10
104.406030247336
 20
-129.6992322809432
 30
0.0
 10
104.2961317013565
 20
-129.8725205838513
 30
0.0
 10
104.1648735633685
 20
-129.8938801758599
 30
0.0
 10
104.0570420746802
 20
-129.9128282010287
 30
0.0
 10
104.0570420746802
 20
-129.9128282010287
 30
0.0
 10
104.0570420746802
 20
-129.6906195422301
 30
0.0
 10
104.0570420746802
 20
-129.6906195422301
 30
0.0
 10
104.2558240841791
 20
-129.6358425240147
 30
0.0
 10
104.2854519053522
 20
-129.5087185006089
 30
0.0
 10
104.2854519053522
 20
-129.4157009225072
 30
0.0
 10
104.2854519053522
 20
-129.2761745553546
 30
0.0
 10
104.1858886458285
 20
-129.1239013349065
 30
0.0
 10
103.9533447005742
 20
-129.1239013349065
 30
0.0
 10
103.6973741060201
 20
-129.1239013349065
 30
0.0
 10
103.6274386676695
 20
-129.3037353192366
 30
0.0
 10
103.6274386676695
 20
-129.4243136612203
 30
0.0
 10
103.6274386676695
 20
-129.4560085396846
 30
0.0
 10
103.6274386676695
 20
-129.5976019641284
 30
0.0
 10
103.7566297483664
 20
-129.6864854276478
 30
0.0
 10
103.7566297483664
 20
-129.6864854276478
 30
0.0
 10
103.7376817231975
 20
-129.8621852973956
 30
0.0
 10
103.7376817231975
 20
-129.8621852973956
 30
0.0
 10
103.7376817231975
 20
-129.8621852973956
 30
0.0
 10
102.8912217624716
 20
-129.7416069554118
 30
0.0
 10
102.8912217624716
 20
-129.7416069554118
 30
0.0
 10
102.8912217624716
 20
-129.7416069554118
 30
0.0
 10
102.8912217624716
 20
-128.9630153757454
 30
0.0
 10
102.8912217624716
 20
-128.9630153757454
 30
0.0
 10
102.8912217624716
 20
-128.9630153757454
 30
0.0
 10
103.0858696573883
 20
-128.9630153757454
 30
0.0
 10
103.0858696573883
 20
-128.9630153757454
 30
0.0
 10
103.0858696573883
 20
-128.9630153757454
 30
0.0
 10
103.0858696573883
 20
-129.5786539389595
 30
0.0
 10
103.0858696573883
 20
-129.5786539389595
 30
0.0
 10
103.0858696573883
 20
-129.5786539389595
 30
0.0
 10
103.5089273829769
 20
-129.6441107531793
 30
0.0
 10
103.5089273829769
 20
-129.6441107531793
 30
0.0
 10
103.4751654472215
 20
-129.5827880535418
 30
0.0
 10
103.4348578300441
 20
-129.5004502714444
 30
0.0
 10
103.4348578300441
 20
-129.3819389867517
 30
0.0
 10
103.4348578300441
 20
-129.1280354494888
 30
0.0
 10
103.6212374957961
 20
-128.8910128801036
 30
0.0
 10
103.9343966754053
 20
-128.8910128801036
 30
0.0
 10
104.2516899695968
 20
-128.8910128801036
 30
0.0
 10
104.4863009721423
 20
-129.1152885961934
 30
0.0
 10
104.4863009721423
 20
-129.4177679797984
 30
0.0
  0
HATCH
  5
87
330
77
100
AcDbEntity
  8
_U+30EC_U+30A4_U+30E4_U+30FC 1
 62
     7
420
 16777215
100
AcDbHatch
 10
0.0
 20
0.0
 30
0.0
210
0.0
220
0.0
230
1.0
  2
SOLID
 70
     1
 71
     0
 91
        1
 92
        1
 93
        1
 72
     4
 94
        3
 73
     0
 74
     1
 95
       53
 96
       49
 40
0.0
 40
0.0
 40
0.0
 40
0.0
 40
1.0
 40
1.0
 40
1.0
 40
2.0
 40
2.0
 40
2.0
 40
3.0
 40
3.0
 40
3.0
 40
4.0
 40
4.0
 40
4.0
 40
5.0
 40
5.0
 40
5.0
 40
6.0
 40
6.0
 40
6.0
 40
7.0
 40
7.0
 40
7.0
 40
8.0
 40
8.0
 40
8.0
 40
9.0
 40
9.0
 40
9.0
 40
10.0
 40
10.0
 40
10.0
 40
11.0
 40
11.0
 40
11.0
 40
12.0
 40
12.0
 40
12.0
 40
13.0
 40
13.0
 40
13.0
 40
14.0
 40
14.0
 40
14.0
 40
15.0
 40
15.0
 40
15.0
 40
16.0
 40
16.0
 40
16.0
 40
16.0
 10
104.4863009721423
 20
-129.4177679797984
 10
104.4863009721423
 20
-129.4959716473135
 10
104.4694200042646
 20
-129.5976019641284
 10
104.406030247336
 20
-129.6992322809432
 10
104.2961317013565
 20
-129.8725205838513
 10
104.1648735633685
 20
-129.8938801758599
 10
104.0570420746802
 20
-129.9128282010287
 10
104.0570420746802
 20
-129.9128282010287
 10
104.0570420746802
 20
-129.6906195422301
 10
104.0570420746802
 20
-129.6906195422301
 10
104.2558240841791
 20
-129.6358425240147
 10
104.2854519053522
 20
-129.5087185006089
 10
104.2854519053522
 20
-129.4157009225072
 10
104.2854519053522
 20
-129.2761745553546
 10
104.1858886458285
 20
-129.1239013349065
 10
103.9533447005742
 20
-129.1239013349065
 10
103.6973741060201
 20
-129.1239013349065
 10
103.6274386676695
 20
-129.3037353192366
 10
103.6274386676695
 20
-129.4243136612203
 10
103.6274386676695
 20
-129.4560085396846
 10
103.6274386676695
 20
-129.5976019641284
 10
103.7566297483664
 20
-129.6864854276478
 10
103.7566297483664
 20
-129.6864854276478
 10
103.7376817231975
 20
-129.8621852973956
 10
103.7376817231975
 20
-129.8621852973956
 10
103.7376817231975
 20
-129.8621852973956
 10
102.8912217624716
 20
-129.7416069554118
 10
102.8912217624716
 20
-129.7416069554118
 10
102.8912217624716
 20
-129.7416069554118
 10
102.8912217624716
 20
-128.9630153757454
 10
102.8912217624716
 20
-128.9630153757454
 10
102.8912217624716
 20
-128.9630153757454
 10
103.0858696573883
 20
-128.9630153757454
 10
103.0858696573883
 20
-128.9630153757454
 10
103.0858696573883
 20
-128.9630153757454
 10
103.0858696573883
 20
-129.5786539389595
 10
103.0858696573883
 20
-129.5786539389595
 10
103.0858696573883
 20
-129.5786539389595
 10
103.5089273829769
 20
-129.6441107531793
 10
103.5089273829769
 20
-129.6441107531793
 10
103.4751654472215
 20
-129.5827880535418
 10
103.4348578300441
 20
-129.5004502714444
 10
103.4348578300441
 20
-129.3819389867517
 10
103.4348578300441
 20
-129.1280354494888
 10
103.6212374957961
 20
-128.8910128801036
 10
103.9343966754053
 20
-128.8910128801036
 10
104.2516899695968
 20
-128.8910128801036
 10
104.4863009721423
 20
-129.1152885961934
 10
104.4863009721423
 20
-129.4177679797984
 97
        0
 97
        0
 75
     2
 76
     1
 98
        0
  0
ENDBLK
  5
7A
330
77
100
AcDbEntity
  8
0
100
AcDbBlockEnd
  0
BLOCK
  5
8A
330
88
100
AcDbEntity
  8
0
100
AcDbBlockBegin
  2
block 4
 70
     0
 10
0.0
 20
0.0
 30
0.0
  3
block 4
  1

  0
SPLINE
  5
8C
330
88
100
AcDbEntity
  8
_U+30EC_U+30A4_U+30E4_U+30FC 1
370
     0
100
AcDbSpline
210
0.0
220
0.0
230
1.0
 70
    11
 71
     3
 72
    26
 73
    22
 74
     0
 42
0.0000000001
 43
0.0000000001
 12
1.0
 22
0.0
 32
0.0
 13
1.0
 23
0.0
 33
0.0
 40
0.0
 40
0.0
 40
0.0
 40
0.0
 40
1.0
 40
1.0
 40
1.0
 40
2.0
 40
2.0
 40
2.0
 40
3.0
 40
3.0
 40
3.0
 40
4.0
 40
4.0
 40
4.0
 40
5.0
 40
5.0
 40
5.0
 40
6.0
 40
6.0
 40
6.0
 40
7.0
 40
7.0
 40
7.0
 40
7.0
 10
104.4356580685091
 20
-121.704199188324
 30
0.0
 10
104.4356580685091
 20
-121.704199188324
 30
0.0
 10
103.3315049654866
 20
-121.704199188324
 30
0.0
 10
103.3315049654866
 20
-121.704199188324
 30
0.0
 10
103.3315049654866
 20
-121.704199188324
 30
0.0
 10
103.3315049654866
 20
-122.0342393358109
 30
0.0
 10
103.3315049654866
 20
-122.0342393358109
 30
0.0
 10
103.3315049654866
 20
-122.0342393358109
 30
0.0
 10
103.1833658596208
 20
-122.0342393358109
 30
0.0
 10
103.1833658596208
 20
-122.0342393358109
 30
0.0
 10
103.1685519490343
 20
-121.7021321310328
 30
0.0
 10
103.0055989325819
 20
-121.6556233419819
 30
0.0
 10
102.8912217624716
 20
-121.6259955208088
 30
0.0
 10
102.8912217624716
 20
-121.6259955208088
 30
0.0
 10
102.8912217624716
 20
-121.4799234722342
 30
0.0
 10
102.8912217624716
 20
-121.4799234722342
 30
0.0
 10
102.8912217624716
 20
-121.4799234722342
 30
0.0
 10
104.4356580685091
 20
-121.4799234722342
 30
0.0
 10
104.4356580685091
 20
-121.4799234722342
 30
0.0
 10
104.4356580685091
 20
-121.4799234722342
 30
0.0
 10
104.4356580685091
 20
-121.704199188324
 30
0.0
 10
104.4356580685091
 20
-121.704199188324
 30
0.0
  0
HATCH
  5
8D
330
88
100
AcDbEntity
  8
_U+30EC_U+30A4_U+30E4_U+30FC 1
 62
     7
420
 16777215
100
AcDbHatch
 10
0.0
 20
0.0
 30
0.0
210
0.0
220
0.0
230
1.0
  2
SOLID
 70
     1
 71
     0
 91
        1
 92
        1
 93
        1
 72
     4
 94
        3
 73
     0
 74
     1
 95
       26
 96
       22
 40
0.0
 40
0.0
 40
0.0
 40
0.0
 40
1.0
 40
1.0
 40
1.0
 40
2.0
 40
2.0
 40
2.0
 40
3.0
 40
3.0
 40
3.0
 40
4.0
 40
4.0
 40
4.0
 40
5.0
 40
5.0
 40
5.0
 40
6.0
 40
6.0
 40
6.0
 40
7.0
 40
7.0
 40
7.0
 40
7.0
 10
104.4356580685091
 20
-121.704199188324
 10
104.4356580685091
 20
-121.704199188324
 10
103.3315049654866
 20
-121.704199188324
 10
103.3315049654866
 20
-121.704199188324
 10
103.3315049654866
 20
-121.704199188324
 10
103.3315049654866
 20
-122.0342393358109
 10
103.3315049654866
 20
-122.0342393358109
 10
103.3315049654866
 20
-122.0342393358109
 10
103.1833658596208
 20
-122.0342393358109
 10
103.1833658596208
 20
-122.0342393358109
 10
103.1685519490343
 20
-121.7021321310328
 10
103.0055989325819
 20
-121.6556233419819
 10
102.8912217624716
 20
-121.6259955208088
 10
102.8912217624716
 20
-121.6259955208088
 10
102.8912217624716
 20
-121.4799234722342
 10
102.8912217624716
 20
-121.4799234722342
 10
102.8912217624716
 20
-121.4799234722342
 10
104.4356580685091
 20
-121.4799234722342
 10
104.4356580685091
 20
-121.4799234722342
 10
104.4356580685091
 20
-121.4799234722342
 10
104.4356580685091
 20
-121.704199188324
 10
104.4356580685091
 20
-121.704199188324
 97
        0
 97
        0
 75
     2
 76
     1
 98
        0
  0
POLYLINE
  5
8E
330
88
100
AcDbEntity
  8
_U+30EC_U+30A4_U+30E4_U+30FC 1
370
     0
100
AcDb2dPolyline
 66
     1
 10
0.0
 20
0.0
 30
0.0
  0
VERTEX
  5
8F
330
8E
100
AcDbEntity
  8
_U+30EC_U+30A4_U+30E4_U+30FC 1
370
     0
100
AcDbVertex
100
AcDb2dVertex
 10
104.4356580685091
 20
-120.918717417687
 30
0.0
  0
VERTEX
  5
90
330
8E
100
AcDbEntity
  8
_U+30EC_U+30A4_U+30E4_U+30FC 1
370
     0
100
AcDbVertex
100
AcDb2dVertex
 10
104.1838215885374
 20
-120.918717417687
 30
0.0
  0
VERTEX
  5
91
330
8E
100
AcDbEntity
  8
_U+30EC_U+30A4_U+30E4_U+30FC 1
370
     0
100
AcDbVertex
100
AcDb2dVertex
 10
104.1838215885374
 20
-120.6668809377152
 30
0.0
  0
VERTEX
  5
92
330
8E
100
AcDbEntity
  8
_U+30EC_U+30A4_U+30E4_U+30FC 1
370
     0
100
AcDbVertex
100
AcDb2dVertex
 10
104.4356580685091
 20
-120.6668809377152
 30
0.0
  0
VERTEX
  5
93
330
8E
100
AcDbEntity
  8
_U+30EC_U+30A4_U+30E4_U+30FC 1
370
     0
100
AcDbVertex
100
AcDb2dVertex
 10
104.4356580685091
 20
-120.918717417687
 30
0.0
  0
SEQEND
  5
94
330
8E
100
AcDbEntity
  8
_U+30EC_U+30A4_U+30E4_U+30FC 1
370
     0
  0
HATCH
  5
95
330
88
100
AcDbEntity
  8
_U+30EC_U+30A4_U+30E4_U+30FC 1
 62
     7
420
 16777215
100
AcDbHatch
 10
0.0
 20
0.0
 30
0.0
210
0.0
220
0.0
230
1.0
  2
SOLID
 70
     1
 71
     0
 91
        1
 92
        1
 93
        4
 72
     1
 10
104.4356580685091
 20
-120.918717417687
 11
104.1838215885374
 21
-120.918717417687
 72
     1
 10
104.1838215885374
 20
-120.918717417687
 11
104.1838215885374
 21
-120.6668809377152
 72
     1
 10
104.1838215885374
 20
-120.6668809377152
 11
104.4356580685091
 21
-120.6668809377152
 72
     1
 10
104.4356580685091
 20
-120.6668809377152
 11
104.4356580685091
 21
-120.918717417687
 97
        0
 75
     2
 76
     1
 98
        0
  0
SPLINE
  5
96
330
88
100
AcDbEntity
  8
_U+30EC_U+30A4_U+30E4_U+30FC 1
370
     0
100
AcDbSpline
210
0.0
220
0.0
230
1.0
 70
    11
 71
     3
 72
    53
 73
    49
 74
     0
 42
0.0000000001
 43
0.0000000001
 12
1.0
 22
0.0
 32
0.0
 13
1.0
 23
0.0
 33
0.0
 40
0.0
 40
0.0
 40
0.0
 40
0.0
 40
1.0
 40
1.0
 40
1.0
 40
2.0
 40
2.0
 40
2.0
 40
3.0
 40
3.0
 40
3.0
 40
4.0
 40
4.0
 40
4.0
 40
5.0
 40
5.0
 40
5.0
 40
6.0
 40
6.0
 40
6.0
 40
7.0
 40
7.0
 40
7.0
 40
8.0
 40
8.0
 40
8.0
 40
9.0
 40
9.0
 40
9.0
 40
10.0
 40
10.0
 40
10.0
 40
11.0
 40
11.0
 40
11.0
 40
12.0
 40
12.0
 40
12.0
 40
13.0
 40
13.0
 40
13.0
 40
14.0
 40
14.0
 40
14.0
 40
15.0
 40
15.0
 40
15.0
 40
16.0
 40
16.0
 40
16.0
 40
16.0
 10
104.4863009721423
 20
-119.9496120576862
 30
0.0
 10
104.4863009721423
 20
-120.0278157252014
 30
0.0
 10
104.4694200042646
 20
-120.1294460420163
 30
0.0
 10
104.406030247336
 20
-120.2310763588311
 30
0.0
 10
104.2961317013565
 20
-120.4043646617392
 30
0.0
 10
104.1648735633685
 20
-120.4257242537477
 30
0.0
 10
104.0570420746802
 20
-120.4446722789166
 30
0.0
 10
104.0570420746802
 20
-120.4446722789166
 30
0.0
 10
104.0570420746802
 20
-120.222463620118
 30
0.0
 10
104.0570420746802
 20
-120.222463620118
 30
0.0
 10
104.2558240841791
 20
-120.1676866019025
 30
0.0
 10
104.2854519053522
 20
-120.0405625784968
 30
0.0
 10
104.2854519053522
 20
-119.9475450003951
 30
0.0
 10
104.2854519053522
 20
-119.8080186332424
 30
0.0
 10
104.1858886458285
 20
-119.6557454127944
 30
0.0
 10
103.9533447005742
 20
-119.6557454127944
 30
0.0
 10
103.6973741060201
 20
-119.6557454127944
 30
0.0
 10
103.6274386676695
 20
-119.8355793971244
 30
0.0
 10
103.6274386676695
 20
-119.9561577391082
 30
0.0
 10
103.6274386676695
 20
-119.9878526175725
 30
0.0
 10
103.6274386676695
 20
-120.1294460420163
 30
0.0
 10
103.7566297483664
 20
-120.2183295055357
 30
0.0
 10
103.7566297483664
 20
-120.2183295055357
 30
0.0
 10
103.7376817231975
 20
-120.3940293752834
 30
0.0
 10
103.7376817231975
 20
-120.3940293752834
 30
0.0
 10
103.7376817231975
 20
-120.3940293752834
 30
0.0
 10
102.8912217624716
 20
-120.2734510332997
 30
0.0
 10
102.8912217624716
 20
-120.2734510332997
 30
0.0
 10
102.8912217624716
 20
-120.2734510332997
 30
0.0
 10
102.8912217624716
 20
-119.4948594536332
 30
0.0
 10
102.8912217624716
 20
-119.4948594536332
 30
0.0
 10
102.8912217624716
 20
-119.4948594536332
 30
0.0
 10
103.0858696573883
 20
-119.4948594536332
 30
0.0
 10
103.0858696573883
 20
-119.4948594536332
 30
0.0
 10
103.0858696573883
 20
-119.4948594536332
 30
0.0
 10
103.0858696573883
 20
-120.1104980168474
 30
0.0
 10
103.0858696573883
 20
-120.1104980168474
 30
0.0
 10
103.0858696573883
 20
-120.1104980168474
 30
0.0
 10
103.5089273829769
 20
-120.1759548310671
 30
0.0
 10
103.5089273829769
 20
-120.1759548310671
 30
0.0
 10
103.4751654472215
 20
-120.1146321314297
 30
0.0
 10
103.4348578300441
 20
-120.0322943493322
 30
0.0
 10
103.4348578300441
 20
-119.9137830646396
 30
0.0
 10
103.4348578300441
 20
-119.6598795273767
 30
0.0
 10
103.6212374957961
 20
-119.4228569579915
 30
0.0
 10
103.9343966754053
 20
-119.4228569579915
 30
0.0
 10
104.2516899695968
 20
-119.4228569579915
 30
0.0
 10
104.4863009721423
 20
-119.6471326740813
 30
0.0
 10
104.4863009721423
 20
-119.9496120576862
 30
0.0
  0
HATCH
  5
97
330
88
100
AcDbEntity
  8
_U+30EC_U+30A4_U+30E4_U+30FC 1
 62
     7
420
 16777215
100
AcDbHatch
 10
0.0
 20
0.0
 30
0.0
210
0.0
220
0.0
230
1.0
  2
SOLID
 70
     1
 71
     0
 91
        1
 92
        1
 93
        1
 72
     4
 94
        3
 73
     0
 74
     1
 95
       53
 96
       49
 40
0.0
 40
0.0
 40
0.0
 40
0.0
 40
1.0
 40
1.0
 40
1.0
 40
2.0
 40
2.0
 40
2.0
 40
3.0
 40
3.0
 40
3.0
 40
4.0
 40
4.0
 40
4.0
 40
5.0
 40
5.0
 40
5.0
 40
6.0
 40
6.0
 40
6.0
 40
7.0
 40
7.0
 40
7.0
 40
8.0
 40
8.0
 40
8.0
 40
9.0
 40
9.0
 40
9.0
 40
10.0
 40
10.0
 40
10.0
 40
11.0
 40
11.0
 40
11.0
 40
12.0
 40
12.0
 40
12.0
 40
13.0
 40
13.0
 40
13.0
 40
14.0
 40
14.0
 40
14.0
 40
15.0
 40
15.0
 40
15.0
 40
16.0
 40
16.0
 40
16.0
 40
16.0
 10
104.4863009721423
 20
-119.9496120576862
 10
104.4863009721423
 20
-120.0278157252014
 10
104.4694200042646
 20
-120.1294460420163
 10
104.406030247336
 20
-120.2310763588311
 10
104.2961317013565
 20
-120.4043646617392
 10
104.1648735633685
 20
-120.4257242537477
 10
104.0570420746802
 20
-120.4446722789166
 10
104.0570420746802
 20
-120.4446722789166
 10
104.0570420746802
 20
-120.222463620118
 10
104.0570420746802
 20
-120.222463620118
 10
104.2558240841791
 20
-120.1676866019025
 10
104.2854519053522
 20
-120.0405625784968
 10
104.2854519053522
 20
-119.9475450003951
 10
104.2854519053522
 20
-119.8080186332424
 10
104.1858886458285
 20
-119.6557454127944
 10
103.9533447005742
 20
-119.6557454127944
 10
103.6973741060201
 20
-119.6557454127944
 10
103.6274386676695
 20
-119.8355793971244
 10
103.6274386676695
 20
-119.9561577391082
 10
103.6274386676695
 20
-119.9878526175725
 10
103.6274386676695
 20
-120.1294460420163
 10
103.7566297483664
 20
-120.2183295055357
 10
103.7566297483664
 20
-120.2183295055357
 10
103.7376817231975
 20
-120.3940293752834
 10
103.7376817231975
 20
-120.3940293752834
 10
103.7376817231975
 20
-120.3940293752834
 10
102.8912217624716
 20
-120.2734510332997
 10
102.8912217624716
 20
-120.2734510332997
 10
102.8912217624716
 20
-120.2734510332997
 10
102.8912217624716
 20
-119.4948594536332
 10
102.8912217624716
 20
-119.4948594536332
 10
102.8912217624716
 20
-119.4948594536332
 10
103.0858696573883
 20
-119.4948594536332
 10
103.0858696573883
 20
-119.4948594536332
 10
103.0858696573883
 20
-119.4948594536332
 10
103.0858696573883
 20
-120.1104980168474
 10
103.0858696573883
 20
-120.1104980168474
 10
103.0858696573883
 20
-120.1104980168474
 10
103.5089273829769
 20
-120.1759548310671
 10
103.5089273829769
 20
-120.1759548310671
 10
103.4751654472215
 20
-120.1146321314297
 10
103.4348578300441
 20
-120.0322943493322
 10
103.4348578300441
 20
-119.9137830646396
 10
103.4348578300441
 20
-119.6598795273767
 10
103.6212374957961
 20
-119.4228569579915
 10
103.9343966754053
 20
-119.4228569579915
 10
104.2516899695968
 20
-119.4228569579915
 10
104.4863009721423
 20
-119.6471326740813
 10
104.4863009721423
 20
-119.9496120576862
 97
        0
 97
        0
 75
     2
 76
     1
 98
        0
  0
ENDBLK
  5
8B
330
88
100
AcDbEntity
  8
0
100
AcDbBlockEnd
  0
BLOCK
  5
9A
330
98
100
AcDbEntity
  8
0
100
AcDbBlockBegin
  2
block 5
 70
     0
 10
0.0
 20
0.0
 30
0.0
  3
block 5
  1

  0
SPLINE
  5
9C
330
98
100
AcDbEntity
  8
_U+30EC_U+30A4_U+30E4_U+30FC 1
370
     0
100
AcDbSpline
210
0.0
220
0.0
230
1.0
 70
    11
 71
     3
 72
    26
 73
    22
 74
     0
 42
0.0000000001
 43
0.0000000001
 12
1.0
 22
0.0
 32
0.0
 13
1.0
 23
0.0
 33
0.0
 40
0.0
 40
0.0
 40
0.0
 40
0.0
 40
1.0
 40
1.0
 40
1.0
 40
2.0
 40
2.0
 40
2.0
 40
3.0
 40
3.0
 40
3.0
 40
4.0
 40
4.0
 40
4.0
 40
5.0
 40
5.0
 40
5.0
 40
6.0
 40
6.0
 40
6.0
 40
7.0
 40
7.0
 40
7.0
 40
7.0
 10
104.4356580685091
 20
-137.3752495316284
 30
0.0
 10
104.4356580685091
 20
-137.3752495316284
 30
0.0
 10
103.3315049654866
 20
-137.3752495316284
 30
0.0
 10
103.3315049654866
 20
-137.3752495316284
 30
0.0
 10
103.3315049654866
 20
-137.3752495316284
 30
0.0
 10
103.3315049654866
 20
-137.7052896791153
 30
0.0
 10
103.3315049654866
 20
-137.7052896791153
 30
0.0
 10
103.3315049654866
 20
-137.7052896791153
 30
0.0
 10
103.1833658596208
 20
-137.7052896791153
 30
0.0
 10
103.1833658596208
 20
-137.7052896791153
 30
0.0
 10
103.1685519490343
 20
-137.3731824743373
 30
0.0
 10
103.0055989325819
 20
-137.3266736852864
 30
0.0
 10
102.8912217624716
 20
-137.2970458641132
 30
0.0
 10
102.8912217624716
 20
-137.2970458641132
 30
0.0
 10
102.8912217624716
 20
-137.1509738155387
 30
0.0
 10
102.8912217624716
 20
-137.1509738155387
 30
0.0
 10
102.8912217624716
 20
-137.1509738155387
 30
0.0
 10
104.4356580685091
 20
-137.1509738155387
 30
0.0
 10
104.4356580685091
 20
-137.1509738155387
 30
0.0
 10
104.4356580685091
 20
-137.1509738155387
 30
0.0
 10
104.4356580685091
 20
-137.3752495316284
 30
0.0
 10
104.4356580685091
 20
-137.3752495316284
 30
0.0
  0
HATCH
  5
9D
330
98
100
AcDbEntity
  8
_U+30EC_U+30A4_U+30E4_U+30FC 1
 62
     7
420
 16777215
100
AcDbHatch
 10
0.0
 20
0.0
 30
0.0
210
0.0
220
0.0
230
1.0
  2
SOLID
 70
     1
 71
     0
 91
        1
 92
        1
 93
        1
 72
     4
 94
        3
 73
     0
 74
     1
 95
       26
 96
       22
 40
0.0
 40
0.0
 40
0.0
 40
0.0
 40
1.0
 40
1.0
 40
1.0
 40
2.0
 40
2.0
 40
2.0
 40
3.0
 40
3.0
 40
3.0
 40
4.0
 40
4.0
 40
4.0
 40
5.0
 40
5.0
 40
5.0
 40
6.0
 40
6.0
 40
6.0
 40
7.0
 40
7.0
 40
7.0
 40
7.0
 10
104.4356580685091
 20
-137.3752495316284
 10
104.4356580685091
 20
-137.3752495316284
 10
103.3315049654866
 20
-137.3752495316284
 10
103.3315049654866
 20
-137.3752495316284
 10
103.3315049654866
 20
-137.3752495316284
 10
103.3315049654866
 20
-137.7052896791153
 10
103.3315049654866
 20
-137.7052896791153
 10
103.3315049654866
 20
-137.7052896791153
 10
103.1833658596208
 20
-137.7052896791153
 10
103.1833658596208
 20
-137.7052896791153
 10
103.1685519490343
 20
-137.3731824743373
 10
103.0055989325819
 20
-137.3266736852864
 10
102.8912217624716
 20
-137.2970458641132
 10
102.8912217624716
 20
-137.2970458641132
 10
102.8912217624716
 20
-137.1509738155387
 10
102.8912217624716
 20
-137.1509738155387
 10
102.8912217624716
 20
-137.1509738155387
 10
104.4356580685091
 20
-137.1509738155387
 10
104.4356580685091
 20
-137.1509738155387
 10
104.4356580685091
 20
-137.1509738155387
 10
104.4356580685091
 20
-137.3752495316284
 10
104.4356580685091
 20
-137.3752495316284
 97
        0
 97
        0
 75
     2
 76
     1
 98
        0
  0
ENDBLK
  5
9B
330
98
100
AcDbEntity
  8
0
100
AcDbBlockEnd
  0
ENDSEC
  0
SECTION
  2
ENTITIES
  0
SPLINE
  5
41
330
1F
100
AcDbEntity
  8
_U+30EC_U+30A4_U+30E4_U+30FC 1
370
     0
100
AcDbSpline
210
0.0
220
0.0
230
1.0
 70
    11
 71
     3
 72
    50
 73
    46
 74
     0
 42
0.0000000001
 43
0.0000000001
 12
1.0
 22
0.0
 32
0.0
 13
1.0
 23
0.0
 33
0.0
 40
0.0
 40
0.0
 40
0.0
 40
0.0
 40
1.0
 40
1.0
 40
1.0
 40
2.0
 40
2.0
 40
2.0
 40
3.0
 40
3.0
 40
3.0
 40
4.0
 40
4.0
 40
4.0
 40
5.0
 40
5.0
 40
5.0
 40
6.0
 40
6.0
 40
6.0
 40
7.0
 40
7.0
 40
7.0
 40
8.0
 40
8.0
 40
8.0
 40
9.0
 40
9.0
 40
9.0
 40
10.0
 40
10.0
 40
10.0
 40
11.0
 40
11.0
 40
11.0
 40
12.0
 40
12.0
 40
12.0
 40
13.0
 40
13.0
 40
13.0
 40
14.0
 40
14.0
 40
14.0
 40
15.0
 40
15.0
 40
15.0
 40
15.0
 10
86.39128918486348
 20
-129.624137467594
 30
0.0
 10
86.39128918486348
 20
-129.624137467594
 30
0.0
 10
86.3950639069894
 20
-124.3944891355681
 30
0.0
 10
86.3950639069894
 20
-124.3944891355681
 30
0.0
 10
86.3950639069894
 20
-124.3944891355681
 30
0.0
 10
90.31438964033241
 20
-124.3944891355681
 30
0.0
 10
90.31438964033241
 20
-124.3944891355681
 30
0.0
 10
90.31438964033241
 20
-124.3944891355681
 30
0.0
 10
90.64441324302392
 20
-124.8917646909993
 30
0.0
 10
90.64441324302392
 20
-124.8917646909993
 30
0.0
 10
90.64441324302392
 20
-124.8917646909993
 30
0.0
 10
91.8861909891213
 20
-124.8917646909993
 30
0.0
 10
91.8861909891213
 20
-124.8917646909993
 30
0.0
 10
91.8861909891213
 20
-124.8917646909993
 30
0.0
 10
90.88246768139508
 20
-123.3967630247065
 30
0.0
 10
90.88246768139508
 20
-123.3967630247065
 30
0.0
 10
90.88246768139508
 20
-123.3967630247065
 30
0.0
 10
81.06049959864103
 20
-123.3967630247065
 30
0.0
 10
81.06049959864103
 20
-123.3967630247065
 30
0.0
 10
81.06049959864103
 20
-123.3967630247065
 30
0.0
 10
79.84645018516957
 20
-124.8917646909993
 30
0.0
 10
79.84645018516957
 20
-124.8917646909993
 30
0.0
 10
79.84645018516957
 20
-124.8917646909993
 30
0.0
 10
81.16456904043045
 20
-124.8917646909993
 30
0.0
 10
81.16456904043045
 20
-124.8917646909993
 30
0.0
 10
81.16456904043045
 20
-124.8917646909993
 30
0.0
 10
81.56313736359546
 20
-124.3944891355681
 30
0.0
 10
81.56313736359546
 20
-124.3944891355681
 30
0.0
 10
81.56313736359546
 20
-124.3944891355681
 30
0.0
 10
85.37324309972489
 20
-124.3944891355681
 30
0.0
 10
85.37324309972489
 20
-124.3944891355681
 30
0.0
 10
85.37324309972489
 20
-124.3944891355681
 30
0.0
 10
85.37324309972489
 20
-129.5945041342679
 30
0.0
 10
85.37324309972489
 20
-129.5945041342679
 30
0.0
 10
84.82171033601789
 20
-129.8160133008796
 30
0.0
 10
84.36747368093977
 20
-130.3527646896339
 30
0.0
 10
84.36747368093977
 20
-130.9835666339206
 30
0.0
 10
84.36747368093977
 20
-131.8121005226027
 30
0.0
 10
85.03909199713868
 20
-132.4835424668793
 30
0.0
 10
85.86744947600552
 20
-132.4835424668793
 30
0.0
 10
86.69584442277063
 20
-132.4835424668793
 30
0.0
 10
87.36746054884817
 20
-131.8121005226027
 30
0.0
 10
87.36746054884817
 20
-130.9835666339206
 30
0.0
 10
87.36746054884817
 20
-130.3724144118515
 30
0.0
 10
86.91579917148212
 20
-129.8580644119799
 30
0.0
 10
86.39128918486348
 20
-129.624137467594
 30
0.0
  0
HATCH
  5
42
330
1F
100
AcDbEntity
  8
_U+30EC_U+30A4_U+30E4_U+30FC 1
 62
   253
420
 11711154
100
AcDbHatch
 10
0.0
 20
0.0
 30
0.0
210
0.0
220
0.0
230
1.0
  2
SOLID
 70
     1
 71
     0
 91
        1
 92
        1
 93
        1
 72
     4
 94
        3
 73
     0
 74
     1
 95
       50
 96
       46
 40
0.0
 40
0.0
 40
0.0
 40
0.0
 40
1.0
 40
1.0
 40
1.0
 40
2.0
 40
2.0
 40
2.0
 40
3.0
 40
3.0
 40
3.0
 40
4.0
 40
4.0
 40
4.0
 40
5.0
 40
5.0
 40
5.0
 40
6.0
 40
6.0
 40
6.0
 40
7.0
 40
7.0
 40
7.0
 40
8.0
 40
8.0
 40
8.0
 40
9.0
 40
9.0
 40
9.0
 40
10.0
 40
10.0
 40
10.0
 40
11.0
 40
11.0
 40
11.0
 40
12.0
 40
12.0
 40
12.0
 40
13.0
 40
13.0
 40
13.0
 40
14.0
 40
14.0
 40
14.0
 40
15.0
 40
15.0
 40
15.0
 40
15.0
 10
86.39128918486348
 20
-129.624137467594
 10
86.39128918486348
 20
-129.624137467594
 10
86.3950639069894
 20
-124.3944891355681
 10
86.3950639069894
 20
-124.3944891355681
 10
86.3950639069894
 20
-124.3944891355681
 10
90.31438964033241
 20
-124.3944891355681
 10
90.31438964033241
 20
-124.3944891355681
 10
90.31438964033241
 20
-124.3944891355681
 10
90.64441324302392
 20
-124.8917646909993
 10
90.64441324302392
 20
-124.8917646909993
 10
90.64441324302392
 20
-124.8917646909993
 10
91.8861909891213
 20
-124.8917646909993
 10
91.8861909891213
 20
-124.8917646909993
 10
91.8861909891213
 20
-124.8917646909993
 10
90.88246768139508
 20
-123.3967630247065
 10
90.88246768139508
 20
-123.3967630247065
 10
90.88246768139508
 20
-123.3967630247065
 10
81.06049959864103
 20
-123.3967630247065
 10
81.06049959864103
 20
-123.3967630247065
 10
81.06049959864103
 20
-123.3967630247065
 10
79.84645018516957
 20
-124.8917646909993
 10
79.84645018516957
 20
-124.8917646909993
 10
79.84645018516957
 20
-124.8917646909993
 10
81.16456904043045
 20
-124.8917646909993
 10
81.16456904043045
 20
-124.8917646909993
 10
81.16456904043045
 20
-124.8917646909993
 10
81.56313736359546
 20
-124.3944891355681
 10
81.56313736359546
 20
-124.3944891355681
 10
81.56313736359546
 20
-124.3944891355681
 10
85.37324309972489
 20
-124.3944891355681
 10
85.37324309972489
 20
-124.3944891355681
 10
85.37324309972489
 20
-124.3944891355681
 10
85.37324309972489
 20
-129.5945041342679
 10
85.37324309972489
 20
-129.5945041342679
 10
84.82171033601789
 20
-129.8160133008796
 10
84.36747368093977
 20
-130.3527646896339
 10
84.36747368093977
 20
-130.9835666339206
 10
84.36747368093977
 20
-131.8121005226027
 10
85.03909199713868
 20
-132.4835424668793
 10
85.86744947600552
 20
-132.4835424668793
 10
86.69584442277063
 20
-132.4835424668793
 10
87.36746054884817
 20
-131.8121005226027
 10
87.36746054884817
 20
-130.9835666339206
 10
87.36746054884817
 20
-130.3724144118515
 10
86.91579917148212
 20
-129.8580644119799
 10
86.39128918486348
 20
-129.624137467594
 97
        0
 97
        0
 75
     2
 76
     1
 98
        0
  0
SPLINE
  5
43
330
1F
100
AcDbEntity
  8
_U+30EC_U+30A4_U+30E4_U+30FC 1
 62
     7
420
 16777215
370
     9
100
AcDbSpline
210
0.0
220
0.0
230
1.0
 70
    11
 71
     3
 72
    17
 73
    13
 74
     0
 42
0.0000000001
 43
0.0000000001
 12
1.0
 22
0.0
 32
0.0
 13
1.0
 23
0.0
 33
0.0
 40
0.0
 40
0.0
 40
0.0
 40
0.0
 40
1.0
 40
1.0
 40
1.0
 40
2.0
 40
2.0
 40
2.0
 40
3.0
 40
3.0
 40
3.0
 40
4.0
 40
4.0
 40
4.0
 40
4.0
 10
79.96152629334485
 20
-120.8234608031276
 30
0.0
 10
79.96152629334485
 20
-120.7683216364746
 30
0.0
 10
79.91672351671008
 20
-120.7235541364857
 30
0.0
 10
79.86161962922701
 20
-120.7235541364857
 30
0.0
 10
79.80648046396706
 20
-120.7235541364857
 30
0.0
 10
79.76171296510917
 20
-120.7683216364746
 30
0.0
 10
79.76171296510917
 20
-120.8234608031276
 30
0.0
 10
79.76171296510917
 20
-120.8792702475581
 30
0.0
 10
79.80648046396706
 20
-120.9240730253245
 30
0.0
 10
79.86161962922701
 20
-120.9240730253245
 30
0.0
 10
79.91672351671008
 20
-120.9240730253245
 30
0.0
 10
79.96152629334485
 20
-120.8792702475581
 30
0.0
 10
79.96152629334485
 20
-120.8234608031276
 30
0.0
  0
SPLINE
  5
44
330
1F
100
AcDbEntity
  8
_U+30EC_U+30A4_U+30E4_U+30FC 1
 62
     7
420
 16777215
370
     9
100
AcDbSpline
210
0.0
220
0.0
230
1.0
 70
    11
 71
     3
 72
    17
 73
    13
 74
     0
 42
0.0000000001
 43
0.0000000001
 12
1.0
 22
0.0
 32
0.0
 13
1.0
 23
0.0
 33
0.0
 40
0.0
 40
0.0
 40
0.0
 40
0.0
 40
1.0
 40
1.0
 40
1.0
 40
2.0
 40
2.0
 40
2.0
 40
3.0
 40
3.0
 40
3.0
 40
4.0
 40
4.0
 40
4.0
 40
4.0
 10
91.97096348695858
 20
-120.8255421920157
 30
0.0
 10
91.97096348695858
 20
-120.770403025363
 30
0.0
 10
91.92616071032381
 20
-120.7256355253741
 30
0.0
 10
91.87105682284074
 20
-120.7256355253741
 30
0.0
 10
91.8159176575808
 20
-120.7256355253741
 30
0.0
 10
91.7711501587229
 20
-120.770403025363
 30
0.0
 10
91.7711501587229
 20
-120.8255421920157
 30
0.0
 10
91.7711501587229
 20
-120.8813516364465
 30
0.0
 10
91.8159176575808
 20
-120.926119136435
 30
0.0
 10
91.87105682284074
 20
-120.926119136435
 30
0.0
 10
91.92616071032381
 20
-120.926119136435
 30
0.0
 10
91.97096348695858
 20
-120.8813516364465
 30
0.0
 10
91.97096348695858
 20
-120.8255421920157
 30
0.0
  0
POLYLINE
  5
45
330
1F
100
AcDbEntity
  8
_U+30EC_U+30A4_U+30E4_U+30FC 1
 62
     7
420
 16777215
370
     9
100
AcDb2dPolyline
 66
     1
 10
0.0
 20
0.0
 30
0.0
  0
VERTEX
  5
46
330
45
100
AcDbEntity
  8
_U+30EC_U+30A4_U+30E4_U+30FC 1
 62
     7
420
 16777215
370
     9
100
AcDbVertex
100
AcDb2dVertex
 10
79.8637010180628
 20
-120.8234608031276
 30
0.0
  0
VERTEX
  5
47
330
45
100
AcDbEntity
  8
_U+30EC_U+30A4_U+30E4_U+30FC 1
 62
     7
420
 16777215
370
     9
100
AcDbVertex
100
AcDb2dVertex
 10
91.87243265613897
 20
-120.8234608031276
 30
0.0
  0
SEQEND
  5
48
330
45
100
AcDbEntity
  8
_U+30EC_U+30A4_U+30E4_U+30FC 1
 62
     7
420
 16777215
370
     9
  0
POLYLINE
  5
49
330
1F
100
AcDbEntity
  8
_U+30EC_U+30A4_U+30E4_U+30FC 1
 62
     7
420
 16777215
370
     9
100
AcDb2dPolyline
 66
     1
 10
0.0
 20
0.0
 30
0.0
  0
VERTEX
  5
4A
330
49
100
AcDbEntity
  8
_U+30EC_U+30A4_U+30E4_U+30FC 1
 62
     7
420
 16777215
370
     9
100
AcDbVertex
100
AcDb2dVertex
 10
79.86161962922701
 20
-119.3634194146036
 30
0.0
  0
VERTEX
  5
4B
330
49
100
AcDbEntity
  8
_U+30EC_U+30A4_U+30E4_U+30FC 1
 62
     7
420
 16777215
370
     9
100
AcDbVertex
100
AcDb2dVertex
 10
79.86161962922701
 20
-121.8239033028772
 30
0.0
  0
SEQEND
  5
4C
330
49
100
AcDbEntity
  8
_U+30EC_U+30A4_U+30E4_U+30FC 1
 62
     7
420
 16777215
370
     9
  0
POLYLINE
  5
4D
330
1F
100
AcDbEntity
  8
_U+30EC_U+30A4_U+30E4_U+30FC 1
 62
     7
420
 16777215
370
     9
100
AcDb2dPolyline
 66
     1
 10
0.0
 20
0.0
 30
0.0
  0
VERTEX
  5
4E
330
4D
100
AcDbEntity
  8
_U+30EC_U+30A4_U+30E4_U+30FC 1
 62
     7
420
 16777215
370
     9
100
AcDbVertex
100
AcDb2dVertex
 10
91.87035126730319
 20
-119.3634194146036
 30
0.0
  0
VERTEX
  5
4F
330
4D
100
AcDbEntity
  8
_U+30EC_U+30A4_U+30E4_U+30FC 1
 62
     7
420
 16777215
370
     9
100
AcDbVertex
100
AcDb2dVertex
 10
91.87035126730319
 20
-121.8239033028772
 30
0.0
  0
SEQEND
  5
50
330
4D
100
AcDbEntity
  8
_U+30EC_U+30A4_U+30E4_U+30FC 1
 62
     7
420
 16777215
370
     9
  0
INSERT
  5
52
330
1F
100
AcDbEntity
  8
_U+30EC_U+30A4_U+30E4_U+30FC 1
100
AcDbBlockReference
  2
block 2
 10
0.0
 20
0.0
 30
0.0
  0
SPLINE
  5
59
330
1F
100
AcDbEntity
  8
_U+30EC_U+30A4_U+30E4_U+30FC 1
 62
     7
420
 16777215
370
    25
100
AcDbSpline
210
0.0
220
0.0
230
1.0
 70
    11
 71
     3
 72
    50
 73
    46
 74
     0
 42
0.0000000001
 43
0.0000000001
 12
1.0
 22
0.0
 32
0.0
 13
1.0
 23
0.0
 33
0.0
 40
0.0
 40
0.0
 40
0.0
 40
0.0
 40
1.0
 40
1.0
 40
1.0
 40
2.0
 40
2.0
 40
2.0
 40
3.0
 40
3.0
 40
3.0
 40
4.0
 40
4.0
 40
4.0
 40
5.0
 40
5.0
 40
5.0
 40
6.0
 40
6.0
 40
6.0
 40
7.0
 40
7.0
 40
7.0
 40
8.0
 40
8.0
 40
8.0
 40
9.0
 40
9.0
 40
9.0
 40
10.0
 40
10.0
 40
10.0
 40
11.0
 40
11.0
 40
11.0
 40
12.0
 40
12.0
 40
12.0
 40
13.0
 40
13.0
 40
13.0
 40
14.0
 40
14.0
 40
14.0
 40
15.0
 40
15.0
 40
15.0
 40
15.0
 10
86.39128918486348
 20
-129.624137467594
 30
0.0
 10
86.39128918486348
 20
-129.624137467594
 30
0.0
 10
86.3950639069894
 20
-124.3944891355681
 30
0.0
 10
86.3950639069894
 20
-124.3944891355681
 30
0.0
 10
86.3950639069894
 20
-124.3944891355681
 30
0.0
 10
90.31438964033241
 20
-124.3944891355681
 30
0.0
 10
90.31438964033241
 20
-124.3944891355681
 30
0.0
 10
90.31438964033241
 20
-124.3944891355681
 30
0.0
 10
90.64441324302392
 20
-124.8917646909993
 30
0.0
 10
90.64441324302392
 20
-124.8917646909993
 30
0.0
 10
90.64441324302392
 20
-124.8917646909993
 30
0.0
 10
91.8861909891213
 20
-124.8917646909993
 30
0.0
 10
91.8861909891213
 20
-124.8917646909993
 30
0.0
 10
91.8861909891213
 20
-124.8917646909993
 30
0.0
 10
90.88246768139508
 20
-123.3967630247065
 30
0.0
 10
90.88246768139508
 20
-123.3967630247065
 30
0.0
 10
90.88246768139508
 20
-123.3967630247065
 30
0.0
 10
81.06049959864103
 20
-123.3967630247065
 30
0.0
 10
81.06049959864103
 20
-123.3967630247065
 30
0.0
 10
81.06049959864103
 20
-123.3967630247065
 30
0.0
 10
79.84645018516957
 20
-124.8917646909993
 30
0.0
 10
79.84645018516957
 20
-124.8917646909993
 30
0.0
 10
79.84645018516957
 20
-124.8917646909993
 30
0.0
 10
81.16456904043045
 20
-124.8917646909993
 30
0.0
 10
81.16456904043045
 20
-124.8917646909993
 30
0.0
 10
81.16456904043045
 20
-124.8917646909993
 30
0.0
 10
81.56313736359546
 20
-124.3944891355681
 30
0.0
 10
81.56313736359546
 20
-124.3944891355681
 30
0.0
 10
81.56313736359546
 20
-124.3944891355681
 30
0.0
 10
85.37324309972489
 20
-124.3944891355681
 30
0.0
 10
85.37324309972489
 20
-124.3944891355681
 30
0.0
 10
85.37324309972489
 20
-124.3944891355681
 30
0.0
 10
85.37324309972489
 20
-129.5945041342679
 30
0.0
 10
85.37324309972489
 20
-129.5945041342679
 30
0.0
 10
84.82171033601789
 20
-129.8160133008796
 30
0.0
 10
84.36747368093977
 20
-130.3527646896339
 30
0.0
 10
84.36747368093977
 20
-130.9835666339206
 30
0.0
 10
84.36747368093977
 20
-131.8121005226027
 30
0.0
 10
85.03909199713868
 20
-132.4835424668793
 30
0.0
 10
85.86744947600552
 20
-132.4835424668793
 30
0.0
 10
86.69584442277063
 20
-132.4835424668793
 30
0.0
 10
87.36746054884817
 20
-131.8121005226027
 30
0.0
 10
87.36746054884817
 20
-130.9835666339206
 30
0.0
 10
87.36746054884817
 20
-130.3724144118515
 30
0.0
 10
86.91579917148212
 20
-129.8580644119799
 30
0.0
 10
86.39128918486348
 20
-129.624137467594
 30
0.0
  0
SPLINE
  5
5A
330
1F
100
AcDbEntity
  8
_U+30EC_U+30A4_U+30E4_U+30FC 1
 62
     7
420
 16777215
370
    25
100
AcDbSpline
210
0.0
220
0.0
230
1.0
 70
    11
 71
     3
 72
    89
 73
    85
 74
     0
 42
0.0000000001
 43
0.0000000001
 12
1.0
 22
0.0
 32
0.0
 13
1.0
 23
0.0
 33
0.0
 40
0.0
 40
0.0
 40
0.0
 40
0.0
 40
1.0
 40
1.0
 40
1.0
 40
2.0
 40
2.0
 40
2.0
 40
3.0
 40
3.0
 40
3.0
 40
4.0
 40
4.0
 40
4.0
 40
5.0
 40
5.0
 40
5.0
 40
6.0
 40
6.0
 40
6.0
 40
7.0
 40
7.0
 40
7.0
 40
8.0
 40
8.0
 40
8.0
 40
9.0
 40
9.0
 40
9.0
 40
10.0
 40
10.0
 40
10.0
 40
11.0
 40
11.0
 40
11.0
 40
12.0
 40
12.0
 40
12.0
 40
13.0
 40
13.0
 40
13.0
 40
14.0
 40
14.0
 40
14.0
 40
15.0
 40
15.0
 40
15.0
 40
16.0
 40
16.0
 40
16.0
 40
17.0
 40
17.0
 40
17.0
 40
18.0
 40
18.0
 40
18.0
 40
19.0
 40
19.0
 40
19.0
 40
20.0
 40
20.0
 40
20.0
 40
21.0
 40
21.0
 40
21.0
 40
22.0
 40
22.0
 40
22.0
 40
23.0
 40
23.0
 40
23.0
 40
24.0
 40
24.0
 40
24.0
 40
25.0
 40
25.0
 40
25.0
 40
26.0
 40
26.0
 40
26.0
 40
27.0
 40
27.0
 40
27.0
 40
28.0
 40
28.0
 40
28.0
 40
28.0
 10
83.81830452828356
 20
-129.3209602454478
 30
0.0
 10
83.81830452828356
 20
-129.3209602454478
 30
0.0
 10
83.55544981276732
 20
-129.0288249677429
 30
0.0
 10
83.55544981276732
 20
-129.0288249677429
 30
0.0
 10
83.31326787450146
 20
-128.7790583011385
 30
0.0
 10
83.33806815164652
 20
-128.7487194122574
 30
0.0
 10
83.52235925805599
 20
-128.5988594122946
 30
0.0
 10
83.65726147683657
 20
-128.4891455234333
 30
0.0
 10
83.97507896872837
 20
-128.3029494123687
 30
0.0
 10
84.1135442429736
 20
-128.3947421901235
 30
0.0
 10
84.1135442429736
 20
-128.3947421901235
 30
0.0
 10
85.20151088188392
 20
-129.4763235787422
 30
0.0
 10
85.20151088188392
 20
-129.4763235787422
 30
0.0
 10
84.64408886772776
 20
-129.7519488564512
 30
0.0
 10
84.18727479664813
 20
-130.3258830229742
 30
0.0
 10
84.18727479664813
 20
-130.9897755228083
 30
0.0
 10
84.18727479664813
 20
-131.3638963560479
 30
0.0
 10
84.30887729354579
 20
-131.7094421892947
 30
0.0
 10
84.51489951051195
 20
-131.9891949670024
 30
0.0
 10
84.51489951051195
 20
-131.9891949670024
 30
0.0
 10
82.68091372396749
 20
-134.4772307997138
 30
0.0
 10
82.68091372396749
 20
-134.4772307997138
 30
0.0
 10
83.46002342631297
 20
-134.4772307997138
 30
0.0
 10
84.5679572869361
 20
-134.4765605219364
 30
0.0
 10
85.86244003168888
 20
-134.475854966381
 30
0.0
 10
87.15695805421853
 20
-134.4765605219364
 30
0.0
 10
88.26489191484167
 20
-134.4772307997138
 30
0.0
 10
89.04382522830277
 20
-134.4772307997138
 30
0.0
 10
89.04382522830277
 20
-134.4772307997138
 30
0.0
 10
87.21001583064269
 20
-131.9891949670024
 30
0.0
 10
87.21001583064269
 20
-131.9891949670024
 30
0.0
 10
87.41603804760885
 20
-131.7094421892947
 30
0.0
 10
87.53764054450652
 20
-131.3638963560479
 30
0.0
 10
87.53764054450652
 20
-130.9897755228083
 30
0.0
 10
87.53764054450652
 20
-130.3258830229742
 30
0.0
 10
87.05066611248581
 20
-129.7512433008957
 30
0.0
 10
86.49306557115584
 20
-129.4756533009642
 30
0.0
 10
86.49306557115584
 20
-129.4756533009642
 30
0.0
 10
87.58071471007426
 20
-128.3937191345684
 30
0.0
 10
87.58071471007426
 20
-128.3937191345684
 30
0.0
 10
87.7191799843195
 20
-128.3018910790358
 30
0.0
 10
88.0369974762113
 20
-128.4881224678781
 30
0.0
 10
88.17186664462359
 20
-128.5978363567395
 30
0.0
 10
88.35619080140134
 20
-128.7476963567019
 30
0.0
 10
88.3809910785464
 20
-128.7776824678056
 30
0.0
 10
88.13880914028053
 20
-129.0277666344096
 30
0.0
 10
88.13880914028053
 20
-129.0277666344096
 30
0.0
 10
87.87595442476429
 20
-129.3199371898921
 30
0.0
 10
87.87595442476429
 20
-129.3199371898921
 30
0.0
 10
88.2502516374374
 20
-129.7739974675568
 30
0.0
 10
88.47504163170252
 20
-130.3555163562997
 30
0.0
 10
88.47504163170252
 20
-130.9900930228079
 30
0.0
 10
88.47504163170252
 20
-131.3546183004949
 30
0.0
 10
88.40064080026733
 20
-131.7018574670748
 30
0.0
 10
88.2664441370243
 20
-132.0174524669957
 30
0.0
 10
88.2664441370243
 20
-132.0174524669957
 30
0.0
 10
90.23240408686847
 20
-134.4710219108267
 30
0.0
 10
90.23240408686847
 20
-134.4710219108267
 30
0.0
 10
90.23240408686847
 20
-134.4710219108267
 30
0.0
 10
96.87746725067213
 20
-134.4723977441597
 30
0.0
 10
96.87746725067213
 20
-134.4723977441597
 30
0.0
 10
96.87746725067213
 20
-134.4723977441597
 30
0.0
 10
96.87746725067213
 20
-135.4218638550333
 30
0.0
 10
96.87746725067213
 20
-135.4218638550333
 30
0.0
 10
96.87746725067213
 20
-135.4218638550333
 30
0.0
 10
85.86244003168888
 20
-135.4218638550333
 30
0.0
 10
85.86244003168888
 20
-135.4218638550333
 30
0.0
 10
85.86244003168888
 20
-135.4218638550333
 30
0.0
 10
74.87313031204953
 20
-135.4218638550333
 30
0.0
 10
74.87313031204953
 20
-135.4218638550333
 30
0.0
 10
74.87313031204953
 20
-135.4218638550333
 30
0.0
 10
74.87313031204953
 20
-134.4723977441597
 30
0.0
 10
74.87313031204953
 20
-134.4723977441597
 30
0.0
 10
74.87313031204953
 20
-134.4723977441597
 30
0.0
 10
81.49251125428617
 20
-134.4710219108267
 30
0.0
 10
81.49251125428617
 20
-134.4710219108267
 30
0.0
 10
81.49251125428617
 20
-134.4710219108267
 30
0.0
 10
83.45847120413035
 20
-132.0174524669957
 30
0.0
 10
83.45847120413035
 20
-132.0174524669957
 30
0.0
 10
83.32409815200293
 20
-131.7018574670748
 30
0.0
 10
83.24987370945212
 20
-131.3546183004949
 30
0.0
 10
83.24987370945212
 20
-130.9900930228079
 30
0.0
 10
83.24987370945212
 20
-130.3555163562997
 30
0.0
 10
83.44383092672608
 20
-129.7746677453342
 30
0.0
 10
83.81830452828356
 20
-129.3209602454478
 30
0.0
  0
SPLINE
  5
5B
330
1F
100
AcDbEntity
  8
_U+30EC_U+30A4_U+30E4_U+30FC 1
 62
     7
420
 16777215
370
     9
100
AcDbSpline
210
0.0
220
0.0
230
1.0
 70
    11
 71
     3
 72
    17
 73
    13
 74
     0
 42
0.0000000001
 43
0.0000000001
 12
1.0
 22
0.0
 32
0.0
 13
1.0
 23
0.0
 33
0.0
 40
0.0
 40
0.0
 40
0.0
 40
0.0
 40
1.0
 40
1.0
 40
1.0
 40
2.0
 40
2.0
 40
2.0
 40
3.0
 40
3.0
 40
3.0
 40
4.0
 40
4.0
 40
4.0
 40
4.0
 10
105.3076212022677
 20
-134.4386369108348
 30
0.0
 10
105.3076212022677
 20
-134.3835330219599
 30
0.0
 10
105.2628184256329
 20
-134.3387302441932
 30
0.0
 10
105.2077145381498
 20
-134.3387302441932
 30
0.0
 10
105.1525753728899
 20
-134.3387302441932
 30
0.0
 10
105.107807874032
 20
-134.3835330219599
 30
0.0
 10
105.107807874032
 20
-134.4386369108348
 30
0.0
 10
105.107807874032
 20
-134.4944463552652
 30
0.0
 10
105.1525753728899
 20
-134.539249133032
 30
0.0
 10
105.2077145381498
 20
-134.539249133032
 30
0.0
 10
105.2628184256329
 20
-134.539249133032
 30
0.0
 10
105.3076212022677
 20
-134.4944463552652
 30
0.0
 10
105.3076212022677
 20
-134.4386369108348
 30
0.0
  0
POLYLINE
  5
5C
330
1F
100
AcDbEntity
  8
_U+30EC_U+30A4_U+30E4_U+30FC 1
 62
     7
420
 16777215
370
     9
100
AcDb2dPolyline
 66
     1
 10
0.0
 20
0.0
 30
0.0
  0
VERTEX
  5
5D
330
5C
100
AcDbEntity
  8
_U+30EC_U+30A4_U+30E4_U+30FC 1
 62
     7
420
 16777215
370
     9
100
AcDbVertex
100
AcDb2dVertex
 10
105.2077145381498
 20
-138.8053202430767
 30
0.0
  0
VERTEX
  5
5E
330
5C
100
AcDbEntity
  8
_U+30EC_U+30A4_U+30E4_U+30FC 1
 62
     7
420
 16777215
370
     9
100
AcDbVertex
100
AcDb2dVertex
 10
105.2077145381498
 20
-124.8182105243512
 30
0.0
  0
SEQEND
  5
5F
330
5C
100
AcDbEntity
  8
_U+30EC_U+30A4_U+30E4_U+30FC 1
 62
     7
420
 16777215
370
     9
  0
POLYLINE
  5
60
330
1F
100
AcDbEntity
  8
_U+30EC_U+30A4_U+30E4_U+30FC 1
 62
     7
420
 16777215
370
     9
100
AcDb2dPolyline
 66
     1
 10
0.0
 20
0.0
 30
0.0
  0
VERTEX
  5
61
330
60
100
AcDbEntity
  8
_U+30EC_U+30A4_U+30E4_U+30FC 1
 62
     7
420
 16777215
370
     9
100
AcDbVertex
100
AcDb2dVertex
 10
98.87768192186462
 20
-134.4386369108348
 30
0.0
  0
VERTEX
  5
62
330
60
100
AcDbEntity
  8
_U+30EC_U+30A4_U+30E4_U+30FC 1
 62
     7
420
 16777215
370
     9
100
AcDbVertex
100
AcDb2dVertex
 10
106.6797856117053
 20
-134.4386369108348
 30
0.0
  0
SEQEND
  5
63
330
60
100
AcDbEntity
  8
_U+30EC_U+30A4_U+30E4_U+30FC 1
 62
     7
420
 16777215
370
     9
  0
SPLINE
  5
64
330
1F
100
AcDbEntity
  8
_U+30EC_U+30A4_U+30E4_U+30FC 1
 62
     7
420
 16777215
370
     9
100
AcDbSpline
210
0.0
220
0.0
230
1.0
 70
    11
 71
     3
 72
    17
 73
    13
 74
     0
 42
0.0000000001
 43
0.0000000001
 12
1.0
 22
0.0
 32
0.0
 13
1.0
 23
0.0
 33
0.0
 40
0.0
 40
0.0
 40
0.0
 40
0.0
 40
1.0
 40
1.0
 40
1.0
 40
2.0
 40
2.0
 40
2.0
 40
3.0
 40
3.0
 40
3.0
 40
4.0
 40
4.0
 40
4.0
 40
4.0
 10
105.3076212022677
 20
-135.4039780217045
 30
0.0
 10
105.3076212022677
 20
-135.3488388550514
 30
0.0
 10
105.2628184256329
 20
-135.3040713550629
 30
0.0
 10
105.2077145381498
 20
-135.3040713550629
 30
0.0
 10
105.1525753728899
 20
-135.3040713550629
 30
0.0
 10
105.107807874032
 20
-135.3488388550514
 30
0.0
 10
105.107807874032
 20
-135.4039780217045
 30
0.0
 10
105.107807874032
 20
-135.4597874661349
 30
0.0
 10
105.1525753728899
 20
-135.5045549661241
 30
0.0
 10
105.2077145381498
 20
-135.5045549661241
 30
0.0
 10
105.2628184256329
 20
-135.5045549661241
 30
0.0
 10
105.3076212022677
 20
-135.4597874661349
 30
0.0
 10
105.3076212022677
 20
-135.4039780217045
 30
0.0
  0
POLYLINE
  5
65
330
1F
100
AcDbEntity
  8
_U+30EC_U+30A4_U+30E4_U+30FC 1
 62
     7
420
 16777215
370
     9
100
AcDb2dPolyline
 66
     1
 10
0.0
 20
0.0
 30
0.0
  0
VERTEX
  5
66
330
65
100
AcDbEntity
  8
_U+30EC_U+30A4_U+30E4_U+30FC 1
 62
     7
420
 16777215
370
     9
100
AcDbVertex
100
AcDb2dVertex
 10
98.87768192186462
 20
-135.4039780217045
 30
0.0
  0
VERTEX
  5
67
330
65
100
AcDbEntity
  8
_U+30EC_U+30A4_U+30E4_U+30FC 1
 62
     7
420
 16777215
370
     9
100
AcDbVertex
100
AcDb2dVertex
 10
106.6797856117053
 20
-135.4039780217045
 30
0.0
  0
SEQEND
  5
68
330
65
100
AcDbEntity
  8
_U+30EC_U+30A4_U+30E4_U+30FC 1
 62
     7
420
 16777215
370
     9
  0
SPLINE
  5
69
330
1F
100
AcDbEntity
  8
_U+30EC_U+30A4_U+30E4_U+30FC 1
 62
     7
420
 16777215
370
     9
100
AcDbSpline
210
0.0
220
0.0
230
1.0
 70
    11
 71
     3
 72
    17
 73
    13
 74
     0
 42
0.0000000001
 43
0.0000000001
 12
1.0
 22
0.0
 32
0.0
 13
1.0
 23
0.0
 33
0.0
 40
0.0
 40
0.0
 40
0.0
 40
0.0
 40
1.0
 40
1.0
 40
1.0
 40
2.0
 40
2.0
 40
2.0
 40
3.0
 40
3.0
 40
3.0
 40
4.0
 40
4.0
 40
4.0
 40
4.0
 10
105.3076212022677
 20
-124.9181171909928
 30
0.0
 10
105.3076212022677
 20
-124.8630133021176
 30
0.0
 10
105.2628184256329
 20
-124.8182105243512
 30
0.0
 10
105.2077145381498
 20
-124.8182105243512
 30
0.0
 10
105.1525753728899
 20
-124.8182105243512
 30
0.0
 10
105.107807874032
 20
-124.8630133021176
 30
0.0
 10
105.107807874032
 20
-124.9181171909928
 30
0.0
 10
105.107807874032
 20
-124.9739266354232
 30
0.0
 10
105.1525753728899
 20
-125.0187294131896
 30
0.0
 10
105.2077145381498
 20
-125.0187294131896
 30
0.0
 10
105.2628184256329
 20
-125.0187294131896
 30
0.0
 10
105.3076212022677
 20
-124.9739266354232
 30
0.0
 10
105.3076212022677
 20
-124.9181171909928
 30
0.0
  0
POLYLINE
  5
6A
330
1F
100
AcDbEntity
  8
_U+30EC_U+30A4_U+30E4_U+30FC 1
 62
     7
420
 16777215
370
     9
100
AcDb2dPolyline
 66
     1
 10
0.0
 20
0.0
 30
0.0
  0
VERTEX
  5
6B
330
6A
100
AcDbEntity
  8
_U+30EC_U+30A4_U+30E4_U+30FC 1
 62
     7
420
 16777215
370
     9
100
AcDbVertex
100
AcDb2dVertex
 10
94.29192370552373
 20
-124.9181171909928
 30
0.0
  0
VERTEX
  5
6C
330
6A
100
AcDbEntity
  8
_U+30EC_U+30A4_U+30E4_U+30FC 1
 62
     7
420
 16777215
370
     9
100
AcDbVertex
100
AcDb2dVertex
 10
106.6129721955687
 20
-124.9181171909928
 30
0.0
  0
SEQEND
  5
6D
330
6A
100
AcDbEntity
  8
_U+30EC_U+30A4_U+30E4_U+30FC 1
 62
     7
420
 16777215
370
     9
  0
POLYLINE
  5
6E
330
1F
100
AcDbEntity
  8
_U+30EC_U+30A4_U+30E4_U+30FC 1
 62
     7
420
 16777215
370
     9
100
AcDb2dPolyline
 66
     1
 10
0.0
 20
0.0
 30
0.0
  0
VERTEX
  5
6F
330
6E
100
AcDbEntity
  8
_U+30EC_U+30A4_U+30E4_U+30FC 1
 62
     7
420
 16777215
370
     9
100
AcDbVertex
100
AcDb2dVertex
 10
105.2077145381498
 20
-124.8812519132241
 30
0.0
  0
VERTEX
  5
70
330
6E
100
AcDbEntity
  8
_U+30EC_U+30A4_U+30E4_U+30FC 1
 62
     7
420
 16777215
370
     9
100
AcDbVertex
100
AcDb2dVertex
 10
105.2077145381498
 20
-118.4651060814948
 30
0.0
  0
SEQEND
  5
71
330
6E
100
AcDbEntity
  8
_U+30EC_U+30A4_U+30E4_U+30FC 1
 62
     7
420
 16777215
370
     9
  0
SPLINE
  5
72
330
1F
100
AcDbEntity
  8
_U+30EC_U+30A4_U+30E4_U+30FC 1
 62
     7
420
 16777215
370
     9
100
AcDbSpline
210
0.0
220
0.0
230
1.0
 70
    11
 71
     3
 72
    17
 73
    13
 74
     0
 42
0.0000000001
 43
0.0000000001
 12
1.0
 22
0.0
 32
0.0
 13
1.0
 23
0.0
 33
0.0
 40
0.0
 40
0.0
 40
0.0
 40
0.0
 40
1.0
 40
1.0
 40
1.0
 40
2.0
 40
2.0
 40
2.0
 40
3.0
 40
3.0
 40
3.0
 40
4.0
 40
4.0
 40
4.0
 40
4.0
 10
105.3076212022677
 20
-123.3967630247065
 30
0.0
 10
105.3076212022677
 20
-123.3416591358312
 30
0.0
 10
105.2628184256329
 20
-123.2968563580648
 30
0.0
 10
105.2077145381498
 20
-123.2968563580648
 30
0.0
 10
105.1525753728899
 20
-123.2968563580648
 30
0.0
 10
105.107807874032
 20
-123.3416591358312
 30
0.0
 10
105.107807874032
 20
-123.3967630247065
 30
0.0
 10
105.107807874032
 20
-123.4525724691369
 30
0.0
 10
105.1525753728899
 20
-123.4973752469033
 30
0.0
 10
105.2077145381498
 20
-123.4973752469033
 30
0.0
 10
105.2628184256329
 20
-123.4973752469033
 30
0.0
 10
105.3076212022677
 20
-123.4525724691369
 30
0.0
 10
105.3076212022677
 20
-123.3967630247065
 30
0.0
  0
POLYLINE
  5
73
330
1F
100
AcDbEntity
  8
_U+30EC_U+30A4_U+30E4_U+30FC 1
 62
     7
420
 16777215
370
     9
100
AcDb2dPolyline
 66
     1
 10
0.0
 20
0.0
 30
0.0
  0
VERTEX
  5
74
330
73
100
AcDbEntity
  8
_U+30EC_U+30A4_U+30E4_U+30FC 1
 62
     7
420
 16777215
370
     9
100
AcDbVertex
100
AcDb2dVertex
 10
94.29192370552373
 20
-123.3967630247065
 30
0.0
  0
VERTEX
  5
75
330
73
100
AcDbEntity
  8
_U+30EC_U+30A4_U+30E4_U+30FC 1
 62
     7
420
 16777215
370
     9
100
AcDbVertex
100
AcDb2dVertex
 10
106.6129721955687
 20
-123.3967630247065
 30
0.0
  0
SEQEND
  5
76
330
73
100
AcDbEntity
  8
_U+30EC_U+30A4_U+30E4_U+30FC 1
 62
     7
420
 16777215
370
     9
  0
INSERT
  5
78
330
1F
100
AcDbEntity
  8
_U+30EC_U+30A4_U+30E4_U+30FC 1
100
AcDbBlockReference
  2
block 3
 10
0.0
 20
0.0
 30
0.0
  0
INSERT
  5
89
330
1F
100
AcDbEntity
  8
_U+30EC_U+30A4_U+30E4_U+30FC 1
100
AcDbBlockReference
  2
block 4
 10
0.0
 20
0.0
 30
0.0
  0
INSERT
  5
99
330
1F
100
AcDbEntity
  8
_U+30EC_U+30A4_U+30E4_U+30FC 1
100
AcDbBlockReference
  2
block 5
 10
0.0
 20
0.0
 30
0.0
  0
ENDSEC
  0
SECTION
  2
OBJECTS
  0
DICTIONARY
  5
C
330
0
100
AcDbDictionary
281
     1
  3
ACAD_GROUP
350
D
  3
ACAD_LAYOUT
350
1A
  3
ACAD_MATERIAL
350
3B
  3
ACAD_MLEADERSTYLE
350
9F
  3
ACAD_MLINESTYLE
350
17
  3
ACAD_PLOTSETTINGS
350
19
  3
ACAD_PLOTSTYLENAME
350
E
  3
ACAD_TABLESTYLE
350
9E
  3
ACAD_VISUALSTYLE
350
2A
  0
SUN
  5
3F
330
29
100
AcDbSun
 90
        1
290
     0
 63
     7
421
 16777215
 40
1.0
291
     1
 91
  2455826
 92
 54000000
292
     0
 70
     2
 71
   256
280
     1
  0
DICTIONARY
  5
D
102
{ACAD_REACTORS
330
C
102
}
330
C
100
AcDbDictionary
281
     1
  0
DICTIONARY
  5
1A
102
{ACAD_REACTORS
330
C
102
}
330
C
100
AcDbDictionary
281
     1
  3
Layout1
350
1E
  3
Layout2
350
26
  3
Model
350
22
  0
DICTIONARY
  5
3B
102
{ACAD_REACTORS
330
C
102
}
330
C
100
AcDbDictionary
281
     1
  3
ByBlock
350
3D
  3
ByLayer
350
3C
  3
Global
350
3E
  0
DICTIONARY
  5
9F
102
{ACAD_REACTORS
330
C
102
}
330
C
100
AcDbDictionary
281
     1
  0
DICTIONARY
  5
17
102
{ACAD_REACTORS
330
C
102
}
330
C
100
AcDbDictionary
281
     1
  3
Standard
350
18
  0
DICTIONARY
  5
19
102
{ACAD_REACTORS
330
C
102
}
330
C
100
AcDbDictionary
281
     1
  0
ACDBDICTIONARYWDFLT
  5
E
102
{ACAD_REACTORS
330
C
102
}
330
C
100
AcDbDictionary
281
     1
  3
Normal
350
F
100
AcDbDictionaryWithDefault
340
F
  0
DICTIONARY
  5
9E
102
{ACAD_REACTORS
330
C
102
}
330
C
100
AcDbDictionary
281
     1
  0
DICTIONARY
  5
2A
102
{ACAD_REACTORS
330
C
102
}
330
C
100
AcDbDictionary
281
     1
  3
2dWireframe
350
2F
  3
3D Hidden
350
31
  3
3dWireframe
350
30
  3
Basic
350
32
  3
Brighten
350
36
  3
ColorChange
350
3A
  3
Conceptual
350
34
  3
Dim
350
35
  3
Facepattern
350
39
  3
Flat
350
2B
  3
FlatWithEdges
350
2C
  3
Gouraud
350
2D
  3
GouraudWithEdges
350
2E
  3
Linepattern
350
38
  3
Realistic
350
33
  3
Thicken
350
37
  0
LAYOUT
  5
1E
102
{ACAD_REACTORS
330
1A
102
}
330
1A
100
AcDbPlotSettings
  1

  2
none_device
  4

  6

 40
0.0
 41
0.0
 42
0.0
 43
0.0
 44
0.0
 45
0.0
 46
0.0
 47
0.0
 48
0.0
 49
0.0
140
0.0
141
0.0
142
1.0
143
1.0
 70
   688
 72
     0
 73
     0
 74
     5
  7

 75
    16
 76
     0
 77
     2
 78
   300
147
1.0
148
0.0
149
0.0
100
AcDbLayout
  1
Layout1
 70
     1
 71
     1
 10
0.0
 20
0.0
 11
12.0
 21
9.0
 12
0.0
 22
0.0
 32
0.0
 14
1.000000000000000E+20
 24
1.000000000000000E+20
 34
1.000000000000000E+20
 15
-1.000000000000000E+20
 25
-1.000000000000000E+20
 35
-1.000000000000000E+20
146
0.0
 13
0.0
 23
0.0
 33
0.0
 16
1.0
 26
0.0
 36
0.0
 17
0.0
 27
1.0
 37
0.0
 76
     0
330
1B
  0
LAYOUT
  5
26
102
{ACAD_REACTORS
330
1A
102
}
330
1A
100
AcDbPlotSettings
  1

  2
none_device
  4

  6

 40
0.0
 41
0.0
 42
0.0
 43
0.0
 44
0.0
 45
0.0
 46
0.0
 47
0.0
 48
0.0
 49
0.0
140
0.0
141
0.0
142
1.0
143
1.0
 70
   688
 72
     0
 73
     0
 74
     5
  7

 75
    16
 76
     0
 77
     2
 78
   300
147
1.0
148
0.0
149
0.0
100
AcDbLayout
  1
Layout2
 70
     1
 71
     2
 10
0.0
 20
0.0
 11
0.0
 21
0.0
 12
0.0
 22
0.0
 32
0.0
 14
0.0
 24
0.0
 34
0.0
 15
0.0
 25
0.0
 35
0.0
146
0.0
 13
0.0
 23
0.0
 33
0.0
 16
1.0
 26
0.0
 36
0.0
 17
0.0
 27
1.0
 37
0.0
 76
     0
330
23
  0
LAYOUT
  5
22
102
{ACAD_REACTORS
330
1A
102
}
330
1A
100
AcDbPlotSettings
  1

  2
none_device
  4

  6

 40
0.0
 41
0.0
 42
0.0
 43
0.0
 44
0.0
 45
0.0
 46
0.0
 47
0.0
 48
0.0
 49
0.0
140
0.0
141
0.0
142
1.0
143
1.0
 70
  1712
 72
     0
 73
     0
 74
     0
  7

 75
     0
 76
     0
 77
     2
 78
   300
147
1.0
148
0.0
149
0.0
100
AcDbLayout
  1
Model
 70
     1
 71
     0
 10
0.0
 20
0.0
 11
12.0
 21
9.0
 12
0.0
 22
0.0
 32
0.0
 14
1.000000000000000E+20
 24
1.000000000000000E+20
 34
1.000000000000000E+20
 15
-1.000000000000000E+20
 25
-1.000000000000000E+20
 35
-1.000000000000000E+20
146
0.0
 13
0.0
 23
0.0
 33
0.0
 16
1.0
 26
0.0
 36
0.0
 17
0.0
 27
1.0
 37
0.0
 76
     0
330
1F
331
29
  0
MATERIAL
  5
3D
102
{ACAD_REACTORS
330
3B
102
}
330
3B
100
AcDbMaterial
  1
ByBlock
 72
     1
 94
      127
  0
MATERIAL
  5
3C
102
{ACAD_REACTORS
330
3B
102
}
330
3B
100
AcDbMaterial
  1
ByLayer
 72
     1
 94
      127
  0
MATERIAL
  5
3E
102
{ACAD_REACTORS
330
3B
102
}
330
3B
100
AcDbMaterial
  1
Global
 72
     1
 94
      127
  0
MLINESTYLE
  5
18
102
{ACAD_REACTORS
330
17
102
}
330
17
100
AcDbMlineStyle
  2
Standard
 70
     0
  3

 62
   256
 51
90.0
 52
90.0
 71
     2
 49
0.5
 62
   256
  6
BYLAYER
 49
-0.5
 62
   256
  6
BYLAYER
  0
ACDBPLACEHOLDER
  5
F
102
{ACAD_REACTORS
330
E
102
}
330
E
  0
VISUALSTYLE
  5
2F
102
{ACAD_REACTORS
330
2A
102
}
330
2A
100
AcDbVisualStyle
  2
2dWireframe
 70
     4
177
     2
291
     0
 71
     0
176
     1
 72
     2
176
     1
 73
     0
176
     1
 90
        0
176
     1
 40
-0.6
176
     1
 41
-30.0
176
     1
 62
     5
 63
     7
421
 16777215
176
     1
 74
     1
176
     1
 91
        4
176
     1
 64
     7
176
     1
 65
   257
176
     1
 75
     1
176
     1
175
     1
176
     1
 42
1.0
176
     1
 92
        0
176
     1
 66
   257
176
     1
 43
1.0
176
     1
 76
     1
176
     1
 77
     6
176
     1
 78
     2
176
     1
 67
     7
176
     1
 79
     5
176
     1
170
     0
176
     1
171
     0
176
     1
290
     0
176
     1
 93
        1
176
     1
 44
0.0
176
     1
173
     0
176
     1
  0
VISUALSTYLE
  5
31
102
{ACAD_REACTORS
330
2A
102
}
330
2A
100
AcDbVisualStyle
  2
3D Hidden
 70
     6
177
     2
291
     0
 71
     1
176
     1
 72
     2
176
     1
 73
     2
176
     1
 90
        0
176
     1
 40
-0.6
176
     1
 41
-30.0
176
     1
 62
     5
 63
     7
421
 16777215
176
     1
 74
     2
176
     1
 91
        2
176
     1
 64
     7
176
     1
 65
   257
176
     1
 75
     2
176
     1
175
     1
176
     1
 42
40.0
176
     1
 92
        0
176
     1
 66
   257
176
     1
 43
1.0
176
     1
 76
     1
176
     1
 77
     6
176
     1
 78
     2
176
     1
 67
     7
176
     1
 79
     3
176
     1
170
     0
176
     1
171
     0
176
     1
290
     0
176
     1
 93
        1
176
     1
 44
0.0
176
     1
173
     0
176
     1
  0
VISUALSTYLE
  5
30
102
{ACAD_REACTORS
330
2A
102
}
330
2A
100
AcDbVisualStyle
  2
3dWireframe
 70
     5
177
     2
291
     0
 71
     0
176
     1
 72
     2
176
     1
 73
     0
176
     1
 90
        0
176
     1
 40
-0.6
176
     1
 41
-30.0
176
     1
 62
     5
 63
     7
421
 16777215
176
     1
 74
     1
176
     1
 91
        4
176
     1
 64
     7
176
     1
 65
   257
176
     1
 75
     1
176
     1
175
     1
176
     1
 42
1.0
176
     1
 92
        0
176
     1
 66
   257
176
     1
 43
1.0
176
     1
 76
     1
176
     1
 77
     6
176
     1
 78
     2
176
     1
 67
     7
176
     1
 79
     5
176
     1
170
     0
176
     1
171
     0
176
     1
290
     0
176
     1
 93
        1
176
     1
 44
0.0
176
     1
173
     0
176
     1
  0
VISUALSTYLE
  5
32
102
{ACAD_REACTORS
330
2A
102
}
330
2A
100
AcDbVisualStyle
  2
Basic
 70
     7
177
     2
291
     1
 71
     1
176
     1
 72
     0
176
     1
 73
     1
176
     1
 90
        0
176
     1
 40
-0.6
176
     1
 41
-30.0
176
     1
 62
     5
 63
     7
421
 16777215
176
     1
 74
     0
176
     1
 91
        4
176
     1
 64
     7
176
     1
 65
   257
176
     1
 75
     1
176
     1
175
     1
176
     1
 42
1.0
176
     1
 92
        8
176
     1
 66
     7
176
     1
 43
1.0
176
     1
 76
     1
176
     1
 77
     6
176
     1
 78
     2
176
     1
 67
     7
176
     1
 79
     5
176
     1
170
     0
176
     1
171
     0
176
     1
290
     0
176
     1
 93
        1
176
     1
 44
0.0
176
     1
173
     0
176
     1
  0
VISUALSTYLE
  5
36
102
{ACAD_REACTORS
330
2A
102
}
330
2A
100
AcDbVisualStyle
  2
Brighten
 70
    12
177
     2
291
     1
 71
     2
176
     1
 72
     2
176
     1
 73
     0
176
     1
 90
        0
176
     1
 40
-0.6
176
     1
 41
-30.0
176
     1
 62
     5
 63
     7
421
 16777215
176
     1
 74
     1
176
     1
 91
        4
176
     1
 64
     7
176
     1
 65
   257
176
     1
 75
     1
176
     1
175
     1
176
     1
 42
1.0
176
     1
 92
        8
176
     1
 66
     7
176
     1
 43
1.0
176
     1
 76
     1
176
     1
 77
     6
176
     1
 78
     2
176
     1
 67
     7
176
     1
 79
     5
176
     1
170
     0
176
     1
171
     0
176
     1
290
     0
176
     1
 93
        1
176
     1
 44
50.0
176
     1
173
     0
176
     1
  0
VISUALSTYLE
  5
3A
102
{ACAD_REACTORS
330
2A
102
}
330
2A
100
AcDbVisualStyle
  2
ColorChange
 70
    16
177
     2
291
     1
 71
     2
176
     1
 72
     2
176
     1
 73
     3
176
     1
 90
        0
176
     1
 40
-0.6
176
     1
 41
-30.0
176
     1
 62
     5
 63
     8
421
  8421504
176
     1
 74
     1
176
     1
 91
        4
176
     1
 64
     7
176
     1
 65
   257
176
     1
 75
     1
176
     1
175
     1
176
     1
 42
1.0
176
     1
 92
        8
176
     1
 66
     8
424
  8421504
176
     1
 43
1.0
176
     1
 76
     1
176
     1
 77
     6
176
     1
 78
     2
176
     1
 67
     7
176
     1
 79
     5
176
     1
170
     0
176
     1
171
     0
176
     1
290
     0
176
     1
 93
        1
176
     1
 44
0.0
176
     1
173
     0
176
     1
  0
VISUALSTYLE
  5
34
102
{ACAD_REACTORS
330
2A
102
}
330
2A
100
AcDbVisualStyle
  2
Conceptual
 70
     9
177
     2
291
     0
 71
     3
176
     1
 72
     2
176
     1
 73
     0
176
     1
 90
        0
176
     1
 40
-0.6
176
     1
 41
-30.0
176
     1
 62
     5
 63
     7
421
 16777215
176
     1
 74
     2
176
     1
 91
        2
176
     1
 64
     7
176
     1
 65
   257
176
     1
 75
     1
176
     1
175
     1
176
     1
 42
40.0
176
     1
 92
        8
176
     1
 66
     7
176
     1
 43
1.0
176
     1
 76
     1
176
     1
 77
     6
176
     1
 78
     2
176
     1
 67
     7
176
     1
 79
     3
176
     1
170
     0
176
     1
171
     0
176
     1
290
     0
176
     1
 93
        1
176
     1
 44
0.0
176
     1
173
     0
176
     1
  0
VISUALSTYLE
  5
35
102
{ACAD_REACTORS
330
2A
102
}
330
2A
100
AcDbVisualStyle
  2
Dim
 70
    11
177
     2
291
     1
 71
     2
176
     1
 72
     2
176
     1
 73
     0
176
     1
 90
        0
176
     1
 40
-0.6
176
     1
 41
-30.0
176
     1
 62
     5
 63
     7
421
 16777215
176
     1
 74
     1
176
     1
 91
        4
176
     1
 64
     7
176
     1
 65
   257
176
     1
 75
     1
176
     1
175
     1
176
     1
 42
1.0
176
     1
 92
        8
176
     1
 66
     7
176
     1
 43
1.0
176
     1
 76
     1
176
     1
 77
     6
176
     1
 78
     2
176
     1
 67
     7
176
     1
 79
     5
176
     1
170
     0
176
     1
171
     0
176
     1
290
     0
176
     1
 93
        1
176
     1
 44
-50.0
176
     1
173
     0
176
     1
  0
VISUALSTYLE
  5
39
102
{ACAD_REACTORS
330
2A
102
}
330
2A
100
AcDbVisualStyle
  2
Facepattern
 70
    15
177
     2
291
     1
 71
     2
176
     1
 72
     2
176
     1
 73
     0
176
     1
 90
        0
176
     1
 40
-0.6
176
     1
 41
-30.0
176
     1
 62
     5
 63
     7
421
 16777215
176
     1
 74
     1
176
     1
 91
        4
176
     1
 64
     7
176
     1
 65
   257
176
     1
 75
     1
176
     1
175
     1
176
     1
 42
1.0
176
     1
 92
        8
176
     1
 66
     7
176
     1
 43
1.0
176
     1
 76
     1
176
     1
 77
     6
176
     1
 78
     2
176
     1
 67
     7
176
     1
 79
     5
176
     1
170
     0
176
     1
171
     0
176
     1
290
     0
176
     1
 93
        1
176
     1
 44
0.0
176
     1
173
     0
176
     1
  0
VISUALSTYLE
  5
2B
102
{ACAD_REACTORS
330
2A
102
}
330
2A
100
AcDbVisualStyle
  2
Flat
 70
     0
177
     2
291
     1
 71
     2
176
     1
 72
     1
176
     1
 73
     1
176
     1
 90
        2
176
     1
 40
-0.6
176
     1
 41
30.0
176
     1
 62
     5
 63
     7
421
 16777215
176
     1
 74
     0
176
     1
 91
        4
176
     1
 64
     7
176
     1
 65
   257
176
     1
 75
     1
176
     1
175
     1
176
     1
 42
1.0
176
     1
 92
        8
176
     1
 66
     7
176
     1
 43
1.0
176
     1
 76
     1
176
     1
 77
     6
176
     1
 78
     2
176
     1
 67
     7
176
     1
 79
     5
176
     1
170
     0
176
     1
171
     0
176
     1
290
     0
176
     1
 93
       13
176
     1
 44
0.0
176
     1
173
     0
176
     1
  0
VISUALSTYLE
  5
2C
102
{ACAD_REACTORS
330
2A
102
}
330
2A
100
AcDbVisualStyle
  2
FlatWithEdges
 70
     1
177
     2
291
     1
 71
     2
176
     1
 72
     1
176
     1
 73
     1
176
     1
 90
        2
176
     1
 40
-0.6
176
     1
 41
30.0
176
     1
 62
     5
 63
     7
421
 16777215
176
     1
 74
     1
176
     1
 91
        4
176
     1
 64
     7
176
     1
 65
   257
176
     1
 75
     1
176
     1
175
     1
176
     1
 42
1.0
176
     1
 92
        0
176
     1
 66
   257
176
     1
 43
1.0
176
     1
 76
     1
176
     1
 77
     6
176
     1
 78
     2
176
     1
 67
     7
176
     1
 79
     5
176
     1
170
     0
176
     1
171
     0
176
     1
290
     0
176
     1
 93
       13
176
     1
 44
0.0
176
     1
173
     0
176
     1
  0
VISUALSTYLE
  5
2D
102
{ACAD_REACTORS
330
2A
102
}
330
2A
100
AcDbVisualStyle
  2
Gouraud
 70
     2
177
     2
291
     1
 71
     2
176
     1
 72
     2
176
     1
 73
     1
176
     1
 90
        2
176
     1
 40
-0.6
176
     1
 41
30.0
176
     1
 62
     5
 63
     7
421
 16777215
176
     1
 74
     0
176
     1
 91
        4
176
     1
 64
     7
176
     1
 65
   257
176
     1
 75
     1
176
     1
175
     1
176
     1
 42
1.0
176
     1
 92
        0
176
     1
 66
     7
176
     1
 43
1.0
176
     1
 76
     1
176
     1
 77
     6
176
     1
 78
     2
176
     1
 67
     7
176
     1
 79
     5
176
     1
170
     0
176
     1
171
     0
176
     1
290
     0
176
     1
 93
       13
176
     1
 44
0.0
176
     1
173
     0
176
     1
  0
VISUALSTYLE
  5
2E
102
{ACAD_REACTORS
330
2A
102
}
330
2A
100
AcDbVisualStyle
  2
GouraudWithEdges
 70
     3
177
     2
291
     1
 71
     2
176
     1
 72
     2
176
     1
 73
     1
176
     1
 90
        2
176
     1
 40
-0.6
176
     1
 41
30.0
176
     1
 62
     5
 63
     7
421
 16777215
176
     1
 74
     1
176
     1
 91
        4
176
     1
 64
     7
176
     1
 65
   257
176
     1
 75
     1
176
     1
175
     1
176
     1
 42
1.0
176
     1
 92
        0
176
     1
 66
   257
176
     1
 43
1.0
176
     1
 76
     1
176
     1
 77
     6
176
     1
 78
     2
176
     1
 67
     7
176
     1
 79
     5
176
     1
170
     0
176
     1
171
     0
176
     1
290
     0
176
     1
 93
       13
176
     1
 44
0.0
176
     1
173
     0
176
     1
  0
VISUALSTYLE
  5
38
102
{ACAD_REACTORS
330
2A
102
}
330
2A
100
AcDbVisualStyle
  2
Linepattern
 70
    14
177
     2
291
     1
 71
     2
176
     1
 72
     2
176
     1
 73
     0
176
     1
 90
        0
176
     1
 40
-0.6
176
     1
 41
-30.0
176
     1
 62
     5
 63
     7
421
 16777215
176
     1
 74
     1
176
     1
 91
        4
176
     1
 64
     7
176
     1
 65
   257
176
     1
 75
     7
176
     1
175
     7
176
     1
 42
1.0
176
     1
 92
        8
176
     1
 66
     7
176
     1
 43
1.0
176
     1
 76
     1
176
     1
 77
     6
176
     1
 78
     2
176
     1
 67
     7
176
     1
 79
     5
176
     1
170
     0
176
     1
171
     0
176
     1
290
     0
176
     1
 93
        1
176
     1
 44
0.0
176
     1
173
     0
176
     1
  0
VISUALSTYLE
  5
33
102
{ACAD_REACTORS
330
2A
102
}
330
2A
100
AcDbVisualStyle
  2
Realistic
 70
     8
177
     2
291
     0
 71
     2
176
     1
 72
     2
176
     1
 73
     0
176
     1
 90
        0
176
     1
 40
-0.6
176
     1
 41
-30.0
176
     1
 62
     5
 63
     7
421
 16777215
176
     1
 74
     1
176
     1
 91
        0
176
     1
 64
     7
176
     1
 65
   257
176
     1
 75
     1
176
     1
175
     1
176
     1
 42
1.0
176
     1
 92
        8
176
     1
 66
     8
424
  7895160
176
     1
 43
1.0
176
     1
 76
     1
176
     1
 77
     6
176
     1
 78
     2
176
     1
 67
     7
176
     1
 79
     5
176
     1
170
     0
176
     1
171
     0
176
     1
290
     0
176
     1
 93
       13
176
     1
 44
0.0
176
     1
173
     0
176
     1
  0
VISUALSTYLE
  5
37
102
{ACAD_REACTORS
330
2A
102
}
330
2A
100
AcDbVisualStyle
  2
Thicken
 70
    13
177
     2
291
     1
 71
     2
176
     1
 72
     2
176
     1
 73
     0
176
     1
 90
        0
176
     1
 40
-0.6
176
     1
 41
-30.0
176
     1
 62
     5
 63
     7
421
 16777215
176
     1
 74
     1
176
     1
 91
        4
176
     1
 64
     7
176
     1
 65
   257
176
     1
 75
     1
176
     1
175
     1
176
     1
 42
1.0
176
     1
 92
       12
176
     1
 66
     7
176
     1
 43
1.0
176
     1
 76
     1
176
     1
 77
     6
176
     1
 78
     2
176
     1
 67
     7
176
     1
 79
     5
176
     1
170
     0
176
     1
171
     0
176
     1
290
     0
176
     1
 93
        1
176
     1
 44
0.0
176
     1
173
     0
176
     1
  0
ENDSEC
  0
EOF
