  0
SECTION
  2
HEADER
  9
$ACADVER
  1
AC1024
  9
$ACADMAINTVER
 70
     6
  9
$DWGCODEPAGE
  3
UNDEFINED
  9
$INSBASE
 10
0.0
 20
0.0
 30
0.0
  9
$EXTMIN
 10
1.000000000000000E+20
 20
1.000000000000000E+20
 30
1.000000000000000E+20
  9
$EXTMAX
 10
-1.000000000000000E+20
 20
-1.000000000000000E+20
 30
-1.000000000000000E+20
  9
$LIMMIN
 10
0.0
 20
0.0
  9
$LIMMAX
 10
12.0
 20
9.0
  9
$ORTHOMODE
 70
     0
  9
$REGENMODE
 70
     1
  9
$FILLMODE
 70
     1
  9
$QTEXTMODE
 70
     0
  9
$MIRRTEXT
 70
     1
  9
$LTSCALE
 40
1.0
  9
$ATTMODE
 70
     1
  9
$TEXTSIZE
 40
0.2
  9
$TRACEWID
 40
0.05
  9
$TEXTSTYLE
  7
Standard
  9
$CLAYER
  8
0
  9
$CELTYPE
  6
ByLayer
  9
$CECOLOR
 62
   256
  9
$CELTSCALE
 40
1.0
  9
$DISPSILH
 70
     0
  9
$DIMSCALE
 40
1.0
  9
$DIMASZ
 40
0.18
  9
$DIMEXO
 40
0.0625
  9
$DIMDLI
 40
0.38
  9
$DIMRND
 40
0.0
  9
$DIMDLE
 40
0.0
  9
$DIMEXE
 40
0.18
  9
$DIMTP
 40
0.0
  9
$DIMTM
 40
0.0
  9
$DIMTXT
 40
0.18
  9
$DIMCEN
 40
0.09
  9
$DIMTSZ
 40
0.0
  9
$DIMTOL
 70
     0
  9
$DIMLIM
 70
     0
  9
$DIMTIH
 70
     1
  9
$DIMTOH
 70
     1
  9
$DIMSE1
 70
     0
  9
$DIMSE2
 70
     0
  9
$DIMTAD
 70
     0
  9
$DIMZIN
 70
     0
  9
$DIMBLK
  1

  9
$DIMASO
 70
     1
  9
$DIMSHO
 70
     1
  9
$DIMPOST
  1

  9
$DIMAPOST
  1

  9
$DIMALT
 70
     0
  9
$DIMALTD
 70
     2
  9
$DIMALTF
 40
25.4
  9
$DIMLFAC
 40
1.0
  9
$DIMTOFL
 70
     0
  9
$DIMTVP
 40
0.0
  9
$DIMTIX
 70
     0
  9
$DIMSOXD
 70
     0
  9
$DIMSAH
 70
     0
  9
$DIMBLK1
  1

  9
$DIMBLK2
  1

  9
$DIMSTYLE
  2
Standard
  9
$DIMCLRD
 70
     0
  9
$DIMCLRE
 70
     0
  9
$DIMCLRT
 70
     0
  9
$DIMTFAC
 40
1.0
  9
$DIMGAP
 40
0.09
  9
$DIMJUST
 70
     0
  9
$DIMSD1
 70
     0
  9
$DIMSD2
 70
     0
  9
$DIMTOLJ
 70
     1
  9
$DIMTZIN
 70
     0
  9
$DIMALTZ
 70
     0
  9
$DIMALTTZ
 70
     0
  9
$DIMUPT
 70
     0
  9
$DIMDEC
 70
     4
  9
$DIMTDEC
 70
     4
  9
$DIMALTU
 70
     2
  9
$DIMALTTD
 70
     2
  9
$DIMTXSTY
  7
Standard
  9
$DIMAUNIT
 70
     0
  9
$DIMADEC
 70
     0
  9
$DIMALTRND
 40
0.0
  9
$DIMAZIN
 70
     0
  9
$DIMDSEP
 70
    46
  9
$DIMATFIT
 70
     3
  9
$DIMFRAC
 70
     0
  9
$DIMLDRBLK
  1

  9
$DIMLUNIT
 70
     2
  9
$DIMLWD
 70
    -2
  9
$DIMLWE
 70
    -2
  9
$DIMTMOVE
 70
     0
  9
$DIMFXL
 40
1.0
  9
$DIMFXLON
 70
     0
  9
$DIMJOGANG
 40
0.7853981633974483
  9
$DIMTFILL
 70
     0
  9
$DIMTFILLCLR
 70
     0
  9
$DIMARCSYM
 70
     0
  9
$DIMLTYPE
  6

  9
$DIMLTEX1
  6

  9
$DIMLTEX2
  6

  9
$DIMTXTDIRECTION
 70
     0
  9
$LUNITS
 70
     2
  9
$LUPREC
 70
     4
  9
$SKETCHINC
 40
0.1
  9
$FILLETRAD
 40
0.5
  9
$AUNITS
 70
     0
  9
$AUPREC
 70
     0
  9
$MENU
  1
.
  9
$ELEVATION
 40
0.0
  9
$PELEVATION
 40
0.0
  9
$THICKNESS
 40
0.0
  9
$LIMCHECK
 70
     0
  9
$CHAMFERA
 40
0.5
  9
$CHAMFERB
 40
0.5
  9
$CHAMFERC
 40
1.0
  9
$CHAMFERD
 40
0.0
  9
$SKPOLY
 70
     0
  9
$TDCREATE
 40
2457917.622118044
  9
$TDUCREATE
 40
2457917.247118055
  9
$TDUPDATE
 40
2457917.622118044
  9
$TDUUPDATE
 40
2457917.247118055
  9
$TDINDWG
 40
0.0000000116
  9
$TDUSRTIMER
 40
0.0000000116
  9
$USRTIMER
 70
     1
  9
$ANGBASE
 50
0.0
  9
$ANGDIR
 70
     0
  9
$PDMODE
 70
     0
  9
$PDSIZE
 40
0.0
  9
$PLINEWID
 40
0.0
  9
$SPLFRAME
 70
     0
  9
$SPLINETYPE
 70
     6
  9
$SPLINESEGS
 70
     8
  9
$HANDSEED
  5
96
  9
$SURFTAB1
 70
     6
  9
$SURFTAB2
 70
     6
  9
$SURFTYPE
 70
     6
  9
$SURFU
 70
     6
  9
$SURFV
 70
     6
  9
$UCSBASE
  2

  9
$UCSNAME
  2

  9
$UCSORG
 10
0.0
 20
0.0
 30
0.0
  9
$UCSXDIR
 10
1.0
 20
0.0
 30
0.0
  9
$UCSYDIR
 10
0.0
 20
1.0
 30
0.0
  9
$UCSORTHOREF
  2

  9
$UCSORTHOVIEW
 70
     0
  9
$UCSORGTOP
 10
0.0
 20
0.0
 30
0.0
  9
$UCSORGBOTTOM
 10
0.0
 20
0.0
 30
0.0
  9
$UCSORGLEFT
 10
0.0
 20
0.0
 30
0.0
  9
$UCSORGRIGHT
 10
0.0
 20
0.0
 30
0.0
  9
$UCSORGFRONT
 10
0.0
 20
0.0
 30
0.0
  9
$UCSORGBACK
 10
0.0
 20
0.0
 30
0.0
  9
$PUCSBASE
  2

  9
$PUCSNAME
  2

  9
$PUCSORG
 10
0.0
 20
0.0
 30
0.0
  9
$PUCSXDIR
 10
1.0
 20
0.0
 30
0.0
  9
$PUCSYDIR
 10
0.0
 20
1.0
 30
0.0
  9
$PUCSORTHOREF
  2

  9
$PUCSORTHOVIEW
 70
     0
  9
$PUCSORGTOP
 10
0.0
 20
0.0
 30
0.0
  9
$PUCSORGBOTTOM
 10
0.0
 20
0.0
 30
0.0
  9
$PUCSORGLEFT
 10
0.0
 20
0.0
 30
0.0
  9
$PUCSORGRIGHT
 10
0.0
 20
0.0
 30
0.0
  9
$PUCSORGFRONT
 10
0.0
 20
0.0
 30
0.0
  9
$PUCSORGBACK
 10
0.0
 20
0.0
 30
0.0
  9
$USERI1
 70
     0
  9
$USERI2
 70
     0
  9
$USERI3
 70
     0
  9
$USERI4
 70
     0
  9
$USERI5
 70
     0
  9
$USERR1
 40
0.0
  9
$USERR2
 40
0.0
  9
$USERR3
 40
0.0
  9
$USERR4
 40
0.0
  9
$USERR5
 40
0.0
  9
$WORLDVIEW
 70
     1
  9
$SHADEDGE
 70
     3
  9
$SHADEDIF
 70
    70
  9
$TILEMODE
 70
     1
  9
$MAXACTVP
 70
    64
  9
$PINSBASE
 10
0.0
 20
0.0
 30
0.0
  9
$PLIMCHECK
 70
     0
  9
$PEXTMIN
 10
1.000000000000000E+20
 20
1.000000000000000E+20
 30
1.000000000000000E+20
  9
$PEXTMAX
 10
-1.000000000000000E+20
 20
-1.000000000000000E+20
 30
-1.000000000000000E+20
  9
$PLIMMIN
 10
0.0
 20
0.0
  9
$PLIMMAX
 10
12.0
 20
9.0
  9
$UNITMODE
 70
     0
  9
$VISRETAIN
 70
     1
  9
$PLINEGEN
 70
     0
  9
$PSLTSCALE
 70
     1
  9
$TREEDEPTH
 70
  3020
  9
$CMLSTYLE
  2
Standard
  9
$CMLJUST
 70
     0
  9
$CMLSCALE
 40
1.0
  9
$PROXYGRAPHICS
 70
     1
  9
$MEASUREMENT
 70
     0
  9
$CELWEIGHT
370
    -1
  9
$ENDCAPS
280
     0
  9
$JOINSTYLE
280
     0
  9
$LWDISPLAY
290
     1
  9
$INSUNITS
 70
     1
  9
$HYPERLINKBASE
  1

  9
$STYLESHEET
  1

  9
$XEDIT
290
     1
  9
$CEPSNTYPE
380
     0
  9
$PSTYLEMODE
290
     1
  9
$FINGERPRINTGUID
  2
{940E960A-90A1-9C87-97E5-0958119F05AA}
  9
$VERSIONGUID
  2
{FAEB1C32-E019-11D5-929B-00C0DF256EC4}
  9
$EXTNAMES
290
     1
  9
$PSVPSCALE
 40
0.0
  9
$OLESTARTUP
290
     0
  9
$SORTENTS
280
   127
  9
$INDEXCTL
280
     0
  9
$HIDETEXT
280
     1
  9
$XCLIPFRAME
280
     2
  9
$HALOGAP
280
     0
  9
$OBSCOLOR
 70
   257
  9
$OBSLTYPE
280
     0
  9
$INTERSECTIONDISPLAY
280
     0
  9
$INTERSECTIONCOLOR
 70
   257
  9
$DIMASSOC
280
     2
  9
$PROJECTNAME
  1

  9
$CAMERADISPLAY
290
     0
  9
$LENSLENGTH
 40
50.0
  9
$CAMERAHEIGHT
 40
0.0
  9
$STEPSPERSEC
 40
2.0
  9
$STEPSIZE
 40
6.0
  9
$3DDWFPREC
 40
2.0
  9
$PSOLWIDTH
 40
0.25
  9
$PSOLHEIGHT
 40
4.0
  9
$LOFTANG1
 40
1.570796326794897
  9
$LOFTANG2
 40
1.570796326794897
  9
$LOFTMAG1
 40
0.0
  9
$LOFTMAG2
 40
0.0
  9
$LOFTPARAM
 70
     7
  9
$LOFTNORMALS
280
     1
  9
$LATITUDE
 40
37.795
  9
$LONGITUDE
 40
-122.394
  9
$NORTHDIRECTION
 40
0.0
  9
$TIMEZONE
 70
 -8000
  9
$LIGHTGLYPHDISPLAY
280
     1
  9
$TILEMODELIGHTSYNCH
280
     1
  9
$CMATERIAL
347
3C
  9
$SOLIDHIST
280
     1
  9
$SHOWHIST
280
     1
  9
$DWFFRAME
280
     2
  9
$DGNFRAME
280
     2
  9
$REALWORLDSCALE
290
     1
  9
$INTERFERECOLOR
 62
   256
  9
$CSHADOW
280
     0
  9
$SHADOWPLANELOCATION
 40
0.0
  0
ENDSEC
  0
SECTION
  2
CLASSES
  0
CLASS
  1
ACDBDICTIONARYWDFLT
  2
AcDbDictionaryWithDefault
  3
ObjectDBX Classes
 90
        0
 91
        4
280
     0
281
     0
  0
CLASS
  1
VISUALSTYLE
  2
AcDbVisualStyle
  3
ObjectDBX Classes
 90
     4095
 91
        4
280
     0
281
     0
  0
CLASS
  1
MATERIAL
  2
AcDbMaterial
  3
ObjectDBX Classes
 90
     1153
 91
        4
280
     0
281
     0
  0
CLASS
  1
SUN
  2
AcDbSun
  3
SCENEOE
 90
     1024
 91
        4
280
     0
281
     0
  0
ENDSEC
  0
SECTION
  2
TABLES
  0
TABLE
  2
VPORT
  5
8
330
0
100
AcDbSymbolTable
 70
     1
  0
VPORT
  5
29
330
8
100
AcDbSymbolTableRecord
100
AcDbViewportTableRecord
  2
*Active
 70
     0
 10
0.0
 20
0.0
 11
1.0
 21
1.0
 12
0.0
 22
0.0
 13
0.0
 23
0.0
 14
0.5
 24
0.5
 15
0.5
 25
0.5
 16
0.0
 26
0.0
 36
1.0
 17
91.00082462281999
 27
-128.4993055234307
 37
0.0
 40
256.9986110468615
 41
0.7081814508812795
 42
50.0
 43
0.0
 44
0.0
 50
0.0
 51
0.0
 71
     0
 72
   100
 73
     1
 74
     3
 75
     0
 76
     0
 77
     0
 78
     0
281
     0
 65
     1
110
0.0
120
0.0
130
0.0
111
1.0
121
0.0
131
0.0
112
0.0
122
1.0
132
0.0
 79
     0
146
0.0
 60
     3
 61
     5
292
     1
282
     1
141
0.0
142
0.0
 63
   250
361
3F
  0
ENDTAB
  0
TABLE
  2
LTYPE
  5
5
330
0
100
AcDbSymbolTable
 70
     1
  0
LTYPE
  5
14
330
5
100
AcDbSymbolTableRecord
100
AcDbLinetypeTableRecord
  2
ByBlock
 70
     0
  3

 72
    65
 73
     0
 40
0.0
  0
LTYPE
  5
15
330
5
100
AcDbSymbolTableRecord
100
AcDbLinetypeTableRecord
  2
ByLayer
 70
     0
  3

 72
    65
 73
     0
 40
0.0
  0
LTYPE
  5
16
330
5
100
AcDbSymbolTableRecord
100
AcDbLinetypeTableRecord
  2
Continuous
 70
     0
  3
Solid line
 72
    65
 73
     0
 40
0.0
  0
ENDTAB
  0
TABLE
  2
LAYER
  5
2
330
0
100
AcDbSymbolTable
 70
     2
  0
LAYER
  5
10
330
2
100
AcDbSymbolTableRecord
100
AcDbLayerTableRecord
  2
0
 70
     0
 62
     7
  6
Continuous
370
    -3
390
F
347
3E
  0
LAYER
  5
40
330
2
100
AcDbSymbolTableRecord
100
AcDbLayerTableRecord
  2
_U+30EC_U+30A4_U+30E4_U+30FC 1
 70
     0
 62
     7
  6
Continuous
370
    -3
390
F
347
3E
  0
ENDTAB
  0
TABLE
  2
STYLE
  5
3
330
0
100
AcDbSymbolTable
 70
     1
  0
STYLE
  5
11
330
3
100
AcDbSymbolTableRecord
100
AcDbTextStyleTableRecord
  2
Standard
 70
     0
 40
0.0
 41
1.0
 50
0.0
 71
     0
 42
0.2
  3
txt
  4

  0
ENDTAB
  0
TABLE
  2
VIEW
  5
6
330
0
100
AcDbSymbolTable
 70
     0
  0
ENDTAB
  0
TABLE
  2
UCS
  5
7
330
0
100
AcDbSymbolTable
 70
     0
  0
ENDTAB
  0
TABLE
  2
APPID
  5
9
330
0
100
AcDbSymbolTable
 70
     1
  0
APPID
  5
12
330
9
100
AcDbSymbolTableRecord
100
AcDbRegAppTableRecord
  2
ACAD
 70
     0
  0
ENDTAB
  0
TABLE
  2
DIMSTYLE
  5
A
330
0
100
AcDbSymbolTable
 70
     1
100
AcDbDimStyleTable
  0
DIMSTYLE
105
27
330
A
100
AcDbSymbolTableRecord
100
AcDbDimStyleTableRecord
  2
Standard
 70
     0
178
     0
340
11
  0
ENDTAB
  0
TABLE
  2
BLOCK_RECORD
  5
1
330
0
100
AcDbSymbolTable
 70
     5
  0
BLOCK_RECORD
  5
1F
330
1
100
AcDbSymbolTableRecord
100
AcDbBlockTableRecord
  2
*Model_Space
340
22
 70
     0
280
     1
281
     0
  0
BLOCK_RECORD
  5
1B
330
1
100
AcDbSymbolTableRecord
100
AcDbBlockTableRecord
  2
*Paper_Space
340
1E
 70
     0
280
     1
281
     0
  0
BLOCK_RECORD
  5
23
330
1
100
AcDbSymbolTableRecord
100
AcDbBlockTableRecord
  2
*Paper_Space0
340
26
 70
     0
280
     1
281
     0
  0
BLOCK_RECORD
  5
52
330
1
100
AcDbSymbolTableRecord
100
AcDbBlockTableRecord
  2
block 2
340
0
102
{BLKREFS
331
53
102
}
 70
     0
280
     1
281
     0
  0
BLOCK_RECORD
  5
77
330
1
100
AcDbSymbolTableRecord
100
AcDbBlockTableRecord
  2
block 3
340
0
102
{BLKREFS
331
78
102
}
 70
     0
280
     1
281
     0
  0
BLOCK_RECORD
  5
7E
330
1
100
AcDbSymbolTableRecord
100
AcDbBlockTableRecord
  2
block 4
340
0
102
{BLKREFS
331
7F
102
}
 70
     0
280
     1
281
     0
  0
BLOCK_RECORD
  5
8E
330
1
100
AcDbSymbolTableRecord
100
AcDbBlockTableRecord
  2
block 5
340
0
102
{BLKREFS
331
8F
102
}
 70
     0
280
     1
281
     0
  0
ENDTAB
  0
ENDSEC
  0
SECTION
  2
BLOCKS
  0
BLOCK
  5
20
330
1F
100
AcDbEntity
  8
0
100
AcDbBlockBegin
  2
*Model_Space
 70
     0
 10
0.0
 20
0.0
 30
0.0
  3
*Model_Space
  1

  0
ENDBLK
  5
21
330
1F
100
AcDbEntity
  8
0
100
AcDbBlockEnd
  0
BLOCK
  5
1C
330
1B
100
AcDbEntity
 67
     1
  8
0
100
AcDbBlockBegin
  2
*Paper_Space
 70
     0
 10
0.0
 20
0.0
 30
0.0
  3
*Paper_Space
  1

  0
ENDBLK
  5
1D
330
1B
100
AcDbEntity
 67
     1
  8
0
100
AcDbBlockEnd
  0
BLOCK
  5
24
330
23
100
AcDbEntity
  8
0
100
AcDbBlockBegin
  2
*Paper_Space0
 70
     0
 10
0.0
 20
0.0
 30
0.0
  3
*Paper_Space0
  1

  0
ENDBLK
  5
25
330
23
100
AcDbEntity
  8
0
100
AcDbBlockEnd
  0
BLOCK
  5
54
330
52
100
AcDbEntity
  8
0
100
AcDbBlockBegin
  2
block 2
 70
     0
 10
0.0
 20
0.0
 30
0.0
  3
block 2
  1

  0
SPLINE
  5
56
330
52
100
AcDbEntity
  8
_U+30EC_U+30A4_U+30E4_U+30FC 1
370
     0
100
AcDbSpline
210
0.0
220
0.0
230
1.0
 70
    11
 71
     3
 72
    26
 73
    22
 74
     0
 42
0.0000000001
 43
0.0000000001
 12
1.0
 22
0.0
 32
0.0
 13
1.0
 23
0.0
 33
0.0
 40
0.0
 40
0.0
 40
0.0
 40
0.0
 40
1.0
 40
1.0
 40
1.0
 40
2.0
 40
2.0
 40
2.0
 40
3.0
 40
3.0
 40
3.0
 40
4.0
 40
4.0
 40
4.0
 40
5.0
 40
5.0
 40
5.0
 40
6.0
 40
6.0
 40
6.0
 40
7.0
 40
7.0
 40
7.0
 40
7.0
 10
85.26904159109594
 20
-122.2130397914954
 30
0.0
 10
85.26904159109594
 20
-122.2130397914954
 30
0.0
 10
85.26904159109594
 20
-121.1088866884728
 30
0.0
 10
85.26904159109594
 20
-121.1088866884728
 30
0.0
 10
85.26904159109594
 20
-121.1088866884728
 30
0.0
 10
84.939001443609
 20
-121.1088866884728
 30
0.0
 10
84.939001443609
 20
-121.1088866884728
 30
0.0
 10
84.939001443609
 20
-121.1088866884728
 30
0.0
 10
84.939001443609
 20
-120.960747582607
 30
0.0
 10
84.939001443609
 20
-120.960747582607
 30
0.0
 10
85.27110864838708
 20
-120.9459336720205
 30
0.0
 10
85.31761743743796
 20
-120.7829806555682
 30
0.0
 10
85.34724525861111
 20
-120.6686034854579
 30
0.0
 10
85.34724525861111
 20
-120.6686034854579
 30
0.0
 10
85.4933173071857
 20
-120.6686034854579
 30
0.0
 10
85.4933173071857
 20
-120.6686034854579
 30
0.0
 10
85.4933173071857
 20
-120.6686034854579
 30
0.0
 10
85.4933173071857
 20
-122.2130397914954
 30
0.0
 10
85.4933173071857
 20
-122.2130397914954
 30
0.0
 10
85.4933173071857
 20
-122.2130397914954
 30
0.0
 10
85.26904159109594
 20
-122.2130397914954
 30
0.0
 10
85.26904159109594
 20
-122.2130397914954
 30
0.0
  0
HATCH
  5
57
330
52
100
AcDbEntity
  8
_U+30EC_U+30A4_U+30E4_U+30FC 1
 62
     7
420
 16777215
100
AcDbHatch
 10
0.0
 20
0.0
 30
0.0
210
0.0
220
0.0
230
1.0
  2
SOLID
 70
     1
 71
     0
 91
        1
 92
        1
 93
        1
 72
     4
 94
        3
 73
     0
 74
     1
 95
       26
 96
       22
 40
0.0
 40
0.0
 40
0.0
 40
0.0
 40
1.0
 40
1.0
 40
1.0
 40
2.0
 40
2.0
 40
2.0
 40
3.0
 40
3.0
 40
3.0
 40
4.0
 40
4.0
 40
4.0
 40
5.0
 40
5.0
 40
5.0
 40
6.0
 40
6.0
 40
6.0
 40
7.0
 40
7.0
 40
7.0
 40
7.0
 10
85.26904159109594
 20
-122.2130397914954
 10
85.26904159109594
 20
-122.2130397914954
 10
85.26904159109594
 20
-121.1088866884728
 10
85.26904159109594
 20
-121.1088866884728
 10
85.26904159109594
 20
-121.1088866884728
 10
84.939001443609
 20
-121.1088866884728
 10
84.939001443609
 20
-121.1088866884728
 10
84.939001443609
 20
-121.1088866884728
 10
84.939001443609
 20
-120.960747582607
 10
84.939001443609
 20
-120.960747582607
 10
85.27110864838708
 20
-120.9459336720205
 10
85.31761743743796
 20
-120.7829806555682
 10
85.34724525861111
 20
-120.6686034854579
 10
85.34724525861111
 20
-120.6686034854579
 10
85.4933173071857
 20
-120.6686034854579
 10
85.4933173071857
 20
-120.6686034854579
 10
85.4933173071857
 20
-120.6686034854579
 10
85.4933173071857
 20
-122.2130397914954
 10
85.4933173071857
 20
-122.2130397914954
 10
85.4933173071857
 20
-122.2130397914954
 10
85.26904159109594
 20
-122.2130397914954
 10
85.26904159109594
 20
-122.2130397914954
 97
        0
 97
        0
 75
     2
 76
     1
 98
        0
  0
SPLINE
  5
58
330
52
100
AcDbEntity
  8
_U+30EC_U+30A4_U+30E4_U+30FC 1
370
     0
100
AcDbSpline
210
0.0
220
0.0
230
1.0
 70
    11
 71
     3
 72
    44
 73
    40
 74
     0
 42
0.0000000001
 43
0.0000000001
 12
1.0
 22
0.0
 32
0.0
 13
1.0
 23
0.0
 33
0.0
 40
0.0
 40
0.0
 40
0.0
 40
0.0
 40
1.0
 40
1.0
 40
1.0
 40
2.0
 40
2.0
 40
2.0
 40
3.0
 40
3.0
 40
3.0
 40
4.0
 40
4.0
 40
4.0
 40
5.0
 40
5.0
 40
5.0
 40
6.0
 40
6.0
 40
6.0
 40
7.0
 40
7.0
 40
7.0
 40
8.0
 40
8.0
 40
8.0
 40
9.0
 40
9.0
 40
9.0
 40
10.0
 40
10.0
 40
10.0
 40
11.0
 40
11.0
 40
11.0
 40
12.0
 40
12.0
 40
12.0
 40
13.0
 40
13.0
 40
13.0
 40
13.0
 10
86.58747963330104
 20
-121.6311631640367
 30
0.0
 10
86.36974959863326
 20
-121.7899820659067
 30
0.0
 10
86.27673202053151
 20
-121.8640516188396
 30
0.0
 10
86.22781166464097
 20
-122.0077121005745
 30
0.0
 10
86.22781166464097
 20
-122.0077121005745
 30
0.0
 10
87.00640324430744
 20
-122.0077121005745
 30
0.0
 10
87.00640324430744
 20
-122.0077121005745
 30
0.0
 10
87.00640324430744
 20
-122.0077121005745
 30
0.0
 10
87.00640324430744
 20
-122.2130397914954
 30
0.0
 10
87.00640324430744
 20
-122.2130397914954
 30
0.0
 10
87.00640324430744
 20
-122.2130397914954
 30
0.0
 10
85.97838675150888
 20
-122.2130397914954
 30
0.0
 10
85.97838675150888
 20
-122.2130397914954
 30
0.0
 10
86.01008162997317
 20
-121.8554388801264
 30
0.0
 10
86.07553844419293
 20
-121.7772352126113
 30
0.0
 10
86.46070011944386
 20
-121.4788899435886
 30
0.0
 10
86.71667071399791
 20
-121.2801079340897
 30
0.0
 10
86.78212752821767
 20
-121.2122395530303
 30
0.0
 10
86.78212752821767
 20
-121.0747802431688
 30
0.0
 10
86.78212752821767
 20
-120.9562689584762
 30
0.0
 10
86.71012503257595
 20
-120.8253553300367
 30
0.0
 10
86.51341008036817
 20
-120.8253553300367
 30
0.0
 10
86.25330537123182
 20
-120.8253553300367
 30
0.0
 10
86.24469263251869
 20
-121.0558322179999
 30
0.0
 10
86.24055851793639
 20
-121.1722764454014
 30
0.0
 10
86.24055851793639
 20
-121.1722764454014
 30
0.0
 10
86.01628280184663
 20
-121.1722764454014
 30
0.0
 10
86.01628280184663
 20
-121.1722764454014
 30
0.0
 10
86.02489554055975
 20
-121.0451524219957
 30
0.0
 10
86.03557533656402
 20
-120.933186818725
 30
0.0
 10
86.11584606137035
 20
-120.8146755340324
 30
0.0
 10
86.22574460734982
 20
-120.6537895748713
 30
0.0
 10
86.41212427310184
 20
-120.6200276391158
 30
0.0
 10
86.52822399095476
 20
-120.6200276391158
 30
0.0
 10
86.80555417751737
 20
-120.6200276391158
 30
0.0
 10
87.0129489257294
 20
-120.8039957380282
 30
0.0
 10
87.0129489257294
 20
-121.07684730046
 30
0.0
 10
87.0129489257294
 20
-121.3056016406805
 30
0.0
 10
86.89650469832796
 20
-121.4048203906557
 30
0.0
 10
86.58747963330104
 20
-121.6311631640367
 30
0.0
  0
HATCH
  5
59
330
52
100
AcDbEntity
  8
_U+30EC_U+30A4_U+30E4_U+30FC 1
 62
     7
420
 16777215
100
AcDbHatch
 10
0.0
 20
0.0
 30
0.0
210
0.0
220
0.0
230
1.0
  2
SOLID
 70
     1
 71
     0
 91
        1
 92
        1
 93
        1
 72
     4
 94
        3
 73
     0
 74
     1
 95
       44
 96
       40
 40
0.0
 40
0.0
 40
0.0
 40
0.0
 40
1.0
 40
1.0
 40
1.0
 40
2.0
 40
2.0
 40
2.0
 40
3.0
 40
3.0
 40
3.0
 40
4.0
 40
4.0
 40
4.0
 40
5.0
 40
5.0
 40
5.0
 40
6.0
 40
6.0
 40
6.0
 40
7.0
 40
7.0
 40
7.0
 40
8.0
 40
8.0
 40
8.0
 40
9.0
 40
9.0
 40
9.0
 40
10.0
 40
10.0
 40
10.0
 40
11.0
 40
11.0
 40
11.0
 40
12.0
 40
12.0
 40
12.0
 40
13.0
 40
13.0
 40
13.0
 40
13.0
 10
86.58747963330104
 20
-121.6311631640367
 10
86.36974959863326
 20
-121.7899820659067
 10
86.27673202053151
 20
-121.8640516188396
 10
86.22781166464097
 20
-122.0077121005745
 10
86.22781166464097
 20
-122.0077121005745
 10
87.00640324430744
 20
-122.0077121005745
 10
87.00640324430744
 20
-122.0077121005745
 10
87.00640324430744
 20
-122.0077121005745
 10
87.00640324430744
 20
-122.2130397914954
 10
87.00640324430744
 20
-122.2130397914954
 10
87.00640324430744
 20
-122.2130397914954
 10
85.97838675150888
 20
-122.2130397914954
 10
85.97838675150888
 20
-122.2130397914954
 10
86.01008162997317
 20
-121.8554388801264
 10
86.07553844419293
 20
-121.7772352126113
 10
86.46070011944386
 20
-121.4788899435886
 10
86.71667071399791
 20
-121.2801079340897
 10
86.78212752821767
 20
-121.2122395530303
 10
86.78212752821767
 20
-121.0747802431688
 10
86.78212752821767
 20
-120.9562689584762
 10
86.71012503257595
 20
-120.8253553300367
 10
86.51341008036817
 20
-120.8253553300367
 10
86.25330537123182
 20
-120.8253553300367
 10
86.24469263251869
 20
-121.0558322179999
 10
86.24055851793639
 20
-121.1722764454014
 10
86.24055851793639
 20
-121.1722764454014
 10
86.01628280184663
 20
-121.1722764454014
 10
86.01628280184663
 20
-121.1722764454014
 10
86.02489554055975
 20
-121.0451524219957
 10
86.03557533656402
 20
-120.933186818725
 10
86.11584606137035
 20
-120.8146755340324
 10
86.22574460734982
 20
-120.6537895748713
 10
86.41212427310184
 20
-120.6200276391158
 10
86.52822399095476
 20
-120.6200276391158
 10
86.80555417751737
 20
-120.6200276391158
 10
87.0129489257294
 20
-120.8039957380282
 10
87.0129489257294
 20
-121.07684730046
 10
87.0129489257294
 20
-121.3056016406805
 10
86.89650469832796
 20
-121.4048203906557
 10
86.58747963330104
 20
-121.6311631640367
 97
        0
 97
        0
 75
     2
 76
     1
 98
        0
  0
ENDBLK
  5
55
330
52
100
AcDbEntity
  8
0
100
AcDbBlockEnd
  0
BLOCK
  5
79
330
77
100
AcDbEntity
  8
0
100
AcDbBlockBegin
  2
block 3
 70
     0
 10
0.0
 20
0.0
 30
0.0
  3
block 3
  1

  0
SPLINE
  5
7B
330
77
100
AcDbEntity
  8
_U+30EC_U+30A4_U+30E4_U+30FC 1
370
     0
100
AcDbSpline
210
0.0
220
0.0
230
1.0
 70
    11
 71
     3
 72
    32
 73
    28
 74
     0
 42
0.0000000001
 43
0.0000000001
 12
1.0
 22
0.0
 32
0.0
 13
1.0
 23
0.0
 33
0.0
 40
0.0
 40
0.0
 40
0.0
 40
0.0
 40
1.0
 40
1.0
 40
1.0
 40
2.0
 40
2.0
 40
2.0
 40
3.0
 40
3.0
 40
3.0
 40
4.0
 40
4.0
 40
4.0
 40
5.0
 40
5.0
 40
5.0
 40
6.0
 40
6.0
 40
6.0
 40
7.0
 40
7.0
 40
7.0
 40
8.0
 40
8.0
 40
8.0
 40
9.0
 40
9.0
 40
9.0
 40
9.0
 10
104.6075683332231
 20
-129.7057779623652
 30
0.0
 10
104.6075683332231
 20
-130.2218532660557
 30
0.0
 10
104.0535969791949
 20
-130.2304660047688
 30
0.0
 10
103.8396565495609
 20
-130.2304660047688
 30
0.0
 10
103.6091796615977
 20
-130.2304660047688
 30
0.0
 10
102.9618462199193
 20
-130.2111734700514
 30
0.0
 10
102.9618462199193
 20
-129.667537402479
 30
0.0
 10
102.9618462199193
 20
-129.4942490995709
 30
0.0
 10
103.0317816582698
 20
-129.2486137914726
 30
0.0
 10
103.3638888630479
 20
-129.2107177411348
 30
0.0
 10
103.3638888630479
 20
-129.2107177411348
 30
0.0
 10
103.3638888630479
 20
-129.4243136612203
 30
0.0
 10
103.3638888630479
 20
-129.4243136612203
 30
0.0
 10
103.3067002779928
 20
-129.4349934572246
 30
0.0
 10
103.158561172127
 20
-129.4666883356889
 30
0.0
 10
103.158561172127
 20
-129.6696044597701
 30
0.0
 10
103.158561172127
 20
-129.9617485569193
 30
0.0
 10
103.4865342623228
 20
-130.0017116645482
 30
0.0
 10
103.6915174436952
 20
-130.0144585178436
 30
0.0
 10
103.61331377618
 20
-129.9214409397419
 30
0.0
 10
103.5540581338337
 20
-129.8535725586825
 30
0.0
 10
103.5540581338337
 20
-129.6716715170612
 30
0.0
 10
103.5540581338337
 20
-129.4918375327312
 30
0.0
 10
103.6622341320706
 20
-129.1893581491263
 30
0.0
 10
104.0684108897815
 20
-129.1893581491263
 30
0.0
 10
104.3877712412642
 20
-129.1893581491263
 30
0.0
 10
104.6075683332231
 20
-129.3884846681737
 30
0.0
 10
104.6075683332231
 20
-129.7057779623652
 30
0.0
  0
SPLINE
  5
7C
330
77
100
AcDbEntity
  8
_U+30EC_U+30A4_U+30E4_U+30FC 1
370
     0
100
AcDbSpline
210
0.0
220
0.0
230
1.0
 70
    11
 71
     3
 72
    17
 73
    13
 74
     0
 42
0.0000000001
 43
0.0000000001
 12
1.0
 22
0.0
 32
0.0
 13
1.0
 23
0.0
 33
0.0
 40
0.0
 40
0.0
 40
0.0
 40
0.0
 40
1.0
 40
1.0
 40
1.0
 40
2.0
 40
2.0
 40
2.0
 40
3.0
 40
3.0
 40
3.0
 40
4.0
 40
4.0
 40
4.0
 40
4.0
 10
103.7487060287503
 20
-129.6888969944875
 30
0.0
 10
103.7487060287503
 20
-129.951068760915
 30
0.0
 10
103.9602348915447
 20
-129.9889648112528
 30
0.0
 10
104.0766791189461
 20
-129.9889648112528
 30
0.0
 10
104.2523789886938
 20
-129.9889648112528
 30
0.0
 10
104.4153320051462
 20
-129.8938801758599
 30
0.0
 10
104.4153320051462
 20
-129.7099120769475
 30
0.0
 10
104.4153320051462
 20
-129.5893337349638
 30
0.0
 10
104.3560763627999
 20
-129.413633865216
 30
0.0
 10
104.0704779470727
 20
-129.413633865216
 30
0.0
 10
103.8462022309829
 20
-129.413633865216
 30
0.0
 10
103.7487060287503
 20
-129.5531602323687
 30
0.0
 10
103.7487060287503
 20
-129.6888969944875
 30
0.0
  0
HATCH
  5
7D
330
77
100
AcDbEntity
  8
_U+30EC_U+30A4_U+30E4_U+30FC 1
 62
     7
420
 16777215
100
AcDbHatch
 10
0.0
 20
0.0
 30
0.0
210
0.0
220
0.0
230
1.0
  2
SOLID
 70
     1
 71
     0
 91
        2
 92
        1
 93
        1
 72
     4
 94
        3
 73
     0
 74
     1
 95
       32
 96
       28
 40
0.0
 40
0.0
 40
0.0
 40
0.0
 40
1.0
 40
1.0
 40
1.0
 40
2.0
 40
2.0
 40
2.0
 40
3.0
 40
3.0
 40
3.0
 40
4.0
 40
4.0
 40
4.0
 40
5.0
 40
5.0
 40
5.0
 40
6.0
 40
6.0
 40
6.0
 40
7.0
 40
7.0
 40
7.0
 40
8.0
 40
8.0
 40
8.0
 40
9.0
 40
9.0
 40
9.0
 40
9.0
 10
104.6075683332231
 20
-129.7057779623652
 10
104.6075683332231
 20
-130.2218532660557
 10
104.0535969791949
 20
-130.2304660047688
 10
103.8396565495609
 20
-130.2304660047688
 10
103.6091796615977
 20
-130.2304660047688
 10
102.9618462199193
 20
-130.2111734700514
 10
102.9618462199193
 20
-129.667537402479
 10
102.9618462199193
 20
-129.4942490995709
 10
103.0317816582698
 20
-129.2486137914726
 10
103.3638888630479
 20
-129.2107177411348
 10
103.3638888630479
 20
-129.2107177411348
 10
103.3638888630479
 20
-129.4243136612203
 10
103.3638888630479
 20
-129.4243136612203
 10
103.3067002779928
 20
-129.4349934572246
 10
103.158561172127
 20
-129.4666883356889
 10
103.158561172127
 20
-129.6696044597701
 10
103.158561172127
 20
-129.9617485569193
 10
103.4865342623228
 20
-130.0017116645482
 10
103.6915174436952
 20
-130.0144585178436
 10
103.61331377618
 20
-129.9214409397419
 10
103.5540581338337
 20
-129.8535725586825
 10
103.5540581338337
 20
-129.6716715170612
 10
103.5540581338337
 20
-129.4918375327312
 10
103.6622341320706
 20
-129.1893581491263
 10
104.0684108897815
 20
-129.1893581491263
 10
104.3877712412642
 20
-129.1893581491263
 10
104.6075683332231
 20
-129.3884846681737
 10
104.6075683332231
 20
-129.7057779623652
 97
        0
 97
        0
 92
        1
 93
        1
 72
     4
 94
        3
 73
     0
 74
     1
 95
       17
 96
       13
 40
0.0
 40
0.0
 40
0.0
 40
0.0
 40
1.0
 40
1.0
 40
1.0
 40
2.0
 40
2.0
 40
2.0
 40
3.0
 40
3.0
 40
3.0
 40
4.0
 40
4.0
 40
4.0
 40
4.0
 10
103.7487060287503
 20
-129.6888969944875
 10
103.7487060287503
 20
-129.951068760915
 10
103.9602348915447
 20
-129.9889648112528
 10
104.0766791189461
 20
-129.9889648112528
 10
104.2523789886938
 20
-129.9889648112528
 10
104.4153320051462
 20
-129.8938801758599
 10
104.4153320051462
 20
-129.7099120769475
 10
104.4153320051462
 20
-129.5893337349638
 10
104.3560763627999
 20
-129.413633865216
 10
104.0704779470727
 20
-129.413633865216
 10
103.8462022309829
 20
-129.413633865216
 10
103.7487060287503
 20
-129.5531602323687
 10
103.7487060287503
 20
-129.6888969944875
 97
        0
 97
        0
 75
     2
 76
     1
 98
        0
  0
ENDBLK
  5
7A
330
77
100
AcDbEntity
  8
0
100
AcDbBlockEnd
  0
BLOCK
  5
80
330
7E
100
AcDbEntity
  8
0
100
AcDbBlockBegin
  2
block 4
 70
     0
 10
0.0
 20
0.0
 30
0.0
  3
block 4
  1

  0
SPLINE
  5
82
330
7E
100
AcDbEntity
  8
_U+30EC_U+30A4_U+30E4_U+30FC 1
370
     0
100
AcDbSpline
210
0.0
220
0.0
230
1.0
 70
    11
 71
     3
 72
    26
 73
    22
 74
     0
 42
0.0000000001
 43
0.0000000001
 12
1.0
 22
0.0
 32
0.0
 13
1.0
 23
0.0
 33
0.0
 40
0.0
 40
0.0
 40
0.0
 40
0.0
 40
1.0
 40
1.0
 40
1.0
 40
2.0
 40
2.0
 40
2.0
 40
3.0
 40
3.0
 40
3.0
 40
4.0
 40
4.0
 40
4.0
 40
5.0
 40
5.0
 40
5.0
 40
6.0
 40
6.0
 40
6.0
 40
7.0
 40
7.0
 40
7.0
 40
7.0
 10
104.5569254295899
 20
-123.4456949561177
 30
0.0
 10
104.5569254295899
 20
-123.4456949561177
 30
0.0
 10
103.4527723265674
 20
-123.4456949561177
 30
0.0
 10
103.4527723265674
 20
-123.4456949561177
 30
0.0
 10
103.4527723265674
 20
-123.4456949561177
 30
0.0
 10
103.4527723265674
 20
-123.7757351036047
 30
0.0
 10
103.4527723265674
 20
-123.7757351036047
 30
0.0
 10
103.4527723265674
 20
-123.7757351036047
 30
0.0
 10
103.3046332207016
 20
-123.7757351036047
 30
0.0
 10
103.3046332207016
 20
-123.7757351036047
 30
0.0
 10
103.289819310115
 20
-123.4436278988266
 30
0.0
 10
103.1268662936627
 20
-123.3971191097757
 30
0.0
 10
103.0124891235524
 20
-123.3674912886026
 30
0.0
 10
103.0124891235524
 20
-123.3674912886026
 30
0.0
 10
103.0124891235524
 20
-123.221419240028
 30
0.0
 10
103.0124891235524
 20
-123.221419240028
 30
0.0
 10
103.0124891235524
 20
-123.221419240028
 30
0.0
 10
104.5569254295899
 20
-123.221419240028
 30
0.0
 10
104.5569254295899
 20
-123.221419240028
 30
0.0
 10
104.5569254295899
 20
-123.221419240028
 30
0.0
 10
104.5569254295899
 20
-123.4456949561177
 30
0.0
 10
104.5569254295899
 20
-123.4456949561177
 30
0.0
  0
HATCH
  5
83
330
7E
100
AcDbEntity
  8
_U+30EC_U+30A4_U+30E4_U+30FC 1
 62
     7
420
 16777215
100
AcDbHatch
 10
0.0
 20
0.0
 30
0.0
210
0.0
220
0.0
230
1.0
  2
SOLID
 70
     1
 71
     0
 91
        1
 92
        1
 93
        1
 72
     4
 94
        3
 73
     0
 74
     1
 95
       26
 96
       22
 40
0.0
 40
0.0
 40
0.0
 40
0.0
 40
1.0
 40
1.0
 40
1.0
 40
2.0
 40
2.0
 40
2.0
 40
3.0
 40
3.0
 40
3.0
 40
4.0
 40
4.0
 40
4.0
 40
5.0
 40
5.0
 40
5.0
 40
6.0
 40
6.0
 40
6.0
 40
7.0
 40
7.0
 40
7.0
 40
7.0
 10
104.5569254295899
 20
-123.4456949561177
 10
104.5569254295899
 20
-123.4456949561177
 10
103.4527723265674
 20
-123.4456949561177
 10
103.4527723265674
 20
-123.4456949561177
 10
103.4527723265674
 20
-123.4456949561177
 10
103.4527723265674
 20
-123.7757351036047
 10
103.4527723265674
 20
-123.7757351036047
 10
103.4527723265674
 20
-123.7757351036047
 10
103.3046332207016
 20
-123.7757351036047
 10
103.3046332207016
 20
-123.7757351036047
 10
103.289819310115
 20
-123.4436278988266
 10
103.1268662936627
 20
-123.3971191097757
 10
103.0124891235524
 20
-123.3674912886026
 10
103.0124891235524
 20
-123.3674912886026
 10
103.0124891235524
 20
-123.221419240028
 10
103.0124891235524
 20
-123.221419240028
 10
103.0124891235524
 20
-123.221419240028
 10
104.5569254295899
 20
-123.221419240028
 10
104.5569254295899
 20
-123.221419240028
 10
104.5569254295899
 20
-123.221419240028
 10
104.5569254295899
 20
-123.4456949561177
 10
104.5569254295899
 20
-123.4456949561177
 97
        0
 97
        0
 75
     2
 76
     1
 98
        0
  0
POLYLINE
  5
84
330
7E
100
AcDbEntity
  8
_U+30EC_U+30A4_U+30E4_U+30FC 1
370
     0
100
AcDb2dPolyline
 66
     1
 10
0.0
 20
0.0
 30
0.0
  0
VERTEX
  5
85
330
84
100
AcDbEntity
  8
_U+30EC_U+30A4_U+30E4_U+30FC 1
370
     0
100
AcDbVertex
100
AcDb2dVertex
 10
104.5569254295899
 20
-122.6602131854808
 30
0.0
  0
VERTEX
  5
86
330
84
100
AcDbEntity
  8
_U+30EC_U+30A4_U+30E4_U+30FC 1
370
     0
100
AcDbVertex
100
AcDb2dVertex
 10
104.3050889496182
 20
-122.6602131854808
 30
0.0
  0
VERTEX
  5
87
330
84
100
AcDbEntity
  8
_U+30EC_U+30A4_U+30E4_U+30FC 1
370
     0
100
AcDbVertex
100
AcDb2dVertex
 10
104.3050889496182
 20
-122.408376705509
 30
0.0
  0
VERTEX
  5
88
330
84
100
AcDbEntity
  8
_U+30EC_U+30A4_U+30E4_U+30FC 1
370
     0
100
AcDbVertex
100
AcDb2dVertex
 10
104.5569254295899
 20
-122.408376705509
 30
0.0
  0
VERTEX
  5
89
330
84
100
AcDbEntity
  8
_U+30EC_U+30A4_U+30E4_U+30FC 1
370
     0
100
AcDbVertex
100
AcDb2dVertex
 10
104.5569254295899
 20
-122.6602131854808
 30
0.0
  0
SEQEND
  5
8A
330
84
100
AcDbEntity
  8
_U+30EC_U+30A4_U+30E4_U+30FC 1
370
     0
  0
HATCH
  5
8B
330
7E
100
AcDbEntity
  8
_U+30EC_U+30A4_U+30E4_U+30FC 1
 62
     7
420
 16777215
100
AcDbHatch
 10
0.0
 20
0.0
 30
0.0
210
0.0
220
0.0
230
1.0
  2
SOLID
 70
     1
 71
     0
 91
        1
 92
        1
 93
        4
 72
     1
 10
104.5569254295899
 20
-122.6602131854808
 11
104.3050889496182
 21
-122.6602131854808
 72
     1
 10
104.3050889496182
 20
-122.6602131854808
 11
104.3050889496182
 21
-122.408376705509
 72
     1
 10
104.3050889496182
 20
-122.408376705509
 11
104.5569254295899
 21
-122.408376705509
 72
     1
 10
104.5569254295899
 20
-122.408376705509
 11
104.5569254295899
 21
-122.6602131854808
 97
        0
 75
     2
 76
     1
 98
        0
  0
SPLINE
  5
8C
330
7E
100
AcDbEntity
  8
_U+30EC_U+30A4_U+30E4_U+30FC 1
370
     0
100
AcDbSpline
210
0.0
220
0.0
230
1.0
 70
    11
 71
     3
 72
    53
 73
    49
 74
     0
 42
0.0000000001
 43
0.0000000001
 12
1.0
 22
0.0
 32
0.0
 13
1.0
 23
0.0
 33
0.0
 40
0.0
 40
0.0
 40
0.0
 40
0.0
 40
1.0
 40
1.0
 40
1.0
 40
2.0
 40
2.0
 40
2.0
 40
3.0
 40
3.0
 40
3.0
 40
4.0
 40
4.0
 40
4.0
 40
5.0
 40
5.0
 40
5.0
 40
6.0
 40
6.0
 40
6.0
 40
7.0
 40
7.0
 40
7.0
 40
8.0
 40
8.0
 40
8.0
 40
9.0
 40
9.0
 40
9.0
 40
10.0
 40
10.0
 40
10.0
 40
11.0
 40
11.0
 40
11.0
 40
12.0
 40
12.0
 40
12.0
 40
13.0
 40
13.0
 40
13.0
 40
14.0
 40
14.0
 40
14.0
 40
15.0
 40
15.0
 40
15.0
 40
16.0
 40
16.0
 40
16.0
 40
16.0
 10
104.6075683332231
 20
-121.69110782548
 30
0.0
 10
104.6075683332231
 20
-121.7693114929952
 30
0.0
 10
104.5906873653454
 20
-121.87094180981
 30
0.0
 10
104.5272976084168
 20
-121.9725721266249
 30
0.0
 10
104.4173990624373
 20
-122.145860429533
 30
0.0
 10
104.2861409244493
 20
-122.1672200215415
 30
0.0
 10
104.178309435761
 20
-122.1861680467104
 30
0.0
 10
104.178309435761
 20
-122.1861680467104
 30
0.0
 10
104.178309435761
 20
-121.9639593879118
 30
0.0
 10
104.178309435761
 20
-121.9639593879118
 30
0.0
 10
104.3770914452599
 20
-121.9091823696963
 30
0.0
 10
104.406719266433
 20
-121.7820583462906
 30
0.0
 10
104.406719266433
 20
-121.6890407681889
 30
0.0
 10
104.406719266433
 20
-121.5495144010362
 30
0.0
 10
104.3071560069093
 20
-121.3972411805882
 30
0.0
 10
104.074612061655
 20
-121.3972411805882
 30
0.0
 10
103.8186414671009
 20
-121.3972411805882
 30
0.0
 10
103.7487060287503
 20
-121.5770751649182
 30
0.0
 10
103.7487060287503
 20
-121.697653506902
 30
0.0
 10
103.7487060287503
 20
-121.7293483853663
 30
0.0
 10
103.7487060287503
 20
-121.87094180981
 30
0.0
 10
103.8778971094472
 20
-121.9598252733295
 30
0.0
 10
103.8778971094472
 20
-121.9598252733295
 30
0.0
 10
103.8589490842783
 20
-122.1355251430772
 30
0.0
 10
103.8589490842783
 20
-122.1355251430772
 30
0.0
 10
103.8589490842783
 20
-122.1355251430772
 30
0.0
 10
103.0124891235524
 20
-122.0149468010935
 30
0.0
 10
103.0124891235524
 20
-122.0149468010935
 30
0.0
 10
103.0124891235524
 20
-122.0149468010935
 30
0.0
 10
103.0124891235524
 20
-121.236355221427
 30
0.0
 10
103.0124891235524
 20
-121.236355221427
 30
0.0
 10
103.0124891235524
 20
-121.236355221427
 30
0.0
 10
103.2071370184691
 20
-121.236355221427
 30
0.0
 10
103.2071370184691
 20
-121.236355221427
 30
0.0
 10
103.2071370184691
 20
-121.236355221427
 30
0.0
 10
103.2071370184691
 20
-121.8519937846412
 30
0.0
 10
103.2071370184691
 20
-121.8519937846412
 30
0.0
 10
103.2071370184691
 20
-121.8519937846412
 30
0.0
 10
103.6301947440577
 20
-121.9174505988609
 30
0.0
 10
103.6301947440577
 20
-121.9174505988609
 30
0.0
 10
103.5964328083023
 20
-121.8561278992235
 30
0.0
 10
103.5561251911249
 20
-121.773790117126
 30
0.0
 10
103.5561251911249
 20
-121.6552788324334
 30
0.0
 10
103.5561251911249
 20
-121.4013752951705
 30
0.0
 10
103.7425048568769
 20
-121.1643527257853
 30
0.0
 10
104.0556640364861
 20
-121.1643527257853
 30
0.0
 10
104.3729573306776
 20
-121.1643527257853
 30
0.0
 10
104.6075683332231
 20
-121.3886284418751
 30
0.0
 10
104.6075683332231
 20
-121.69110782548
 30
0.0
  0
HATCH
  5
8D
330
7E
100
AcDbEntity
  8
_U+30EC_U+30A4_U+30E4_U+30FC 1
 62
     7
420
 16777215
100
AcDbHatch
 10
0.0
 20
0.0
 30
0.0
210
0.0
220
0.0
230
1.0
  2
SOLID
 70
     1
 71
     0
 91
        1
 92
        1
 93
        1
 72
     4
 94
        3
 73
     0
 74
     1
 95
       53
 96
       49
 40
0.0
 40
0.0
 40
0.0
 40
0.0
 40
1.0
 40
1.0
 40
1.0
 40
2.0
 40
2.0
 40
2.0
 40
3.0
 40
3.0
 40
3.0
 40
4.0
 40
4.0
 40
4.0
 40
5.0
 40
5.0
 40
5.0
 40
6.0
 40
6.0
 40
6.0
 40
7.0
 40
7.0
 40
7.0
 40
8.0
 40
8.0
 40
8.0
 40
9.0
 40
9.0
 40
9.0
 40
10.0
 40
10.0
 40
10.0
 40
11.0
 40
11.0
 40
11.0
 40
12.0
 40
12.0
 40
12.0
 40
13.0
 40
13.0
 40
13.0
 40
14.0
 40
14.0
 40
14.0
 40
15.0
 40
15.0
 40
15.0
 40
16.0
 40
16.0
 40
16.0
 40
16.0
 10
104.6075683332231
 20
-121.69110782548
 10
104.6075683332231
 20
-121.7693114929952
 10
104.5906873653454
 20
-121.87094180981
 10
104.5272976084168
 20
-121.9725721266249
 10
104.4173990624373
 20
-122.145860429533
 10
104.2861409244493
 20
-122.1672200215415
 10
104.178309435761
 20
-122.1861680467104
 10
104.178309435761
 20
-122.1861680467104
 10
104.178309435761
 20
-121.9639593879118
 10
104.178309435761
 20
-121.9639593879118
 10
104.3770914452599
 20
-121.9091823696963
 10
104.406719266433
 20
-121.7820583462906
 10
104.406719266433
 20
-121.6890407681889
 10
104.406719266433
 20
-121.5495144010362
 10
104.3071560069093
 20
-121.3972411805882
 10
104.074612061655
 20
-121.3972411805882
 10
103.8186414671009
 20
-121.3972411805882
 10
103.7487060287503
 20
-121.5770751649182
 10
103.7487060287503
 20
-121.697653506902
 10
103.7487060287503
 20
-121.7293483853663
 10
103.7487060287503
 20
-121.87094180981
 10
103.8778971094472
 20
-121.9598252733295
 10
103.8778971094472
 20
-121.9598252733295
 10
103.8589490842783
 20
-122.1355251430772
 10
103.8589490842783
 20
-122.1355251430772
 10
103.8589490842783
 20
-122.1355251430772
 10
103.0124891235524
 20
-122.0149468010935
 10
103.0124891235524
 20
-122.0149468010935
 10
103.0124891235524
 20
-122.0149468010935
 10
103.0124891235524
 20
-121.236355221427
 10
103.0124891235524
 20
-121.236355221427
 10
103.0124891235524
 20
-121.236355221427
 10
103.2071370184691
 20
-121.236355221427
 10
103.2071370184691
 20
-121.236355221427
 10
103.2071370184691
 20
-121.236355221427
 10
103.2071370184691
 20
-121.8519937846412
 10
103.2071370184691
 20
-121.8519937846412
 10
103.2071370184691
 20
-121.8519937846412
 10
103.6301947440577
 20
-121.9174505988609
 10
103.6301947440577
 20
-121.9174505988609
 10
103.5964328083023
 20
-121.8561278992235
 10
103.5561251911249
 20
-121.773790117126
 10
103.5561251911249
 20
-121.6552788324334
 10
103.5561251911249
 20
-121.4013752951705
 10
103.7425048568769
 20
-121.1643527257853
 10
104.0556640364861
 20
-121.1643527257853
 10
104.3729573306776
 20
-121.1643527257853
 10
104.6075683332231
 20
-121.3886284418751
 10
104.6075683332231
 20
-121.69110782548
 97
        0
 97
        0
 75
     2
 76
     1
 98
        0
  0
ENDBLK
  5
81
330
7E
100
AcDbEntity
  8
0
100
AcDbBlockEnd
  0
BLOCK
  5
90
330
8E
100
AcDbEntity
  8
0
100
AcDbBlockBegin
  2
block 5
 70
     0
 10
0.0
 20
0.0
 30
0.0
  3
block 5
  1

  0
SPLINE
  5
92
330
8E
100
AcDbEntity
  8
_U+30EC_U+30A4_U+30E4_U+30FC 1
370
     0
100
AcDbSpline
210
0.0
220
0.0
230
1.0
 70
    11
 71
     3
 72
    26
 73
    22
 74
     0
 42
0.0000000001
 43
0.0000000001
 12
1.0
 22
0.0
 32
0.0
 13
1.0
 23
0.0
 33
0.0
 40
0.0
 40
0.0
 40
0.0
 40
0.0
 40
1.0
 40
1.0
 40
1.0
 40
2.0
 40
2.0
 40
2.0
 40
3.0
 40
3.0
 40
3.0
 40
4.0
 40
4.0
 40
4.0
 40
5.0
 40
5.0
 40
5.0
 40
6.0
 40
6.0
 40
6.0
 40
7.0
 40
7.0
 40
7.0
 40
7.0
 10
104.5569254295899
 20
-135.6165282864084
 30
0.0
 10
104.5569254295899
 20
-135.6165282864084
 30
0.0
 10
103.4527723265674
 20
-135.6165282864084
 30
0.0
 10
103.4527723265674
 20
-135.6165282864084
 30
0.0
 10
103.4527723265674
 20
-135.6165282864084
 30
0.0
 10
103.4527723265674
 20
-135.9465684338953
 30
0.0
 10
103.4527723265674
 20
-135.9465684338953
 30
0.0
 10
103.4527723265674
 20
-135.9465684338953
 30
0.0
 10
103.3046332207016
 20
-135.9465684338953
 30
0.0
 10
103.3046332207016
 20
-135.9465684338953
 30
0.0
 10
103.289819310115
 20
-135.6144612291172
 30
0.0
 10
103.1268662936627
 20
-135.5679524400664
 30
0.0
 10
103.0124891235524
 20
-135.5383246188932
 30
0.0
 10
103.0124891235524
 20
-135.5383246188932
 30
0.0
 10
103.0124891235524
 20
-135.3922525703186
 30
0.0
 10
103.0124891235524
 20
-135.3922525703186
 30
0.0
 10
103.0124891235524
 20
-135.3922525703186
 30
0.0
 10
104.5569254295899
 20
-135.3922525703186
 30
0.0
 10
104.5569254295899
 20
-135.3922525703186
 30
0.0
 10
104.5569254295899
 20
-135.3922525703186
 30
0.0
 10
104.5569254295899
 20
-135.6165282864084
 30
0.0
 10
104.5569254295899
 20
-135.6165282864084
 30
0.0
  0
HATCH
  5
93
330
8E
100
AcDbEntity
  8
_U+30EC_U+30A4_U+30E4_U+30FC 1
 62
     7
420
 16777215
100
AcDbHatch
 10
0.0
 20
0.0
 30
0.0
210
0.0
220
0.0
230
1.0
  2
SOLID
 70
     1
 71
     0
 91
        1
 92
        1
 93
        1
 72
     4
 94
        3
 73
     0
 74
     1
 95
       26
 96
       22
 40
0.0
 40
0.0
 40
0.0
 40
0.0
 40
1.0
 40
1.0
 40
1.0
 40
2.0
 40
2.0
 40
2.0
 40
3.0
 40
3.0
 40
3.0
 40
4.0
 40
4.0
 40
4.0
 40
5.0
 40
5.0
 40
5.0
 40
6.0
 40
6.0
 40
6.0
 40
7.0
 40
7.0
 40
7.0
 40
7.0
 10
104.5569254295899
 20
-135.6165282864084
 10
104.5569254295899
 20
-135.6165282864084
 10
103.4527723265674
 20
-135.6165282864084
 10
103.4527723265674
 20
-135.6165282864084
 10
103.4527723265674
 20
-135.6165282864084
 10
103.4527723265674
 20
-135.9465684338953
 10
103.4527723265674
 20
-135.9465684338953
 10
103.4527723265674
 20
-135.9465684338953
 10
103.3046332207016
 20
-135.9465684338953
 10
103.3046332207016
 20
-135.9465684338953
 10
103.289819310115
 20
-135.6144612291172
 10
103.1268662936627
 20
-135.5679524400664
 10
103.0124891235524
 20
-135.5383246188932
 10
103.0124891235524
 20
-135.5383246188932
 10
103.0124891235524
 20
-135.3922525703186
 10
103.0124891235524
 20
-135.3922525703186
 10
103.0124891235524
 20
-135.3922525703186
 10
104.5569254295899
 20
-135.3922525703186
 10
104.5569254295899
 20
-135.3922525703186
 10
104.5569254295899
 20
-135.3922525703186
 10
104.5569254295899
 20
-135.6165282864084
 10
104.5569254295899
 20
-135.6165282864084
 97
        0
 97
        0
 75
     2
 76
     1
 98
        0
  0
ENDBLK
  5
91
330
8E
100
AcDbEntity
  8
0
100
AcDbBlockEnd
  0
ENDSEC
  0
SECTION
  2
ENTITIES
  0
SPLINE
  5
41
330
1F
100
AcDbEntity
  8
_U+30EC_U+30A4_U+30E4_U+30FC 1
370
     0
100
AcDbSpline
210
0.0
220
0.0
230
1.0
 70
    11
 71
     3
 72
    50
 73
    46
 74
     0
 42
0.0000000001
 43
0.0000000001
 12
1.0
 22
0.0
 32
0.0
 13
1.0
 23
0.0
 33
0.0
 40
0.0
 40
0.0
 40
0.0
 40
0.0
 40
1.0
 40
1.0
 40
1.0
 40
2.0
 40
2.0
 40
2.0
 40
3.0
 40
3.0
 40
3.0
 40
4.0
 40
4.0
 40
4.0
 40
5.0
 40
5.0
 40
5.0
 40
6.0
 40
6.0
 40
6.0
 40
7.0
 40
7.0
 40
7.0
 40
8.0
 40
8.0
 40
8.0
 40
9.0
 40
9.0
 40
9.0
 40
10.0
 40
10.0
 40
10.0
 40
11.0
 40
11.0
 40
11.0
 40
12.0
 40
12.0
 40
12.0
 40
13.0
 40
13.0
 40
13.0
 40
14.0
 40
14.0
 40
14.0
 40
15.0
 40
15.0
 40
15.0
 40
15.0
 10
86.51253890399236
 20
-127.8602485791461
 30
0.0
 10
86.51253890399236
 20
-127.8602485791461
 30
0.0
 10
86.51634890389516
 20
-126.1297677462453
 30
0.0
 10
86.51634890389516
 20
-126.1297677462453
 30
0.0
 10
86.51634890389516
 20
-126.1297677462453
 30
0.0
 10
90.43564164405778
 20
-126.1297677462453
 30
0.0
 10
90.43564164405778
 20
-126.1297677462453
 30
0.0
 10
90.43564164405778
 20
-126.1297677462453
 30
0.0
 10
90.76569823992968
 20
-126.6270785794543
 30
0.0
 10
90.76569823992968
 20
-126.6270785794543
 30
0.0
 10
90.76569823992968
 20
-126.6270785794543
 30
0.0
 10
92.00747598602706
 20
-126.6270785794543
 30
0.0
 10
92.00747598602706
 20
-126.6270785794543
 30
0.0
 10
92.00747598602706
 20
-126.6270785794543
 30
0.0
 10
91.00375267830084
 20
-125.1320769131615
 30
0.0
 10
91.00375267830084
 20
-125.1320769131615
 30
0.0
 10
91.00375267830084
 20
-125.1320769131615
 30
0.0
 10
81.1817845955468
 20
-125.1320769131615
 30
0.0
 10
81.1817845955468
 20
-125.1320769131615
 30
0.0
 10
81.1817845955468
 20
-125.1320769131615
 30
0.0
 10
79.96773518207533
 20
-126.6270785794543
 30
0.0
 10
79.96773518207533
 20
-126.6270785794543
 30
0.0
 10
79.96773518207533
 20
-126.6270785794543
 30
0.0
 10
81.28581875955933
 20
-126.6270785794543
 30
0.0
 10
81.28581875955933
 20
-126.6270785794543
 30
0.0
 10
81.28581875955933
 20
-126.6270785794543
 30
0.0
 10
81.68442236050122
 20
-126.1297677462453
 30
0.0
 10
81.68442236050122
 20
-126.1297677462453
 30
0.0
 10
81.68442236050122
 20
-126.1297677462453
 30
0.0
 10
85.49452809663066
 20
-126.1297677462453
 30
0.0
 10
85.49452809663066
 20
-126.1297677462453
 30
0.0
 10
85.49452809663066
 20
-126.1297677462453
 30
0.0
 10
85.49452809663066
 20
-127.8306152458203
 30
0.0
 10
85.49452809663066
 20
-127.8306152458203
 30
0.0
 10
84.94296005514677
 20
-128.0521244124314
 30
0.0
 10
84.48872340006865
 20
-128.5890521900749
 30
0.0
 10
84.48872340006865
 20
-129.2196777454727
 30
0.0
 10
84.48872340006865
 20
-130.0482116341549
 30
0.0
 10
85.16034171626757
 20
-130.7196535784314
 30
0.0
 10
85.98873447291129
 20
-130.7196535784314
 30
0.0
 10
86.81709195177812
 20
-130.7196535784314
 30
0.0
 10
87.48871026797705
 20
-130.0482116341549
 30
0.0
 10
87.48871026797705
 20
-129.2196777454727
 30
0.0
 10
87.48871026797705
 20
-128.6085255234036
 30
0.0
 10
87.037048890611
 20
-128.094175523532
 30
0.0
 10
86.51253890399236
 20
-127.8602485791461
 30
0.0
  0
HATCH
  5
42
330
1F
100
AcDbEntity
  8
_U+30EC_U+30A4_U+30E4_U+30FC 1
 62
   253
420
 11711154
100
AcDbHatch
 10
0.0
 20
0.0
 30
0.0
210
0.0
220
0.0
230
1.0
  2
SOLID
 70
     1
 71
     0
 91
        1
 92
        1
 93
        1
 72
     4
 94
        3
 73
     0
 74
     1
 95
       50
 96
       46
 40
0.0
 40
0.0
 40
0.0
 40
0.0
 40
1.0
 40
1.0
 40
1.0
 40
2.0
 40
2.0
 40
2.0
 40
3.0
 40
3.0
 40
3.0
 40
4.0
 40
4.0
 40
4.0
 40
5.0
 40
5.0
 40
5.0
 40
6.0
 40
6.0
 40
6.0
 40
7.0
 40
7.0
 40
7.0
 40
8.0
 40
8.0
 40
8.0
 40
9.0
 40
9.0
 40
9.0
 40
10.0
 40
10.0
 40
10.0
 40
11.0
 40
11.0
 40
11.0
 40
12.0
 40
12.0
 40
12.0
 40
13.0
 40
13.0
 40
13.0
 40
14.0
 40
14.0
 40
14.0
 40
15.0
 40
15.0
 40
15.0
 40
15.0
 10
86.51253890399236
 20
-127.8602485791461
 10
86.51253890399236
 20
-127.8602485791461
 10
86.51634890389516
 20
-126.1297677462453
 10
86.51634890389516
 20
-126.1297677462453
 10
86.51634890389516
 20
-126.1297677462453
 10
90.43564164405778
 20
-126.1297677462453
 10
90.43564164405778
 20
-126.1297677462453
 10
90.43564164405778
 20
-126.1297677462453
 10
90.76569823992968
 20
-126.6270785794543
 10
90.76569823992968
 20
-126.6270785794543
 10
90.76569823992968
 20
-126.6270785794543
 10
92.00747598602706
 20
-126.6270785794543
 10
92.00747598602706
 20
-126.6270785794543
 10
92.00747598602706
 20
-126.6270785794543
 10
91.00375267830084
 20
-125.1320769131615
 10
91.00375267830084
 20
-125.1320769131615
 10
91.00375267830084
 20
-125.1320769131615
 10
81.1817845955468
 20
-125.1320769131615
 10
81.1817845955468
 20
-125.1320769131615
 10
81.1817845955468
 20
-125.1320769131615
 10
79.96773518207533
 20
-126.6270785794543
 10
79.96773518207533
 20
-126.6270785794543
 10
79.96773518207533
 20
-126.6270785794543
 10
81.28581875955933
 20
-126.6270785794543
 10
81.28581875955933
 20
-126.6270785794543
 10
81.28581875955933
 20
-126.6270785794543
 10
81.68442236050122
 20
-126.1297677462453
 10
81.68442236050122
 20
-126.1297677462453
 10
81.68442236050122
 20
-126.1297677462453
 10
85.49452809663066
 20
-126.1297677462453
 10
85.49452809663066
 20
-126.1297677462453
 10
85.49452809663066
 20
-126.1297677462453
 10
85.49452809663066
 20
-127.8306152458203
 10
85.49452809663066
 20
-127.8306152458203
 10
84.94296005514677
 20
-128.0521244124314
 10
84.48872340006865
 20
-128.5890521900749
 10
84.48872340006865
 20
-129.2196777454727
 10
84.48872340006865
 20
-130.0482116341549
 10
85.16034171626757
 20
-130.7196535784314
 10
85.98873447291129
 20
-130.7196535784314
 10
86.81709195177812
 20
-130.7196535784314
 10
87.48871026797705
 20
-130.0482116341549
 10
87.48871026797705
 20
-129.2196777454727
 10
87.48871026797705
 20
-128.6085255234036
 10
87.037048890611
 20
-128.094175523532
 10
86.51253890399236
 20
-127.8602485791461
 97
        0
 97
        0
 75
     2
 76
     1
 98
        0
  0
SPLINE
  5
43
330
1F
100
AcDbEntity
  8
_U+30EC_U+30A4_U+30E4_U+30FC 1
 62
     7
420
 16777215
370
    25
100
AcDbSpline
210
0.0
220
0.0
230
1.0
 70
    11
 71
     3
 72
    50
 73
    46
 74
     0
 42
0.0000000001
 43
0.0000000001
 12
1.0
 22
0.0
 32
0.0
 13
1.0
 23
0.0
 33
0.0
 40
0.0
 40
0.0
 40
0.0
 40
0.0
 40
1.0
 40
1.0
 40
1.0
 40
2.0
 40
2.0
 40
2.0
 40
3.0
 40
3.0
 40
3.0
 40
4.0
 40
4.0
 40
4.0
 40
5.0
 40
5.0
 40
5.0
 40
6.0
 40
6.0
 40
6.0
 40
7.0
 40
7.0
 40
7.0
 40
8.0
 40
8.0
 40
8.0
 40
9.0
 40
9.0
 40
9.0
 40
10.0
 40
10.0
 40
10.0
 40
11.0
 40
11.0
 40
11.0
 40
12.0
 40
12.0
 40
12.0
 40
13.0
 40
13.0
 40
13.0
 40
14.0
 40
14.0
 40
14.0
 40
15.0
 40
15.0
 40
15.0
 40
15.0
 10
86.51253890399236
 20
-127.8602485791461
 30
0.0
 10
86.51253890399236
 20
-127.8602485791461
 30
0.0
 10
86.51634890389516
 20
-126.1297677462453
 30
0.0
 10
86.51634890389516
 20
-126.1297677462453
 30
0.0
 10
86.51634890389516
 20
-126.1297677462453
 30
0.0
 10
90.43564164405778
 20
-126.1297677462453
 30
0.0
 10
90.43564164405778
 20
-126.1297677462453
 30
0.0
 10
90.43564164405778
 20
-126.1297677462453
 30
0.0
 10
90.76569823992968
 20
-126.6270785794543
 30
0.0
 10
90.76569823992968
 20
-126.6270785794543
 30
0.0
 10
90.76569823992968
 20
-126.6270785794543
 30
0.0
 10
92.00747598602706
 20
-126.6270785794543
 30
0.0
 10
92.00747598602706
 20
-126.6270785794543
 30
0.0
 10
92.00747598602706
 20
-126.6270785794543
 30
0.0
 10
91.00375267830084
 20
-125.1320769131615
 30
0.0
 10
91.00375267830084
 20
-125.1320769131615
 30
0.0
 10
91.00375267830084
 20
-125.1320769131615
 30
0.0
 10
81.1817845955468
 20
-125.1320769131615
 30
0.0
 10
81.1817845955468
 20
-125.1320769131615
 30
0.0
 10
81.1817845955468
 20
-125.1320769131615
 30
0.0
 10
79.96773518207533
 20
-126.6270785794543
 30
0.0
 10
79.96773518207533
 20
-126.6270785794543
 30
0.0
 10
79.96773518207533
 20
-126.6270785794543
 30
0.0
 10
81.28581875955933
 20
-126.6270785794543
 30
0.0
 10
81.28581875955933
 20
-126.6270785794543
 30
0.0
 10
81.28581875955933
 20
-126.6270785794543
 30
0.0
 10
81.68442236050122
 20
-126.1297677462453
 30
0.0
 10
81.68442236050122
 20
-126.1297677462453
 30
0.0
 10
81.68442236050122
 20
-126.1297677462453
 30
0.0
 10
85.49452809663066
 20
-126.1297677462453
 30
0.0
 10
85.49452809663066
 20
-126.1297677462453
 30
0.0
 10
85.49452809663066
 20
-126.1297677462453
 30
0.0
 10
85.49452809663066
 20
-127.8306152458203
 30
0.0
 10
85.49452809663066
 20
-127.8306152458203
 30
0.0
 10
84.94296005514677
 20
-128.0521244124314
 30
0.0
 10
84.48872340006865
 20
-128.5890521900749
 30
0.0
 10
84.48872340006865
 20
-129.2196777454727
 30
0.0
 10
84.48872340006865
 20
-130.0482116341549
 30
0.0
 10
85.16034171626757
 20
-130.7196535784314
 30
0.0
 10
85.98873447291129
 20
-130.7196535784314
 30
0.0
 10
86.81709195177812
 20
-130.7196535784314
 30
0.0
 10
87.48871026797705
 20
-130.0482116341549
 30
0.0
 10
87.48871026797705
 20
-129.2196777454727
 30
0.0
 10
87.48871026797705
 20
-128.6085255234036
 30
0.0
 10
87.037048890611
 20
-128.094175523532
 30
0.0
 10
86.51253890399236
 20
-127.8602485791461
 30
0.0
  0
SPLINE
  5
44
330
1F
100
AcDbEntity
  8
_U+30EC_U+30A4_U+30E4_U+30FC 1
 62
     7
420
 16777215
370
     9
100
AcDbSpline
210
0.0
220
0.0
230
1.0
 70
    11
 71
     3
 72
    17
 73
    13
 74
     0
 42
0.0000000001
 43
0.0000000001
 12
1.0
 22
0.0
 32
0.0
 13
1.0
 23
0.0
 33
0.0
 40
0.0
 40
0.0
 40
0.0
 40
0.0
 40
1.0
 40
1.0
 40
1.0
 40
2.0
 40
2.0
 40
2.0
 40
3.0
 40
3.0
 40
3.0
 40
4.0
 40
4.0
 40
4.0
 40
4.0
 10
80.08277601247373
 20
-122.8092116359644
 30
0.0
 10
80.08277601247373
 20
-122.7541077470892
 30
0.0
 10
80.03800851361584
 20
-122.7093049693228
 30
0.0
 10
79.98286934835589
 20
-122.7093049693228
 30
0.0
 10
79.92776546087282
 20
-122.7093049693228
 30
0.0
 10
79.88296268423805
 20
-122.7541077470892
 30
0.0
 10
79.88296268423805
 20
-122.8092116359644
 30
0.0
 10
79.88296268423805
 20
-122.8650210803949
 30
0.0
 10
79.92776546087282
 20
-122.9098238581616
 30
0.0
 10
79.98286934835589
 20
-122.9098238581616
 30
0.0
 10
80.03800851361584
 20
-122.9098238581616
 30
0.0
 10
80.08277601247373
 20
-122.8650210803949
 30
0.0
 10
80.08277601247373
 20
-122.8092116359644
 30
0.0
  0
SPLINE
  5
45
330
1F
100
AcDbEntity
  8
_U+30EC_U+30A4_U+30E4_U+30FC 1
 62
     7
420
 16777215
370
     9
100
AcDbSpline
210
0.0
220
0.0
230
1.0
 70
    11
 71
     3
 72
    17
 73
    13
 74
     0
 42
0.0000000001
 43
0.0000000001
 12
1.0
 22
0.0
 32
0.0
 13
1.0
 23
0.0
 33
0.0
 40
0.0
 40
0.0
 40
0.0
 40
0.0
 40
1.0
 40
1.0
 40
1.0
 40
2.0
 40
2.0
 40
2.0
 40
3.0
 40
3.0
 40
3.0
 40
4.0
 40
4.0
 40
4.0
 40
4.0
 10
92.09221320608746
 20
-122.8112930248528
 30
0.0
 10
92.09221320608746
 20
-122.7561538581998
 30
0.0
 10
92.04744570722957
 20
-122.7113863582112
 30
0.0
 10
91.99230654196963
 20
-122.7113863582112
 30
0.0
 10
91.93720265448655
 20
-122.7113863582112
 30
0.0
 10
91.89239987785179
 20
-122.7561538581998
 30
0.0
 10
91.89239987785179
 20
-122.8112930248528
 30
0.0
 10
91.89239987785179
 20
-122.8671024692833
 30
0.0
 10
91.93720265448655
 20
-122.9118699692722
 30
0.0
 10
91.99230654196963
 20
-122.9118699692722
 30
0.0
 10
92.04744570722957
 20
-122.9118699692722
 30
0.0
 10
92.09221320608746
 20
-122.8671024692833
 30
0.0
 10
92.09221320608746
 20
-122.8112930248528
 30
0.0
  0
POLYLINE
  5
46
330
1F
100
AcDbEntity
  8
_U+30EC_U+30A4_U+30E4_U+30FC 1
 62
     7
420
 16777215
370
     9
100
AcDb2dPolyline
 66
     1
 10
0.0
 20
0.0
 30
0.0
  0
VERTEX
  5
47
330
46
100
AcDbEntity
  8
_U+30EC_U+30A4_U+30E4_U+30FC 1
 62
     7
420
 16777215
370
     9
100
AcDbVertex
100
AcDb2dVertex
 10
79.98495275778164
 20
-122.8092116359644
 30
0.0
  0
VERTEX
  5
48
330
46
100
AcDbEntity
  8
_U+30EC_U+30A4_U+30E4_U+30FC 1
 62
     7
420
 16777215
370
     9
100
AcDbVertex
100
AcDb2dVertex
 10
91.99368237526785
 20
-122.8092116359644
 30
0.0
  0
SEQEND
  5
49
330
46
100
AcDbEntity
  8
_U+30EC_U+30A4_U+30E4_U+30FC 1
 62
     7
420
 16777215
370
     9
  0
POLYLINE
  5
4A
330
1F
100
AcDbEntity
  8
_U+30EC_U+30A4_U+30E4_U+30FC 1
 62
     7
420
 16777215
370
     9
100
AcDb2dPolyline
 66
     1
 10
0.0
 20
0.0
 30
0.0
  0
VERTEX
  5
4B
330
4A
100
AcDbEntity
  8
_U+30EC_U+30A4_U+30E4_U+30FC 1
 62
     7
420
 16777215
370
     9
100
AcDbVertex
100
AcDb2dVertex
 10
79.98286934835589
 20
-121.3491702474404
 30
0.0
  0
VERTEX
  5
4C
330
4A
100
AcDbEntity
  8
_U+30EC_U+30A4_U+30E4_U+30FC 1
 62
     7
420
 16777215
370
     9
100
AcDbVertex
100
AcDb2dVertex
 10
79.98286934835589
 20
-123.8096541357143
 30
0.0
  0
SEQEND
  5
4D
330
4A
100
AcDbEntity
  8
_U+30EC_U+30A4_U+30E4_U+30FC 1
 62
     7
420
 16777215
370
     9
  0
POLYLINE
  5
4E
330
1F
100
AcDbEntity
  8
_U+30EC_U+30A4_U+30E4_U+30FC 1
 62
     7
420
 16777215
370
     9
100
AcDb2dPolyline
 66
     1
 10
0.0
 20
0.0
 30
0.0
  0
VERTEX
  5
4F
330
4E
100
AcDbEntity
  8
_U+30EC_U+30A4_U+30E4_U+30FC 1
 62
     7
420
 16777215
370
     9
100
AcDbVertex
100
AcDb2dVertex
 10
91.99163626420895
 20
-121.3491702474404
 30
0.0
  0
VERTEX
  5
50
330
4E
100
AcDbEntity
  8
_U+30EC_U+30A4_U+30E4_U+30FC 1
 62
     7
420
 16777215
370
     9
100
AcDbVertex
100
AcDb2dVertex
 10
91.99163626420895
 20
-123.8096541357143
 30
0.0
  0
SEQEND
  5
51
330
4E
100
AcDbEntity
  8
_U+30EC_U+30A4_U+30E4_U+30FC 1
 62
     7
420
 16777215
370
     9
  0
INSERT
  5
53
330
1F
100
AcDbEntity
  8
_U+30EC_U+30A4_U+30E4_U+30FC 1
100
AcDbBlockReference
  2
block 2
 10
0.0
 20
0.0
 30
0.0
  0
SPLINE
  5
5A
330
1F
100
AcDbEntity
  8
_U+30EC_U+30A4_U+30E4_U+30FC 1
 62
     7
420
 16777215
370
    25
100
AcDbSpline
210
0.0
220
0.0
230
1.0
 70
    11
 71
     3
 72
    89
 73
    85
 74
     0
 42
0.0000000001
 43
0.0000000001
 12
1.0
 22
0.0
 32
0.0
 13
1.0
 23
0.0
 33
0.0
 40
0.0
 40
0.0
 40
0.0
 40
0.0
 40
1.0
 40
1.0
 40
1.0
 40
2.0
 40
2.0
 40
2.0
 40
3.0
 40
3.0
 40
3.0
 40
4.0
 40
4.0
 40
4.0
 40
5.0
 40
5.0
 40
5.0
 40
6.0
 40
6.0
 40
6.0
 40
7.0
 40
7.0
 40
7.0
 40
8.0
 40
8.0
 40
8.0
 40
9.0
 40
9.0
 40
9.0
 40
10.0
 40
10.0
 40
10.0
 40
11.0
 40
11.0
 40
11.0
 40
12.0
 40
12.0
 40
12.0
 40
13.0
 40
13.0
 40
13.0
 40
14.0
 40
14.0
 40
14.0
 40
15.0
 40
15.0
 40
15.0
 40
16.0
 40
16.0
 40
16.0
 40
17.0
 40
17.0
 40
17.0
 40
18.0
 40
18.0
 40
18.0
 40
19.0
 40
19.0
 40
19.0
 40
20.0
 40
20.0
 40
20.0
 40
21.0
 40
21.0
 40
21.0
 40
22.0
 40
22.0
 40
22.0
 40
23.0
 40
23.0
 40
23.0
 40
24.0
 40
24.0
 40
24.0
 40
25.0
 40
25.0
 40
25.0
 40
26.0
 40
26.0
 40
26.0
 40
27.0
 40
27.0
 40
27.0
 40
28.0
 40
28.0
 40
28.0
 40
28.0
 10
83.93959164568189
 20
-127.5568949681107
 30
0.0
 10
83.93959164568189
 20
-127.5568949681107
 30
0.0
 10
83.67669953189622
 20
-127.2647596904061
 30
0.0
 10
83.67669953189622
 20
-127.2647596904061
 30
0.0
 10
83.43451759363035
 20
-127.0149930238017
 30
0.0
 10
83.45931787077541
 20
-126.9846541349206
 30
0.0
 10
83.64364425496174
 20
-126.8347941349578
 30
0.0
 10
83.77851119596545
 20
-126.7249038572076
 30
0.0
 10
84.09632868785725
 20
-126.5388841350319
 30
0.0
 10
84.23482923987936
 20
-126.6305005238978
 30
0.0
 10
84.23482923987936
 20
-126.6305005238978
 30
0.0
 10
85.32279587878969
 20
-127.7122583014054
 30
0.0
 10
85.32279587878969
 20
-127.7122583014054
 30
0.0
 10
84.7653717263441
 20
-127.9875308013363
 30
0.0
 10
84.3085597935539
 20
-128.5618177456374
 30
0.0
 10
84.3085597935539
 20
-129.2258866343604
 30
0.0
 10
84.3085597935539
 20
-129.6000074676001
 30
0.0
 10
84.43016229045155
 20
-129.945200523069
 30
0.0
 10
84.63618450741771
 20
-130.2256588563323
 30
0.0
 10
84.63618450741771
 20
-130.2256588563323
 30
0.0
 10
82.80216344309638
 20
-132.7129891334882
 30
0.0
 10
82.80216344309638
 20
-132.7129891334882
 30
0.0
 10
83.58127314544186
 20
-132.7129891334882
 30
0.0
 10
84.68924442327224
 20
-132.7123188557108
 30
0.0
 10
85.98372502859465
 20
-132.7123188557108
 30
0.0
 10
87.27820777334742
 20
-132.7123188557108
 30
0.0
 10
88.38617691174744
 20
-132.7129891334882
 30
0.0
 10
89.16511022520852
 20
-132.7129891334882
 30
0.0
 10
89.16511022520852
 20
-132.7129891334882
 30
0.0
 10
87.33126554977157
 20
-130.2256588563323
 30
0.0
 10
87.33126554977157
 20
-130.2256588563323
 30
0.0
 10
87.53728776673773
 20
-129.945200523069
 30
0.0
 10
87.6588902636354
 20
-129.6000074676001
 30
0.0
 10
87.6588902636354
 20
-129.2258866343604
 30
0.0
 10
87.6588902636354
 20
-128.5618177456374
 30
0.0
 10
87.17195110939159
 20
-127.9871780235589
 30
0.0
 10
86.61435275612409
 20
-127.7119408014054
 30
0.0
 10
86.61435275612409
 20
-127.7119408014054
 30
0.0
 10
87.70196664474128
 20
-126.6298302461204
 30
0.0
 10
87.70196664474128
 20
-126.6298302461204
 30
0.0
 10
87.84046498122527
 20
-126.537825801699
 30
0.0
 10
88.15828247311705
 20
-126.7242335794302
 30
0.0
 10
88.29314941412076
 20
-126.8337710794027
 30
0.0
 10
88.47744052053022
 20
-126.9836310793652
 30
0.0
 10
88.50227607545216
 20
-127.0136171904688
 30
0.0
 10
88.26006108904599
 20
-127.2637366348506
 30
0.0
 10
88.26006108904599
 20
-127.2637366348506
 30
0.0
 10
87.99720414389319
 20
-127.5558719125556
 30
0.0
 10
87.99720414389319
 20
-127.5558719125556
 30
0.0
 10
88.37153886679616
 20
-128.009579412442
 30
0.0
 10
88.5963266286083
 20
-128.5914510789632
 30
0.0
 10
88.5963266286083
 20
-129.2258866343604
 30
0.0
 10
88.5963266286083
 20
-129.5903766342692
 30
0.0
 10
88.52206690828059
 20
-129.9376158008491
 30
0.0
 10
88.38772913393005
 20
-130.2532108007701
 30
0.0
 10
88.38772913393005
 20
-130.2532108007701
 30
0.0
 10
90.35365380599737
 20
-132.7068155223786
 30
0.0
 10
90.35365380599737
 20
-132.7068155223786
 30
0.0
 10
90.35365380599737
 20
-132.7068155223786
 30
0.0
 10
96.99871942019489
 20
-132.7081913557121
 30
0.0
 10
96.99871942019489
 20
-132.7081913557121
 30
0.0
 10
96.99871942019489
 20
-132.7081913557121
 30
0.0
 10
96.99871942019489
 20
-133.6576574665858
 30
0.0
 10
96.99871942019489
 20
-133.6576574665858
 30
0.0
 10
96.99871942019489
 20
-133.6576574665858
 30
0.0
 10
85.98372502859465
 20
-133.6576574665858
 30
0.0
 10
85.98372502859465
 20
-133.6576574665858
 30
0.0
 10
85.98372502859465
 20
-133.6576574665858
 30
0.0
 10
74.99438003117841
 20
-133.6576574665858
 30
0.0
 10
74.99438003117841
 20
-133.6576574665858
 30
0.0
 10
74.99438003117841
 20
-133.6576574665858
 30
0.0
 10
74.99438003117841
 20
-132.7081913557121
 30
0.0
 10
74.99438003117841
 20
-132.7081913557121
 30
0.0
 10
74.99438003117841
 20
-132.7081913557121
 30
0.0
 10
81.61379625119193
 20
-132.7068155223786
 30
0.0
 10
81.61379625119193
 20
-132.7068155223786
 30
0.0
 10
81.61379625119193
 20
-132.7068155223786
 30
0.0
 10
83.57972092325923
 20
-130.2532108007701
 30
0.0
 10
83.57972092325923
 20
-130.2532108007701
 30
0.0
 10
83.44538314890869
 20
-129.9376158008491
 30
0.0
 10
83.371123428581
 20
-129.5903766342692
 30
0.0
 10
83.371123428581
 20
-129.2258866343604
 30
0.0
 10
83.371123428581
 20
-128.5914510789632
 30
0.0
 10
83.56508064585496
 20
-128.0109552457751
 30
0.0
 10
83.93959164568189
 20
-127.5568949681107
 30
0.0
  0
SPLINE
  5
5B
330
1F
100
AcDbEntity
  8
_U+30EC_U+30A4_U+30E4_U+30FC 1
 62
     7
420
 16777215
370
     9
100
AcDbSpline
210
0.0
220
0.0
230
1.0
 70
    11
 71
     3
 72
    17
 73
    13
 74
     0
 42
0.0000000001
 43
0.0000000001
 12
1.0
 22
0.0
 32
0.0
 13
1.0
 23
0.0
 33
0.0
 40
0.0
 40
0.0
 40
0.0
 40
0.0
 40
1.0
 40
1.0
 40
1.0
 40
2.0
 40
2.0
 40
2.0
 40
3.0
 40
3.0
 40
3.0
 40
4.0
 40
4.0
 40
4.0
 40
4.0
 10
105.4292236991653
 20
-132.6802866334966
 30
0.0
 10
105.4292236991653
 20
-132.6251474668435
 30
0.0
 10
105.3844209225306
 20
-132.580379966855
 30
0.0
 10
105.3293170350475
 20
-132.580379966855
 30
0.0
 10
105.2741805292373
 20
-132.580379966855
 30
0.0
 10
105.2294103709296
 20
-132.6251474668435
 30
0.0
 10
105.2294103709296
 20
-132.6802866334966
 30
0.0
 10
105.2294103709296
 20
-132.736096077927
 30
0.0
 10
105.2741805292373
 20
-132.7808635779156
 30
0.0
 10
105.3293170350475
 20
-132.7808635779156
 30
0.0
 10
105.3844209225306
 20
-132.7808635779156
 30
0.0
 10
105.4292236991653
 20
-132.736096077927
 30
0.0
 10
105.4292236991653
 20
-132.6802866334966
 30
0.0
  0
POLYLINE
  5
5C
330
1F
100
AcDbEntity
  8
_U+30EC_U+30A4_U+30E4_U+30FC 1
 62
     7
420
 16777215
370
     9
100
AcDb2dPolyline
 66
     1
 10
0.0
 20
0.0
 30
0.0
  0
VERTEX
  5
5D
330
5C
100
AcDbEntity
  8
_U+30EC_U+30A4_U+30E4_U+30FC 1
 62
     7
420
 16777215
370
     9
100
AcDbVertex
100
AcDb2dVertex
 10
105.3293170350475
 20
-137.0465819101825
 30
0.0
  0
VERTEX
  5
5E
330
5C
100
AcDbEntity
  8
_U+30EC_U+30A4_U+30E4_U+30FC 1
 62
     7
420
 16777215
370
     9
100
AcDbVertex
100
AcDb2dVertex
 10
105.3293170350475
 20
-126.5588513572491
 30
0.0
  0
SEQEND
  5
5F
330
5C
100
AcDbEntity
  8
_U+30EC_U+30A4_U+30E4_U+30FC 1
 62
     7
420
 16777215
370
     9
  0
POLYLINE
  5
60
330
1F
100
AcDbEntity
  8
_U+30EC_U+30A4_U+30E4_U+30FC 1
 62
     7
420
 16777215
370
     9
100
AcDb2dPolyline
 66
     1
 10
0.0
 20
0.0
 30
0.0
  0
VERTEX
  5
61
330
60
100
AcDbEntity
  8
_U+30EC_U+30A4_U+30E4_U+30FC 1
 62
     7
420
 16777215
370
     9
100
AcDbVertex
100
AcDb2dVertex
 10
98.99896941969484
 20
-132.6802866334966
 30
0.0
  0
VERTEX
  5
62
330
60
100
AcDbEntity
  8
_U+30EC_U+30A4_U+30E4_U+30FC 1
 62
     7
420
 16777215
370
     9
100
AcDbVertex
100
AcDb2dVertex
 10
106.8013881086029
 20
-132.6802866334966
 30
0.0
  0
SEQEND
  5
63
330
60
100
AcDbEntity
  8
_U+30EC_U+30A4_U+30E4_U+30FC 1
 62
     7
420
 16777215
370
     9
  0
SPLINE
  5
64
330
1F
100
AcDbEntity
  8
_U+30EC_U+30A4_U+30E4_U+30FC 1
 62
     7
420
 16777215
370
     9
100
AcDbSpline
210
0.0
220
0.0
230
1.0
 70
    11
 71
     3
 72
    17
 73
    13
 74
     0
 42
0.0000000001
 43
0.0000000001
 12
1.0
 22
0.0
 32
0.0
 13
1.0
 23
0.0
 33
0.0
 40
0.0
 40
0.0
 40
0.0
 40
0.0
 40
1.0
 40
1.0
 40
1.0
 40
2.0
 40
2.0
 40
2.0
 40
3.0
 40
3.0
 40
3.0
 40
4.0
 40
4.0
 40
4.0
 40
4.0
 10
105.4292236991653
 20
-133.6455924665888
 30
0.0
 10
105.4292236991653
 20
-133.5904532999357
 30
0.0
 10
105.3844209225306
 20
-133.5456857999471
 30
0.0
 10
105.3293170350475
 20
-133.5456857999471
 30
0.0
 10
105.2741805292373
 20
-133.5456857999471
 30
0.0
 10
105.2294103709296
 20
-133.5904532999357
 30
0.0
 10
105.2294103709296
 20
-133.6455924665888
 30
0.0
 10
105.2294103709296
 20
-133.7014019110192
 30
0.0
 10
105.2741805292373
 20
-133.7461694110078
 30
0.0
 10
105.3293170350475
 20
-133.7461694110078
 30
0.0
 10
105.3844209225306
 20
-133.7461694110078
 30
0.0
 10
105.4292236991653
 20
-133.7014019110192
 30
0.0
 10
105.4292236991653
 20
-133.6455924665888
 30
0.0
  0
POLYLINE
  5
65
330
1F
100
AcDbEntity
  8
_U+30EC_U+30A4_U+30E4_U+30FC 1
 62
     7
420
 16777215
370
     9
100
AcDb2dPolyline
 66
     1
 10
0.0
 20
0.0
 30
0.0
  0
VERTEX
  5
66
330
65
100
AcDbEntity
  8
_U+30EC_U+30A4_U+30E4_U+30FC 1
 62
     7
420
 16777215
370
     9
100
AcDbVertex
100
AcDb2dVertex
 10
98.99896941969484
 20
-133.6455924665888
 30
0.0
  0
VERTEX
  5
67
330
65
100
AcDbEntity
  8
_U+30EC_U+30A4_U+30E4_U+30FC 1
 62
     7
420
 16777215
370
     9
100
AcDbVertex
100
AcDb2dVertex
 10
106.8013881086029
 20
-133.6455924665888
 30
0.0
  0
SEQEND
  5
68
330
65
100
AcDbEntity
  8
_U+30EC_U+30A4_U+30E4_U+30FC 1
 62
     7
420
 16777215
370
     9
  0
SPLINE
  5
69
330
1F
100
AcDbEntity
  8
_U+30EC_U+30A4_U+30E4_U+30FC 1
 62
     7
420
 16777215
370
     9
100
AcDbSpline
210
0.0
220
0.0
230
1.0
 70
    11
 71
     3
 72
    17
 73
    13
 74
     0
 42
0.0000000001
 43
0.0000000001
 12
1.0
 22
0.0
 32
0.0
 13
1.0
 23
0.0
 33
0.0
 40
0.0
 40
0.0
 40
0.0
 40
0.0
 40
1.0
 40
1.0
 40
1.0
 40
2.0
 40
2.0
 40
2.0
 40
3.0
 40
3.0
 40
3.0
 40
4.0
 40
4.0
 40
4.0
 40
4.0
 10
105.4292236991653
 20
-126.6587580238908
 30
0.0
 10
105.4292236991653
 20
-126.6036541350159
 30
0.0
 10
105.3844209225306
 20
-126.5588513572491
 30
0.0
 10
105.3293170350475
 20
-126.5588513572491
 30
0.0
 10
105.2741805292373
 20
-126.5588513572491
 30
0.0
 10
105.2294103709296
 20
-126.6036541350159
 30
0.0
 10
105.2294103709296
 20
-126.6587580238908
 30
0.0
 10
105.2294103709296
 20
-126.7145674683212
 30
0.0
 10
105.2741805292373
 20
-126.7593702460879
 30
0.0
 10
105.3293170350475
 20
-126.7593702460879
 30
0.0
 10
105.3844209225306
 20
-126.7593702460879
 30
0.0
 10
105.4292236991653
 20
-126.7145674683212
 30
0.0
 10
105.4292236991653
 20
-126.6587580238908
 30
0.0
  0
POLYLINE
  5
6A
330
1F
100
AcDbEntity
  8
_U+30EC_U+30A4_U+30E4_U+30FC 1
 62
     7
420
 16777215
370
     9
100
AcDb2dPolyline
 66
     1
 10
0.0
 20
0.0
 30
0.0
  0
VERTEX
  5
6B
330
6A
100
AcDbEntity
  8
_U+30EC_U+30A4_U+30E4_U+30FC 1
 62
     7
420
 16777215
370
     9
100
AcDbVertex
100
AcDb2dVertex
 10
94.41317342465261
 20
-126.6587580238908
 30
0.0
  0
VERTEX
  5
6C
330
6A
100
AcDbEntity
  8
_U+30EC_U+30A4_U+30E4_U+30FC 1
 62
     7
420
 16777215
370
     9
100
AcDbVertex
100
AcDb2dVertex
 10
106.7338664436589
 20
-126.6587580238908
 30
0.0
  0
SEQEND
  5
6D
330
6A
100
AcDbEntity
  8
_U+30EC_U+30A4_U+30E4_U+30FC 1
 62
     7
420
 16777215
370
     9
  0
POLYLINE
  5
6E
330
1F
100
AcDbEntity
  8
_U+30EC_U+30A4_U+30E4_U+30FC 1
 62
     7
420
 16777215
370
     9
100
AcDb2dPolyline
 66
     1
 10
0.0
 20
0.0
 30
0.0
  0
VERTEX
  5
6F
330
6E
100
AcDbEntity
  8
_U+30EC_U+30A4_U+30E4_U+30FC 1
 62
     7
420
 16777215
370
     9
100
AcDbVertex
100
AcDb2dVertex
 10
105.3293170350475
 20
-126.6218927461224
 30
0.0
  0
VERTEX
  5
70
330
6E
100
AcDbEntity
  8
_U+30EC_U+30A4_U+30E4_U+30FC 1
 62
     7
420
 16777215
370
     9
100
AcDbVertex
100
AcDb2dVertex
 10
105.3293170350475
 20
-120.2057469143931
 30
0.0
  0
SEQEND
  5
71
330
6E
100
AcDbEntity
  8
_U+30EC_U+30A4_U+30E4_U+30FC 1
 62
     7
420
 16777215
370
     9
  0
SPLINE
  5
72
330
1F
100
AcDbEntity
  8
_U+30EC_U+30A4_U+30E4_U+30FC 1
 62
     7
420
 16777215
370
     9
100
AcDbSpline
210
0.0
220
0.0
230
1.0
 70
    11
 71
     3
 72
    17
 73
    13
 74
     0
 42
0.0000000001
 43
0.0000000001
 12
1.0
 22
0.0
 32
0.0
 13
1.0
 23
0.0
 33
0.0
 40
0.0
 40
0.0
 40
0.0
 40
0.0
 40
1.0
 40
1.0
 40
1.0
 40
2.0
 40
2.0
 40
2.0
 40
3.0
 40
3.0
 40
3.0
 40
4.0
 40
4.0
 40
4.0
 40
4.0
 10
105.4292236991653
 20
-125.1374038576045
 30
0.0
 10
105.4292236991653
 20
-125.0822999687295
 30
0.0
 10
105.3844209225306
 20
-125.0374971909628
 30
0.0
 10
105.3293170350475
 20
-125.0374971909628
 30
0.0
 10
105.2741805292373
 20
-125.0374971909628
 30
0.0
 10
105.2294103709296
 20
-125.0822999687295
 30
0.0
 10
105.2294103709296
 20
-125.1374038576045
 30
0.0
 10
105.2294103709296
 20
-125.1932133020349
 30
0.0
 10
105.2741805292373
 20
-125.2380160798016
 30
0.0
 10
105.3293170350475
 20
-125.2380160798016
 30
0.0
 10
105.3844209225306
 20
-125.2380160798016
 30
0.0
 10
105.4292236991653
 20
-125.1932133020349
 30
0.0
 10
105.4292236991653
 20
-125.1374038576045
 30
0.0
  0
POLYLINE
  5
73
330
1F
100
AcDbEntity
  8
_U+30EC_U+30A4_U+30E4_U+30FC 1
 62
     7
420
 16777215
370
     9
100
AcDb2dPolyline
 66
     1
 10
0.0
 20
0.0
 30
0.0
  0
VERTEX
  5
74
330
73
100
AcDbEntity
  8
_U+30EC_U+30A4_U+30E4_U+30FC 1
 62
     7
420
 16777215
370
     9
100
AcDbVertex
100
AcDb2dVertex
 10
94.41317342465261
 20
-125.1374038576045
 30
0.0
  0
VERTEX
  5
75
330
73
100
AcDbEntity
  8
_U+30EC_U+30A4_U+30E4_U+30FC 1
 62
     7
420
 16777215
370
     9
100
AcDbVertex
100
AcDb2dVertex
 10
106.7338664436589
 20
-125.1374038576045
 30
0.0
  0
SEQEND
  5
76
330
73
100
AcDbEntity
  8
_U+30EC_U+30A4_U+30E4_U+30FC 1
 62
     7
420
 16777215
370
     9
  0
INSERT
  5
78
330
1F
100
AcDbEntity
  8
_U+30EC_U+30A4_U+30E4_U+30FC 1
100
AcDbBlockReference
  2
block 3
 10
0.0
 20
0.0
 30
0.0
  0
INSERT
  5
7F
330
1F
100
AcDbEntity
  8
_U+30EC_U+30A4_U+30E4_U+30FC 1
100
AcDbBlockReference
  2
block 4
 10
0.0
 20
0.0
 30
0.0
  0
INSERT
  5
8F
330
1F
100
AcDbEntity
  8
_U+30EC_U+30A4_U+30E4_U+30FC 1
100
AcDbBlockReference
  2
block 5
 10
0.0
 20
0.0
 30
0.0
  0
ENDSEC
  0
SECTION
  2
OBJECTS
  0
DICTIONARY
  5
C
330
0
100
AcDbDictionary
281
     1
  3
ACAD_GROUP
350
D
  3
ACAD_LAYOUT
350
1A
  3
ACAD_MATERIAL
350
3B
  3
ACAD_MLEADERSTYLE
350
95
  3
ACAD_MLINESTYLE
350
17
  3
ACAD_PLOTSETTINGS
350
19
  3
ACAD_PLOTSTYLENAME
350
E
  3
ACAD_TABLESTYLE
350
94
  3
ACAD_VISUALSTYLE
350
2A
  0
SUN
  5
3F
330
29
100
AcDbSun
 90
        1
290
     0
 63
     7
421
 16777215
 40
1.0
291
     1
 91
  2455826
 92
 54000000
292
     0
 70
     2
 71
   256
280
     1
  0
DICTIONARY
  5
D
102
{ACAD_REACTORS
330
C
102
}
330
C
100
AcDbDictionary
281
     1
  0
DICTIONARY
  5
1A
102
{ACAD_REACTORS
330
C
102
}
330
C
100
AcDbDictionary
281
     1
  3
Layout1
350
1E
  3
Layout2
350
26
  3
Model
350
22
  0
DICTIONARY
  5
3B
102
{ACAD_REACTORS
330
C
102
}
330
C
100
AcDbDictionary
281
     1
  3
ByBlock
350
3D
  3
ByLayer
350
3C
  3
Global
350
3E
  0
DICTIONARY
  5
95
102
{ACAD_REACTORS
330
C
102
}
330
C
100
AcDbDictionary
281
     1
  0
DICTIONARY
  5
17
102
{ACAD_REACTORS
330
C
102
}
330
C
100
AcDbDictionary
281
     1
  3
Standard
350
18
  0
DICTIONARY
  5
19
102
{ACAD_REACTORS
330
C
102
}
330
C
100
AcDbDictionary
281
     1
  0
ACDBDICTIONARYWDFLT
  5
E
102
{ACAD_REACTORS
330
C
102
}
330
C
100
AcDbDictionary
281
     1
  3
Normal
350
F
100
AcDbDictionaryWithDefault
340
F
  0
DICTIONARY
  5
94
102
{ACAD_REACTORS
330
C
102
}
330
C
100
AcDbDictionary
281
     1
  0
DICTIONARY
  5
2A
102
{ACAD_REACTORS
330
C
102
}
330
C
100
AcDbDictionary
281
     1
  3
2dWireframe
350
2F
  3
3D Hidden
350
31
  3
3dWireframe
350
30
  3
Basic
350
32
  3
Brighten
350
36
  3
ColorChange
350
3A
  3
Conceptual
350
34
  3
Dim
350
35
  3
Facepattern
350
39
  3
Flat
350
2B
  3
FlatWithEdges
350
2C
  3
Gouraud
350
2D
  3
GouraudWithEdges
350
2E
  3
Linepattern
350
38
  3
Realistic
350
33
  3
Thicken
350
37
  0
LAYOUT
  5
1E
102
{ACAD_REACTORS
330
1A
102
}
330
1A
100
AcDbPlotSettings
  1

  2
none_device
  4

  6

 40
0.0
 41
0.0
 42
0.0
 43
0.0
 44
0.0
 45
0.0
 46
0.0
 47
0.0
 48
0.0
 49
0.0
140
0.0
141
0.0
142
1.0
143
1.0
 70
   688
 72
     0
 73
     0
 74
     5
  7

 75
    16
 76
     0
 77
     2
 78
   300
147
1.0
148
0.0
149
0.0
100
AcDbLayout
  1
Layout1
 70
     1
 71
     1
 10
0.0
 20
0.0
 11
12.0
 21
9.0
 12
0.0
 22
0.0
 32
0.0
 14
1.000000000000000E+20
 24
1.000000000000000E+20
 34
1.000000000000000E+20
 15
-1.000000000000000E+20
 25
-1.000000000000000E+20
 35
-1.000000000000000E+20
146
0.0
 13
0.0
 23
0.0
 33
0.0
 16
1.0
 26
0.0
 36
0.0
 17
0.0
 27
1.0
 37
0.0
 76
     0
330
1B
  0
LAYOUT
  5
26
102
{ACAD_REACTORS
330
1A
102
}
330
1A
100
AcDbPlotSettings
  1

  2
none_device
  4

  6

 40
0.0
 41
0.0
 42
0.0
 43
0.0
 44
0.0
 45
0.0
 46
0.0
 47
0.0
 48
0.0
 49
0.0
140
0.0
141
0.0
142
1.0
143
1.0
 70
   688
 72
     0
 73
     0
 74
     5
  7

 75
    16
 76
     0
 77
     2
 78
   300
147
1.0
148
0.0
149
0.0
100
AcDbLayout
  1
Layout2
 70
     1
 71
     2
 10
0.0
 20
0.0
 11
0.0
 21
0.0
 12
0.0
 22
0.0
 32
0.0
 14
0.0
 24
0.0
 34
0.0
 15
0.0
 25
0.0
 35
0.0
146
0.0
 13
0.0
 23
0.0
 33
0.0
 16
1.0
 26
0.0
 36
0.0
 17
0.0
 27
1.0
 37
0.0
 76
     0
330
23
  0
LAYOUT
  5
22
102
{ACAD_REACTORS
330
1A
102
}
330
1A
100
AcDbPlotSettings
  1

  2
none_device
  4

  6

 40
0.0
 41
0.0
 42
0.0
 43
0.0
 44
0.0
 45
0.0
 46
0.0
 47
0.0
 48
0.0
 49
0.0
140
0.0
141
0.0
142
1.0
143
1.0
 70
  1712
 72
     0
 73
     0
 74
     0
  7

 75
     0
 76
     0
 77
     2
 78
   300
147
1.0
148
0.0
149
0.0
100
AcDbLayout
  1
Model
 70
     1
 71
     0
 10
0.0
 20
0.0
 11
12.0
 21
9.0
 12
0.0
 22
0.0
 32
0.0
 14
1.000000000000000E+20
 24
1.000000000000000E+20
 34
1.000000000000000E+20
 15
-1.000000000000000E+20
 25
-1.000000000000000E+20
 35
-1.000000000000000E+20
146
0.0
 13
0.0
 23
0.0
 33
0.0
 16
1.0
 26
0.0
 36
0.0
 17
0.0
 27
1.0
 37
0.0
 76
     0
330
1F
331
29
  0
MATERIAL
  5
3D
102
{ACAD_REACTORS
330
3B
102
}
330
3B
100
AcDbMaterial
  1
ByBlock
 72
     1
 94
      127
  0
MATERIAL
  5
3C
102
{ACAD_REACTORS
330
3B
102
}
330
3B
100
AcDbMaterial
  1
ByLayer
 72
     1
 94
      127
  0
MATERIAL
  5
3E
102
{ACAD_REACTORS
330
3B
102
}
330
3B
100
AcDbMaterial
  1
Global
 72
     1
 94
      127
  0
MLINESTYLE
  5
18
102
{ACAD_REACTORS
330
17
102
}
330
17
100
AcDbMlineStyle
  2
Standard
 70
     0
  3

 62
   256
 51
90.0
 52
90.0
 71
     2
 49
0.5
 62
   256
  6
BYLAYER
 49
-0.5
 62
   256
  6
BYLAYER
  0
ACDBPLACEHOLDER
  5
F
102
{ACAD_REACTORS
330
E
102
}
330
E
  0
VISUALSTYLE
  5
2F
102
{ACAD_REACTORS
330
2A
102
}
330
2A
100
AcDbVisualStyle
  2
2dWireframe
 70
     4
177
     2
291
     0
 71
     0
176
     1
 72
     2
176
     1
 73
     0
176
     1
 90
        0
176
     1
 40
-0.6
176
     1
 41
-30.0
176
     1
 62
     5
 63
     7
421
 16777215
176
     1
 74
     1
176
     1
 91
        4
176
     1
 64
     7
176
     1
 65
   257
176
     1
 75
     1
176
     1
175
     1
176
     1
 42
1.0
176
     1
 92
        0
176
     1
 66
   257
176
     1
 43
1.0
176
     1
 76
     1
176
     1
 77
     6
176
     1
 78
     2
176
     1
 67
     7
176
     1
 79
     5
176
     1
170
     0
176
     1
171
     0
176
     1
290
     0
176
     1
 93
        1
176
     1
 44
0.0
176
     1
173
     0
176
     1
  0
VISUALSTYLE
  5
31
102
{ACAD_REACTORS
330
2A
102
}
330
2A
100
AcDbVisualStyle
  2
3D Hidden
 70
     6
177
     2
291
     0
 71
     1
176
     1
 72
     2
176
     1
 73
     2
176
     1
 90
        0
176
     1
 40
-0.6
176
     1
 41
-30.0
176
     1
 62
     5
 63
     7
421
 16777215
176
     1
 74
     2
176
     1
 91
        2
176
     1
 64
     7
176
     1
 65
   257
176
     1
 75
     2
176
     1
175
     1
176
     1
 42
40.0
176
     1
 92
        0
176
     1
 66
   257
176
     1
 43
1.0
176
     1
 76
     1
176
     1
 77
     6
176
     1
 78
     2
176
     1
 67
     7
176
     1
 79
     3
176
     1
170
     0
176
     1
171
     0
176
     1
290
     0
176
     1
 93
        1
176
     1
 44
0.0
176
     1
173
     0
176
     1
  0
VISUALSTYLE
  5
30
102
{ACAD_REACTORS
330
2A
102
}
330
2A
100
AcDbVisualStyle
  2
3dWireframe
 70
     5
177
     2
291
     0
 71
     0
176
     1
 72
     2
176
     1
 73
     0
176
     1
 90
        0
176
     1
 40
-0.6
176
     1
 41
-30.0
176
     1
 62
     5
 63
     7
421
 16777215
176
     1
 74
     1
176
     1
 91
        4
176
     1
 64
     7
176
     1
 65
   257
176
     1
 75
     1
176
     1
175
     1
176
     1
 42
1.0
176
     1
 92
        0
176
     1
 66
   257
176
     1
 43
1.0
176
     1
 76
     1
176
     1
 77
     6
176
     1
 78
     2
176
     1
 67
     7
176
     1
 79
     5
176
     1
170
     0
176
     1
171
     0
176
     1
290
     0
176
     1
 93
        1
176
     1
 44
0.0
176
     1
173
     0
176
     1
  0
VISUALSTYLE
  5
32
102
{ACAD_REACTORS
330
2A
102
}
330
2A
100
AcDbVisualStyle
  2
Basic
 70
     7
177
     2
291
     1
 71
     1
176
     1
 72
     0
176
     1
 73
     1
176
     1
 90
        0
176
     1
 40
-0.6
176
     1
 41
-30.0
176
     1
 62
     5
 63
     7
421
 16777215
176
     1
 74
     0
176
     1
 91
        4
176
     1
 64
     7
176
     1
 65
   257
176
     1
 75
     1
176
     1
175
     1
176
     1
 42
1.0
176
     1
 92
        8
176
     1
 66
     7
176
     1
 43
1.0
176
     1
 76
     1
176
     1
 77
     6
176
     1
 78
     2
176
     1
 67
     7
176
     1
 79
     5
176
     1
170
     0
176
     1
171
     0
176
     1
290
     0
176
     1
 93
        1
176
     1
 44
0.0
176
     1
173
     0
176
     1
  0
VISUALSTYLE
  5
36
102
{ACAD_REACTORS
330
2A
102
}
330
2A
100
AcDbVisualStyle
  2
Brighten
 70
    12
177
     2
291
     1
 71
     2
176
     1
 72
     2
176
     1
 73
     0
176
     1
 90
        0
176
     1
 40
-0.6
176
     1
 41
-30.0
176
     1
 62
     5
 63
     7
421
 16777215
176
     1
 74
     1
176
     1
 91
        4
176
     1
 64
     7
176
     1
 65
   257
176
     1
 75
     1
176
     1
175
     1
176
     1
 42
1.0
176
     1
 92
        8
176
     1
 66
     7
176
     1
 43
1.0
176
     1
 76
     1
176
     1
 77
     6
176
     1
 78
     2
176
     1
 67
     7
176
     1
 79
     5
176
     1
170
     0
176
     1
171
     0
176
     1
290
     0
176
     1
 93
        1
176
     1
 44
50.0
176
     1
173
     0
176
     1
  0
VISUALSTYLE
  5
3A
102
{ACAD_REACTORS
330
2A
102
}
330
2A
100
AcDbVisualStyle
  2
ColorChange
 70
    16
177
     2
291
     1
 71
     2
176
     1
 72
     2
176
     1
 73
     3
176
     1
 90
        0
176
     1
 40
-0.6
176
     1
 41
-30.0
176
     1
 62
     5
 63
     8
421
  8421504
176
     1
 74
     1
176
     1
 91
        4
176
     1
 64
     7
176
     1
 65
   257
176
     1
 75
     1
176
     1
175
     1
176
     1
 42
1.0
176
     1
 92
        8
176
     1
 66
     8
424
  8421504
176
     1
 43
1.0
176
     1
 76
     1
176
     1
 77
     6
176
     1
 78
     2
176
     1
 67
     7
176
     1
 79
     5
176
     1
170
     0
176
     1
171
     0
176
     1
290
     0
176
     1
 93
        1
176
     1
 44
0.0
176
     1
173
     0
176
     1
  0
VISUALSTYLE
  5
34
102
{ACAD_REACTORS
330
2A
102
}
330
2A
100
AcDbVisualStyle
  2
Conceptual
 70
     9
177
     2
291
     0
 71
     3
176
     1
 72
     2
176
     1
 73
     0
176
     1
 90
        0
176
     1
 40
-0.6
176
     1
 41
-30.0
176
     1
 62
     5
 63
     7
421
 16777215
176
     1
 74
     2
176
     1
 91
        2
176
     1
 64
     7
176
     1
 65
   257
176
     1
 75
     1
176
     1
175
     1
176
     1
 42
40.0
176
     1
 92
        8
176
     1
 66
     7
176
     1
 43
1.0
176
     1
 76
     1
176
     1
 77
     6
176
     1
 78
     2
176
     1
 67
     7
176
     1
 79
     3
176
     1
170
     0
176
     1
171
     0
176
     1
290
     0
176
     1
 93
        1
176
     1
 44
0.0
176
     1
173
     0
176
     1
  0
VISUALSTYLE
  5
35
102
{ACAD_REACTORS
330
2A
102
}
330
2A
100
AcDbVisualStyle
  2
Dim
 70
    11
177
     2
291
     1
 71
     2
176
     1
 72
     2
176
     1
 73
     0
176
     1
 90
        0
176
     1
 40
-0.6
176
     1
 41
-30.0
176
     1
 62
     5
 63
     7
421
 16777215
176
     1
 74
     1
176
     1
 91
        4
176
     1
 64
     7
176
     1
 65
   257
176
     1
 75
     1
176
     1
175
     1
176
     1
 42
1.0
176
     1
 92
        8
176
     1
 66
     7
176
     1
 43
1.0
176
     1
 76
     1
176
     1
 77
     6
176
     1
 78
     2
176
     1
 67
     7
176
     1
 79
     5
176
     1
170
     0
176
     1
171
     0
176
     1
290
     0
176
     1
 93
        1
176
     1
 44
-50.0
176
     1
173
     0
176
     1
  0
VISUALSTYLE
  5
39
102
{ACAD_REACTORS
330
2A
102
}
330
2A
100
AcDbVisualStyle
  2
Facepattern
 70
    15
177
     2
291
     1
 71
     2
176
     1
 72
     2
176
     1
 73
     0
176
     1
 90
        0
176
     1
 40
-0.6
176
     1
 41
-30.0
176
     1
 62
     5
 63
     7
421
 16777215
176
     1
 74
     1
176
     1
 91
        4
176
     1
 64
     7
176
     1
 65
   257
176
     1
 75
     1
176
     1
175
     1
176
     1
 42
1.0
176
     1
 92
        8
176
     1
 66
     7
176
     1
 43
1.0
176
     1
 76
     1
176
     1
 77
     6
176
     1
 78
     2
176
     1
 67
     7
176
     1
 79
     5
176
     1
170
     0
176
     1
171
     0
176
     1
290
     0
176
     1
 93
        1
176
     1
 44
0.0
176
     1
173
     0
176
     1
  0
VISUALSTYLE
  5
2B
102
{ACAD_REACTORS
330
2A
102
}
330
2A
100
AcDbVisualStyle
  2
Flat
 70
     0
177
     2
291
     1
 71
     2
176
     1
 72
     1
176
     1
 73
     1
176
     1
 90
        2
176
     1
 40
-0.6
176
     1
 41
30.0
176
     1
 62
     5
 63
     7
421
 16777215
176
     1
 74
     0
176
     1
 91
        4
176
     1
 64
     7
176
     1
 65
   257
176
     1
 75
     1
176
     1
175
     1
176
     1
 42
1.0
176
     1
 92
        8
176
     1
 66
     7
176
     1
 43
1.0
176
     1
 76
     1
176
     1
 77
     6
176
     1
 78
     2
176
     1
 67
     7
176
     1
 79
     5
176
     1
170
     0
176
     1
171
     0
176
     1
290
     0
176
     1
 93
       13
176
     1
 44
0.0
176
     1
173
     0
176
     1
  0
VISUALSTYLE
  5
2C
102
{ACAD_REACTORS
330
2A
102
}
330
2A
100
AcDbVisualStyle
  2
FlatWithEdges
 70
     1
177
     2
291
     1
 71
     2
176
     1
 72
     1
176
     1
 73
     1
176
     1
 90
        2
176
     1
 40
-0.6
176
     1
 41
30.0
176
     1
 62
     5
 63
     7
421
 16777215
176
     1
 74
     1
176
     1
 91
        4
176
     1
 64
     7
176
     1
 65
   257
176
     1
 75
     1
176
     1
175
     1
176
     1
 42
1.0
176
     1
 92
        0
176
     1
 66
   257
176
     1
 43
1.0
176
     1
 76
     1
176
     1
 77
     6
176
     1
 78
     2
176
     1
 67
     7
176
     1
 79
     5
176
     1
170
     0
176
     1
171
     0
176
     1
290
     0
176
     1
 93
       13
176
     1
 44
0.0
176
     1
173
     0
176
     1
  0
VISUALSTYLE
  5
2D
102
{ACAD_REACTORS
330
2A
102
}
330
2A
100
AcDbVisualStyle
  2
Gouraud
 70
     2
177
     2
291
     1
 71
     2
176
     1
 72
     2
176
     1
 73
     1
176
     1
 90
        2
176
     1
 40
-0.6
176
     1
 41
30.0
176
     1
 62
     5
 63
     7
421
 16777215
176
     1
 74
     0
176
     1
 91
        4
176
     1
 64
     7
176
     1
 65
   257
176
     1
 75
     1
176
     1
175
     1
176
     1
 42
1.0
176
     1
 92
        0
176
     1
 66
     7
176
     1
 43
1.0
176
     1
 76
     1
176
     1
 77
     6
176
     1
 78
     2
176
     1
 67
     7
176
     1
 79
     5
176
     1
170
     0
176
     1
171
     0
176
     1
290
     0
176
     1
 93
       13
176
     1
 44
0.0
176
     1
173
     0
176
     1
  0
VISUALSTYLE
  5
2E
102
{ACAD_REACTORS
330
2A
102
}
330
2A
100
AcDbVisualStyle
  2
GouraudWithEdges
 70
     3
177
     2
291
     1
 71
     2
176
     1
 72
     2
176
     1
 73
     1
176
     1
 90
        2
176
     1
 40
-0.6
176
     1
 41
30.0
176
     1
 62
     5
 63
     7
421
 16777215
176
     1
 74
     1
176
     1
 91
        4
176
     1
 64
     7
176
     1
 65
   257
176
     1
 75
     1
176
     1
175
     1
176
     1
 42
1.0
176
     1
 92
        0
176
     1
 66
   257
176
     1
 43
1.0
176
     1
 76
     1
176
     1
 77
     6
176
     1
 78
     2
176
     1
 67
     7
176
     1
 79
     5
176
     1
170
     0
176
     1
171
     0
176
     1
290
     0
176
     1
 93
       13
176
     1
 44
0.0
176
     1
173
     0
176
     1
  0
VISUALSTYLE
  5
38
102
{ACAD_REACTORS
330
2A
102
}
330
2A
100
AcDbVisualStyle
  2
Linepattern
 70
    14
177
     2
291
     1
 71
     2
176
     1
 72
     2
176
     1
 73
     0
176
     1
 90
        0
176
     1
 40
-0.6
176
     1
 41
-30.0
176
     1
 62
     5
 63
     7
421
 16777215
176
     1
 74
     1
176
     1
 91
        4
176
     1
 64
     7
176
     1
 65
   257
176
     1
 75
     7
176
     1
175
     7
176
     1
 42
1.0
176
     1
 92
        8
176
     1
 66
     7
176
     1
 43
1.0
176
     1
 76
     1
176
     1
 77
     6
176
     1
 78
     2
176
     1
 67
     7
176
     1
 79
     5
176
     1
170
     0
176
     1
171
     0
176
     1
290
     0
176
     1
 93
        1
176
     1
 44
0.0
176
     1
173
     0
176
     1
  0
VISUALSTYLE
  5
33
102
{ACAD_REACTORS
330
2A
102
}
330
2A
100
AcDbVisualStyle
  2
Realistic
 70
     8
177
     2
291
     0
 71
     2
176
     1
 72
     2
176
     1
 73
     0
176
     1
 90
        0
176
     1
 40
-0.6
176
     1
 41
-30.0
176
     1
 62
     5
 63
     7
421
 16777215
176
     1
 74
     1
176
     1
 91
        0
176
     1
 64
     7
176
     1
 65
   257
176
     1
 75
     1
176
     1
175
     1
176
     1
 42
1.0
176
     1
 92
        8
176
     1
 66
     8
424
  7895160
176
     1
 43
1.0
176
     1
 76
     1
176
     1
 77
     6
176
     1
 78
     2
176
     1
 67
     7
176
     1
 79
     5
176
     1
170
     0
176
     1
171
     0
176
     1
290
     0
176
     1
 93
       13
176
     1
 44
0.0
176
     1
173
     0
176
     1
  0
VISUALSTYLE
  5
37
102
{ACAD_REACTORS
330
2A
102
}
330
2A
100
AcDbVisualStyle
  2
Thicken
 70
    13
177
     2
291
     1
 71
     2
176
     1
 72
     2
176
     1
 73
     0
176
     1
 90
        0
176
     1
 40
-0.6
176
     1
 41
-30.0
176
     1
 62
     5
 63
     7
421
 16777215
176
     1
 74
     1
176
     1
 91
        4
176
     1
 64
     7
176
     1
 65
   257
176
     1
 75
     1
176
     1
175
     1
176
     1
 42
1.0
176
     1
 92
       12
176
     1
 66
     7
176
     1
 43
1.0
176
     1
 76
     1
176
     1
 77
     6
176
     1
 78
     2
176
     1
 67
     7
176
     1
 79
     5
176
     1
170
     0
176
     1
171
     0
176
     1
290
     0
176
     1
 93
        1
176
     1
 44
0.0
176
     1
173
     0
176
     1
  0
ENDSEC
  0
EOF
