  0
SECTION
  2
HEADER
  9
$ACADVER
  1
AC1024
  9
$ACADMAINTVER
 70
     6
  9
$DWGCODEPAGE
  3
UNDEFINED
  9
$INSBASE
 10
0.0
 20
0.0
 30
0.0
  9
$EXTMIN
 10
1.000000000000000E+20
 20
1.000000000000000E+20
 30
1.000000000000000E+20
  9
$EXTMAX
 10
-1.000000000000000E+20
 20
-1.000000000000000E+20
 30
-1.000000000000000E+20
  9
$LIMMIN
 10
0.0
 20
0.0
  9
$LIMMAX
 10
12.0
 20
9.0
  9
$ORTHOMODE
 70
     0
  9
$REGENMODE
 70
     1
  9
$FILLMODE
 70
     1
  9
$QTEXTMODE
 70
     0
  9
$MIRRTEXT
 70
     1
  9
$LTSCALE
 40
1.0
  9
$ATTMODE
 70
     1
  9
$TEXTSIZE
 40
0.2
  9
$TRACEWID
 40
0.05
  9
$TEXTSTYLE
  7
Standard
  9
$CLAYER
  8
0
  9
$CELTYPE
  6
ByLayer
  9
$CECOLOR
 62
   256
  9
$CELTSCALE
 40
1.0
  9
$DISPSILH
 70
     0
  9
$DIMSCALE
 40
1.0
  9
$DIMASZ
 40
0.18
  9
$DIMEXO
 40
0.0625
  9
$DIMDLI
 40
0.38
  9
$DIMRND
 40
0.0
  9
$DIMDLE
 40
0.0
  9
$DIMEXE
 40
0.18
  9
$DIMTP
 40
0.0
  9
$DIMTM
 40
0.0
  9
$DIMTXT
 40
0.18
  9
$DIMCEN
 40
0.09
  9
$DIMTSZ
 40
0.0
  9
$DIMTOL
 70
     0
  9
$DIMLIM
 70
     0
  9
$DIMTIH
 70
     1
  9
$DIMTOH
 70
     1
  9
$DIMSE1
 70
     0
  9
$DIMSE2
 70
     0
  9
$DIMTAD
 70
     0
  9
$DIMZIN
 70
     0
  9
$DIMBLK
  1

  9
$DIMASO
 70
     1
  9
$DIMSHO
 70
     1
  9
$DIMPOST
  1

  9
$DIMAPOST
  1

  9
$DIMALT
 70
     0
  9
$DIMALTD
 70
     2
  9
$DIMALTF
 40
25.4
  9
$DIMLFAC
 40
1.0
  9
$DIMTOFL
 70
     0
  9
$DIMTVP
 40
0.0
  9
$DIMTIX
 70
     0
  9
$DIMSOXD
 70
     0
  9
$DIMSAH
 70
     0
  9
$DIMBLK1
  1

  9
$DIMBLK2
  1

  9
$DIMSTYLE
  2
Standard
  9
$DIMCLRD
 70
     0
  9
$DIMCLRE
 70
     0
  9
$DIMCLRT
 70
     0
  9
$DIMTFAC
 40
1.0
  9
$DIMGAP
 40
0.09
  9
$DIMJUST
 70
     0
  9
$DIMSD1
 70
     0
  9
$DIMSD2
 70
     0
  9
$DIMTOLJ
 70
     1
  9
$DIMTZIN
 70
     0
  9
$DIMALTZ
 70
     0
  9
$DIMALTTZ
 70
     0
  9
$DIMUPT
 70
     0
  9
$DIMDEC
 70
     4
  9
$DIMTDEC
 70
     4
  9
$DIMALTU
 70
     2
  9
$DIMALTTD
 70
     2
  9
$DIMTXSTY
  7
Standard
  9
$DIMAUNIT
 70
     0
  9
$DIMADEC
 70
     0
  9
$DIMALTRND
 40
0.0
  9
$DIMAZIN
 70
     0
  9
$DIMDSEP
 70
    46
  9
$DIMATFIT
 70
     3
  9
$DIMFRAC
 70
     0
  9
$DIMLDRBLK
  1

  9
$DIMLUNIT
 70
     2
  9
$DIMLWD
 70
    -2
  9
$DIMLWE
 70
    -2
  9
$DIMTMOVE
 70
     0
  9
$DIMFXL
 40
1.0
  9
$DIMFXLON
 70
     0
  9
$DIMJOGANG
 40
0.7853981633974483
  9
$DIMTFILL
 70
     0
  9
$DIMTFILLCLR
 70
     0
  9
$DIMARCSYM
 70
     0
  9
$DIMLTYPE
  6

  9
$DIMLTEX1
  6

  9
$DIMLTEX2
  6

  9
$DIMTXTDIRECTION
 70
     0
  9
$LUNITS
 70
     2
  9
$LUPREC
 70
     4
  9
$SKETCHINC
 40
0.1
  9
$FILLETRAD
 40
0.5
  9
$AUNITS
 70
     0
  9
$AUPREC
 70
     0
  9
$MENU
  1
.
  9
$ELEVATION
 40
0.0
  9
$PELEVATION
 40
0.0
  9
$THICKNESS
 40
0.0
  9
$LIMCHECK
 70
     0
  9
$CHAMFERA
 40
0.5
  9
$CHAMFERB
 40
0.5
  9
$CHAMFERC
 40
1.0
  9
$CHAMFERD
 40
0.0
  9
$SKPOLY
 70
     0
  9
$TDCREATE
 40
2457917.622094896
  9
$TDUCREATE
 40
2457917.247094907
  9
$TDUPDATE
 40
2457917.622094896
  9
$TDUUPDATE
 40
2457917.247094907
  9
$TDINDWG
 40
0.0000000116
  9
$TDUSRTIMER
 40
0.0000000116
  9
$USRTIMER
 70
     1
  9
$ANGBASE
 50
0.0
  9
$ANGDIR
 70
     0
  9
$PDMODE
 70
     0
  9
$PDSIZE
 40
0.0
  9
$PLINEWID
 40
0.0
  9
$SPLFRAME
 70
     0
  9
$SPLINETYPE
 70
     6
  9
$SPLINESEGS
 70
     8
  9
$HANDSEED
  5
DA
  9
$SURFTAB1
 70
     6
  9
$SURFTAB2
 70
     6
  9
$SURFTYPE
 70
     6
  9
$SURFU
 70
     6
  9
$SURFV
 70
     6
  9
$UCSBASE
  2

  9
$UCSNAME
  2

  9
$UCSORG
 10
0.0
 20
0.0
 30
0.0
  9
$UCSXDIR
 10
1.0
 20
0.0
 30
0.0
  9
$UCSYDIR
 10
0.0
 20
1.0
 30
0.0
  9
$UCSORTHOREF
  2

  9
$UCSORTHOVIEW
 70
     0
  9
$UCSORGTOP
 10
0.0
 20
0.0
 30
0.0
  9
$UCSORGBOTTOM
 10
0.0
 20
0.0
 30
0.0
  9
$UCSORGLEFT
 10
0.0
 20
0.0
 30
0.0
  9
$UCSORGRIGHT
 10
0.0
 20
0.0
 30
0.0
  9
$UCSORGFRONT
 10
0.0
 20
0.0
 30
0.0
  9
$UCSORGBACK
 10
0.0
 20
0.0
 30
0.0
  9
$PUCSBASE
  2

  9
$PUCSNAME
  2

  9
$PUCSORG
 10
0.0
 20
0.0
 30
0.0
  9
$PUCSXDIR
 10
1.0
 20
0.0
 30
0.0
  9
$PUCSYDIR
 10
0.0
 20
1.0
 30
0.0
  9
$PUCSORTHOREF
  2

  9
$PUCSORTHOVIEW
 70
     0
  9
$PUCSORGTOP
 10
0.0
 20
0.0
 30
0.0
  9
$PUCSORGBOTTOM
 10
0.0
 20
0.0
 30
0.0
  9
$PUCSORGLEFT
 10
0.0
 20
0.0
 30
0.0
  9
$PUCSORGRIGHT
 10
0.0
 20
0.0
 30
0.0
  9
$PUCSORGFRONT
 10
0.0
 20
0.0
 30
0.0
  9
$PUCSORGBACK
 10
0.0
 20
0.0
 30
0.0
  9
$USERI1
 70
     0
  9
$USERI2
 70
     0
  9
$USERI3
 70
     0
  9
$USERI4
 70
     0
  9
$USERI5
 70
     0
  9
$USERR1
 40
0.0
  9
$USERR2
 40
0.0
  9
$USERR3
 40
0.0
  9
$USERR4
 40
0.0
  9
$USERR5
 40
0.0
  9
$WORLDVIEW
 70
     1
  9
$SHADEDGE
 70
     3
  9
$SHADEDIF
 70
    70
  9
$TILEMODE
 70
     1
  9
$MAXACTVP
 70
    64
  9
$PINSBASE
 10
0.0
 20
0.0
 30
0.0
  9
$PLIMCHECK
 70
     0
  9
$PEXTMIN
 10
1.000000000000000E+20
 20
1.000000000000000E+20
 30
1.000000000000000E+20
  9
$PEXTMAX
 10
-1.000000000000000E+20
 20
-1.000000000000000E+20
 30
-1.000000000000000E+20
  9
$PLIMMIN
 10
0.0
 20
0.0
  9
$PLIMMAX
 10
12.0
 20
9.0
  9
$UNITMODE
 70
     0
  9
$VISRETAIN
 70
     1
  9
$PLINEGEN
 70
     0
  9
$PSLTSCALE
 70
     1
  9
$TREEDEPTH
 70
  3020
  9
$CMLSTYLE
  2
Standard
  9
$CMLJUST
 70
     0
  9
$CMLSCALE
 40
1.0
  9
$PROXYGRAPHICS
 70
     1
  9
$MEASUREMENT
 70
     0
  9
$CELWEIGHT
370
    -1
  9
$ENDCAPS
280
     0
  9
$JOINSTYLE
280
     0
  9
$LWDISPLAY
290
     1
  9
$INSUNITS
 70
     1
  9
$HYPERLINKBASE
  1

  9
$STYLESHEET
  1

  9
$XEDIT
290
     1
  9
$CEPSNTYPE
380
     0
  9
$PSTYLEMODE
290
     1
  9
$FINGERPRINTGUID
  2
{8BCE9DB3-EAA6-5717-F096-2138EB350CEE}
  9
$VERSIONGUID
  2
{FAEB1C32-E019-11D5-929B-00C0DF256EC4}
  9
$EXTNAMES
290
     1
  9
$PSVPSCALE
 40
0.0
  9
$OLESTARTUP
290
     0
  9
$SORTENTS
280
   127
  9
$INDEXCTL
280
     0
  9
$HIDETEXT
280
     1
  9
$XCLIPFRAME
280
     2
  9
$HALOGAP
280
     0
  9
$OBSCOLOR
 70
   257
  9
$OBSLTYPE
280
     0
  9
$INTERSECTIONDISPLAY
280
     0
  9
$INTERSECTIONCOLOR
 70
   257
  9
$DIMASSOC
280
     2
  9
$PROJECTNAME
  1

  9
$CAMERADISPLAY
290
     0
  9
$LENSLENGTH
 40
50.0
  9
$CAMERAHEIGHT
 40
0.0
  9
$STEPSPERSEC
 40
2.0
  9
$STEPSIZE
 40
6.0
  9
$3DDWFPREC
 40
2.0
  9
$PSOLWIDTH
 40
0.25
  9
$PSOLHEIGHT
 40
4.0
  9
$LOFTANG1
 40
1.570796326794897
  9
$LOFTANG2
 40
1.570796326794897
  9
$LOFTMAG1
 40
0.0
  9
$LOFTMAG2
 40
0.0
  9
$LOFTPARAM
 70
     7
  9
$LOFTNORMALS
280
     1
  9
$LATITUDE
 40
37.795
  9
$LONGITUDE
 40
-122.394
  9
$NORTHDIRECTION
 40
0.0
  9
$TIMEZONE
 70
 -8000
  9
$LIGHTGLYPHDISPLAY
280
     1
  9
$TILEMODELIGHTSYNCH
280
     1
  9
$CMATERIAL
347
3C
  9
$SOLIDHIST
280
     1
  9
$SHOWHIST
280
     1
  9
$DWFFRAME
280
     2
  9
$DGNFRAME
280
     2
  9
$REALWORLDSCALE
290
     1
  9
$INTERFERECOLOR
 62
   256
  9
$CSHADOW
280
     0
  9
$SHADOWPLANELOCATION
 40
0.0
  0
ENDSEC
  0
SECTION
  2
CLASSES
  0
CLASS
  1
ACDBDICTIONARYWDFLT
  2
AcDbDictionaryWithDefault
  3
ObjectDBX Classes
 90
        0
 91
        4
280
     0
281
     0
  0
CLASS
  1
VISUALSTYLE
  2
AcDbVisualStyle
  3
ObjectDBX Classes
 90
     4095
 91
        4
280
     0
281
     0
  0
CLASS
  1
MATERIAL
  2
AcDbMaterial
  3
ObjectDBX Classes
 90
     1153
 91
        4
280
     0
281
     0
  0
CLASS
  1
SUN
  2
AcDbSun
  3
SCENEOE
 90
     1024
 91
        4
280
     0
281
     0
  0
ENDSEC
  0
SECTION
  2
TABLES
  0
TABLE
  2
VPORT
  5
8
330
0
100
AcDbSymbolTable
 70
     1
  0
VPORT
  5
29
330
8
100
AcDbSymbolTableRecord
100
AcDbViewportTableRecord
  2
*Active
 70
     0
 10
0.0
 20
0.0
 11
1.0
 21
1.0
 12
0.0
 22
0.0
 13
0.0
 23
0.0
 14
0.5
 24
0.5
 15
0.5
 25
0.5
 16
0.0
 26
0.0
 36
1.0
 17
91.00082462281999
 27
-128.4993055234307
 37
0.0
 40
256.9986110468615
 41
0.7081814508812795
 42
50.0
 43
0.0
 44
0.0
 50
0.0
 51
0.0
 71
     0
 72
   100
 73
     1
 74
     3
 75
     0
 76
     0
 77
     0
 78
     0
281
     0
 65
     1
110
0.0
120
0.0
130
0.0
111
1.0
121
0.0
131
0.0
112
0.0
122
1.0
132
0.0
 79
     0
146
0.0
 60
     3
 61
     5
292
     1
282
     1
141
0.0
142
0.0
 63
   250
361
3F
  0
ENDTAB
  0
TABLE
  2
LTYPE
  5
5
330
0
100
AcDbSymbolTable
 70
     1
  0
LTYPE
  5
14
330
5
100
AcDbSymbolTableRecord
100
AcDbLinetypeTableRecord
  2
ByBlock
 70
     0
  3

 72
    65
 73
     0
 40
0.0
  0
LTYPE
  5
15
330
5
100
AcDbSymbolTableRecord
100
AcDbLinetypeTableRecord
  2
ByLayer
 70
     0
  3

 72
    65
 73
     0
 40
0.0
  0
LTYPE
  5
16
330
5
100
AcDbSymbolTableRecord
100
AcDbLinetypeTableRecord
  2
Continuous
 70
     0
  3
Solid line
 72
    65
 73
     0
 40
0.0
  0
ENDTAB
  0
TABLE
  2
LAYER
  5
2
330
0
100
AcDbSymbolTable
 70
     2
  0
LAYER
  5
10
330
2
100
AcDbSymbolTableRecord
100
AcDbLayerTableRecord
  2
0
 70
     0
 62
     7
  6
Continuous
370
    -3
390
F
347
3E
  0
LAYER
  5
40
330
2
100
AcDbSymbolTableRecord
100
AcDbLayerTableRecord
  2
_U+30EC_U+30A4_U+30E4_U+30FC 1
 70
     0
 62
     7
  6
Continuous
370
    -3
390
F
347
3E
  0
ENDTAB
  0
TABLE
  2
STYLE
  5
3
330
0
100
AcDbSymbolTable
 70
     1
  0
STYLE
  5
11
330
3
100
AcDbSymbolTableRecord
100
AcDbTextStyleTableRecord
  2
Standard
 70
     0
 40
0.0
 41
1.0
 50
0.0
 71
     0
 42
0.2
  3
txt
  4

  0
ENDTAB
  0
TABLE
  2
VIEW
  5
6
330
0
100
AcDbSymbolTable
 70
     0
  0
ENDTAB
  0
TABLE
  2
UCS
  5
7
330
0
100
AcDbSymbolTable
 70
     0
  0
ENDTAB
  0
TABLE
  2
APPID
  5
9
330
0
100
AcDbSymbolTable
 70
     1
  0
APPID
  5
12
330
9
100
AcDbSymbolTableRecord
100
AcDbRegAppTableRecord
  2
ACAD
 70
     0
  0
ENDTAB
  0
TABLE
  2
DIMSTYLE
  5
A
330
0
100
AcDbSymbolTable
 70
     1
100
AcDbDimStyleTable
  0
DIMSTYLE
105
27
330
A
100
AcDbSymbolTableRecord
100
AcDbDimStyleTableRecord
  2
Standard
 70
     0
178
     0
340
11
  0
ENDTAB
  0
TABLE
  2
BLOCK_RECORD
  5
1
330
0
100
AcDbSymbolTable
 70
     6
  0
BLOCK_RECORD
  5
1F
330
1
100
AcDbSymbolTableRecord
100
AcDbBlockTableRecord
  2
*Model_Space
340
22
 70
     0
280
     1
281
     0
  0
BLOCK_RECORD
  5
1B
330
1
100
AcDbSymbolTableRecord
100
AcDbBlockTableRecord
  2
*Paper_Space
340
1E
 70
     0
280
     1
281
     0
  0
BLOCK_RECORD
  5
23
330
1
100
AcDbSymbolTableRecord
100
AcDbBlockTableRecord
  2
*Paper_Space0
340
26
 70
     0
280
     1
281
     0
  0
BLOCK_RECORD
  5
58
330
1
100
AcDbSymbolTableRecord
100
AcDbBlockTableRecord
  2
block 2
340
0
102
{BLKREFS
331
59
102
}
 70
     0
280
     1
281
     0
  0
BLOCK_RECORD
  5
5E
330
1
100
AcDbSymbolTableRecord
100
AcDbBlockTableRecord
  2
block 3
340
0
102
{BLKREFS
331
5F
102
}
 70
     0
280
     1
281
     0
  0
BLOCK_RECORD
  5
76
330
1
100
AcDbSymbolTableRecord
100
AcDbBlockTableRecord
  2
block 4
340
0
102
{BLKREFS
331
77
102
}
 70
     0
280
     1
281
     0
  0
BLOCK_RECORD
  5
7E
330
1
100
AcDbSymbolTableRecord
100
AcDbBlockTableRecord
  2
block 5
340
0
102
{BLKREFS
331
7F
102
}
 70
     0
280
     1
281
     0
  0
BLOCK_RECORD
  5
CE
330
1
100
AcDbSymbolTableRecord
100
AcDbBlockTableRecord
  2
block 6
340
0
102
{BLKREFS
331
CF
102
}
 70
     0
280
     1
281
     0
  0
ENDTAB
  0
ENDSEC
  0
SECTION
  2
BLOCKS
  0
BLOCK
  5
20
330
1F
100
AcDbEntity
  8
0
100
AcDbBlockBegin
  2
*Model_Space
 70
     0
 10
0.0
 20
0.0
 30
0.0
  3
*Model_Space
  1

  0
ENDBLK
  5
21
330
1F
100
AcDbEntity
  8
0
100
AcDbBlockEnd
  0
BLOCK
  5
1C
330
1B
100
AcDbEntity
 67
     1
  8
0
100
AcDbBlockBegin
  2
*Paper_Space
 70
     0
 10
0.0
 20
0.0
 30
0.0
  3
*Paper_Space
  1

  0
ENDBLK
  5
1D
330
1B
100
AcDbEntity
 67
     1
  8
0
100
AcDbBlockEnd
  0
BLOCK
  5
24
330
23
100
AcDbEntity
  8
0
100
AcDbBlockBegin
  2
*Paper_Space0
 70
     0
 10
0.0
 20
0.0
 30
0.0
  3
*Paper_Space0
  1

  0
ENDBLK
  5
25
330
23
100
AcDbEntity
  8
0
100
AcDbBlockEnd
  0
BLOCK
  5
5A
330
58
100
AcDbEntity
  8
0
100
AcDbBlockBegin
  2
block 2
 70
     0
 10
0.0
 20
0.0
 30
0.0
  3
block 2
  1

  0
SPLINE
  5
5C
330
58
100
AcDbEntity
  8
_U+30EC_U+30A4_U+30E4_U+30FC 1
370
     0
100
AcDbSpline
210
0.0
220
0.0
230
1.0
 70
    11
 71
     3
 72
    26
 73
    22
 74
     0
 42
0.0000000001
 43
0.0000000001
 12
1.0
 22
0.0
 32
0.0
 13
1.0
 23
0.0
 33
0.0
 40
0.0
 40
0.0
 40
0.0
 40
0.0
 40
1.0
 40
1.0
 40
1.0
 40
2.0
 40
2.0
 40
2.0
 40
3.0
 40
3.0
 40
3.0
 40
4.0
 40
4.0
 40
4.0
 40
5.0
 40
5.0
 40
5.0
 40
6.0
 40
6.0
 40
6.0
 40
7.0
 40
7.0
 40
7.0
 40
7.0
 10
83.61952987275832
 20
-132.1955484695553
 30
0.0
 10
83.61952987275832
 20
-132.1955484695553
 30
0.0
 10
82.51520451496148
 20
-132.1955484695553
 30
0.0
 10
82.51520451496148
 20
-132.1955484695553
 30
0.0
 10
82.51520451496148
 20
-132.1955484695553
 30
0.0
 10
82.51520451496148
 20
-132.5479817376963
 30
0.0
 10
82.51520451496148
 20
-132.5479817376963
 30
0.0
 10
82.51520451496148
 20
-132.5479817376963
 30
0.0
 10
82.36706540909574
 20
-132.5479817376963
 30
0.0
 10
82.36706540909574
 20
-132.5479817376963
 30
0.0
 10
82.35242375328343
 20
-132.1931369027156
 30
0.0
 10
82.18947073683111
 20
-132.143527527728
 30
0.0
 10
82.07526582149508
 20
-132.1118326492637
 30
0.0
 10
82.07526582149508
 20
-132.1118326492637
 30
0.0
 10
82.07526582149508
 20
-131.9557698237819
 30
0.0
 10
82.07526582149508
 20
-131.9557698237819
 30
0.0
 10
82.07526582149508
 20
-131.9557698237819
 30
0.0
 10
83.61952987275832
 20
-131.9557698237819
 30
0.0
 10
83.61952987275832
 20
-131.9557698237819
 30
0.0
 10
83.61952987275832
 20
-131.9557698237819
 30
0.0
 10
83.61952987275832
 20
-132.1955484695553
 30
0.0
 10
83.61952987275832
 20
-132.1955484695553
 30
0.0
  0
HATCH
  5
5D
330
58
100
AcDbEntity
  8
_U+30EC_U+30A4_U+30E4_U+30FC 1
 62
   179
420
  2234388
100
AcDbHatch
 10
0.0
 20
0.0
 30
0.0
210
0.0
220
0.0
230
1.0
  2
SOLID
 70
     1
 71
     0
 91
        1
 92
        1
 93
        1
 72
     4
 94
        3
 73
     0
 74
     1
 95
       26
 96
       22
 40
0.0
 40
0.0
 40
0.0
 40
0.0
 40
1.0
 40
1.0
 40
1.0
 40
2.0
 40
2.0
 40
2.0
 40
3.0
 40
3.0
 40
3.0
 40
4.0
 40
4.0
 40
4.0
 40
5.0
 40
5.0
 40
5.0
 40
6.0
 40
6.0
 40
6.0
 40
7.0
 40
7.0
 40
7.0
 40
7.0
 10
83.61952987275832
 20
-132.1955484695553
 10
83.61952987275832
 20
-132.1955484695553
 10
82.51520451496148
 20
-132.1955484695553
 10
82.51520451496148
 20
-132.1955484695553
 10
82.51520451496148
 20
-132.1955484695553
 10
82.51520451496148
 20
-132.5479817376963
 10
82.51520451496148
 20
-132.5479817376963
 10
82.51520451496148
 20
-132.5479817376963
 10
82.36706540909574
 20
-132.5479817376963
 10
82.36706540909574
 20
-132.5479817376963
 10
82.35242375328343
 20
-132.1931369027156
 10
82.18947073683111
 20
-132.143527527728
 10
82.07526582149508
 20
-132.1118326492637
 10
82.07526582149508
 20
-132.1118326492637
 10
82.07526582149508
 20
-131.9557698237819
 10
82.07526582149508
 20
-131.9557698237819
 10
82.07526582149508
 20
-131.9557698237819
 10
83.61952987275832
 20
-131.9557698237819
 10
83.61952987275832
 20
-131.9557698237819
 10
83.61952987275832
 20
-131.9557698237819
 10
83.61952987275832
 20
-132.1955484695553
 10
83.61952987275832
 20
-132.1955484695553
 97
        0
 97
        0
 75
     2
 76
     1
 98
        0
  0
ENDBLK
  5
5B
330
58
100
AcDbEntity
  8
0
100
AcDbBlockEnd
  0
BLOCK
  5
60
330
5E
100
AcDbEntity
  8
0
100
AcDbBlockBegin
  2
block 3
 70
     0
 10
0.0
 20
0.0
 30
0.0
  3
block 3
  1

  0
SPLINE
  5
62
330
5E
100
AcDbEntity
  8
_U+30EC_U+30A4_U+30E4_U+30FC 1
370
     0
100
AcDbSpline
210
0.0
220
0.0
230
1.0
 70
    11
 71
     3
 72
    62
 73
    58
 74
     0
 42
0.0000000001
 43
0.0000000001
 12
1.0
 22
0.0
 32
0.0
 13
1.0
 23
0.0
 33
0.0
 40
0.0
 40
0.0
 40
0.0
 40
0.0
 40
1.0
 40
1.0
 40
1.0
 40
2.0
 40
2.0
 40
2.0
 40
3.0
 40
3.0
 40
3.0
 40
4.0
 40
4.0
 40
4.0
 40
5.0
 40
5.0
 40
5.0
 40
6.0
 40
6.0
 40
6.0
 40
7.0
 40
7.0
 40
7.0
 40
8.0
 40
8.0
 40
8.0
 40
9.0
 40
9.0
 40
9.0
 40
10.0
 40
10.0
 40
10.0
 40
11.0
 40
11.0
 40
11.0
 40
12.0
 40
12.0
 40
12.0
 40
13.0
 40
13.0
 40
13.0
 40
14.0
 40
14.0
 40
14.0
 40
15.0
 40
15.0
 40
15.0
 40
16.0
 40
16.0
 40
16.0
 40
17.0
 40
17.0
 40
17.0
 40
18.0
 40
18.0
 40
18.0
 40
19.0
 40
19.0
 40
19.0
 40
19.0
 10
83.67034503116575
 20
-129.2379339954683
 30
0.0
 10
83.67034503116575
 20
-129.3395643122832
 30
0.0
 10
83.64915769393147
 20
-129.572452767086
 30
0.0
 10
83.46295028295371
 20
-129.7057779623652
 30
0.0
 10
83.35081242490882
 20
-129.785015158526
 30
0.0
 10
83.25142142015937
 20
-129.7894937826568
 30
0.0
 10
83.1668443259965
 20
-129.7939724067876
 30
0.0
 10
83.1668443259965
 20
-129.7939724067876
 30
0.0
 10
83.1668443259965
 20
-129.5590168946936
 30
0.0
 10
83.1668443259965
 20
-129.5590168946936
 30
0.0
 10
83.24091387892936
 20
-129.5566053278539
 30
0.0
 10
83.47569713624914
 20
-129.5452365127526
 30
0.0
 10
83.47569713624914
 20
-129.2424126195991
 30
0.0
 10
83.47569713624914
 20
-129.0953070423789
 30
0.0
 10
83.40593395267283
 20
-128.9326985354752
 30
0.0
 10
83.1773518672265
 20
-128.9326985354752
 30
0.0
 10
83.06107989459932
 20
-128.9326985354752
 30
0.0
 10
83.01233179348303
 20
-128.9733506622011
 30
0.0
 10
82.98063691501874
 20
-129.0071125979566
 30
0.0
 10
82.90656736208587
 20
-129.0863497941173
 30
0.0
 10
82.8939927635647
 20
-129.2107177411348
 30
0.0
 10
82.8939927635647
 20
-129.2696288739326
 30
0.0
 10
82.8939927635647
 20
-129.2899549372956
 30
0.0
 10
82.89605982085585
 20
-129.3281954971818
 30
0.0
 10
82.90019393543815
 20
-129.357823318355
 30
0.0
 10
82.90019393543815
 20
-129.357823318355
 30
0.0
 10
82.7057182952958
 20
-129.357823318355
 30
0.0
 10
82.7057182952958
 20
-129.357823318355
 30
0.0
 10
82.71191946716925
 20
-129.3171711916291
 30
0.0
 10
82.71415877923467
 20
-129.2716959312237
 30
0.0
 10
82.71415877923467
 20
-129.2651502498018
 30
0.0
 10
82.71415877923467
 20
-129.1948703019027
 30
0.0
 10
82.69297144200037
 20
-128.9823079104628
 30
0.0
 10
82.45594887261518
 20
-128.9823079104628
 30
0.0
 10
82.27835420035055
 20
-128.9823079104628
 30
0.0
 10
82.22323267258656
 20
-129.1225232967124
 30
0.0
 10
82.22323267258656
 20
-129.2400010527595
 30
0.0
 10
82.22323267258656
 20
-129.5228433920985
 30
0.0
 10
82.45594887261518
 20
-129.5318006403601
 30
0.0
 10
82.52795136825691
 20
-129.5362792644909
 30
0.0
 10
82.52795136825691
 20
-129.5362792644909
 30
0.0
 10
82.52795136825691
 20
-129.7533202800617
 30
0.0
 10
82.52795136825691
 20
-129.7533202800617
 30
0.0
 10
82.4030666569166
 20
-129.7443630318
 30
0.0
 10
82.02651772037879
 20
-129.7150797201754
 30
0.0
 10
82.02651772037879
 20
-129.226565180367
 30
0.0
 10
82.02651772037879
 20
-128.9867865345936
 30
0.0
 10
82.15346948901025
 20
-128.7292656470712
 30
0.0
 10
82.44957544596747
 20
-128.7292656470712
 30
0.0
 10
82.63578285694523
 20
-128.7292656470712
 30
0.0
 10
82.71829289381697
 20
-128.8310682186603
 30
0.0
 10
82.77961559345441
 20
-128.937177159606
 30
0.0
 10
82.8071763573364
 20
-128.8717203453863
 30
0.0
 10
82.88761933691698
 20
-128.6772447052439
 30
0.0
 10
83.16477726870534
 20
-128.6772447052439
 30
0.0
 10
83.50325790013113
 20
-128.6772447052439
 30
0.0
 10
83.67034503116575
 20
-128.9416557837368
 30
0.0
 10
83.67034503116575
 20
-129.2379339954683
 30
0.0
  0
HATCH
  5
63
330
5E
100
AcDbEntity
  8
_U+30EC_U+30A4_U+30E4_U+30FC 1
 62
   179
420
  2234388
100
AcDbHatch
 10
0.0
 20
0.0
 30
0.0
210
0.0
220
0.0
230
1.0
  2
SOLID
 70
     1
 71
     0
 91
        1
 92
        1
 93
        1
 72
     4
 94
        3
 73
     0
 74
     1
 95
       62
 96
       58
 40
0.0
 40
0.0
 40
0.0
 40
0.0
 40
1.0
 40
1.0
 40
1.0
 40
2.0
 40
2.0
 40
2.0
 40
3.0
 40
3.0
 40
3.0
 40
4.0
 40
4.0
 40
4.0
 40
5.0
 40
5.0
 40
5.0
 40
6.0
 40
6.0
 40
6.0
 40
7.0
 40
7.0
 40
7.0
 40
8.0
 40
8.0
 40
8.0
 40
9.0
 40
9.0
 40
9.0
 40
10.0
 40
10.0
 40
10.0
 40
11.0
 40
11.0
 40
11.0
 40
12.0
 40
12.0
 40
12.0
 40
13.0
 40
13.0
 40
13.0
 40
14.0
 40
14.0
 40
14.0
 40
15.0
 40
15.0
 40
15.0
 40
16.0
 40
16.0
 40
16.0
 40
17.0
 40
17.0
 40
17.0
 40
18.0
 40
18.0
 40
18.0
 40
19.0
 40
19.0
 40
19.0
 40
19.0
 10
83.67034503116575
 20
-129.2379339954683
 10
83.67034503116575
 20
-129.3395643122832
 10
83.64915769393147
 20
-129.572452767086
 10
83.46295028295371
 20
-129.7057779623652
 10
83.35081242490882
 20
-129.785015158526
 10
83.25142142015937
 20
-129.7894937826568
 10
83.1668443259965
 20
-129.7939724067876
 10
83.1668443259965
 20
-129.7939724067876
 10
83.1668443259965
 20
-129.5590168946936
 10
83.1668443259965
 20
-129.5590168946936
 10
83.24091387892936
 20
-129.5566053278539
 10
83.47569713624914
 20
-129.5452365127526
 10
83.47569713624914
 20
-129.2424126195991
 10
83.47569713624914
 20
-129.0953070423789
 10
83.40593395267283
 20
-128.9326985354752
 10
83.1773518672265
 20
-128.9326985354752
 10
83.06107989459932
 20
-128.9326985354752
 10
83.01233179348303
 20
-128.9733506622011
 10
82.98063691501874
 20
-129.0071125979566
 10
82.90656736208587
 20
-129.0863497941173
 10
82.8939927635647
 20
-129.2107177411348
 10
82.8939927635647
 20
-129.2696288739326
 10
82.8939927635647
 20
-129.2899549372956
 10
82.89605982085585
 20
-129.3281954971818
 10
82.90019393543815
 20
-129.357823318355
 10
82.90019393543815
 20
-129.357823318355
 10
82.7057182952958
 20
-129.357823318355
 10
82.7057182952958
 20
-129.357823318355
 10
82.71191946716925
 20
-129.3171711916291
 10
82.71415877923467
 20
-129.2716959312237
 10
82.71415877923467
 20
-129.2651502498018
 10
82.71415877923467
 20
-129.1948703019027
 10
82.69297144200037
 20
-128.9823079104628
 10
82.45594887261518
 20
-128.9823079104628
 10
82.27835420035055
 20
-128.9823079104628
 10
82.22323267258656
 20
-129.1225232967124
 10
82.22323267258656
 20
-129.2400010527595
 10
82.22323267258656
 20
-129.5228433920985
 10
82.45594887261518
 20
-129.5318006403601
 10
82.52795136825691
 20
-129.5362792644909
 10
82.52795136825691
 20
-129.5362792644909
 10
82.52795136825691
 20
-129.7533202800617
 10
82.52795136825691
 20
-129.7533202800617
 10
82.4030666569166
 20
-129.7443630318
 10
82.02651772037879
 20
-129.7150797201754
 10
82.02651772037879
 20
-129.226565180367
 10
82.02651772037879
 20
-128.9867865345936
 10
82.15346948901025
 20
-128.7292656470712
 10
82.44957544596747
 20
-128.7292656470712
 10
82.63578285694523
 20
-128.7292656470712
 10
82.71829289381697
 20
-128.8310682186603
 10
82.77961559345441
 20
-128.937177159606
 10
82.8071763573364
 20
-128.8717203453863
 10
82.88761933691698
 20
-128.6772447052439
 10
83.16477726870534
 20
-128.6772447052439
 10
83.50325790013113
 20
-128.6772447052439
 10
83.67034503116575
 20
-128.9416557837368
 10
83.67034503116575
 20
-129.2379339954683
 97
        0
 97
        0
 75
     2
 76
     1
 98
        0
  0
POLYLINE
  5
64
330
5E
100
AcDbEntity
  8
_U+30EC_U+30A4_U+30E4_U+30FC 1
370
     0
100
AcDb2dPolyline
 66
     1
 10
0.0
 20
0.0
 30
0.0
  0
VERTEX
  5
65
330
64
100
AcDbEntity
  8
_U+30EC_U+30A4_U+30E4_U+30FC 1
370
     0
100
AcDbVertex
100
AcDb2dVertex
 10
83.61952987275832
 20
-128.4412556645043
 30
0.0
  0
VERTEX
  5
66
330
64
100
AcDbEntity
  8
_U+30EC_U+30A4_U+30E4_U+30FC 1
370
     0
100
AcDbVertex
100
AcDb2dVertex
 10
83.36786564756082
 20
-128.4412556645043
 30
0.0
  0
VERTEX
  5
67
330
64
100
AcDbEntity
  8
_U+30EC_U+30A4_U+30E4_U+30FC 1
370
     0
100
AcDbVertex
100
AcDb2dVertex
 10
83.36786564756082
 20
-128.1723659618805
 30
0.0
  0
VERTEX
  5
68
330
64
100
AcDbEntity
  8
_U+30EC_U+30A4_U+30E4_U+30FC 1
370
     0
100
AcDbVertex
100
AcDb2dVertex
 10
83.61952987275832
 20
-128.1723659618805
 30
0.0
  0
VERTEX
  5
69
330
64
100
AcDbEntity
  8
_U+30EC_U+30A4_U+30E4_U+30FC 1
370
     0
100
AcDbVertex
100
AcDb2dVertex
 10
83.61952987275832
 20
-128.4412556645043
 30
0.0
  0
SEQEND
  5
6A
330
64
100
AcDbEntity
  8
_U+30EC_U+30A4_U+30E4_U+30FC 1
370
     0
  0
HATCH
  5
6B
330
5E
100
AcDbEntity
  8
_U+30EC_U+30A4_U+30E4_U+30FC 1
 62
   179
420
  2234388
100
AcDbHatch
 10
0.0
 20
0.0
 30
0.0
210
0.0
220
0.0
230
1.0
  2
SOLID
 70
     1
 71
     0
 91
        1
 92
        1
 93
        4
 72
     1
 10
83.61952987275832
 20
-128.4412556645043
 11
83.36786564756082
 21
-128.4412556645043
 72
     1
 10
83.36786564756082
 20
-128.4412556645043
 11
83.36786564756082
 21
-128.1723659618805
 72
     1
 10
83.36786564756082
 20
-128.1723659618805
 11
83.61952987275832
 21
-128.1723659618805
 72
     1
 10
83.61952987275832
 20
-128.1723659618805
 11
83.61952987275832
 21
-128.4412556645043
 97
        0
 75
     2
 76
     1
 98
        0
  0
SPLINE
  5
6C
330
5E
100
AcDbEntity
  8
_U+30EC_U+30A4_U+30E4_U+30FC 1
370
     0
100
AcDbSpline
210
0.0
220
0.0
230
1.0
 70
    11
 71
     3
 72
    53
 73
    49
 74
     0
 42
0.0000000001
 43
0.0000000001
 12
1.0
 22
0.0
 32
0.0
 13
1.0
 23
0.0
 33
0.0
 40
0.0
 40
0.0
 40
0.0
 40
0.0
 40
1.0
 40
1.0
 40
1.0
 40
2.0
 40
2.0
 40
2.0
 40
3.0
 40
3.0
 40
3.0
 40
4.0
 40
4.0
 40
4.0
 40
5.0
 40
5.0
 40
5.0
 40
6.0
 40
6.0
 40
6.0
 40
7.0
 40
7.0
 40
7.0
 40
8.0
 40
8.0
 40
8.0
 40
9.0
 40
9.0
 40
9.0
 40
10.0
 40
10.0
 40
10.0
 40
11.0
 40
11.0
 40
11.0
 40
12.0
 40
12.0
 40
12.0
 40
13.0
 40
13.0
 40
13.0
 40
14.0
 40
14.0
 40
14.0
 40
15.0
 40
15.0
 40
15.0
 40
16.0
 40
16.0
 40
16.0
 40
16.0
 10
83.67034503116575
 20
-127.4054877068639
 30
0.0
 10
83.67034503116575
 20
-127.4892035271555
 30
0.0
 10
83.65346406328803
 20
-127.5977240349409
 30
0.0
 10
83.58990205158517
 20
-127.7062445427262
 30
0.0
 10
83.47983125083144
 20
-127.8915906798327
 30
0.0
 10
83.34874536761768
 20
-127.914156055261
 30
0.0
 10
83.24091387892936
 20
-127.9346543733983
 30
0.0
 10
83.24091387892936
 20
-127.9346543733983
 30
0.0
 10
83.24091387892936
 20
-127.6971150396903
 30
0.0
 10
83.24091387892936
 20
-127.6971150396903
 30
0.0
 10
83.43969588842828
 20
-127.6383761616668
 30
0.0
 10
83.46932370960143
 20
-127.5028116543222
 30
0.0
 10
83.46932370960143
 20
-127.4032483947985
 30
0.0
 10
83.46932370960143
 20
-127.2540757602872
 30
0.0
 10
83.36993270485196
 20
-127.0912949986091
 30
0.0
 10
83.13721650482334
 20
-127.0912949986091
 30
0.0
 10
82.88124591026927
 20
-127.0912949986091
 30
0.0
 10
82.81148272669297
 20
-127.2835313266861
 30
0.0
 10
82.81148272669297
 20
-127.4123778978344
 30
0.0
 10
82.81148272669297
 20
-127.4463120883641
 30
0.0
 10
82.81148272669297
 20
-127.5977240349409
 30
0.0
 10
82.94050155261557
 20
-127.6926364155595
 30
0.0
 10
82.94050155261557
 20
-127.6926364155595
 30
0.0
 10
82.92138127267243
 20
-127.8803941195056
 30
0.0
 10
82.92138127267243
 20
-127.8803941195056
 30
0.0
 10
82.92138127267243
 20
-127.8803941195056
 30
0.0
 10
82.07526582149508
 20
-127.751375293583
 30
0.0
 10
82.07526582149508
 20
-127.751375293583
 30
0.0
 10
82.07526582149508
 20
-127.751375293583
 30
0.0
 10
82.07526582149508
 20
-126.9193847338952
 30
0.0
 10
82.07526582149508
 20
-126.9193847338952
 30
0.0
 10
82.07526582149508
 20
-126.9193847338952
 30
0.0
 10
82.2699137164117
 20
-126.9193847338952
 30
0.0
 10
82.2699137164117
 20
-126.9193847338952
 30
0.0
 10
82.2699137164117
 20
-126.9193847338952
 30
0.0
 10
82.2699137164117
 20
-127.5773979715779
 30
0.0
 10
82.2699137164117
 20
-127.5773979715779
 30
0.0
 10
82.2699137164117
 20
-127.5773979715779
 30
0.0
 10
82.69297144200037
 20
-127.6475056647027
 30
0.0
 10
82.69297144200037
 20
-127.6475056647027
 30
0.0
 10
82.65903725147066
 20
-127.5818765957087
 30
0.0
 10
82.6189018890675
 20
-127.4936821512863
 30
0.0
 10
82.6189018890675
 20
-127.3670748922034
 30
0.0
 10
82.6189018890675
 20
-127.09577362274
 30
0.0
 10
82.80510930004526
 20
-126.8425591045741
 30
0.0
 10
83.1180962248802
 20
-126.8425591045741
 30
0.0
 10
83.43556177384598
 20
-126.8425591045741
 30
0.0
 10
83.67034503116575
 20
-127.0821654955732
 30
0.0
 10
83.67034503116575
 20
-127.4054877068639
 30
0.0
  0
HATCH
  5
6D
330
5E
100
AcDbEntity
  8
_U+30EC_U+30A4_U+30E4_U+30FC 1
 62
   179
420
  2234388
100
AcDbHatch
 10
0.0
 20
0.0
 30
0.0
210
0.0
220
0.0
230
1.0
  2
SOLID
 70
     1
 71
     0
 91
        1
 92
        1
 93
        1
 72
     4
 94
        3
 73
     0
 74
     1
 95
       53
 96
       49
 40
0.0
 40
0.0
 40
0.0
 40
0.0
 40
1.0
 40
1.0
 40
1.0
 40
2.0
 40
2.0
 40
2.0
 40
3.0
 40
3.0
 40
3.0
 40
4.0
 40
4.0
 40
4.0
 40
5.0
 40
5.0
 40
5.0
 40
6.0
 40
6.0
 40
6.0
 40
7.0
 40
7.0
 40
7.0
 40
8.0
 40
8.0
 40
8.0
 40
9.0
 40
9.0
 40
9.0
 40
10.0
 40
10.0
 40
10.0
 40
11.0
 40
11.0
 40
11.0
 40
12.0
 40
12.0
 40
12.0
 40
13.0
 40
13.0
 40
13.0
 40
14.0
 40
14.0
 40
14.0
 40
15.0
 40
15.0
 40
15.0
 40
16.0
 40
16.0
 40
16.0
 40
16.0
 10
83.67034503116575
 20
-127.4054877068639
 10
83.67034503116575
 20
-127.4892035271555
 10
83.65346406328803
 20
-127.5977240349409
 10
83.58990205158517
 20
-127.7062445427262
 10
83.47983125083144
 20
-127.8915906798327
 10
83.34874536761768
 20
-127.914156055261
 10
83.24091387892936
 20
-127.9346543733983
 10
83.24091387892936
 20
-127.9346543733983
 10
83.24091387892936
 20
-127.6971150396903
 10
83.24091387892936
 20
-127.6971150396903
 10
83.43969588842828
 20
-127.6383761616668
 10
83.46932370960143
 20
-127.5028116543222
 10
83.46932370960143
 20
-127.4032483947985
 10
83.46932370960143
 20
-127.2540757602872
 10
83.36993270485196
 20
-127.0912949986091
 10
83.13721650482334
 20
-127.0912949986091
 10
82.88124591026927
 20
-127.0912949986091
 10
82.81148272669297
 20
-127.2835313266861
 10
82.81148272669297
 20
-127.4123778978344
 10
82.81148272669297
 20
-127.4463120883641
 10
82.81148272669297
 20
-127.5977240349409
 10
82.94050155261557
 20
-127.6926364155595
 10
82.94050155261557
 20
-127.6926364155595
 10
82.92138127267243
 20
-127.8803941195056
 10
82.92138127267243
 20
-127.8803941195056
 10
82.92138127267243
 20
-127.8803941195056
 10
82.07526582149508
 20
-127.751375293583
 10
82.07526582149508
 20
-127.751375293583
 10
82.07526582149508
 20
-127.751375293583
 10
82.07526582149508
 20
-126.9193847338952
 10
82.07526582149508
 20
-126.9193847338952
 10
82.07526582149508
 20
-126.9193847338952
 10
82.2699137164117
 20
-126.9193847338952
 10
82.2699137164117
 20
-126.9193847338952
 10
82.2699137164117
 20
-126.9193847338952
 10
82.2699137164117
 20
-127.5773979715779
 10
82.2699137164117
 20
-127.5773979715779
 10
82.2699137164117
 20
-127.5773979715779
 10
82.69297144200037
 20
-127.6475056647027
 10
82.69297144200037
 20
-127.6475056647027
 10
82.65903725147066
 20
-127.5818765957087
 10
82.6189018890675
 20
-127.4936821512863
 10
82.6189018890675
 20
-127.3670748922034
 10
82.6189018890675
 20
-127.09577362274
 10
82.80510930004526
 20
-126.8425591045741
 10
83.1180962248802
 20
-126.8425591045741
 10
83.43556177384598
 20
-126.8425591045741
 10
83.67034503116575
 20
-127.0821654955732
 10
83.67034503116575
 20
-127.4054877068639
 97
        0
 97
        0
 75
     2
 76
     1
 98
        0
  0
ENDBLK
  5
61
330
5E
100
AcDbEntity
  8
0
100
AcDbBlockEnd
  0
BLOCK
  5
78
330
76
100
AcDbEntity
  8
0
100
AcDbBlockBegin
  2
block 4
 70
     0
 10
0.0
 20
0.0
 30
0.0
  3
block 4
  1

  0
SPLINE
  5
7A
330
76
100
AcDbEntity
  8
_U+30EC_U+30A4_U+30E4_U+30FC 1
370
     0
100
AcDbSpline
210
0.0
220
0.0
230
1.0
 70
    11
 71
     3
 72
    26
 73
    22
 74
     0
 42
0.0000000001
 43
0.0000000001
 12
1.0
 22
0.0
 32
0.0
 13
1.0
 23
0.0
 33
0.0
 40
0.0
 40
0.0
 40
0.0
 40
0.0
 40
1.0
 40
1.0
 40
1.0
 40
2.0
 40
2.0
 40
2.0
 40
3.0
 40
3.0
 40
3.0
 40
4.0
 40
4.0
 40
4.0
 40
5.0
 40
5.0
 40
5.0
 40
6.0
 40
6.0
 40
6.0
 40
7.0
 40
7.0
 40
7.0
 40
7.0
 10
93.34624021103845
 20
-121.0516981034176
 30
0.0
 10
93.34624021103845
 20
-121.0516981034176
 30
0.0
 10
93.34624021103845
 20
-119.9473727456208
 30
0.0
 10
93.34624021103845
 20
-119.9473727456208
 30
0.0
 10
93.34624021103845
 20
-119.9473727456208
 30
0.0
 10
92.9941514524459
 20
-119.9473727456208
 30
0.0
 10
92.9941514524459
 20
-119.9473727456208
 30
0.0
 10
92.9941514524459
 20
-119.9473727456208
 30
0.0
 10
92.9941514524459
 20
-119.7994058945293
 30
0.0
 10
92.9941514524459
 20
-119.7994058945293
 30
0.0
 10
93.34899628742664
 20
-119.7845919839427
 30
0.0
 10
93.39860566241424
 20
-119.6216389674904
 30
0.0
 10
93.43030054087853
 20
-119.5074340521544
 30
0.0
 10
93.43030054087853
 20
-119.5074340521544
 30
0.0
 10
93.58601885681183
 20
-119.5074340521544
 30
0.0
 10
93.58601885681183
 20
-119.5074340521544
 30
0.0
 10
93.58601885681183
 20
-119.5074340521544
 30
0.0
 10
93.58601885681183
 20
-121.0516981034176
 30
0.0
 10
93.58601885681183
 20
-121.0516981034176
 30
0.0
 10
93.58601885681183
 20
-121.0516981034176
 30
0.0
 10
93.34624021103845
 20
-121.0516981034176
 30
0.0
 10
93.34624021103845
 20
-121.0516981034176
 30
0.0
  0
HATCH
  5
7B
330
76
100
AcDbEntity
  8
_U+30EC_U+30A4_U+30E4_U+30FC 1
 62
   179
420
  2234388
100
AcDbHatch
 10
0.0
 20
0.0
 30
0.0
210
0.0
220
0.0
230
1.0
  2
SOLID
 70
     1
 71
     0
 91
        1
 92
        1
 93
        1
 72
     4
 94
        3
 73
     0
 74
     1
 95
       26
 96
       22
 40
0.0
 40
0.0
 40
0.0
 40
0.0
 40
1.0
 40
1.0
 40
1.0
 40
2.0
 40
2.0
 40
2.0
 40
3.0
 40
3.0
 40
3.0
 40
4.0
 40
4.0
 40
4.0
 40
5.0
 40
5.0
 40
5.0
 40
6.0
 40
6.0
 40
6.0
 40
7.0
 40
7.0
 40
7.0
 40
7.0
 10
93.34624021103845
 20
-121.0516981034176
 10
93.34624021103845
 20
-121.0516981034176
 10
93.34624021103845
 20
-119.9473727456208
 10
93.34624021103845
 20
-119.9473727456208
 10
93.34624021103845
 20
-119.9473727456208
 10
92.9941514524459
 20
-119.9473727456208
 10
92.9941514524459
 20
-119.9473727456208
 10
92.9941514524459
 20
-119.9473727456208
 10
92.9941514524459
 20
-119.7994058945293
 10
92.9941514524459
 20
-119.7994058945293
 10
93.34899628742664
 20
-119.7845919839427
 10
93.39860566241424
 20
-119.6216389674904
 10
93.43030054087853
 20
-119.5074340521544
 10
93.43030054087853
 20
-119.5074340521544
 10
93.58601885681183
 20
-119.5074340521544
 10
93.58601885681183
 20
-119.5074340521544
 10
93.58601885681183
 20
-119.5074340521544
 10
93.58601885681183
 20
-121.0516981034176
 10
93.58601885681183
 20
-121.0516981034176
 10
93.58601885681183
 20
-121.0516981034176
 10
93.34624021103845
 20
-121.0516981034176
 10
93.34624021103845
 20
-121.0516981034176
 97
        0
 97
        0
 75
     2
 76
     1
 98
        0
  0
SPLINE
  5
7C
330
76
100
AcDbEntity
  8
_U+30EC_U+30A4_U+30E4_U+30FC 1
370
     0
100
AcDbSpline
210
0.0
220
0.0
230
1.0
 70
    11
 71
     3
 72
    44
 73
    40
 74
     0
 42
0.0000000001
 43
0.0000000001
 12
1.0
 22
0.0
 32
0.0
 13
1.0
 23
0.0
 33
0.0
 40
0.0
 40
0.0
 40
0.0
 40
0.0
 40
1.0
 40
1.0
 40
1.0
 40
2.0
 40
2.0
 40
2.0
 40
3.0
 40
3.0
 40
3.0
 40
4.0
 40
4.0
 40
4.0
 40
5.0
 40
5.0
 40
5.0
 40
6.0
 40
6.0
 40
6.0
 40
7.0
 40
7.0
 40
7.0
 40
8.0
 40
8.0
 40
8.0
 40
9.0
 40
9.0
 40
9.0
 40
10.0
 40
10.0
 40
10.0
 40
11.0
 40
11.0
 40
11.0
 40
12.0
 40
12.0
 40
12.0
 40
13.0
 40
13.0
 40
13.0
 40
13.0
 10
94.75597328360267
 20
-120.4698214759589
 30
0.0
 10
94.52308482879978
 20
-120.628640377829
 30
0.0
 10
94.42317705972755
 20
-120.7027099307618
 30
0.0
 10
94.3715006274488
 20
-120.8463704124967
 30
0.0
 10
94.3715006274488
 20
-120.8463704124967
 30
0.0
 10
95.20314667758811
 20
-120.8463704124967
 30
0.0
 10
95.20314667758811
 20
-120.8463704124967
 30
0.0
 10
95.20314667758811
 20
-120.8463704124967
 30
0.0
 10
95.20314667758811
 20
-121.0516981034176
 30
0.0
 10
95.20314667758811
 20
-121.0516981034176
 30
0.0
 10
95.20314667758811
 20
-121.0516981034176
 30
0.0
 10
94.10485023689046
 20
-121.0516981034176
 30
0.0
 10
94.10485023689046
 20
-121.0516981034176
 30
0.0
 10
94.1386121726459
 20
-120.6940971920487
 30
0.0
 10
94.208892120545
 20
-120.6158935245335
 30
0.0
 10
94.62023652148383
 20
-120.3175482555109
 30
0.0
 10
94.89377710301267
 20
-120.118766246012
 30
0.0
 10
94.96405705091176
 20
-120.0510701197268
 30
0.0
 10
94.96405705091176
 20
-119.9136108098653
 30
0.0
 10
94.96405705091176
 20
-119.7950995251728
 30
0.0
 10
94.88688691204217
 20
-119.664013641959
 30
0.0
 10
94.67673608744194
 20
-119.664013641959
 30
0.0
 10
94.39837237223375
 20
-119.664013641959
 30
0.0
 10
94.3894151239721
 20
-119.8944905299222
 30
0.0
 10
94.3852810093898
 20
-120.0109347573237
 30
0.0
 10
94.3852810093898
 20
-120.0109347573237
 30
0.0
 10
94.1455023636164
 20
-120.0109347573237
 30
0.0
 10
94.1455023636164
 20
-120.0109347573237
 30
0.0
 10
94.15445961187805
 20
-119.8839829886922
 30
0.0
 10
94.16548391743086
 20
-119.7718451306473
 30
0.0
 10
94.2516113045621
 20
-119.6533338459547
 30
0.0
 10
94.36943357015764
 20
-119.4926201415678
 30
0.0
 10
94.56787107010804
 20
-119.4586859510381
 30
0.0
 10
94.69258352667408
 20
-119.4586859510381
 30
0.0
 10
94.98886173840556
 20
-119.4586859510381
 30
0.0
 10
95.2100368685586
 20
-119.6428263047247
 30
0.0
 10
95.2100368685586
 20
-119.9156778671565
 30
0.0
 10
95.2100368685586
 20
-120.1440876978286
 30
0.0
 10
95.08601343108961
 20
-120.243478702578
 30
0.0
 10
94.75597328360267
 20
-120.4698214759589
 30
0.0
  0
HATCH
  5
7D
330
76
100
AcDbEntity
  8
_U+30EC_U+30A4_U+30E4_U+30FC 1
 62
   179
420
  2234388
100
AcDbHatch
 10
0.0
 20
0.0
 30
0.0
210
0.0
220
0.0
230
1.0
  2
SOLID
 70
     1
 71
     0
 91
        1
 92
        1
 93
        1
 72
     4
 94
        3
 73
     0
 74
     1
 95
       44
 96
       40
 40
0.0
 40
0.0
 40
0.0
 40
0.0
 40
1.0
 40
1.0
 40
1.0
 40
2.0
 40
2.0
 40
2.0
 40
3.0
 40
3.0
 40
3.0
 40
4.0
 40
4.0
 40
4.0
 40
5.0
 40
5.0
 40
5.0
 40
6.0
 40
6.0
 40
6.0
 40
7.0
 40
7.0
 40
7.0
 40
8.0
 40
8.0
 40
8.0
 40
9.0
 40
9.0
 40
9.0
 40
10.0
 40
10.0
 40
10.0
 40
11.0
 40
11.0
 40
11.0
 40
12.0
 40
12.0
 40
12.0
 40
13.0
 40
13.0
 40
13.0
 40
13.0
 10
94.75597328360267
 20
-120.4698214759589
 10
94.52308482879978
 20
-120.628640377829
 10
94.42317705972755
 20
-120.7027099307618
 10
94.3715006274488
 20
-120.8463704124967
 10
94.3715006274488
 20
-120.8463704124967
 10
95.20314667758811
 20
-120.8463704124967
 10
95.20314667758811
 20
-120.8463704124967
 10
95.20314667758811
 20
-120.8463704124967
 10
95.20314667758811
 20
-121.0516981034176
 10
95.20314667758811
 20
-121.0516981034176
 10
95.20314667758811
 20
-121.0516981034176
 10
94.10485023689046
 20
-121.0516981034176
 10
94.10485023689046
 20
-121.0516981034176
 10
94.1386121726459
 20
-120.6940971920487
 10
94.208892120545
 20
-120.6158935245335
 10
94.62023652148383
 20
-120.3175482555109
 10
94.89377710301267
 20
-120.118766246012
 10
94.96405705091176
 20
-120.0510701197268
 10
94.96405705091176
 20
-119.9136108098653
 10
94.96405705091176
 20
-119.7950995251728
 10
94.88688691204217
 20
-119.664013641959
 10
94.67673608744194
 20
-119.664013641959
 10
94.39837237223375
 20
-119.664013641959
 10
94.3894151239721
 20
-119.8944905299222
 10
94.3852810093898
 20
-120.0109347573237
 10
94.3852810093898
 20
-120.0109347573237
 10
94.1455023636164
 20
-120.0109347573237
 10
94.1455023636164
 20
-120.0109347573237
 10
94.15445961187805
 20
-119.8839829886922
 10
94.16548391743086
 20
-119.7718451306473
 10
94.2516113045621
 20
-119.6533338459547
 10
94.36943357015764
 20
-119.4926201415678
 10
94.56787107010804
 20
-119.4586859510381
 10
94.69258352667408
 20
-119.4586859510381
 10
94.98886173840556
 20
-119.4586859510381
 10
95.2100368685586
 20
-119.6428263047247
 10
95.2100368685586
 20
-119.9156778671565
 10
95.2100368685586
 20
-120.1440876978286
 10
95.08601343108961
 20
-120.243478702578
 10
94.75597328360267
 20
-120.4698214759589
 97
        0
 97
        0
 75
     2
 76
     1
 98
        0
  0
ENDBLK
  5
79
330
76
100
AcDbEntity
  8
0
100
AcDbBlockEnd
  0
BLOCK
  5
80
330
7E
100
AcDbEntity
  8
0
100
AcDbBlockBegin
  2
block 5
 70
     0
 10
0.0
 20
0.0
 30
0.0
  3
block 5
  1

  0
SPLINE
  5
82
330
7E
100
AcDbEntity
  8
_U+30EC_U+30A4_U+30E4_U+30FC 1
370
     0
100
AcDbSpline
210
0.0
220
0.0
230
1.0
 70
    11
 71
     3
 72
    26
 73
    22
 74
     0
 42
0.0000000001
 43
0.0000000001
 12
1.0
 22
0.0
 32
0.0
 13
1.0
 23
0.0
 33
0.0
 40
0.0
 40
0.0
 40
0.0
 40
0.0
 40
1.0
 40
1.0
 40
1.0
 40
2.0
 40
2.0
 40
2.0
 40
3.0
 40
3.0
 40
3.0
 40
4.0
 40
4.0
 40
4.0
 40
5.0
 40
5.0
 40
5.0
 40
6.0
 40
6.0
 40
6.0
 40
7.0
 40
7.0
 40
7.0
 40
7.0
 10
93.34624021103845
 20
-137.2195312156951
 30
0.0
 10
93.34624021103845
 20
-137.2195312156951
 30
0.0
 10
93.34624021103845
 20
-136.1153781126725
 30
0.0
 10
93.34624021103845
 20
-136.1153781126725
 30
0.0
 10
93.34624021103845
 20
-136.1153781126725
 30
0.0
 10
92.9941514524459
 20
-136.1153781126725
 30
0.0
 10
92.9941514524459
 20
-136.1153781126725
 30
0.0
 10
92.9941514524459
 20
-136.1153781126725
 30
0.0
 10
92.9941514524459
 20
-135.9672390068068
 30
0.0
 10
92.9941514524459
 20
-135.9672390068068
 30
0.0
 10
93.34899628742664
 20
-135.9524250962202
 30
0.0
 10
93.39860566241424
 20
-135.7894720797679
 30
0.0
 10
93.43030054087853
 20
-135.6754394192062
 30
0.0
 10
93.43030054087853
 20
-135.6754394192062
 30
0.0
 10
93.58601885681183
 20
-135.6754394192062
 30
0.0
 10
93.58601885681183
 20
-135.6754394192062
 30
0.0
 10
93.58601885681183
 20
-135.6754394192062
 30
0.0
 10
93.58601885681183
 20
-137.2195312156951
 30
0.0
 10
93.58601885681183
 20
-137.2195312156951
 30
0.0
 10
93.58601885681183
 20
-137.2195312156951
 30
0.0
 10
93.34624021103845
 20
-137.2195312156951
 30
0.0
 10
93.34624021103845
 20
-137.2195312156951
 30
0.0
  0
HATCH
  5
83
330
7E
100
AcDbEntity
  8
_U+30EC_U+30A4_U+30E4_U+30FC 1
 62
   179
420
  2234388
100
AcDbHatch
 10
0.0
 20
0.0
 30
0.0
210
0.0
220
0.0
230
1.0
  2
SOLID
 70
     1
 71
     0
 91
        1
 92
        1
 93
        1
 72
     4
 94
        3
 73
     0
 74
     1
 95
       26
 96
       22
 40
0.0
 40
0.0
 40
0.0
 40
0.0
 40
1.0
 40
1.0
 40
1.0
 40
2.0
 40
2.0
 40
2.0
 40
3.0
 40
3.0
 40
3.0
 40
4.0
 40
4.0
 40
4.0
 40
5.0
 40
5.0
 40
5.0
 40
6.0
 40
6.0
 40
6.0
 40
7.0
 40
7.0
 40
7.0
 40
7.0
 10
93.34624021103845
 20
-137.2195312156951
 10
93.34624021103845
 20
-137.2195312156951
 10
93.34624021103845
 20
-136.1153781126725
 10
93.34624021103845
 20
-136.1153781126725
 10
93.34624021103845
 20
-136.1153781126725
 10
92.9941514524459
 20
-136.1153781126725
 10
92.9941514524459
 20
-136.1153781126725
 10
92.9941514524459
 20
-136.1153781126725
 10
92.9941514524459
 20
-135.9672390068068
 10
92.9941514524459
 20
-135.9672390068068
 10
93.34899628742664
 20
-135.9524250962202
 10
93.39860566241424
 20
-135.7894720797679
 10
93.43030054087853
 20
-135.6754394192062
 10
93.43030054087853
 20
-135.6754394192062
 10
93.58601885681183
 20
-135.6754394192062
 10
93.58601885681183
 20
-135.6754394192062
 10
93.58601885681183
 20
-135.6754394192062
 10
93.58601885681183
 20
-137.2195312156951
 10
93.58601885681183
 20
-137.2195312156951
 10
93.58601885681183
 20
-137.2195312156951
 10
93.34624021103845
 20
-137.2195312156951
 10
93.34624021103845
 20
-137.2195312156951
 97
        0
 97
        0
 75
     2
 76
     1
 98
        0
  0
SPLINE
  5
84
330
7E
100
AcDbEntity
  8
_U+30EC_U+30A4_U+30E4_U+30FC 1
370
     0
100
AcDbSpline
210
0.0
220
0.0
230
1.0
 70
    11
 71
     3
 72
    44
 73
    40
 74
     0
 42
0.0000000001
 43
0.0000000001
 12
1.0
 22
0.0
 32
0.0
 13
1.0
 23
0.0
 33
0.0
 40
0.0
 40
0.0
 40
0.0
 40
0.0
 40
1.0
 40
1.0
 40
1.0
 40
2.0
 40
2.0
 40
2.0
 40
3.0
 40
3.0
 40
3.0
 40
4.0
 40
4.0
 40
4.0
 40
5.0
 40
5.0
 40
5.0
 40
6.0
 40
6.0
 40
6.0
 40
7.0
 40
7.0
 40
7.0
 40
8.0
 40
8.0
 40
8.0
 40
9.0
 40
9.0
 40
9.0
 40
10.0
 40
10.0
 40
10.0
 40
11.0
 40
11.0
 40
11.0
 40
12.0
 40
12.0
 40
12.0
 40
13.0
 40
13.0
 40
13.0
 40
13.0
 10
94.75597328360267
 20
-136.6376545882364
 30
0.0
 10
94.52308482879978
 20
-136.7964734901065
 30
0.0
 10
94.42317705972755
 20
-136.8705430430393
 30
0.0
 10
94.3715006274488
 20
-137.0142035247742
 30
0.0
 10
94.3715006274488
 20
-137.0142035247742
 30
0.0
 10
95.20314667758811
 20
-137.0142035247742
 30
0.0
 10
95.20314667758811
 20
-137.0142035247742
 30
0.0
 10
95.20314667758811
 20
-137.0142035247742
 30
0.0
 10
95.20314667758811
 20
-137.2195312156951
 30
0.0
 10
95.20314667758811
 20
-137.2195312156951
 30
0.0
 10
95.20314667758811
 20
-137.2195312156951
 30
0.0
 10
94.10485023689046
 20
-137.2195312156951
 30
0.0
 10
94.10485023689046
 20
-137.2195312156951
 30
0.0
 10
94.1386121726459
 20
-136.8619303043262
 30
0.0
 10
94.208892120545
 20
-136.783726636811
 30
0.0
 10
94.62023652148383
 20
-136.4853813677884
 30
0.0
 10
94.89377710301267
 20
-136.2865993582895
 30
0.0
 10
94.96405705091176
 20
-136.2190754867786
 30
0.0
 10
94.96405705091176
 20
-136.0816161769171
 30
0.0
 10
94.96405705091176
 20
-135.9631048922245
 30
0.0
 10
94.88688691204217
 20
-135.8318467542365
 30
0.0
 10
94.67673608744194
 20
-135.8318467542365
 30
0.0
 10
94.39837237223375
 20
-135.8318467542365
 30
0.0
 10
94.3894151239721
 20
-136.0623236421997
 30
0.0
 10
94.3852810093898
 20
-136.1787678696012
 30
0.0
 10
94.3852810093898
 20
-136.1787678696012
 30
0.0
 10
94.1455023636164
 20
-136.1787678696012
 30
0.0
 10
94.1455023636164
 20
-136.1787678696012
 30
0.0
 10
94.15445961187805
 20
-136.051988355744
 30
0.0
 10
94.16548391743086
 20
-135.9396782429248
 30
0.0
 10
94.2516113045621
 20
-135.8211669582322
 30
0.0
 10
94.36943357015764
 20
-135.6606255086196
 30
0.0
 10
94.56787107010804
 20
-135.6265190633156
 30
0.0
 10
94.69258352667408
 20
-135.6265190633156
 30
0.0
 10
94.98886173840556
 20
-135.6265190633156
 30
0.0
 10
95.2100368685586
 20
-135.8108316717765
 30
0.0
 10
95.2100368685586
 20
-136.0836832342083
 30
0.0
 10
95.2100368685586
 20
-136.3120930648803
 30
0.0
 10
95.08601343108961
 20
-136.4113118148555
 30
0.0
 10
94.75597328360267
 20
-136.6376545882364
 30
0.0
  0
HATCH
  5
85
330
7E
100
AcDbEntity
  8
_U+30EC_U+30A4_U+30E4_U+30FC 1
 62
   179
420
  2234388
100
AcDbHatch
 10
0.0
 20
0.0
 30
0.0
210
0.0
220
0.0
230
1.0
  2
SOLID
 70
     1
 71
     0
 91
        1
 92
        1
 93
        1
 72
     4
 94
        3
 73
     0
 74
     1
 95
       44
 96
       40
 40
0.0
 40
0.0
 40
0.0
 40
0.0
 40
1.0
 40
1.0
 40
1.0
 40
2.0
 40
2.0
 40
2.0
 40
3.0
 40
3.0
 40
3.0
 40
4.0
 40
4.0
 40
4.0
 40
5.0
 40
5.0
 40
5.0
 40
6.0
 40
6.0
 40
6.0
 40
7.0
 40
7.0
 40
7.0
 40
8.0
 40
8.0
 40
8.0
 40
9.0
 40
9.0
 40
9.0
 40
10.0
 40
10.0
 40
10.0
 40
11.0
 40
11.0
 40
11.0
 40
12.0
 40
12.0
 40
12.0
 40
13.0
 40
13.0
 40
13.0
 40
13.0
 10
94.75597328360267
 20
-136.6376545882364
 10
94.52308482879978
 20
-136.7964734901065
 10
94.42317705972755
 20
-136.8705430430393
 10
94.3715006274488
 20
-137.0142035247742
 10
94.3715006274488
 20
-137.0142035247742
 10
95.20314667758811
 20
-137.0142035247742
 10
95.20314667758811
 20
-137.0142035247742
 10
95.20314667758811
 20
-137.0142035247742
 10
95.20314667758811
 20
-137.2195312156951
 10
95.20314667758811
 20
-137.2195312156951
 10
95.20314667758811
 20
-137.2195312156951
 10
94.10485023689046
 20
-137.2195312156951
 10
94.10485023689046
 20
-137.2195312156951
 10
94.1386121726459
 20
-136.8619303043262
 10
94.208892120545
 20
-136.783726636811
 10
94.62023652148383
 20
-136.4853813677884
 10
94.89377710301267
 20
-136.2865993582895
 10
94.96405705091176
 20
-136.2190754867786
 10
94.96405705091176
 20
-136.0816161769171
 10
94.96405705091176
 20
-135.9631048922245
 10
94.88688691204217
 20
-135.8318467542365
 10
94.67673608744194
 20
-135.8318467542365
 10
94.39837237223375
 20
-135.8318467542365
 10
94.3894151239721
 20
-136.0623236421997
 10
94.3852810093898
 20
-136.1787678696012
 10
94.3852810093898
 20
-136.1787678696012
 10
94.1455023636164
 20
-136.1787678696012
 10
94.1455023636164
 20
-136.1787678696012
 10
94.15445961187805
 20
-136.051988355744
 10
94.16548391743086
 20
-135.9396782429248
 10
94.2516113045621
 20
-135.8211669582322
 10
94.36943357015764
 20
-135.6606255086196
 10
94.56787107010804
 20
-135.6265190633156
 10
94.69258352667408
 20
-135.6265190633156
 10
94.98886173840556
 20
-135.6265190633156
 10
95.2100368685586
 20
-135.8108316717765
 10
95.2100368685586
 20
-136.0836832342083
 10
95.2100368685586
 20
-136.3120930648803
 10
95.08601343108961
 20
-136.4113118148555
 10
94.75597328360267
 20
-136.6376545882364
 97
        0
 97
        0
 75
     2
 76
     1
 98
        0
  0
ENDBLK
  5
81
330
7E
100
AcDbEntity
  8
0
100
AcDbBlockEnd
  0
BLOCK
  5
D0
330
CE
100
AcDbEntity
  8
0
100
AcDbBlockBegin
  2
block 6
 70
     0
 10
0.0
 20
0.0
 30
0.0
  3
block 6
  1

  0
SPLINE
  5
D2
330
CE
100
AcDbEntity
  8
_U+30EC_U+30A4_U+30E4_U+30FC 1
370
     0
100
AcDbSpline
210
0.0
220
0.0
230
1.0
 70
    11
 71
     3
 72
    26
 73
    22
 74
     0
 42
0.0000000001
 43
0.0000000001
 12
1.0
 22
0.0
 32
0.0
 13
1.0
 23
0.0
 33
0.0
 40
0.0
 40
0.0
 40
0.0
 40
0.0
 40
1.0
 40
1.0
 40
1.0
 40
2.0
 40
2.0
 40
2.0
 40
3.0
 40
3.0
 40
3.0
 40
4.0
 40
4.0
 40
4.0
 40
5.0
 40
5.0
 40
5.0
 40
6.0
 40
6.0
 40
6.0
 40
7.0
 40
7.0
 40
7.0
 40
7.0
 10
92.53664277200473
 20
-128.9464789174162
 30
0.0
 10
92.53664277200473
 20
-128.9464789174162
 30
0.0
 10
92.53664277200473
 20
-127.8419813048451
 30
0.0
 10
92.53664277200473
 20
-127.8419813048451
 30
0.0
 10
92.53664277200473
 20
-127.8419813048451
 30
0.0
 10
92.2066026245178
 20
-127.8419813048451
 30
0.0
 10
92.2066026245178
 20
-127.8419813048451
 30
0.0
 10
92.2066026245178
 20
-127.8419813048451
 30
0.0
 10
92.2066026245178
 20
-127.6938421989793
 30
0.0
 10
92.2066026245178
 20
-127.6938421989793
 30
0.0
 10
92.53870982929588
 20
-127.679200543167
 30
0.0
 10
92.58556312789528
 20
-127.5162475267147
 30
0.0
 10
92.61519094906843
 20
-127.4020426113787
 30
0.0
 10
92.61519094906843
 20
-127.4020426113787
 30
0.0
 10
92.76126299764302
 20
-127.4020426113787
 30
0.0
 10
92.76126299764302
 20
-127.4020426113787
 30
0.0
 10
92.76126299764302
 20
-127.4020426113787
 30
0.0
 10
92.76126299764302
 20
-128.9464789174162
 30
0.0
 10
92.76126299764302
 20
-128.9464789174162
 30
0.0
 10
92.76126299764302
 20
-128.9464789174162
 30
0.0
 10
92.53664277200473
 20
-128.9464789174162
 30
0.0
 10
92.53664277200473
 20
-128.9464789174162
 30
0.0
  0
HATCH
  5
D3
330
CE
100
AcDbEntity
  8
_U+30EC_U+30A4_U+30E4_U+30FC 1
 62
     7
420
 16777215
100
AcDbHatch
 10
0.0
 20
0.0
 30
0.0
210
0.0
220
0.0
230
1.0
  2
SOLID
 70
     1
 71
     0
 91
        1
 92
        1
 93
        1
 72
     4
 94
        3
 73
     0
 74
     1
 95
       26
 96
       22
 40
0.0
 40
0.0
 40
0.0
 40
0.0
 40
1.0
 40
1.0
 40
1.0
 40
2.0
 40
2.0
 40
2.0
 40
3.0
 40
3.0
 40
3.0
 40
4.0
 40
4.0
 40
4.0
 40
5.0
 40
5.0
 40
5.0
 40
6.0
 40
6.0
 40
6.0
 40
7.0
 40
7.0
 40
7.0
 40
7.0
 10
92.53664277200473
 20
-128.9464789174162
 10
92.53664277200473
 20
-128.9464789174162
 10
92.53664277200473
 20
-127.8419813048451
 10
92.53664277200473
 20
-127.8419813048451
 10
92.53664277200473
 20
-127.8419813048451
 10
92.2066026245178
 20
-127.8419813048451
 10
92.2066026245178
 20
-127.8419813048451
 10
92.2066026245178
 20
-127.8419813048451
 10
92.2066026245178
 20
-127.6938421989793
 10
92.2066026245178
 20
-127.6938421989793
 10
92.53870982929588
 20
-127.679200543167
 10
92.58556312789528
 20
-127.5162475267147
 10
92.61519094906843
 20
-127.4020426113787
 10
92.61519094906843
 20
-127.4020426113787
 10
92.76126299764302
 20
-127.4020426113787
 10
92.76126299764302
 20
-127.4020426113787
 10
92.76126299764302
 20
-127.4020426113787
 10
92.76126299764302
 20
-128.9464789174162
 10
92.76126299764302
 20
-128.9464789174162
 10
92.76126299764302
 20
-128.9464789174162
 10
92.53664277200473
 20
-128.9464789174162
 10
92.53664277200473
 20
-128.9464789174162
 97
        0
 97
        0
 75
     2
 76
     1
 98
        0
  0
ENDBLK
  5
D1
330
CE
100
AcDbEntity
  8
0
100
AcDbBlockEnd
  0
ENDSEC
  0
SECTION
  2
ENTITIES
  0
SPLINE
  5
41
330
1F
100
AcDbEntity
  8
_U+30EC_U+30A4_U+30E4_U+30FC 1
370
     0
100
AcDbSpline
210
0.0
220
0.0
230
1.0
 70
    11
 71
     3
 72
    65
 73
    61
 74
     0
 42
0.0000000001
 43
0.0000000001
 12
1.0
 22
0.0
 32
0.0
 13
1.0
 23
0.0
 33
0.0
 40
0.0
 40
0.0
 40
0.0
 40
0.0
 40
1.0
 40
1.0
 40
1.0
 40
2.0
 40
2.0
 40
2.0
 40
3.0
 40
3.0
 40
3.0
 40
4.0
 40
4.0
 40
4.0
 40
5.0
 40
5.0
 40
5.0
 40
6.0
 40
6.0
 40
6.0
 40
7.0
 40
7.0
 40
7.0
 40
8.0
 40
8.0
 40
8.0
 40
9.0
 40
9.0
 40
9.0
 40
10.0
 40
10.0
 40
10.0
 40
11.0
 40
11.0
 40
11.0
 40
12.0
 40
12.0
 40
12.0
 40
13.0
 40
13.0
 40
13.0
 40
14.0
 40
14.0
 40
14.0
 40
15.0
 40
15.0
 40
15.0
 40
16.0
 40
16.0
 40
16.0
 40
17.0
 40
17.0
 40
17.0
 40
18.0
 40
18.0
 40
18.0
 40
19.0
 40
19.0
 40
19.0
 40
20.0
 40
20.0
 40
20.0
 40
20.0
 10
99.71277745611512
 20
-125.4558916353025
 30
0.0
 10
99.71277745611512
 20
-125.4558916353025
 30
0.0
 10
88.71242579231303
 20
-125.4558916353025
 30
0.0
 10
88.71242579231303
 20
-125.4558916353025
 30
0.0
 10
88.36377775568668
 20
-125.4558916353025
 30
0.0
 10
88.07989525289466
 20
-125.7391016352319
 30
0.0
 10
88.07989525289466
 20
-126.0877519129225
 30
0.0
 10
88.07989525289466
 20
-126.0877519129225
 30
0.0
 10
88.07989525289466
 20
-126.5879555239087
 30
0.0
 10
88.07989525289466
 20
-126.5879555239087
 30
0.0
 10
88.07989525289466
 20
-126.6610158016681
 30
0.0
 10
88.13916191804931
 20
-126.7202471905423
 30
0.0
 10
88.21218691618628
 20
-126.7202471905423
 30
0.0
 10
88.21218691618628
 20
-126.7202471905423
 30
0.0
 10
93.57980650146912
 20
-126.7202471905423
 30
0.0
 10
93.57980650146912
 20
-126.7202471905423
 30
0.0
 10
93.57980650146912
 20
-126.7202471905423
 30
0.0
 10
93.57980650146912
 20
-129.9552194119558
 30
0.0
 10
93.57980650146912
 20
-129.9552194119558
 30
0.0
 10
93.57980650146912
 20
-129.9552194119558
 30
0.0
 10
88.21218691618628
 20
-129.9552194119558
 30
0.0
 10
88.21218691618628
 20
-129.9552194119558
 30
0.0
 10
88.13916191804931
 20
-129.9552194119558
 30
0.0
 10
88.07989525289466
 20
-130.01445080083
 30
0.0
 10
88.07989525289466
 20
-130.0875110785894
 30
0.0
 10
88.07989525289466
 20
-130.0875110785894
 30
0.0
 10
88.07989525289466
 20
-130.5877146895756
 30
0.0
 10
88.07989525289466
 20
-130.5877146895756
 30
0.0
 10
88.07989525289466
 20
-130.9363649672659
 30
0.0
 10
88.36377775568668
 20
-131.2195396894174
 30
0.0
 10
88.71242579231303
 20
-131.2195396894174
 30
0.0
 10
88.71242579231303
 20
-131.2195396894174
 30
0.0
 10
99.71277745611512
 20
-131.2195396894174
 30
0.0
 10
99.71277745611512
 20
-131.2195396894174
 30
0.0
 10
100.0614277249981
 20
-131.2195396894174
 30
0.0
 10
100.3453079955335
 20
-130.9363649672659
 30
0.0
 10
100.3453079955335
 20
-130.5877146895756
 30
0.0
 10
100.3453079955335
 20
-130.5877146895756
 30
0.0
 10
100.3453079955335
 20
-130.0875110785894
 30
0.0
 10
100.3453079955335
 20
-130.0875110785894
 30
0.0
 10
100.3453079955335
 20
-130.01445080083
 30
0.0
 10
100.2860413303788
 20
-129.9552194119558
 30
0.0
 10
100.2130163322418
 20
-129.9552194119558
 30
0.0
 10
100.2130163322418
 20
-129.9552194119558
 30
0.0
 10
94.84486758030584
 20
-129.9552194119558
 30
0.0
 10
94.84486758030584
 20
-129.9552194119558
 30
0.0
 10
94.84486758030584
 20
-129.9552194119558
 30
0.0
 10
94.84486758030584
 20
-126.7202471905423
 30
0.0
 10
94.84486758030584
 20
-126.7202471905423
 30
0.0
 10
94.84486758030584
 20
-126.7202471905423
 30
0.0
 10
100.2130163322418
 20
-126.7202471905423
 30
0.0
 10
100.2130163322418
 20
-126.7202471905423
 30
0.0
 10
100.2860413303788
 20
-126.7202471905423
 30
0.0
 10
100.3453079955335
 20
-126.6610158016681
 30
0.0
 10
100.3453079955335
 20
-126.5879555239087
 30
0.0
 10
100.3453079955335
 20
-126.5879555239087
 30
0.0
 10
100.3453079955335
 20
-126.0877519129225
 30
0.0
 10
100.3453079955335
 20
-126.0877519129225
 30
0.0
 10
100.3453079955335
 20
-125.7391016352319
 30
0.0
 10
100.0614277249981
 20
-125.4558916353025
 30
0.0
 10
99.71277745611512
 20
-125.4558916353025
 30
0.0
  0
HATCH
  5
42
330
1F
100
AcDbEntity
  8
_U+30EC_U+30A4_U+30E4_U+30FC 1
 62
     9
420
 13224394
100
AcDbHatch
 10
0.0
 20
0.0
 30
0.0
210
0.0
220
0.0
230
1.0
  2
SOLID
 70
     1
 71
     0
 91
        1
 92
        1
 93
        1
 72
     4
 94
        3
 73
     0
 74
     1
 95
       65
 96
       61
 40
0.0
 40
0.0
 40
0.0
 40
0.0
 40
1.0
 40
1.0
 40
1.0
 40
2.0
 40
2.0
 40
2.0
 40
3.0
 40
3.0
 40
3.0
 40
4.0
 40
4.0
 40
4.0
 40
5.0
 40
5.0
 40
5.0
 40
6.0
 40
6.0
 40
6.0
 40
7.0
 40
7.0
 40
7.0
 40
8.0
 40
8.0
 40
8.0
 40
9.0
 40
9.0
 40
9.0
 40
10.0
 40
10.0
 40
10.0
 40
11.0
 40
11.0
 40
11.0
 40
12.0
 40
12.0
 40
12.0
 40
13.0
 40
13.0
 40
13.0
 40
14.0
 40
14.0
 40
14.0
 40
15.0
 40
15.0
 40
15.0
 40
16.0
 40
16.0
 40
16.0
 40
17.0
 40
17.0
 40
17.0
 40
18.0
 40
18.0
 40
18.0
 40
19.0
 40
19.0
 40
19.0
 40
20.0
 40
20.0
 40
20.0
 40
20.0
 10
99.71277745611512
 20
-125.4558916353025
 10
99.71277745611512
 20
-125.4558916353025
 10
88.71242579231303
 20
-125.4558916353025
 10
88.71242579231303
 20
-125.4558916353025
 10
88.36377775568668
 20
-125.4558916353025
 10
88.07989525289466
 20
-125.7391016352319
 10
88.07989525289466
 20
-126.0877519129225
 10
88.07989525289466
 20
-126.0877519129225
 10
88.07989525289466
 20
-126.5879555239087
 10
88.07989525289466
 20
-126.5879555239087
 10
88.07989525289466
 20
-126.6610158016681
 10
88.13916191804931
 20
-126.7202471905423
 10
88.21218691618628
 20
-126.7202471905423
 10
88.21218691618628
 20
-126.7202471905423
 10
93.57980650146912
 20
-126.7202471905423
 10
93.57980650146912
 20
-126.7202471905423
 10
93.57980650146912
 20
-126.7202471905423
 10
93.57980650146912
 20
-129.9552194119558
 10
93.57980650146912
 20
-129.9552194119558
 10
93.57980650146912
 20
-129.9552194119558
 10
88.21218691618628
 20
-129.9552194119558
 10
88.21218691618628
 20
-129.9552194119558
 10
88.13916191804931
 20
-129.9552194119558
 10
88.07989525289466
 20
-130.01445080083
 10
88.07989525289466
 20
-130.0875110785894
 10
88.07989525289466
 20
-130.0875110785894
 10
88.07989525289466
 20
-130.5877146895756
 10
88.07989525289466
 20
-130.5877146895756
 10
88.07989525289466
 20
-130.9363649672659
 10
88.36377775568668
 20
-131.2195396894174
 10
88.71242579231303
 20
-131.2195396894174
 10
88.71242579231303
 20
-131.2195396894174
 10
99.71277745611512
 20
-131.2195396894174
 10
99.71277745611512
 20
-131.2195396894174
 10
100.0614277249981
 20
-131.2195396894174
 10
100.3453079955335
 20
-130.9363649672659
 10
100.3453079955335
 20
-130.5877146895756
 10
100.3453079955335
 20
-130.5877146895756
 10
100.3453079955335
 20
-130.0875110785894
 10
100.3453079955335
 20
-130.0875110785894
 10
100.3453079955335
 20
-130.01445080083
 10
100.2860413303788
 20
-129.9552194119558
 10
100.2130163322418
 20
-129.9552194119558
 10
100.2130163322418
 20
-129.9552194119558
 10
94.84486758030584
 20
-129.9552194119558
 10
94.84486758030584
 20
-129.9552194119558
 10
94.84486758030584
 20
-129.9552194119558
 10
94.84486758030584
 20
-126.7202471905423
 10
94.84486758030584
 20
-126.7202471905423
 10
94.84486758030584
 20
-126.7202471905423
 10
100.2130163322418
 20
-126.7202471905423
 10
100.2130163322418
 20
-126.7202471905423
 10
100.2860413303788
 20
-126.7202471905423
 10
100.3453079955335
 20
-126.6610158016681
 10
100.3453079955335
 20
-126.5879555239087
 10
100.3453079955335
 20
-126.5879555239087
 10
100.3453079955335
 20
-126.0877519129225
 10
100.3453079955335
 20
-126.0877519129225
 10
100.3453079955335
 20
-125.7391016352319
 10
100.0614277249981
 20
-125.4558916353025
 10
99.71277745611512
 20
-125.4558916353025
 97
        0
 97
        0
 75
     2
 76
     1
 98
        0
  0
SPLINE
  5
43
330
1F
100
AcDbEntity
  8
_U+30EC_U+30A4_U+30E4_U+30FC 1
 62
   179
420
  2234388
370
     9
100
AcDbSpline
210
0.0
220
0.0
230
1.0
 70
    11
 71
     3
 72
    17
 73
    13
 74
     0
 42
0.0000000001
 43
0.0000000001
 12
1.0
 22
0.0
 32
0.0
 13
1.0
 23
0.0
 33
0.0
 40
0.0
 40
0.0
 40
0.0
 40
0.0
 40
1.0
 40
1.0
 40
1.0
 40
2.0
 40
2.0
 40
2.0
 40
3.0
 40
3.0
 40
3.0
 40
4.0
 40
4.0
 40
4.0
 40
4.0
 10
100.4128296604775
 20
-122.3532463583005
 30
0.0
 10
100.4128296604775
 20
-122.2981424694256
 30
0.0
 10
100.3680268838428
 20
-122.2533396916589
 30
0.0
 10
100.3129229963597
 20
-122.2533396916589
 30
0.0
 10
100.2577838310997
 20
-122.2533396916589
 30
0.0
 10
100.2130163322418
 20
-122.2981424694256
 30
0.0
 10
100.2130163322418
 20
-122.3532463583005
 30
0.0
 10
100.2130163322418
 20
-122.4083855249536
 30
0.0
 10
100.2577838310997
 20
-122.4531530249424
 30
0.0
 10
100.3129229963597
 20
-122.4531530249424
 30
0.0
 10
100.3680268838428
 20
-122.4531530249424
 30
0.0
 10
100.4128296604775
 20
-122.4083855249536
 30
0.0
 10
100.4128296604775
 20
-122.3532463583005
 30
0.0
  0
SPLINE
  5
44
330
1F
100
AcDbEntity
  8
_U+30EC_U+30A4_U+30E4_U+30FC 1
 62
   179
420
  2234388
370
     9
100
AcDbSpline
210
0.0
220
0.0
230
1.0
 70
    11
 71
     3
 72
    17
 73
    13
 74
     0
 42
0.0000000001
 43
0.0000000001
 12
1.0
 22
0.0
 32
0.0
 13
1.0
 23
0.0
 33
0.0
 40
0.0
 40
0.0
 40
0.0
 40
0.0
 40
1.0
 40
1.0
 40
1.0
 40
2.0
 40
2.0
 40
2.0
 40
3.0
 40
3.0
 40
3.0
 40
4.0
 40
4.0
 40
4.0
 40
4.0
 10
88.41200024442196
 20
-122.3532463583005
 30
0.0
 10
88.41200024442196
 20
-122.2981424694256
 30
0.0
 10
88.3671974677872
 20
-122.2533396916589
 30
0.0
 10
88.31209358030412
 20
-122.2533396916589
 30
0.0
 10
88.25695441504418
 20
-122.2533396916589
 30
0.0
 10
88.21218691618628
 20
-122.2981424694256
 30
0.0
 10
88.21218691618628
 20
-122.3532463583005
 30
0.0
 10
88.21218691618628
 20
-122.4083855249536
 30
0.0
 10
88.25695441504418
 20
-122.4531530249424
 30
0.0
 10
88.31209358030412
 20
-122.4531530249424
 30
0.0
 10
88.3671974677872
 20
-122.4531530249424
 30
0.0
 10
88.41200024442196
 20
-122.4083855249536
 30
0.0
 10
88.41200024442196
 20
-122.3532463583005
 30
0.0
  0
SPLINE
  5
45
330
1F
100
AcDbEntity
  8
_U+30EC_U+30A4_U+30E4_U+30FC 1
 62
   179
420
  2234388
370
     9
100
AcDbSpline
210
0.0
220
0.0
230
1.0
 70
    11
 71
     3
 72
    17
 73
    13
 74
     0
 42
0.0000000001
 43
0.0000000001
 12
1.0
 22
0.0
 32
0.0
 13
1.0
 23
0.0
 33
0.0
 40
0.0
 40
0.0
 40
0.0
 40
0.0
 40
1.0
 40
1.0
 40
1.0
 40
2.0
 40
2.0
 40
2.0
 40
3.0
 40
3.0
 40
3.0
 40
4.0
 40
4.0
 40
4.0
 40
4.0
 10
85.4616139308037
 20
-130.1405335785759
 30
0.0
 10
85.4616139308037
 20
-130.1963430230063
 30
0.0
 10
85.41684643194581
 20
-130.2404402452175
 30
0.0
 10
85.36170726668585
 20
-130.2404402452175
 30
0.0
 10
85.30660553422902
 20
-130.2404402452175
 30
0.0
 10
85.2618027564623
 20
-130.1963430230063
 30
0.0
 10
85.2618027564623
 20
-130.1405335785759
 30
0.0
 10
85.2618027564623
 20
-130.085429689701
 30
0.0
 10
85.30660553422902
 20
-130.0406269119343
 30
0.0
 10
85.36170726668585
 20
-130.0406269119343
 30
0.0
 10
85.41684643194581
 20
-130.0406269119343
 30
0.0
 10
85.4616139308037
 20
-130.085429689701
 30
0.0
 10
85.4616139308037
 20
-130.1405335785759
 30
0.0
  0
SPLINE
  5
46
330
1F
100
AcDbEntity
  8
_U+30EC_U+30A4_U+30E4_U+30FC 1
 62
   179
420
  2234388
370
     9
100
AcDbSpline
210
0.0
220
0.0
230
1.0
 70
    11
 71
     3
 72
    17
 73
    13
 74
     0
 42
0.0000000001
 43
0.0000000001
 12
1.0
 22
0.0
 32
0.0
 13
1.0
 23
0.0
 33
0.0
 40
0.0
 40
0.0
 40
0.0
 40
0.0
 40
1.0
 40
1.0
 40
1.0
 40
2.0
 40
2.0
 40
2.0
 40
3.0
 40
3.0
 40
3.0
 40
4.0
 40
4.0
 40
4.0
 40
4.0
 10
85.4616139308037
 20
-131.1410113561039
 30
0.0
 10
85.4616139308037
 20
-131.1961152449789
 30
0.0
 10
85.41684643194581
 20
-131.2409180227456
 30
0.0
 10
85.36170726668585
 20
-131.2409180227456
 30
0.0
 10
85.30660553422902
 20
-131.2409180227456
 30
0.0
 10
85.2618027564623
 20
-131.1961152449789
 30
0.0
 10
85.2618027564623
 20
-131.1410113561039
 30
0.0
 10
85.2618027564623
 20
-131.0858721894509
 30
0.0
 10
85.30660553422902
 20
-131.0411046894617
 30
0.0
 10
85.36170726668585
 20
-131.0411046894617
 30
0.0
 10
85.41684643194581
 20
-131.0411046894617
 30
0.0
 10
85.4616139308037
 20
-131.0858721894509
 30
0.0
 10
85.4616139308037
 20
-131.1410113561039
 30
0.0
  0
POLYLINE
  5
47
330
1F
100
AcDbEntity
  8
_U+30EC_U+30A4_U+30E4_U+30FC 1
 62
   179
420
  2234388
370
     9
100
AcDb2dPolyline
 66
     1
 10
0.0
 20
0.0
 30
0.0
  0
VERTEX
  5
48
330
47
100
AcDbEntity
  8
_U+30EC_U+30A4_U+30E4_U+30FC 1
 62
   179
420
  2234388
370
     9
100
AcDbVertex
100
AcDb2dVertex
 10
85.36170726668585
 20
-134.2012880220051
 30
0.0
  0
VERTEX
  5
49
330
47
100
AcDbEntity
  8
_U+30EC_U+30A4_U+30E4_U+30FC 1
 62
   179
420
  2234388
370
     9
100
AcDbVertex
100
AcDb2dVertex
 10
85.36170726668585
 20
-126.641013301673
 30
0.0
  0
SEQEND
  5
4A
330
47
100
AcDbEntity
  8
_U+30EC_U+30A4_U+30E4_U+30FC 1
 62
   179
420
  2234388
370
     9
  0
POLYLINE
  5
4B
330
1F
100
AcDbEntity
  8
_U+30EC_U+30A4_U+30E4_U+30FC 1
 62
   179
420
  2234388
370
     9
100
AcDb2dPolyline
 66
     1
 10
0.0
 20
0.0
 30
0.0
  0
VERTEX
  5
4C
330
4B
100
AcDbEntity
  8
_U+30EC_U+30A4_U+30E4_U+30FC 1
 62
   179
420
  2234388
370
     9
100
AcDbVertex
100
AcDb2dVertex
 10
84.23172479551411
 20
-131.1410113561039
 30
0.0
  0
VERTEX
  5
4D
330
4B
100
AcDbEntity
  8
_U+30EC_U+30A4_U+30E4_U+30FC 1
 62
   179
420
  2234388
370
     9
100
AcDbVertex
100
AcDb2dVertex
 10
86.69150306609328
 20
-131.1410113561039
 30
0.0
  0
SEQEND
  5
4E
330
4B
100
AcDbEntity
  8
_U+30EC_U+30A4_U+30E4_U+30FC 1
 62
   179
420
  2234388
370
     9
  0
POLYLINE
  5
4F
330
1F
100
AcDbEntity
  8
_U+30EC_U+30A4_U+30E4_U+30FC 1
 62
   179
420
  2234388
370
     9
100
AcDb2dPolyline
 66
     1
 10
0.0
 20
0.0
 30
0.0
  0
VERTEX
  5
50
330
4F
100
AcDbEntity
  8
_U+30EC_U+30A4_U+30E4_U+30FC 1
 62
   179
420
  2234388
370
     9
100
AcDbVertex
100
AcDb2dVertex
 10
84.23172479551411
 20
-130.1405335785759
 30
0.0
  0
VERTEX
  5
51
330
4F
100
AcDbEntity
  8
_U+30EC_U+30A4_U+30E4_U+30FC 1
 62
   179
420
  2234388
370
     9
100
AcDbVertex
100
AcDb2dVertex
 10
86.69150306609328
 20
-130.1405335785759
 30
0.0
  0
SEQEND
  5
52
330
4F
100
AcDbEntity
  8
_U+30EC_U+30A4_U+30E4_U+30FC 1
 62
   179
420
  2234388
370
     9
  0
SPLINE
  5
53
330
1F
100
AcDbEntity
  8
_U+30EC_U+30A4_U+30E4_U+30FC 1
 62
   179
420
  2234388
370
     9
100
AcDbSpline
210
0.0
220
0.0
230
1.0
 70
    11
 71
     3
 72
    17
 73
    13
 74
     0
 42
0.0000000001
 43
0.0000000001
 12
1.0
 22
0.0
 32
0.0
 13
1.0
 23
0.0
 33
0.0
 40
0.0
 40
0.0
 40
0.0
 40
0.0
 40
1.0
 40
1.0
 40
1.0
 40
2.0
 40
2.0
 40
2.0
 40
3.0
 40
3.0
 40
3.0
 40
4.0
 40
4.0
 40
4.0
 40
4.0
 10
85.4616139308037
 20
-126.641013301673
 30
0.0
 10
85.4616139308037
 20
-126.6961524683261
 30
0.0
 10
85.41684643194581
 20
-126.7409199683147
 30
0.0
 10
85.36170726668585
 20
-126.7409199683147
 30
0.0
 10
85.30660553422902
 20
-126.7409199683147
 30
0.0
 10
85.2618027564623
 20
-126.6961524683261
 30
0.0
 10
85.2618027564623
 20
-126.641013301673
 30
0.0
 10
85.2618027564623
 20
-126.5859094127981
 30
0.0
 10
85.30660553422902
 20
-126.5411066350314
 30
0.0
 10
85.36170726668585
 20
-126.5411066350314
 30
0.0
 10
85.41684643194581
 20
-126.5411066350314
 30
0.0
 10
85.4616139308037
 20
-126.5859094127981
 30
0.0
 10
85.4616139308037
 20
-126.641013301673
 30
0.0
  0
POLYLINE
  5
54
330
1F
100
AcDbEntity
  8
_U+30EC_U+30A4_U+30E4_U+30FC 1
 62
   179
420
  2234388
370
     9
100
AcDb2dPolyline
 66
     1
 10
0.0
 20
0.0
 30
0.0
  0
VERTEX
  5
55
330
54
100
AcDbEntity
  8
_U+30EC_U+30A4_U+30E4_U+30FC 1
 62
   179
420
  2234388
370
     9
100
AcDbVertex
100
AcDb2dVertex
 10
84.23172479551411
 20
-126.641013301673
 30
0.0
  0
VERTEX
  5
56
330
54
100
AcDbEntity
  8
_U+30EC_U+30A4_U+30E4_U+30FC 1
 62
   179
420
  2234388
370
     9
100
AcDbVertex
100
AcDb2dVertex
 10
86.69150306609328
 20
-126.641013301673
 30
0.0
  0
SEQEND
  5
57
330
54
100
AcDbEntity
  8
_U+30EC_U+30A4_U+30E4_U+30FC 1
 62
   179
420
  2234388
370
     9
  0
INSERT
  5
59
330
1F
100
AcDbEntity
  8
_U+30EC_U+30A4_U+30E4_U+30FC 1
100
AcDbBlockReference
  2
block 2
 10
0.0
 20
0.0
 30
0.0
  0
INSERT
  5
5F
330
1F
100
AcDbEntity
  8
_U+30EC_U+30A4_U+30E4_U+30FC 1
100
AcDbBlockReference
  2
block 3
 10
0.0
 20
0.0
 30
0.0
  0
POLYLINE
  5
6E
330
1F
100
AcDbEntity
  8
_U+30EC_U+30A4_U+30E4_U+30FC 1
 62
   179
420
  2234388
370
     9
100
AcDb2dPolyline
 66
     1
 10
0.0
 20
0.0
 30
0.0
  0
VERTEX
  5
6F
330
6E
100
AcDbEntity
  8
_U+30EC_U+30A4_U+30E4_U+30FC 1
 62
   179
420
  2234388
370
     9
100
AcDbVertex
100
AcDb2dVertex
 10
88.31209358030412
 20
-120.8932402475546
 30
0.0
  0
VERTEX
  5
70
330
6E
100
AcDbEntity
  8
_U+30EC_U+30A4_U+30E4_U+30FC 1
 62
   179
420
  2234388
370
     9
100
AcDbVertex
100
AcDb2dVertex
 10
88.31209358030412
 20
-123.3537241358282
 30
0.0
  0
SEQEND
  5
71
330
6E
100
AcDbEntity
  8
_U+30EC_U+30A4_U+30E4_U+30FC 1
 62
   179
420
  2234388
370
     9
  0
POLYLINE
  5
72
330
1F
100
AcDbEntity
  8
_U+30EC_U+30A4_U+30E4_U+30FC 1
 62
   179
420
  2234388
370
     9
100
AcDb2dPolyline
 66
     1
 10
0.0
 20
0.0
 30
0.0
  0
VERTEX
  5
73
330
72
100
AcDbEntity
  8
_U+30EC_U+30A4_U+30E4_U+30FC 1
 62
   179
420
  2234388
370
     9
100
AcDbVertex
100
AcDb2dVertex
 10
100.3129229963597
 20
-120.8932402475546
 30
0.0
  0
VERTEX
  5
74
330
72
100
AcDbEntity
  8
_U+30EC_U+30A4_U+30E4_U+30FC 1
 62
   179
420
  2234388
370
     9
100
AcDbVertex
100
AcDb2dVertex
 10
100.3129229963597
 20
-123.3537241358282
 30
0.0
  0
SEQEND
  5
75
330
72
100
AcDbEntity
  8
_U+30EC_U+30A4_U+30E4_U+30FC 1
 62
   179
420
  2234388
370
     9
  0
INSERT
  5
77
330
1F
100
AcDbEntity
  8
_U+30EC_U+30A4_U+30E4_U+30FC 1
100
AcDbBlockReference
  2
block 4
 10
0.0
 20
0.0
 30
0.0
  0
INSERT
  5
7F
330
1F
100
AcDbEntity
  8
_U+30EC_U+30A4_U+30E4_U+30FC 1
100
AcDbBlockReference
  2
block 5
 10
0.0
 20
0.0
 30
0.0
  0
POLYLINE
  5
86
330
1F
100
AcDbEntity
  8
_U+30EC_U+30A4_U+30E4_U+30FC 1
 62
   179
420
  2234388
370
     9
100
AcDb2dPolyline
 66
     1
 10
0.0
 20
0.0
 30
0.0
  0
VERTEX
  5
87
330
86
100
AcDbEntity
  8
_U+30EC_U+30A4_U+30E4_U+30FC 1
 62
   179
420
  2234388
370
     9
100
AcDbVertex
100
AcDb2dVertex
 10
100.3122174408221
 20
-122.3532463583005
 30
0.0
  0
VERTEX
  5
88
330
86
100
AcDbEntity
  8
_U+30EC_U+30A4_U+30E4_U+30FC 1
 62
   179
420
  2234388
370
     9
100
AcDbVertex
100
AcDb2dVertex
 10
88.31209358030412
 20
-122.3532463583005
 30
0.0
  0
SEQEND
  5
89
330
86
100
AcDbEntity
  8
_U+30EC_U+30A4_U+30E4_U+30FC 1
 62
   179
420
  2234388
370
     9
  0
SPLINE
  5
8A
330
1F
100
AcDbEntity
  8
_U+30EC_U+30A4_U+30E4_U+30FC 1
 62
   179
420
  2234388
370
     9
100
AcDbSpline
210
0.0
220
0.0
230
1.0
 70
    11
 71
     3
 72
    17
 73
    13
 74
     0
 42
0.0000000001
 43
0.0000000001
 12
1.0
 22
0.0
 32
0.0
 13
1.0
 23
0.0
 33
0.0
 40
0.0
 40
0.0
 40
0.0
 40
0.0
 40
1.0
 40
1.0
 40
1.0
 40
2.0
 40
2.0
 40
2.0
 40
3.0
 40
3.0
 40
3.0
 40
4.0
 40
4.0
 40
4.0
 40
4.0
 10
100.4128296604775
 20
-134.2012880220051
 30
0.0
 10
100.4128296604775
 20
-134.2563919108801
 30
0.0
 10
100.3680268838428
 20
-134.3011946886468
 30
0.0
 10
100.3129229963597
 20
-134.3011946886468
 30
0.0
 10
100.2577838310997
 20
-134.3011946886468
 30
0.0
 10
100.2130163322418
 20
-134.2563919108801
 30
0.0
 10
100.2130163322418
 20
-134.2012880220051
 30
0.0
 10
100.2130163322418
 20
-134.1461488553521
 30
0.0
 10
100.2577838310997
 20
-134.1013813553635
 30
0.0
 10
100.3129229963597
 20
-134.1013813553635
 30
0.0
 10
100.3680268838428
 20
-134.1013813553635
 30
0.0
 10
100.4128296604775
 20
-134.1461488553521
 30
0.0
 10
100.4128296604775
 20
-134.2012880220051
 30
0.0
  0
SPLINE
  5
8B
330
1F
100
AcDbEntity
  8
_U+30EC_U+30A4_U+30E4_U+30FC 1
 62
   179
420
  2234388
370
     9
100
AcDbSpline
210
0.0
220
0.0
230
1.0
 70
    11
 71
     3
 72
    17
 73
    13
 74
     0
 42
0.0000000001
 43
0.0000000001
 12
1.0
 22
0.0
 32
0.0
 13
1.0
 23
0.0
 33
0.0
 40
0.0
 40
0.0
 40
0.0
 40
0.0
 40
1.0
 40
1.0
 40
1.0
 40
2.0
 40
2.0
 40
2.0
 40
3.0
 40
3.0
 40
3.0
 40
4.0
 40
4.0
 40
4.0
 40
4.0
 10
88.41200024442196
 20
-134.2012880220051
 30
0.0
 10
88.41200024442196
 20
-134.2563919108801
 30
0.0
 10
88.3671974677872
 20
-134.3011946886468
 30
0.0
 10
88.31209358030412
 20
-134.3011946886468
 30
0.0
 10
88.25695441504418
 20
-134.3011946886468
 30
0.0
 10
88.21218691618628
 20
-134.2563919108801
 30
0.0
 10
88.21218691618628
 20
-134.2012880220051
 30
0.0
 10
88.21218691618628
 20
-134.1461488553521
 30
0.0
 10
88.25695441504418
 20
-134.1013813553635
 30
0.0
 10
88.31209358030412
 20
-134.1013813553635
 30
0.0
 10
88.3671974677872
 20
-134.1013813553635
 30
0.0
 10
88.41200024442196
 20
-134.1461488553521
 30
0.0
 10
88.41200024442196
 20
-134.2012880220051
 30
0.0
  0
POLYLINE
  5
8C
330
1F
100
AcDbEntity
  8
_U+30EC_U+30A4_U+30E4_U+30FC 1
 62
   179
420
  2234388
370
     9
100
AcDb2dPolyline
 66
     1
 10
0.0
 20
0.0
 30
0.0
  0
VERTEX
  5
8D
330
8C
100
AcDbEntity
  8
_U+30EC_U+30A4_U+30E4_U+30FC 1
 62
   179
420
  2234388
370
     9
100
AcDbVertex
100
AcDb2dVertex
 10
88.31209358030412
 20
-135.6613294105289
 30
0.0
  0
VERTEX
  5
8E
330
8C
100
AcDbEntity
  8
_U+30EC_U+30A4_U+30E4_U+30FC 1
 62
   179
420
  2234388
370
     9
100
AcDbVertex
100
AcDb2dVertex
 10
88.31209358030412
 20
-133.2008102444777
 30
0.0
  0
SEQEND
  5
8F
330
8C
100
AcDbEntity
  8
_U+30EC_U+30A4_U+30E4_U+30FC 1
 62
   179
420
  2234388
370
     9
  0
POLYLINE
  5
90
330
1F
100
AcDbEntity
  8
_U+30EC_U+30A4_U+30E4_U+30FC 1
 62
   179
420
  2234388
370
     9
100
AcDb2dPolyline
 66
     1
 10
0.0
 20
0.0
 30
0.0
  0
VERTEX
  5
91
330
90
100
AcDbEntity
  8
_U+30EC_U+30A4_U+30E4_U+30FC 1
 62
   179
420
  2234388
370
     9
100
AcDbVertex
100
AcDb2dVertex
 10
100.3129229963597
 20
-135.6613294105289
 30
0.0
  0
VERTEX
  5
92
330
90
100
AcDbEntity
  8
_U+30EC_U+30A4_U+30E4_U+30FC 1
 62
   179
420
  2234388
370
     9
100
AcDbVertex
100
AcDb2dVertex
 10
100.3129229963597
 20
-133.2008102444777
 30
0.0
  0
SEQEND
  5
93
330
90
100
AcDbEntity
  8
_U+30EC_U+30A4_U+30E4_U+30FC 1
 62
   179
420
  2234388
370
     9
  0
POLYLINE
  5
94
330
1F
100
AcDbEntity
  8
_U+30EC_U+30A4_U+30E4_U+30FC 1
 62
   179
420
  2234388
370
     9
100
AcDb2dPolyline
 66
     1
 10
0.0
 20
0.0
 30
0.0
  0
VERTEX
  5
95
330
94
100
AcDbEntity
  8
_U+30EC_U+30A4_U+30E4_U+30FC 1
 62
   179
420
  2234388
370
     9
100
AcDbVertex
100
AcDb2dVertex
 10
100.3122174408221
 20
-134.2012880220051
 30
0.0
  0
VERTEX
  5
96
330
94
100
AcDbEntity
  8
_U+30EC_U+30A4_U+30E4_U+30FC 1
 62
   179
420
  2234388
370
     9
100
AcDbVertex
100
AcDb2dVertex
 10
88.31209358030412
 20
-134.2012880220051
 30
0.0
  0
SEQEND
  5
97
330
94
100
AcDbEntity
  8
_U+30EC_U+30A4_U+30E4_U+30FC 1
 62
   179
420
  2234388
370
     9
  0
POLYLINE
  5
98
330
1F
100
AcDbEntity
  8
_U+30EC_U+30A4_U+30E4_U+30FC 1
 62
   179
420
  2234388
370
    25
100
AcDb2dPolyline
 66
     1
 10
0.0
 20
0.0
 30
0.0
  0
VERTEX
  5
99
330
98
100
AcDbEntity
  8
_U+30EC_U+30A4_U+30E4_U+30FC 1
 62
   179
420
  2234388
370
    25
100
AcDbVertex
100
AcDb2dVertex
 10
88.71242579231303
 20
-125.5881833019362
 30
0.0
  0
VERTEX
  5
9A
330
98
100
AcDbEntity
  8
_U+30EC_U+30A4_U+30E4_U+30FC 1
 62
   179
420
  2234388
370
    25
100
AcDbVertex
100
AcDb2dVertex
 10
99.71277745611512
 20
-125.5881833019362
 30
0.0
  0
SEQEND
  5
9B
330
98
100
AcDbEntity
  8
_U+30EC_U+30A4_U+30E4_U+30FC 1
 62
   179
420
  2234388
370
    25
  0
SPLINE
  5
9C
330
1F
100
AcDbEntity
  8
_U+30EC_U+30A4_U+30E4_U+30FC 1
 62
   179
420
  2234388
370
    25
100
AcDbSpline
210
0.0
220
0.0
230
1.0
 70
     8
 71
     3
 72
     8
 73
     4
 74
     0
 42
0.0000000001
 43
0.0000000001
 12
1.0
 22
0.0
 32
0.0
 13
1.0
 23
0.0
 33
0.0
 40
0.0
 40
0.0
 40
0.0
 40
0.0
 40
1.0
 40
1.0
 40
1.0
 40
1.0
 10
100.2130163322418
 20
-126.0877519129225
 30
0.0
 10
100.2130163322418
 20
-125.8114563574361
 30
0.0
 10
99.98907300462179
 20
-125.5881833019362
 30
0.0
 10
99.71277745611512
 20
-125.5881833019362
 30
0.0
  0
POLYLINE
  5
9D
330
1F
100
AcDbEntity
  8
_U+30EC_U+30A4_U+30E4_U+30FC 1
 62
   179
420
  2234388
370
    25
100
AcDb2dPolyline
 66
     1
 10
0.0
 20
0.0
 30
0.0
  0
VERTEX
  5
9E
330
9D
100
AcDbEntity
  8
_U+30EC_U+30A4_U+30E4_U+30FC 1
 62
   179
420
  2234388
370
    25
100
AcDbVertex
100
AcDb2dVertex
 10
100.2130163322418
 20
-126.0877519129225
 30
0.0
  0
VERTEX
  5
9F
330
9D
100
AcDbEntity
  8
_U+30EC_U+30A4_U+30E4_U+30FC 1
 62
   179
420
  2234388
370
    25
100
AcDbVertex
100
AcDb2dVertex
 10
100.2130163322418
 20
-126.5879555239087
 30
0.0
  0
SEQEND
  5
A0
330
9D
100
AcDbEntity
  8
_U+30EC_U+30A4_U+30E4_U+30FC 1
 62
   179
420
  2234388
370
    25
  0
POLYLINE
  5
A1
330
1F
100
AcDbEntity
  8
_U+30EC_U+30A4_U+30E4_U+30FC 1
 62
   179
420
  2234388
370
    25
100
AcDb2dPolyline
 66
     1
 10
0.0
 20
0.0
 30
0.0
  0
VERTEX
  5
A2
330
A1
100
AcDbEntity
  8
_U+30EC_U+30A4_U+30E4_U+30FC 1
 62
   179
420
  2234388
370
    25
100
AcDbVertex
100
AcDb2dVertex
 10
94.71257591701422
 20
-126.5879555239087
 30
0.0
  0
VERTEX
  5
A3
330
A1
100
AcDbEntity
  8
_U+30EC_U+30A4_U+30E4_U+30FC 1
 62
   179
420
  2234388
370
    25
100
AcDbVertex
100
AcDb2dVertex
 10
100.2130163322418
 20
-126.5879555239087
 30
0.0
  0
SEQEND
  5
A4
330
A1
100
AcDbEntity
  8
_U+30EC_U+30A4_U+30E4_U+30FC 1
 62
   179
420
  2234388
370
    25
  0
SPLINE
  5
A5
330
1F
100
AcDbEntity
  8
_U+30EC_U+30A4_U+30E4_U+30FC 1
 62
   179
420
  2234388
370
    25
100
AcDbSpline
210
0.0
220
0.0
230
1.0
 70
     8
 71
     3
 72
     8
 73
     4
 74
     0
 42
0.0000000001
 43
0.0000000001
 12
1.0
 22
0.0
 32
0.0
 13
1.0
 23
0.0
 33
0.0
 40
0.0
 40
0.0
 40
0.0
 40
0.0
 40
1.0
 40
1.0
 40
1.0
 40
1.0
 10
88.21218691618628
 20
-126.0877519129225
 30
0.0
 10
88.21218691618628
 20
-125.8114563574361
 30
0.0
 10
88.43613024380635
 20
-125.5881833019362
 30
0.0
 10
88.71242579231303
 20
-125.5881833019362
 30
0.0
  0
POLYLINE
  5
A6
330
1F
100
AcDbEntity
  8
_U+30EC_U+30A4_U+30E4_U+30FC 1
 62
   179
420
  2234388
370
    25
100
AcDb2dPolyline
 66
     1
 10
0.0
 20
0.0
 30
0.0
  0
VERTEX
  5
A7
330
A6
100
AcDbEntity
  8
_U+30EC_U+30A4_U+30E4_U+30FC 1
 62
   179
420
  2234388
370
    25
100
AcDbVertex
100
AcDb2dVertex
 10
88.21218691618628
 20
-126.0877519129225
 30
0.0
  0
VERTEX
  5
A8
330
A6
100
AcDbEntity
  8
_U+30EC_U+30A4_U+30E4_U+30FC 1
 62
   179
420
  2234388
370
    25
100
AcDbVertex
100
AcDb2dVertex
 10
88.21218691618628
 20
-126.5879555239087
 30
0.0
  0
SEQEND
  5
A9
330
A6
100
AcDbEntity
  8
_U+30EC_U+30A4_U+30E4_U+30FC 1
 62
   179
420
  2234388
370
    25
  0
POLYLINE
  5
AA
330
1F
100
AcDbEntity
  8
_U+30EC_U+30A4_U+30E4_U+30FC 1
 62
   179
420
  2234388
370
    25
100
AcDb2dPolyline
 66
     1
 10
0.0
 20
0.0
 30
0.0
  0
VERTEX
  5
AB
330
AA
100
AcDbEntity
  8
_U+30EC_U+30A4_U+30E4_U+30FC 1
 62
   179
420
  2234388
370
    25
100
AcDbVertex
100
AcDb2dVertex
 10
93.71209816476075
 20
-126.5879555239087
 30
0.0
  0
VERTEX
  5
AC
330
AA
100
AcDbEntity
  8
_U+30EC_U+30A4_U+30E4_U+30FC 1
 62
   179
420
  2234388
370
    25
100
AcDbVertex
100
AcDb2dVertex
 10
88.21218691618628
 20
-126.5879555239087
 30
0.0
  0
SEQEND
  5
AD
330
AA
100
AcDbEntity
  8
_U+30EC_U+30A4_U+30E4_U+30FC 1
 62
   179
420
  2234388
370
    25
  0
POLYLINE
  5
AE
330
1F
100
AcDbEntity
  8
_U+30EC_U+30A4_U+30E4_U+30FC 1
 62
   179
420
  2234388
370
    25
100
AcDb2dPolyline
 66
     1
 10
0.0
 20
0.0
 30
0.0
  0
VERTEX
  5
AF
330
AE
100
AcDbEntity
  8
_U+30EC_U+30A4_U+30E4_U+30FC 1
 62
   179
420
  2234388
370
    25
100
AcDbVertex
100
AcDb2dVertex
 10
88.71242579231303
 20
-131.0872480227838
 30
0.0
  0
VERTEX
  5
B0
330
AE
100
AcDbEntity
  8
_U+30EC_U+30A4_U+30E4_U+30FC 1
 62
   179
420
  2234388
370
    25
100
AcDbVertex
100
AcDb2dVertex
 10
99.71277745611512
 20
-131.0872480227838
 30
0.0
  0
SEQEND
  5
B1
330
AE
100
AcDbEntity
  8
_U+30EC_U+30A4_U+30E4_U+30FC 1
 62
   179
420
  2234388
370
    25
  0
SPLINE
  5
B2
330
1F
100
AcDbEntity
  8
_U+30EC_U+30A4_U+30E4_U+30FC 1
 62
   179
420
  2234388
370
    25
100
AcDbSpline
210
0.0
220
0.0
230
1.0
 70
     8
 71
     3
 72
     8
 73
     4
 74
     0
 42
0.0000000001
 43
0.0000000001
 12
1.0
 22
0.0
 32
0.0
 13
1.0
 23
0.0
 33
0.0
 40
0.0
 40
0.0
 40
0.0
 40
0.0
 40
1.0
 40
1.0
 40
1.0
 40
1.0
 10
100.2130163322418
 20
-130.5877146895756
 30
0.0
 10
100.2130163322418
 20
-130.864010245062
 30
0.0
 10
99.98907300462179
 20
-131.0872480227838
 30
0.0
 10
99.71277745611512
 20
-131.0872480227838
 30
0.0
  0
POLYLINE
  5
B3
330
1F
100
AcDbEntity
  8
_U+30EC_U+30A4_U+30E4_U+30FC 1
 62
   179
420
  2234388
370
    25
100
AcDb2dPolyline
 66
     1
 10
0.0
 20
0.0
 30
0.0
  0
VERTEX
  5
B4
330
B3
100
AcDbEntity
  8
_U+30EC_U+30A4_U+30E4_U+30FC 1
 62
   179
420
  2234388
370
    25
100
AcDbVertex
100
AcDb2dVertex
 10
100.2130163322418
 20
-130.5877146895756
 30
0.0
  0
VERTEX
  5
B5
330
B3
100
AcDbEntity
  8
_U+30EC_U+30A4_U+30E4_U+30FC 1
 62
   179
420
  2234388
370
    25
100
AcDbVertex
100
AcDb2dVertex
 10
100.2130163322418
 20
-130.0875110785894
 30
0.0
  0
SEQEND
  5
B6
330
B3
100
AcDbEntity
  8
_U+30EC_U+30A4_U+30E4_U+30FC 1
 62
   179
420
  2234388
370
    25
  0
POLYLINE
  5
B7
330
1F
100
AcDbEntity
  8
_U+30EC_U+30A4_U+30E4_U+30FC 1
 62
   179
420
  2234388
370
    25
100
AcDb2dPolyline
 66
     1
 10
0.0
 20
0.0
 30
0.0
  0
VERTEX
  5
B8
330
B7
100
AcDbEntity
  8
_U+30EC_U+30A4_U+30E4_U+30FC 1
 62
   179
420
  2234388
370
    25
100
AcDbVertex
100
AcDb2dVertex
 10
94.71257591701422
 20
-130.0875110785894
 30
0.0
  0
VERTEX
  5
B9
330
B7
100
AcDbEntity
  8
_U+30EC_U+30A4_U+30E4_U+30FC 1
 62
   179
420
  2234388
370
    25
100
AcDbVertex
100
AcDb2dVertex
 10
100.2130163322418
 20
-130.0875110785894
 30
0.0
  0
SEQEND
  5
BA
330
B7
100
AcDbEntity
  8
_U+30EC_U+30A4_U+30E4_U+30FC 1
 62
   179
420
  2234388
370
    25
  0
SPLINE
  5
BB
330
1F
100
AcDbEntity
  8
_U+30EC_U+30A4_U+30E4_U+30FC 1
 62
   179
420
  2234388
370
    25
100
AcDbSpline
210
0.0
220
0.0
230
1.0
 70
     8
 71
     3
 72
     8
 73
     4
 74
     0
 42
0.0000000001
 43
0.0000000001
 12
1.0
 22
0.0
 32
0.0
 13
1.0
 23
0.0
 33
0.0
 40
0.0
 40
0.0
 40
0.0
 40
0.0
 40
1.0
 40
1.0
 40
1.0
 40
1.0
 10
88.21218691618628
 20
-130.5877146895756
 30
0.0
 10
88.21218691618628
 20
-130.864010245062
 30
0.0
 10
88.43613024380635
 20
-131.0872480227838
 30
0.0
 10
88.71242579231303
 20
-131.0872480227838
 30
0.0
  0
POLYLINE
  5
BC
330
1F
100
AcDbEntity
  8
_U+30EC_U+30A4_U+30E4_U+30FC 1
 62
   179
420
  2234388
370
    25
100
AcDb2dPolyline
 66
     1
 10
0.0
 20
0.0
 30
0.0
  0
VERTEX
  5
BD
330
BC
100
AcDbEntity
  8
_U+30EC_U+30A4_U+30E4_U+30FC 1
 62
   179
420
  2234388
370
    25
100
AcDbVertex
100
AcDb2dVertex
 10
88.21218691618628
 20
-130.5877146895756
 30
0.0
  0
VERTEX
  5
BE
330
BC
100
AcDbEntity
  8
_U+30EC_U+30A4_U+30E4_U+30FC 1
 62
   179
420
  2234388
370
    25
100
AcDbVertex
100
AcDb2dVertex
 10
88.21218691618628
 20
-130.0875110785894
 30
0.0
  0
SEQEND
  5
BF
330
BC
100
AcDbEntity
  8
_U+30EC_U+30A4_U+30E4_U+30FC 1
 62
   179
420
  2234388
370
    25
  0
POLYLINE
  5
C0
330
1F
100
AcDbEntity
  8
_U+30EC_U+30A4_U+30E4_U+30FC 1
 62
   179
420
  2234388
370
    25
100
AcDb2dPolyline
 66
     1
 10
0.0
 20
0.0
 30
0.0
  0
VERTEX
  5
C1
330
C0
100
AcDbEntity
  8
_U+30EC_U+30A4_U+30E4_U+30FC 1
 62
   179
420
  2234388
370
    25
100
AcDbVertex
100
AcDb2dVertex
 10
93.71209816476075
 20
-130.0875110785894
 30
0.0
  0
VERTEX
  5
C2
330
C0
100
AcDbEntity
  8
_U+30EC_U+30A4_U+30E4_U+30FC 1
 62
   179
420
  2234388
370
    25
100
AcDbVertex
100
AcDb2dVertex
 10
88.21218691618628
 20
-130.0875110785894
 30
0.0
  0
SEQEND
  5
C3
330
C0
100
AcDbEntity
  8
_U+30EC_U+30A4_U+30E4_U+30FC 1
 62
   179
420
  2234388
370
    25
  0
POLYLINE
  5
C4
330
1F
100
AcDbEntity
  8
_U+30EC_U+30A4_U+30E4_U+30FC 1
 62
   179
420
  2234388
370
    25
100
AcDb2dPolyline
 66
     1
 10
0.0
 20
0.0
 30
0.0
  0
VERTEX
  5
C5
330
C4
100
AcDbEntity
  8
_U+30EC_U+30A4_U+30E4_U+30FC 1
 62
   179
420
  2234388
370
    25
100
AcDbVertex
100
AcDb2dVertex
 10
93.71209816476075
 20
-126.5879555239087
 30
0.0
  0
VERTEX
  5
C6
330
C4
100
AcDbEntity
  8
_U+30EC_U+30A4_U+30E4_U+30FC 1
 62
   179
420
  2234388
370
    25
100
AcDbVertex
100
AcDb2dVertex
 10
93.71209816476075
 20
-130.0875110785894
 30
0.0
  0
SEQEND
  5
C7
330
C4
100
AcDbEntity
  8
_U+30EC_U+30A4_U+30E4_U+30FC 1
 62
   179
420
  2234388
370
    25
  0
POLYLINE
  5
C8
330
1F
100
AcDbEntity
  8
_U+30EC_U+30A4_U+30E4_U+30FC 1
 62
   179
420
  2234388
370
    25
100
AcDb2dPolyline
 66
     1
 10
0.0
 20
0.0
 30
0.0
  0
VERTEX
  5
C9
330
C8
100
AcDbEntity
  8
_U+30EC_U+30A4_U+30E4_U+30FC 1
 62
   179
420
  2234388
370
    25
100
AcDbVertex
100
AcDb2dVertex
 10
94.71257591701422
 20
-126.5879555239087
 30
0.0
  0
VERTEX
  5
CA
330
C8
100
AcDbEntity
  8
_U+30EC_U+30A4_U+30E4_U+30FC 1
 62
   179
420
  2234388
370
    25
100
AcDbVertex
100
AcDb2dVertex
 10
94.71257591701422
 20
-130.0875110785894
 30
0.0
  0
SEQEND
  5
CB
330
C8
100
AcDbEntity
  8
_U+30EC_U+30A4_U+30E4_U+30FC 1
 62
   179
420
  2234388
370
    25
  0
SPLINE
  5
CC
330
1F
100
AcDbEntity
  8
_U+30EC_U+30A4_U+30E4_U+30FC 1
 62
     7
420
 16777215
370
     9
100
AcDbSpline
210
0.0
220
0.0
230
1.0
 70
    11
 71
     3
 72
    17
 73
    13
 74
     0
 42
0.0000000001
 43
0.0000000001
 12
1.0
 22
0.0
 32
0.0
 13
1.0
 23
0.0
 33
0.0
 40
0.0
 40
0.0
 40
0.0
 40
0.0
 40
1.0
 40
1.0
 40
1.0
 40
2.0
 40
2.0
 40
2.0
 40
3.0
 40
3.0
 40
3.0
 40
4.0
 40
4.0
 40
4.0
 40
4.0
 10
93.81306316218492
 20
-129.1824596899265
 30
0.0
 10
93.81306316218492
 20
-129.1273558010516
 30
0.0
 10
93.76826038555016
 20
-129.0825530232849
 30
0.0
 10
93.71280372029831
 20
-129.0825530232849
 30
0.0
 10
93.65766455503835
 20
-129.0825530232849
 30
0.0
 10
93.61289705618047
 20
-129.1273558010516
 30
0.0
 10
93.61289705618047
 20
-129.1824596899265
 30
0.0
 10
93.61289705618047
 20
-129.2375988565796
 30
0.0
 10
93.65766455503835
 20
-129.2823663565682
 30
0.0
 10
93.71280372029831
 20
-129.2823663565682
 30
0.0
 10
93.76826038555016
 20
-129.2823663565682
 30
0.0
 10
93.81306316218492
 20
-129.2375988565796
 30
0.0
 10
93.81306316218492
 20
-129.1824596899265
 30
0.0
  0
SPLINE
  5
CD
330
1F
100
AcDbEntity
  8
_U+30EC_U+30A4_U+30E4_U+30FC 1
 62
     7
420
 16777215
370
     9
100
AcDbSpline
210
0.0
220
0.0
230
1.0
 70
    11
 71
     3
 72
    17
 73
    13
 74
     0
 42
0.0000000001
 43
0.0000000001
 12
1.0
 22
0.0
 32
0.0
 13
1.0
 23
0.0
 33
0.0
 40
0.0
 40
0.0
 40
0.0
 40
0.0
 40
1.0
 40
1.0
 40
1.0
 40
2.0
 40
2.0
 40
2.0
 40
3.0
 40
3.0
 40
3.0
 40
4.0
 40
4.0
 40
4.0
 40
4.0
 10
94.81280008112395
 20
-129.1824596899265
 30
0.0
 10
94.81280008112395
 20
-129.1273558010516
 30
0.0
 10
94.76803258226606
 20
-129.0825530232849
 30
0.0
 10
94.71257591701422
 20
-129.0825530232849
 30
0.0
 10
94.65743675175426
 20
-129.0825530232849
 30
0.0
 10
94.61266925289638
 20
-129.1273558010516
 30
0.0
 10
94.61266925289638
 20
-129.1824596899265
 30
0.0
 10
94.61266925289638
 20
-129.2375988565796
 30
0.0
 10
94.65743675175426
 20
-129.2823663565682
 30
0.0
 10
94.71257591701422
 20
-129.2823663565682
 30
0.0
 10
94.76803258226606
 20
-129.2823663565682
 30
0.0
 10
94.81280008112395
 20
-129.2375988565796
 30
0.0
 10
94.81280008112395
 20
-129.1824596899265
 30
0.0
  0
INSERT
  5
CF
330
1F
100
AcDbEntity
  8
_U+30EC_U+30A4_U+30E4_U+30FC 1
100
AcDbBlockReference
  2
block 6
 10
0.0
 20
0.0
 30
0.0
  0
POLYLINE
  5
D4
330
1F
100
AcDbEntity
  8
_U+30EC_U+30A4_U+30E4_U+30FC 1
 62
     7
420
 16777215
370
     9
100
AcDb2dPolyline
 66
     1
 10
0.0
 20
0.0
 30
0.0
  0
VERTEX
  5
D5
330
D4
100
AcDbEntity
  8
_U+30EC_U+30A4_U+30E4_U+30FC 1
 62
     7
420
 16777215
370
     9
100
AcDbVertex
100
AcDb2dVertex
 10
95.57416506169992
 20
-129.1824596899265
 30
0.0
  0
VERTEX
  5
D6
330
D4
100
AcDbEntity
  8
_U+30EC_U+30A4_U+30E4_U+30FC 1
 62
     7
420
 16777215
370
     9
100
AcDbVertex
100
AcDb2dVertex
 10
91.7353079374151
 20
-129.1824596899265
 30
0.0
  0
SEQEND
  5
D7
330
D4
100
AcDbEntity
  8
_U+30EC_U+30A4_U+30E4_U+30FC 1
 62
     7
420
 16777215
370
     9
  0
ENDSEC
  0
SECTION
  2
OBJECTS
  0
DICTIONARY
  5
C
330
0
100
AcDbDictionary
281
     1
  3
ACAD_GROUP
350
D
  3
ACAD_LAYOUT
350
1A
  3
ACAD_MATERIAL
350
3B
  3
ACAD_MLEADERSTYLE
350
D9
  3
ACAD_MLINESTYLE
350
17
  3
ACAD_PLOTSETTINGS
350
19
  3
ACAD_PLOTSTYLENAME
350
E
  3
ACAD_TABLESTYLE
350
D8
  3
ACAD_VISUALSTYLE
350
2A
  0
SUN
  5
3F
330
29
100
AcDbSun
 90
        1
290
     0
 63
     7
421
 16777215
 40
1.0
291
     1
 91
  2455826
 92
 54000000
292
     0
 70
     2
 71
   256
280
     1
  0
DICTIONARY
  5
D
102
{ACAD_REACTORS
330
C
102
}
330
C
100
AcDbDictionary
281
     1
  0
DICTIONARY
  5
1A
102
{ACAD_REACTORS
330
C
102
}
330
C
100
AcDbDictionary
281
     1
  3
Layout1
350
1E
  3
Layout2
350
26
  3
Model
350
22
  0
DICTIONARY
  5
3B
102
{ACAD_REACTORS
330
C
102
}
330
C
100
AcDbDictionary
281
     1
  3
ByBlock
350
3D
  3
ByLayer
350
3C
  3
Global
350
3E
  0
DICTIONARY
  5
D9
102
{ACAD_REACTORS
330
C
102
}
330
C
100
AcDbDictionary
281
     1
  0
DICTIONARY
  5
17
102
{ACAD_REACTORS
330
C
102
}
330
C
100
AcDbDictionary
281
     1
  3
Standard
350
18
  0
DICTIONARY
  5
19
102
{ACAD_REACTORS
330
C
102
}
330
C
100
AcDbDictionary
281
     1
  0
ACDBDICTIONARYWDFLT
  5
E
102
{ACAD_REACTORS
330
C
102
}
330
C
100
AcDbDictionary
281
     1
  3
Normal
350
F
100
AcDbDictionaryWithDefault
340
F
  0
DICTIONARY
  5
D8
102
{ACAD_REACTORS
330
C
102
}
330
C
100
AcDbDictionary
281
     1
  0
DICTIONARY
  5
2A
102
{ACAD_REACTORS
330
C
102
}
330
C
100
AcDbDictionary
281
     1
  3
2dWireframe
350
2F
  3
3D Hidden
350
31
  3
3dWireframe
350
30
  3
Basic
350
32
  3
Brighten
350
36
  3
ColorChange
350
3A
  3
Conceptual
350
34
  3
Dim
350
35
  3
Facepattern
350
39
  3
Flat
350
2B
  3
FlatWithEdges
350
2C
  3
Gouraud
350
2D
  3
GouraudWithEdges
350
2E
  3
Linepattern
350
38
  3
Realistic
350
33
  3
Thicken
350
37
  0
LAYOUT
  5
1E
102
{ACAD_REACTORS
330
1A
102
}
330
1A
100
AcDbPlotSettings
  1

  2
none_device
  4

  6

 40
0.0
 41
0.0
 42
0.0
 43
0.0
 44
0.0
 45
0.0
 46
0.0
 47
0.0
 48
0.0
 49
0.0
140
0.0
141
0.0
142
1.0
143
1.0
 70
   688
 72
     0
 73
     0
 74
     5
  7

 75
    16
 76
     0
 77
     2
 78
   300
147
1.0
148
0.0
149
0.0
100
AcDbLayout
  1
Layout1
 70
     1
 71
     1
 10
0.0
 20
0.0
 11
12.0
 21
9.0
 12
0.0
 22
0.0
 32
0.0
 14
1.000000000000000E+20
 24
1.000000000000000E+20
 34
1.000000000000000E+20
 15
-1.000000000000000E+20
 25
-1.000000000000000E+20
 35
-1.000000000000000E+20
146
0.0
 13
0.0
 23
0.0
 33
0.0
 16
1.0
 26
0.0
 36
0.0
 17
0.0
 27
1.0
 37
0.0
 76
     0
330
1B
  0
LAYOUT
  5
26
102
{ACAD_REACTORS
330
1A
102
}
330
1A
100
AcDbPlotSettings
  1

  2
none_device
  4

  6

 40
0.0
 41
0.0
 42
0.0
 43
0.0
 44
0.0
 45
0.0
 46
0.0
 47
0.0
 48
0.0
 49
0.0
140
0.0
141
0.0
142
1.0
143
1.0
 70
   688
 72
     0
 73
     0
 74
     5
  7

 75
    16
 76
     0
 77
     2
 78
   300
147
1.0
148
0.0
149
0.0
100
AcDbLayout
  1
Layout2
 70
     1
 71
     2
 10
0.0
 20
0.0
 11
0.0
 21
0.0
 12
0.0
 22
0.0
 32
0.0
 14
0.0
 24
0.0
 34
0.0
 15
0.0
 25
0.0
 35
0.0
146
0.0
 13
0.0
 23
0.0
 33
0.0
 16
1.0
 26
0.0
 36
0.0
 17
0.0
 27
1.0
 37
0.0
 76
     0
330
23
  0
LAYOUT
  5
22
102
{ACAD_REACTORS
330
1A
102
}
330
1A
100
AcDbPlotSettings
  1

  2
none_device
  4

  6

 40
0.0
 41
0.0
 42
0.0
 43
0.0
 44
0.0
 45
0.0
 46
0.0
 47
0.0
 48
0.0
 49
0.0
140
0.0
141
0.0
142
1.0
143
1.0
 70
  1712
 72
     0
 73
     0
 74
     0
  7

 75
     0
 76
     0
 77
     2
 78
   300
147
1.0
148
0.0
149
0.0
100
AcDbLayout
  1
Model
 70
     1
 71
     0
 10
0.0
 20
0.0
 11
12.0
 21
9.0
 12
0.0
 22
0.0
 32
0.0
 14
1.000000000000000E+20
 24
1.000000000000000E+20
 34
1.000000000000000E+20
 15
-1.000000000000000E+20
 25
-1.000000000000000E+20
 35
-1.000000000000000E+20
146
0.0
 13
0.0
 23
0.0
 33
0.0
 16
1.0
 26
0.0
 36
0.0
 17
0.0
 27
1.0
 37
0.0
 76
     0
330
1F
331
29
  0
MATERIAL
  5
3D
102
{ACAD_REACTORS
330
3B
102
}
330
3B
100
AcDbMaterial
  1
ByBlock
 72
     1
 94
      127
  0
MATERIAL
  5
3C
102
{ACAD_REACTORS
330
3B
102
}
330
3B
100
AcDbMaterial
  1
ByLayer
 72
     1
 94
      127
  0
MATERIAL
  5
3E
102
{ACAD_REACTORS
330
3B
102
}
330
3B
100
AcDbMaterial
  1
Global
 72
     1
 94
      127
  0
MLINESTYLE
  5
18
102
{ACAD_REACTORS
330
17
102
}
330
17
100
AcDbMlineStyle
  2
Standard
 70
     0
  3

 62
   256
 51
90.0
 52
90.0
 71
     2
 49
0.5
 62
   256
  6
BYLAYER
 49
-0.5
 62
   256
  6
BYLAYER
  0
ACDBPLACEHOLDER
  5
F
102
{ACAD_REACTORS
330
E
102
}
330
E
  0
VISUALSTYLE
  5
2F
102
{ACAD_REACTORS
330
2A
102
}
330
2A
100
AcDbVisualStyle
  2
2dWireframe
 70
     4
177
     2
291
     0
 71
     0
176
     1
 72
     2
176
     1
 73
     0
176
     1
 90
        0
176
     1
 40
-0.6
176
     1
 41
-30.0
176
     1
 62
     5
 63
     7
421
 16777215
176
     1
 74
     1
176
     1
 91
        4
176
     1
 64
     7
176
     1
 65
   257
176
     1
 75
     1
176
     1
175
     1
176
     1
 42
1.0
176
     1
 92
        0
176
     1
 66
   257
176
     1
 43
1.0
176
     1
 76
     1
176
     1
 77
     6
176
     1
 78
     2
176
     1
 67
     7
176
     1
 79
     5
176
     1
170
     0
176
     1
171
     0
176
     1
290
     0
176
     1
 93
        1
176
     1
 44
0.0
176
     1
173
     0
176
     1
  0
VISUALSTYLE
  5
31
102
{ACAD_REACTORS
330
2A
102
}
330
2A
100
AcDbVisualStyle
  2
3D Hidden
 70
     6
177
     2
291
     0
 71
     1
176
     1
 72
     2
176
     1
 73
     2
176
     1
 90
        0
176
     1
 40
-0.6
176
     1
 41
-30.0
176
     1
 62
     5
 63
     7
421
 16777215
176
     1
 74
     2
176
     1
 91
        2
176
     1
 64
     7
176
     1
 65
   257
176
     1
 75
     2
176
     1
175
     1
176
     1
 42
40.0
176
     1
 92
        0
176
     1
 66
   257
176
     1
 43
1.0
176
     1
 76
     1
176
     1
 77
     6
176
     1
 78
     2
176
     1
 67
     7
176
     1
 79
     3
176
     1
170
     0
176
     1
171
     0
176
     1
290
     0
176
     1
 93
        1
176
     1
 44
0.0
176
     1
173
     0
176
     1
  0
VISUALSTYLE
  5
30
102
{ACAD_REACTORS
330
2A
102
}
330
2A
100
AcDbVisualStyle
  2
3dWireframe
 70
     5
177
     2
291
     0
 71
     0
176
     1
 72
     2
176
     1
 73
     0
176
     1
 90
        0
176
     1
 40
-0.6
176
     1
 41
-30.0
176
     1
 62
     5
 63
     7
421
 16777215
176
     1
 74
     1
176
     1
 91
        4
176
     1
 64
     7
176
     1
 65
   257
176
     1
 75
     1
176
     1
175
     1
176
     1
 42
1.0
176
     1
 92
        0
176
     1
 66
   257
176
     1
 43
1.0
176
     1
 76
     1
176
     1
 77
     6
176
     1
 78
     2
176
     1
 67
     7
176
     1
 79
     5
176
     1
170
     0
176
     1
171
     0
176
     1
290
     0
176
     1
 93
        1
176
     1
 44
0.0
176
     1
173
     0
176
     1
  0
VISUALSTYLE
  5
32
102
{ACAD_REACTORS
330
2A
102
}
330
2A
100
AcDbVisualStyle
  2
Basic
 70
     7
177
     2
291
     1
 71
     1
176
     1
 72
     0
176
     1
 73
     1
176
     1
 90
        0
176
     1
 40
-0.6
176
     1
 41
-30.0
176
     1
 62
     5
 63
     7
421
 16777215
176
     1
 74
     0
176
     1
 91
        4
176
     1
 64
     7
176
     1
 65
   257
176
     1
 75
     1
176
     1
175
     1
176
     1
 42
1.0
176
     1
 92
        8
176
     1
 66
     7
176
     1
 43
1.0
176
     1
 76
     1
176
     1
 77
     6
176
     1
 78
     2
176
     1
 67
     7
176
     1
 79
     5
176
     1
170
     0
176
     1
171
     0
176
     1
290
     0
176
     1
 93
        1
176
     1
 44
0.0
176
     1
173
     0
176
     1
  0
VISUALSTYLE
  5
36
102
{ACAD_REACTORS
330
2A
102
}
330
2A
100
AcDbVisualStyle
  2
Brighten
 70
    12
177
     2
291
     1
 71
     2
176
     1
 72
     2
176
     1
 73
     0
176
     1
 90
        0
176
     1
 40
-0.6
176
     1
 41
-30.0
176
     1
 62
     5
 63
     7
421
 16777215
176
     1
 74
     1
176
     1
 91
        4
176
     1
 64
     7
176
     1
 65
   257
176
     1
 75
     1
176
     1
175
     1
176
     1
 42
1.0
176
     1
 92
        8
176
     1
 66
     7
176
     1
 43
1.0
176
     1
 76
     1
176
     1
 77
     6
176
     1
 78
     2
176
     1
 67
     7
176
     1
 79
     5
176
     1
170
     0
176
     1
171
     0
176
     1
290
     0
176
     1
 93
        1
176
     1
 44
50.0
176
     1
173
     0
176
     1
  0
VISUALSTYLE
  5
3A
102
{ACAD_REACTORS
330
2A
102
}
330
2A
100
AcDbVisualStyle
  2
ColorChange
 70
    16
177
     2
291
     1
 71
     2
176
     1
 72
     2
176
     1
 73
     3
176
     1
 90
        0
176
     1
 40
-0.6
176
     1
 41
-30.0
176
     1
 62
     5
 63
     8
421
  8421504
176
     1
 74
     1
176
     1
 91
        4
176
     1
 64
     7
176
     1
 65
   257
176
     1
 75
     1
176
     1
175
     1
176
     1
 42
1.0
176
     1
 92
        8
176
     1
 66
     8
424
  8421504
176
     1
 43
1.0
176
     1
 76
     1
176
     1
 77
     6
176
     1
 78
     2
176
     1
 67
     7
176
     1
 79
     5
176
     1
170
     0
176
     1
171
     0
176
     1
290
     0
176
     1
 93
        1
176
     1
 44
0.0
176
     1
173
     0
176
     1
  0
VISUALSTYLE
  5
34
102
{ACAD_REACTORS
330
2A
102
}
330
2A
100
AcDbVisualStyle
  2
Conceptual
 70
     9
177
     2
291
     0
 71
     3
176
     1
 72
     2
176
     1
 73
     0
176
     1
 90
        0
176
     1
 40
-0.6
176
     1
 41
-30.0
176
     1
 62
     5
 63
     7
421
 16777215
176
     1
 74
     2
176
     1
 91
        2
176
     1
 64
     7
176
     1
 65
   257
176
     1
 75
     1
176
     1
175
     1
176
     1
 42
40.0
176
     1
 92
        8
176
     1
 66
     7
176
     1
 43
1.0
176
     1
 76
     1
176
     1
 77
     6
176
     1
 78
     2
176
     1
 67
     7
176
     1
 79
     3
176
     1
170
     0
176
     1
171
     0
176
     1
290
     0
176
     1
 93
        1
176
     1
 44
0.0
176
     1
173
     0
176
     1
  0
VISUALSTYLE
  5
35
102
{ACAD_REACTORS
330
2A
102
}
330
2A
100
AcDbVisualStyle
  2
Dim
 70
    11
177
     2
291
     1
 71
     2
176
     1
 72
     2
176
     1
 73
     0
176
     1
 90
        0
176
     1
 40
-0.6
176
     1
 41
-30.0
176
     1
 62
     5
 63
     7
421
 16777215
176
     1
 74
     1
176
     1
 91
        4
176
     1
 64
     7
176
     1
 65
   257
176
     1
 75
     1
176
     1
175
     1
176
     1
 42
1.0
176
     1
 92
        8
176
     1
 66
     7
176
     1
 43
1.0
176
     1
 76
     1
176
     1
 77
     6
176
     1
 78
     2
176
     1
 67
     7
176
     1
 79
     5
176
     1
170
     0
176
     1
171
     0
176
     1
290
     0
176
     1
 93
        1
176
     1
 44
-50.0
176
     1
173
     0
176
     1
  0
VISUALSTYLE
  5
39
102
{ACAD_REACTORS
330
2A
102
}
330
2A
100
AcDbVisualStyle
  2
Facepattern
 70
    15
177
     2
291
     1
 71
     2
176
     1
 72
     2
176
     1
 73
     0
176
     1
 90
        0
176
     1
 40
-0.6
176
     1
 41
-30.0
176
     1
 62
     5
 63
     7
421
 16777215
176
     1
 74
     1
176
     1
 91
        4
176
     1
 64
     7
176
     1
 65
   257
176
     1
 75
     1
176
     1
175
     1
176
     1
 42
1.0
176
     1
 92
        8
176
     1
 66
     7
176
     1
 43
1.0
176
     1
 76
     1
176
     1
 77
     6
176
     1
 78
     2
176
     1
 67
     7
176
     1
 79
     5
176
     1
170
     0
176
     1
171
     0
176
     1
290
     0
176
     1
 93
        1
176
     1
 44
0.0
176
     1
173
     0
176
     1
  0
VISUALSTYLE
  5
2B
102
{ACAD_REACTORS
330
2A
102
}
330
2A
100
AcDbVisualStyle
  2
Flat
 70
     0
177
     2
291
     1
 71
     2
176
     1
 72
     1
176
     1
 73
     1
176
     1
 90
        2
176
     1
 40
-0.6
176
     1
 41
30.0
176
     1
 62
     5
 63
     7
421
 16777215
176
     1
 74
     0
176
     1
 91
        4
176
     1
 64
     7
176
     1
 65
   257
176
     1
 75
     1
176
     1
175
     1
176
     1
 42
1.0
176
     1
 92
        8
176
     1
 66
     7
176
     1
 43
1.0
176
     1
 76
     1
176
     1
 77
     6
176
     1
 78
     2
176
     1
 67
     7
176
     1
 79
     5
176
     1
170
     0
176
     1
171
     0
176
     1
290
     0
176
     1
 93
       13
176
     1
 44
0.0
176
     1
173
     0
176
     1
  0
VISUALSTYLE
  5
2C
102
{ACAD_REACTORS
330
2A
102
}
330
2A
100
AcDbVisualStyle
  2
FlatWithEdges
 70
     1
177
     2
291
     1
 71
     2
176
     1
 72
     1
176
     1
 73
     1
176
     1
 90
        2
176
     1
 40
-0.6
176
     1
 41
30.0
176
     1
 62
     5
 63
     7
421
 16777215
176
     1
 74
     1
176
     1
 91
        4
176
     1
 64
     7
176
     1
 65
   257
176
     1
 75
     1
176
     1
175
     1
176
     1
 42
1.0
176
     1
 92
        0
176
     1
 66
   257
176
     1
 43
1.0
176
     1
 76
     1
176
     1
 77
     6
176
     1
 78
     2
176
     1
 67
     7
176
     1
 79
     5
176
     1
170
     0
176
     1
171
     0
176
     1
290
     0
176
     1
 93
       13
176
     1
 44
0.0
176
     1
173
     0
176
     1
  0
VISUALSTYLE
  5
2D
102
{ACAD_REACTORS
330
2A
102
}
330
2A
100
AcDbVisualStyle
  2
Gouraud
 70
     2
177
     2
291
     1
 71
     2
176
     1
 72
     2
176
     1
 73
     1
176
     1
 90
        2
176
     1
 40
-0.6
176
     1
 41
30.0
176
     1
 62
     5
 63
     7
421
 16777215
176
     1
 74
     0
176
     1
 91
        4
176
     1
 64
     7
176
     1
 65
   257
176
     1
 75
     1
176
     1
175
     1
176
     1
 42
1.0
176
     1
 92
        0
176
     1
 66
     7
176
     1
 43
1.0
176
     1
 76
     1
176
     1
 77
     6
176
     1
 78
     2
176
     1
 67
     7
176
     1
 79
     5
176
     1
170
     0
176
     1
171
     0
176
     1
290
     0
176
     1
 93
       13
176
     1
 44
0.0
176
     1
173
     0
176
     1
  0
VISUALSTYLE
  5
2E
102
{ACAD_REACTORS
330
2A
102
}
330
2A
100
AcDbVisualStyle
  2
GouraudWithEdges
 70
     3
177
     2
291
     1
 71
     2
176
     1
 72
     2
176
     1
 73
     1
176
     1
 90
        2
176
     1
 40
-0.6
176
     1
 41
30.0
176
     1
 62
     5
 63
     7
421
 16777215
176
     1
 74
     1
176
     1
 91
        4
176
     1
 64
     7
176
     1
 65
   257
176
     1
 75
     1
176
     1
175
     1
176
     1
 42
1.0
176
     1
 92
        0
176
     1
 66
   257
176
     1
 43
1.0
176
     1
 76
     1
176
     1
 77
     6
176
     1
 78
     2
176
     1
 67
     7
176
     1
 79
     5
176
     1
170
     0
176
     1
171
     0
176
     1
290
     0
176
     1
 93
       13
176
     1
 44
0.0
176
     1
173
     0
176
     1
  0
VISUALSTYLE
  5
38
102
{ACAD_REACTORS
330
2A
102
}
330
2A
100
AcDbVisualStyle
  2
Linepattern
 70
    14
177
     2
291
     1
 71
     2
176
     1
 72
     2
176
     1
 73
     0
176
     1
 90
        0
176
     1
 40
-0.6
176
     1
 41
-30.0
176
     1
 62
     5
 63
     7
421
 16777215
176
     1
 74
     1
176
     1
 91
        4
176
     1
 64
     7
176
     1
 65
   257
176
     1
 75
     7
176
     1
175
     7
176
     1
 42
1.0
176
     1
 92
        8
176
     1
 66
     7
176
     1
 43
1.0
176
     1
 76
     1
176
     1
 77
     6
176
     1
 78
     2
176
     1
 67
     7
176
     1
 79
     5
176
     1
170
     0
176
     1
171
     0
176
     1
290
     0
176
     1
 93
        1
176
     1
 44
0.0
176
     1
173
     0
176
     1
  0
VISUALSTYLE
  5
33
102
{ACAD_REACTORS
330
2A
102
}
330
2A
100
AcDbVisualStyle
  2
Realistic
 70
     8
177
     2
291
     0
 71
     2
176
     1
 72
     2
176
     1
 73
     0
176
     1
 90
        0
176
     1
 40
-0.6
176
     1
 41
-30.0
176
     1
 62
     5
 63
     7
421
 16777215
176
     1
 74
     1
176
     1
 91
        0
176
     1
 64
     7
176
     1
 65
   257
176
     1
 75
     1
176
     1
175
     1
176
     1
 42
1.0
176
     1
 92
        8
176
     1
 66
     8
424
  7895160
176
     1
 43
1.0
176
     1
 76
     1
176
     1
 77
     6
176
     1
 78
     2
176
     1
 67
     7
176
     1
 79
     5
176
     1
170
     0
176
     1
171
     0
176
     1
290
     0
176
     1
 93
       13
176
     1
 44
0.0
176
     1
173
     0
176
     1
  0
VISUALSTYLE
  5
37
102
{ACAD_REACTORS
330
2A
102
}
330
2A
100
AcDbVisualStyle
  2
Thicken
 70
    13
177
     2
291
     1
 71
     2
176
     1
 72
     2
176
     1
 73
     0
176
     1
 90
        0
176
     1
 40
-0.6
176
     1
 41
-30.0
176
     1
 62
     5
 63
     7
421
 16777215
176
     1
 74
     1
176
     1
 91
        4
176
     1
 64
     7
176
     1
 65
   257
176
     1
 75
     1
176
     1
175
     1
176
     1
 42
1.0
176
     1
 92
       12
176
     1
 66
     7
176
     1
 43
1.0
176
     1
 76
     1
176
     1
 77
     6
176
     1
 78
     2
176
     1
 67
     7
176
     1
 79
     5
176
     1
170
     0
176
     1
171
     0
176
     1
290
     0
176
     1
 93
        1
176
     1
 44
0.0
176
     1
173
     0
176
     1
  0
ENDSEC
  0
EOF
