  0
SECTION
  2
HEADER
  9
$ACADVER
  1
AC1024
  9
$ACADMAINTVER
 70
     6
  9
$DWGCODEPAGE
  3
UNDEFINED
  9
$INSBASE
 10
0.0
 20
0.0
 30
0.0
  9
$EXTMIN
 10
1.000000000000000E+20
 20
1.000000000000000E+20
 30
1.000000000000000E+20
  9
$EXTMAX
 10
-1.000000000000000E+20
 20
-1.000000000000000E+20
 30
-1.000000000000000E+20
  9
$LIMMIN
 10
0.0
 20
0.0
  9
$LIMMAX
 10
12.0
 20
9.0
  9
$ORTHOMODE
 70
     0
  9
$REGENMODE
 70
     1
  9
$FILLMODE
 70
     1
  9
$QTEXTMODE
 70
     0
  9
$MIRRTEXT
 70
     1
  9
$LTSCALE
 40
1.0
  9
$ATTMODE
 70
     1
  9
$TEXTSIZE
 40
0.2
  9
$TRACEWID
 40
0.05
  9
$TEXTSTYLE
  7
Standard
  9
$CLAYER
  8
0
  9
$CELTYPE
  6
ByLayer
  9
$CECOLOR
 62
   256
  9
$CELTSCALE
 40
1.0
  9
$DISPSILH
 70
     0
  9
$DIMSCALE
 40
1.0
  9
$DIMASZ
 40
0.18
  9
$DIMEXO
 40
0.0625
  9
$DIMDLI
 40
0.38
  9
$DIMRND
 40
0.0
  9
$DIMDLE
 40
0.0
  9
$DIMEXE
 40
0.18
  9
$DIMTP
 40
0.0
  9
$DIMTM
 40
0.0
  9
$DIMTXT
 40
0.18
  9
$DIMCEN
 40
0.09
  9
$DIMTSZ
 40
0.0
  9
$DIMTOL
 70
     0
  9
$DIMLIM
 70
     0
  9
$DIMTIH
 70
     1
  9
$DIMTOH
 70
     1
  9
$DIMSE1
 70
     0
  9
$DIMSE2
 70
     0
  9
$DIMTAD
 70
     0
  9
$DIMZIN
 70
     0
  9
$DIMBLK
  1

  9
$DIMASO
 70
     1
  9
$DIMSHO
 70
     1
  9
$DIMPOST
  1

  9
$DIMAPOST
  1

  9
$DIMALT
 70
     0
  9
$DIMALTD
 70
     2
  9
$DIMALTF
 40
25.4
  9
$DIMLFAC
 40
1.0
  9
$DIMTOFL
 70
     0
  9
$DIMTVP
 40
0.0
  9
$DIMTIX
 70
     0
  9
$DIMSOXD
 70
     0
  9
$DIMSAH
 70
     0
  9
$DIMBLK1
  1

  9
$DIMBLK2
  1

  9
$DIMSTYLE
  2
Standard
  9
$DIMCLRD
 70
     0
  9
$DIMCLRE
 70
     0
  9
$DIMCLRT
 70
     0
  9
$DIMTFAC
 40
1.0
  9
$DIMGAP
 40
0.09
  9
$DIMJUST
 70
     0
  9
$DIMSD1
 70
     0
  9
$DIMSD2
 70
     0
  9
$DIMTOLJ
 70
     1
  9
$DIMTZIN
 70
     0
  9
$DIMALTZ
 70
     0
  9
$DIMALTTZ
 70
     0
  9
$DIMUPT
 70
     0
  9
$DIMDEC
 70
     4
  9
$DIMTDEC
 70
     4
  9
$DIMALTU
 70
     2
  9
$DIMALTTD
 70
     2
  9
$DIMTXSTY
  7
Standard
  9
$DIMAUNIT
 70
     0
  9
$DIMADEC
 70
     0
  9
$DIMALTRND
 40
0.0
  9
$DIMAZIN
 70
     0
  9
$DIMDSEP
 70
    46
  9
$DIMATFIT
 70
     3
  9
$DIMFRAC
 70
     0
  9
$DIMLDRBLK
  1

  9
$DIMLUNIT
 70
     2
  9
$DIMLWD
 70
    -2
  9
$DIMLWE
 70
    -2
  9
$DIMTMOVE
 70
     0
  9
$DIMFXL
 40
1.0
  9
$DIMFXLON
 70
     0
  9
$DIMJOGANG
 40
0.7853981633974483
  9
$DIMTFILL
 70
     0
  9
$DIMTFILLCLR
 70
     0
  9
$DIMARCSYM
 70
     0
  9
$DIMLTYPE
  6

  9
$DIMLTEX1
  6

  9
$DIMLTEX2
  6

  9
$DIMTXTDIRECTION
 70
     0
  9
$LUNITS
 70
     2
  9
$LUPREC
 70
     4
  9
$SKETCHINC
 40
0.1
  9
$FILLETRAD
 40
0.5
  9
$AUNITS
 70
     0
  9
$AUPREC
 70
     0
  9
$MENU
  1
.
  9
$ELEVATION
 40
0.0
  9
$PELEVATION
 40
0.0
  9
$THICKNESS
 40
0.0
  9
$LIMCHECK
 70
     0
  9
$CHAMFERA
 40
0.5
  9
$CHAMFERB
 40
0.5
  9
$CHAMFERC
 40
1.0
  9
$CHAMFERD
 40
0.0
  9
$SKPOLY
 70
     0
  9
$TDCREATE
 40
2457917.622071759
  9
$TDUCREATE
 40
2457917.247071759
  9
$TDUPDATE
 40
2457917.622071759
  9
$TDUUPDATE
 40
2457917.247071759
  9
$TDINDWG
 40
0.0000000116
  9
$TDUSRTIMER
 40
0.0000000116
  9
$USRTIMER
 70
     1
  9
$ANGBASE
 50
0.0
  9
$ANGDIR
 70
     0
  9
$PDMODE
 70
     0
  9
$PDSIZE
 40
0.0
  9
$PLINEWID
 40
0.0
  9
$SPLFRAME
 70
     0
  9
$SPLINETYPE
 70
     6
  9
$SPLINESEGS
 70
     8
  9
$HANDSEED
  5
D6
  9
$SURFTAB1
 70
     6
  9
$SURFTAB2
 70
     6
  9
$SURFTYPE
 70
     6
  9
$SURFU
 70
     6
  9
$SURFV
 70
     6
  9
$UCSBASE
  2

  9
$UCSNAME
  2

  9
$UCSORG
 10
0.0
 20
0.0
 30
0.0
  9
$UCSXDIR
 10
1.0
 20
0.0
 30
0.0
  9
$UCSYDIR
 10
0.0
 20
1.0
 30
0.0
  9
$UCSORTHOREF
  2

  9
$UCSORTHOVIEW
 70
     0
  9
$UCSORGTOP
 10
0.0
 20
0.0
 30
0.0
  9
$UCSORGBOTTOM
 10
0.0
 20
0.0
 30
0.0
  9
$UCSORGLEFT
 10
0.0
 20
0.0
 30
0.0
  9
$UCSORGRIGHT
 10
0.0
 20
0.0
 30
0.0
  9
$UCSORGFRONT
 10
0.0
 20
0.0
 30
0.0
  9
$UCSORGBACK
 10
0.0
 20
0.0
 30
0.0
  9
$PUCSBASE
  2

  9
$PUCSNAME
  2

  9
$PUCSORG
 10
0.0
 20
0.0
 30
0.0
  9
$PUCSXDIR
 10
1.0
 20
0.0
 30
0.0
  9
$PUCSYDIR
 10
0.0
 20
1.0
 30
0.0
  9
$PUCSORTHOREF
  2

  9
$PUCSORTHOVIEW
 70
     0
  9
$PUCSORGTOP
 10
0.0
 20
0.0
 30
0.0
  9
$PUCSORGBOTTOM
 10
0.0
 20
0.0
 30
0.0
  9
$PUCSORGLEFT
 10
0.0
 20
0.0
 30
0.0
  9
$PUCSORGRIGHT
 10
0.0
 20
0.0
 30
0.0
  9
$PUCSORGFRONT
 10
0.0
 20
0.0
 30
0.0
  9
$PUCSORGBACK
 10
0.0
 20
0.0
 30
0.0
  9
$USERI1
 70
     0
  9
$USERI2
 70
     0
  9
$USERI3
 70
     0
  9
$USERI4
 70
     0
  9
$USERI5
 70
     0
  9
$USERR1
 40
0.0
  9
$USERR2
 40
0.0
  9
$USERR3
 40
0.0
  9
$USERR4
 40
0.0
  9
$USERR5
 40
0.0
  9
$WORLDVIEW
 70
     1
  9
$SHADEDGE
 70
     3
  9
$SHADEDIF
 70
    70
  9
$TILEMODE
 70
     1
  9
$MAXACTVP
 70
    64
  9
$PINSBASE
 10
0.0
 20
0.0
 30
0.0
  9
$PLIMCHECK
 70
     0
  9
$PEXTMIN
 10
1.000000000000000E+20
 20
1.000000000000000E+20
 30
1.000000000000000E+20
  9
$PEXTMAX
 10
-1.000000000000000E+20
 20
-1.000000000000000E+20
 30
-1.000000000000000E+20
  9
$PLIMMIN
 10
0.0
 20
0.0
  9
$PLIMMAX
 10
12.0
 20
9.0
  9
$UNITMODE
 70
     0
  9
$VISRETAIN
 70
     1
  9
$PLINEGEN
 70
     0
  9
$PSLTSCALE
 70
     1
  9
$TREEDEPTH
 70
  3020
  9
$CMLSTYLE
  2
Standard
  9
$CMLJUST
 70
     0
  9
$CMLSCALE
 40
1.0
  9
$PROXYGRAPHICS
 70
     1
  9
$MEASUREMENT
 70
     0
  9
$CELWEIGHT
370
    -1
  9
$ENDCAPS
280
     0
  9
$JOINSTYLE
280
     0
  9
$LWDISPLAY
290
     1
  9
$INSUNITS
 70
     1
  9
$HYPERLINKBASE
  1

  9
$STYLESHEET
  1

  9
$XEDIT
290
     1
  9
$CEPSNTYPE
380
     0
  9
$PSTYLEMODE
290
     1
  9
$FINGERPRINTGUID
  2
{D16A6610-BCBD-43E2-2EC7-84E1C89F10E7}
  9
$VERSIONGUID
  2
{FAEB1C32-E019-11D5-929B-00C0DF256EC4}
  9
$EXTNAMES
290
     1
  9
$PSVPSCALE
 40
0.0
  9
$OLESTARTUP
290
     0
  9
$SORTENTS
280
   127
  9
$INDEXCTL
280
     0
  9
$HIDETEXT
280
     1
  9
$XCLIPFRAME
280
     2
  9
$HALOGAP
280
     0
  9
$OBSCOLOR
 70
   257
  9
$OBSLTYPE
280
     0
  9
$INTERSECTIONDISPLAY
280
     0
  9
$INTERSECTIONCOLOR
 70
   257
  9
$DIMASSOC
280
     2
  9
$PROJECTNAME
  1

  9
$CAMERADISPLAY
290
     0
  9
$LENSLENGTH
 40
50.0
  9
$CAMERAHEIGHT
 40
0.0
  9
$STEPSPERSEC
 40
2.0
  9
$STEPSIZE
 40
6.0
  9
$3DDWFPREC
 40
2.0
  9
$PSOLWIDTH
 40
0.25
  9
$PSOLHEIGHT
 40
4.0
  9
$LOFTANG1
 40
1.570796326794897
  9
$LOFTANG2
 40
1.570796326794897
  9
$LOFTMAG1
 40
0.0
  9
$LOFTMAG2
 40
0.0
  9
$LOFTPARAM
 70
     7
  9
$LOFTNORMALS
280
     1
  9
$LATITUDE
 40
37.795
  9
$LONGITUDE
 40
-122.394
  9
$NORTHDIRECTION
 40
0.0
  9
$TIMEZONE
 70
 -8000
  9
$LIGHTGLYPHDISPLAY
280
     1
  9
$TILEMODELIGHTSYNCH
280
     1
  9
$CMATERIAL
347
3C
  9
$SOLIDHIST
280
     1
  9
$SHOWHIST
280
     1
  9
$DWFFRAME
280
     2
  9
$DGNFRAME
280
     2
  9
$REALWORLDSCALE
290
     1
  9
$INTERFERECOLOR
 62
   256
  9
$CSHADOW
280
     0
  9
$SHADOWPLANELOCATION
 40
0.0
  0
ENDSEC
  0
SECTION
  2
CLASSES
  0
CLASS
  1
ACDBDICTIONARYWDFLT
  2
AcDbDictionaryWithDefault
  3
ObjectDBX Classes
 90
        0
 91
        4
280
     0
281
     0
  0
CLASS
  1
VISUALSTYLE
  2
AcDbVisualStyle
  3
ObjectDBX Classes
 90
     4095
 91
        4
280
     0
281
     0
  0
CLASS
  1
MATERIAL
  2
AcDbMaterial
  3
ObjectDBX Classes
 90
     1153
 91
        4
280
     0
281
     0
  0
CLASS
  1
SUN
  2
AcDbSun
  3
SCENEOE
 90
     1024
 91
        4
280
     0
281
     0
  0
ENDSEC
  0
SECTION
  2
TABLES
  0
TABLE
  2
VPORT
  5
8
330
0
100
AcDbSymbolTable
 70
     1
  0
VPORT
  5
29
330
8
100
AcDbSymbolTableRecord
100
AcDbViewportTableRecord
  2
*Active
 70
     0
 10
0.0
 20
0.0
 11
1.0
 21
1.0
 12
0.0
 22
0.0
 13
0.0
 23
0.0
 14
0.5
 24
0.5
 15
0.5
 25
0.5
 16
0.0
 26
0.0
 36
1.0
 17
91.00082462281999
 27
-128.4993055234307
 37
0.0
 40
256.9986110468615
 41
0.7081814508812795
 42
50.0
 43
0.0
 44
0.0
 50
0.0
 51
0.0
 71
     0
 72
   100
 73
     1
 74
     3
 75
     0
 76
     0
 77
     0
 78
     0
281
     0
 65
     1
110
0.0
120
0.0
130
0.0
111
1.0
121
0.0
131
0.0
112
0.0
122
1.0
132
0.0
 79
     0
146
0.0
 60
     3
 61
     5
292
     1
282
     1
141
0.0
142
0.0
 63
   250
361
3F
  0
ENDTAB
  0
TABLE
  2
LTYPE
  5
5
330
0
100
AcDbSymbolTable
 70
     1
  0
LTYPE
  5
14
330
5
100
AcDbSymbolTableRecord
100
AcDbLinetypeTableRecord
  2
ByBlock
 70
     0
  3

 72
    65
 73
     0
 40
0.0
  0
LTYPE
  5
15
330
5
100
AcDbSymbolTableRecord
100
AcDbLinetypeTableRecord
  2
ByLayer
 70
     0
  3

 72
    65
 73
     0
 40
0.0
  0
LTYPE
  5
16
330
5
100
AcDbSymbolTableRecord
100
AcDbLinetypeTableRecord
  2
Continuous
 70
     0
  3
Solid line
 72
    65
 73
     0
 40
0.0
  0
ENDTAB
  0
TABLE
  2
LAYER
  5
2
330
0
100
AcDbSymbolTable
 70
     2
  0
LAYER
  5
10
330
2
100
AcDbSymbolTableRecord
100
AcDbLayerTableRecord
  2
0
 70
     0
 62
     7
  6
Continuous
370
    -3
390
F
347
3E
  0
LAYER
  5
40
330
2
100
AcDbSymbolTableRecord
100
AcDbLayerTableRecord
  2
_U+30EC_U+30A4_U+30E4_U+30FC 1
 70
     0
 62
     7
  6
Continuous
370
    -3
390
F
347
3E
  0
ENDTAB
  0
TABLE
  2
STYLE
  5
3
330
0
100
AcDbSymbolTable
 70
     1
  0
STYLE
  5
11
330
3
100
AcDbSymbolTableRecord
100
AcDbTextStyleTableRecord
  2
Standard
 70
     0
 40
0.0
 41
1.0
 50
0.0
 71
     0
 42
0.2
  3
txt
  4

  0
ENDTAB
  0
TABLE
  2
VIEW
  5
6
330
0
100
AcDbSymbolTable
 70
     0
  0
ENDTAB
  0
TABLE
  2
UCS
  5
7
330
0
100
AcDbSymbolTable
 70
     0
  0
ENDTAB
  0
TABLE
  2
APPID
  5
9
330
0
100
AcDbSymbolTable
 70
     1
  0
APPID
  5
12
330
9
100
AcDbSymbolTableRecord
100
AcDbRegAppTableRecord
  2
ACAD
 70
     0
  0
ENDTAB
  0
TABLE
  2
DIMSTYLE
  5
A
330
0
100
AcDbSymbolTable
 70
     1
100
AcDbDimStyleTable
  0
DIMSTYLE
105
27
330
A
100
AcDbSymbolTableRecord
100
AcDbDimStyleTableRecord
  2
Standard
 70
     0
178
     0
340
11
  0
ENDTAB
  0
TABLE
  2
BLOCK_RECORD
  5
1
330
0
100
AcDbSymbolTable
 70
     6
  0
BLOCK_RECORD
  5
1F
330
1
100
AcDbSymbolTableRecord
100
AcDbBlockTableRecord
  2
*Model_Space
340
22
 70
     0
280
     1
281
     0
  0
BLOCK_RECORD
  5
1B
330
1
100
AcDbSymbolTableRecord
100
AcDbBlockTableRecord
  2
*Paper_Space
340
1E
 70
     0
280
     1
281
     0
  0
BLOCK_RECORD
  5
23
330
1
100
AcDbSymbolTableRecord
100
AcDbBlockTableRecord
  2
*Paper_Space0
340
26
 70
     0
280
     1
281
     0
  0
BLOCK_RECORD
  5
53
330
1
100
AcDbSymbolTableRecord
100
AcDbBlockTableRecord
  2
block 2
340
0
102
{BLKREFS
331
54
102
}
 70
     0
280
     1
281
     0
  0
BLOCK_RECORD
  5
6E
330
1
100
AcDbSymbolTableRecord
100
AcDbBlockTableRecord
  2
block 3
340
0
102
{BLKREFS
331
6F
102
}
 70
     0
280
     1
281
     0
  0
BLOCK_RECORD
  5
76
330
1
100
AcDbSymbolTableRecord
100
AcDbBlockTableRecord
  2
block 4
340
0
102
{BLKREFS
331
77
102
}
 70
     0
280
     1
281
     0
  0
BLOCK_RECORD
  5
BA
330
1
100
AcDbSymbolTableRecord
100
AcDbBlockTableRecord
  2
block 5
340
0
102
{BLKREFS
331
BB
102
}
 70
     0
280
     1
281
     0
  0
BLOCK_RECORD
  5
CA
330
1
100
AcDbSymbolTableRecord
100
AcDbBlockTableRecord
  2
block 6
340
0
102
{BLKREFS
331
CB
102
}
 70
     0
280
     1
281
     0
  0
ENDTAB
  0
ENDSEC
  0
SECTION
  2
BLOCKS
  0
BLOCK
  5
20
330
1F
100
AcDbEntity
  8
0
100
AcDbBlockBegin
  2
*Model_Space
 70
     0
 10
0.0
 20
0.0
 30
0.0
  3
*Model_Space
  1

  0
ENDBLK
  5
21
330
1F
100
AcDbEntity
  8
0
100
AcDbBlockEnd
  0
BLOCK
  5
1C
330
1B
100
AcDbEntity
 67
     1
  8
0
100
AcDbBlockBegin
  2
*Paper_Space
 70
     0
 10
0.0
 20
0.0
 30
0.0
  3
*Paper_Space
  1

  0
ENDBLK
  5
1D
330
1B
100
AcDbEntity
 67
     1
  8
0
100
AcDbBlockEnd
  0
BLOCK
  5
24
330
23
100
AcDbEntity
  8
0
100
AcDbBlockBegin
  2
*Paper_Space0
 70
     0
 10
0.0
 20
0.0
 30
0.0
  3
*Paper_Space0
  1

  0
ENDBLK
  5
25
330
23
100
AcDbEntity
  8
0
100
AcDbBlockEnd
  0
BLOCK
  5
55
330
53
100
AcDbEntity
  8
0
100
AcDbBlockBegin
  2
block 2
 70
     0
 10
0.0
 20
0.0
 30
0.0
  3
block 2
  1

  0
SPLINE
  5
57
330
53
100
AcDbEntity
  8
_U+30EC_U+30A4_U+30E4_U+30FC 1
370
     0
100
AcDbSpline
210
0.0
220
0.0
230
1.0
 70
    11
 71
     3
 72
    44
 73
    40
 74
     0
 42
0.0000000001
 43
0.0000000001
 12
1.0
 22
0.0
 32
0.0
 13
1.0
 23
0.0
 33
0.0
 40
0.0
 40
0.0
 40
0.0
 40
0.0
 40
1.0
 40
1.0
 40
1.0
 40
2.0
 40
2.0
 40
2.0
 40
3.0
 40
3.0
 40
3.0
 40
4.0
 40
4.0
 40
4.0
 40
5.0
 40
5.0
 40
5.0
 40
6.0
 40
6.0
 40
6.0
 40
7.0
 40
7.0
 40
7.0
 40
8.0
 40
8.0
 40
8.0
 40
9.0
 40
9.0
 40
9.0
 40
10.0
 40
10.0
 40
10.0
 40
11.0
 40
11.0
 40
11.0
 40
12.0
 40
12.0
 40
12.0
 40
13.0
 40
13.0
 40
13.0
 40
13.0
 10
100.2226507995971
 20
-130.701755067151
 30
0.0
 10
100.3814697014671
 20
-130.9346435219539
 30
0.0
 10
100.4555392544
 20
-131.0342067814776
 30
0.0
 10
100.5991997361349
 20
-131.0862277233048
 30
0.0
 10
100.5991997361349
 20
-131.0862277233048
 30
0.0
 10
100.5991997361349
 20
-130.2538926540685
 30
0.0
 10
100.5991997361349
 20
-130.2538926540685
 30
0.0
 10
100.5991997361349
 20
-130.2538926540685
 30
0.0
 10
100.8045274270558
 20
-130.2538926540685
 30
0.0
 10
100.8045274270558
 20
-130.2538926540685
 30
0.0
 10
100.8045274270558
 20
-130.2538926540685
 30
0.0
 10
100.8045274270558
 20
-131.3528781138632
 30
0.0
 10
100.8045274270558
 20
-131.3528781138632
 30
0.0
 10
100.4469265156869
 20
-131.3187716685592
 30
0.0
 10
100.3687228481717
 20
-131.2488362302086
 30
0.0
 10
100.0703775791491
 20
-130.8374918292698
 30
0.0
 10
99.87159556965017
 20
-130.563951247741
 30
0.0
 10
99.80372718859074
 20
-130.4936712998419
 30
0.0
 10
99.66626787872927
 20
-130.4936712998419
 30
0.0
 10
99.54775659403667
 20
-130.4936712998419
 30
0.0
 10
99.41684296559718
 20
-130.5704969291629
 30
0.0
 10
99.41684296559718
 20
-130.7809922633117
 30
0.0
 10
99.41684296559718
 20
-131.0590114689714
 30
0.0
 10
99.64731985356039
 20
-131.067968717233
 30
0.0
 10
99.76376408096183
 20
-131.0724473413638
 30
0.0
 10
99.76376408096183
 20
-131.0724473413638
 30
0.0
 10
99.76376408096183
 20
-131.3122259871372
 30
0.0
 10
99.76376408096183
 20
-131.3122259871372
 30
0.0
 10
99.63664005755612
 20
-131.3032687388756
 30
0.0
 10
99.5246744542855
 20
-131.2918999237743
 30
0.0
 10
99.40616316959292
 20
-131.205772536643
 30
0.0
 10
99.24527721043174
 20
-131.088294780596
 30
0.0
 10
99.21151527467629
 20
-130.8895127710971
 30
0.0
 10
99.21151527467629
 20
-130.7651448240796
 30
0.0
 10
99.21151527467629
 20
-130.4688666123481
 30
0.0
 10
99.39548337358863
 20
-130.2473469726465
 30
0.0
 10
99.66833493602041
 20
-130.2473469726465
 30
0.0
 10
99.897089276241
 20
-130.2473469726465
 30
0.0
 10
99.99630802621621
 20
-130.371714919664
 30
0.0
 10
100.2226507995971
 20
-130.701755067151
 30
0.0
  0
HATCH
  5
58
330
53
100
AcDbEntity
  8
_U+30EC_U+30A4_U+30E4_U+30FC 1
 62
   179
420
  2234388
100
AcDbHatch
 10
0.0
 20
0.0
 30
0.0
210
0.0
220
0.0
230
1.0
  2
SOLID
 70
     1
 71
     0
 91
        1
 92
        1
 93
        1
 72
     4
 94
        3
 73
     0
 74
     1
 95
       44
 96
       40
 40
0.0
 40
0.0
 40
0.0
 40
0.0
 40
1.0
 40
1.0
 40
1.0
 40
2.0
 40
2.0
 40
2.0
 40
3.0
 40
3.0
 40
3.0
 40
4.0
 40
4.0
 40
4.0
 40
5.0
 40
5.0
 40
5.0
 40
6.0
 40
6.0
 40
6.0
 40
7.0
 40
7.0
 40
7.0
 40
8.0
 40
8.0
 40
8.0
 40
9.0
 40
9.0
 40
9.0
 40
10.0
 40
10.0
 40
10.0
 40
11.0
 40
11.0
 40
11.0
 40
12.0
 40
12.0
 40
12.0
 40
13.0
 40
13.0
 40
13.0
 40
13.0
 10
100.2226507995971
 20
-130.701755067151
 10
100.3814697014671
 20
-130.9346435219539
 10
100.4555392544
 20
-131.0342067814776
 10
100.5991997361349
 20
-131.0862277233048
 10
100.5991997361349
 20
-131.0862277233048
 10
100.5991997361349
 20
-130.2538926540685
 10
100.5991997361349
 20
-130.2538926540685
 10
100.5991997361349
 20
-130.2538926540685
 10
100.8045274270558
 20
-130.2538926540685
 10
100.8045274270558
 20
-130.2538926540685
 10
100.8045274270558
 20
-130.2538926540685
 10
100.8045274270558
 20
-131.3528781138632
 10
100.8045274270558
 20
-131.3528781138632
 10
100.4469265156869
 20
-131.3187716685592
 10
100.3687228481717
 20
-131.2488362302086
 10
100.0703775791491
 20
-130.8374918292698
 10
99.87159556965017
 20
-130.563951247741
 10
99.80372718859074
 20
-130.4936712998419
 10
99.66626787872927
 20
-130.4936712998419
 10
99.54775659403667
 20
-130.4936712998419
 10
99.41684296559718
 20
-130.5704969291629
 10
99.41684296559718
 20
-130.7809922633117
 10
99.41684296559718
 20
-131.0590114689714
 10
99.64731985356039
 20
-131.067968717233
 10
99.76376408096183
 20
-131.0724473413638
 10
99.76376408096183
 20
-131.0724473413638
 10
99.76376408096183
 20
-131.3122259871372
 10
99.76376408096183
 20
-131.3122259871372
 10
99.63664005755612
 20
-131.3032687388756
 10
99.5246744542855
 20
-131.2918999237743
 10
99.40616316959292
 20
-131.205772536643
 10
99.24527721043174
 20
-131.088294780596
 10
99.21151527467629
 20
-130.8895127710971
 10
99.21151527467629
 20
-130.7651448240796
 10
99.21151527467629
 20
-130.4688666123481
 10
99.39548337358863
 20
-130.2473469726465
 10
99.66833493602041
 20
-130.2473469726465
 10
99.897089276241
 20
-130.2473469726465
 10
99.99630802621621
 20
-130.371714919664
 10
100.2226507995971
 20
-130.701755067151
 97
        0
 97
        0
 75
     2
 76
     1
 98
        0
  0
SPLINE
  5
59
330
53
100
AcDbEntity
  8
_U+30EC_U+30A4_U+30E4_U+30FC 1
370
     0
100
AcDbSpline
210
0.0
220
0.0
230
1.0
 70
    11
 71
     3
 72
    26
 73
    22
 74
     0
 42
0.0000000001
 43
0.0000000001
 12
1.0
 22
0.0
 32
0.0
 13
1.0
 23
0.0
 33
0.0
 40
0.0
 40
0.0
 40
0.0
 40
0.0
 40
1.0
 40
1.0
 40
1.0
 40
2.0
 40
2.0
 40
2.0
 40
3.0
 40
3.0
 40
3.0
 40
4.0
 40
4.0
 40
4.0
 40
5.0
 40
5.0
 40
5.0
 40
6.0
 40
6.0
 40
6.0
 40
7.0
 40
7.0
 40
7.0
 40
7.0
 10
100.8045274270558
 20
-129.5955349068372
 30
0.0
 10
100.8045274270558
 20
-129.5955349068372
 30
0.0
 10
99.70037432403325
 20
-129.5955349068372
 30
0.0
 10
99.70037432403325
 20
-129.5955349068372
 30
0.0
 10
99.70037432403325
 20
-129.5955349068372
 30
0.0
 10
99.70037432403325
 20
-129.9479681749783
 30
0.0
 10
99.70037432403325
 20
-129.9479681749783
 30
0.0
 10
99.70037432403325
 20
-129.9479681749783
 30
0.0
 10
99.5522352181675
 20
-129.9479681749783
 30
0.0
 10
99.5522352181675
 20
-129.9479681749783
 30
0.0
 10
99.53742130758093
 20
-129.5931233399976
 30
0.0
 10
99.37446829112861
 20
-129.54351396501
 30
0.0
 10
99.26009112101832
 20
-129.5118190865457
 30
0.0
 10
99.26009112101832
 20
-129.5118190865457
 30
0.0
 10
99.26009112101832
 20
-129.3557562610638
 30
0.0
 10
99.26009112101832
 20
-129.3557562610638
 30
0.0
 10
99.26009112101832
 20
-129.3557562610638
 30
0.0
 10
100.8045274270558
 20
-129.3557562610638
 30
0.0
 10
100.8045274270558
 20
-129.3557562610638
 30
0.0
 10
100.8045274270558
 20
-129.3557562610638
 30
0.0
 10
100.8045274270558
 20
-129.5955349068372
 30
0.0
 10
100.8045274270558
 20
-129.5955349068372
 30
0.0
  0
HATCH
  5
5A
330
53
100
AcDbEntity
  8
_U+30EC_U+30A4_U+30E4_U+30FC 1
 62
   179
420
  2234388
100
AcDbHatch
 10
0.0
 20
0.0
 30
0.0
210
0.0
220
0.0
230
1.0
  2
SOLID
 70
     1
 71
     0
 91
        1
 92
        1
 93
        1
 72
     4
 94
        3
 73
     0
 74
     1
 95
       26
 96
       22
 40
0.0
 40
0.0
 40
0.0
 40
0.0
 40
1.0
 40
1.0
 40
1.0
 40
2.0
 40
2.0
 40
2.0
 40
3.0
 40
3.0
 40
3.0
 40
4.0
 40
4.0
 40
4.0
 40
5.0
 40
5.0
 40
5.0
 40
6.0
 40
6.0
 40
6.0
 40
7.0
 40
7.0
 40
7.0
 40
7.0
 10
100.8045274270558
 20
-129.5955349068372
 10
100.8045274270558
 20
-129.5955349068372
 10
99.70037432403325
 20
-129.5955349068372
 10
99.70037432403325
 20
-129.5955349068372
 10
99.70037432403325
 20
-129.5955349068372
 10
99.70037432403325
 20
-129.9479681749783
 10
99.70037432403325
 20
-129.9479681749783
 10
99.70037432403325
 20
-129.9479681749783
 10
99.5522352181675
 20
-129.9479681749783
 10
99.5522352181675
 20
-129.9479681749783
 10
99.53742130758093
 20
-129.5931233399976
 10
99.37446829112861
 20
-129.54351396501
 10
99.26009112101832
 20
-129.5118190865457
 10
99.26009112101832
 20
-129.5118190865457
 10
99.26009112101832
 20
-129.3557562610638
 10
99.26009112101832
 20
-129.3557562610638
 10
99.26009112101832
 20
-129.3557562610638
 10
100.8045274270558
 20
-129.3557562610638
 10
100.8045274270558
 20
-129.3557562610638
 10
100.8045274270558
 20
-129.3557562610638
 10
100.8045274270558
 20
-129.5955349068372
 10
100.8045274270558
 20
-129.5955349068372
 97
        0
 97
        0
 75
     2
 76
     1
 98
        0
  0
POLYLINE
  5
5B
330
53
100
AcDbEntity
  8
_U+30EC_U+30A4_U+30E4_U+30FC 1
370
     0
100
AcDb2dPolyline
 66
     1
 10
0.0
 20
0.0
 30
0.0
  0
VERTEX
  5
5C
330
5B
100
AcDbEntity
  8
_U+30EC_U+30A4_U+30E4_U+30FC 1
370
     0
100
AcDbVertex
100
AcDb2dVertex
 10
100.8045274270558
 20
-128.7559651370819
 30
0.0
  0
VERTEX
  5
5D
330
5B
100
AcDbEntity
  8
_U+30EC_U+30A4_U+30E4_U+30FC 1
370
     0
100
AcDbVertex
100
AcDb2dVertex
 10
100.5526909470841
 20
-128.7559651370819
 30
0.0
  0
VERTEX
  5
5E
330
5B
100
AcDbEntity
  8
_U+30EC_U+30A4_U+30E4_U+30FC 1
370
     0
100
AcDbVertex
100
AcDb2dVertex
 10
100.5526909470841
 20
-128.4869031796838
 30
0.0
  0
VERTEX
  5
5F
330
5B
100
AcDbEntity
  8
_U+30EC_U+30A4_U+30E4_U+30FC 1
370
     0
100
AcDbVertex
100
AcDb2dVertex
 10
100.8045274270558
 20
-128.4869031796838
 30
0.0
  0
VERTEX
  5
60
330
5B
100
AcDbEntity
  8
_U+30EC_U+30A4_U+30E4_U+30FC 1
370
     0
100
AcDbVertex
100
AcDb2dVertex
 10
100.8045274270558
 20
-128.7559651370819
 30
0.0
  0
SEQEND
  5
61
330
5B
100
AcDbEntity
  8
_U+30EC_U+30A4_U+30E4_U+30FC 1
370
     0
  0
HATCH
  5
62
330
53
100
AcDbEntity
  8
_U+30EC_U+30A4_U+30E4_U+30FC 1
 62
   179
420
  2234388
100
AcDbHatch
 10
0.0
 20
0.0
 30
0.0
210
0.0
220
0.0
230
1.0
  2
SOLID
 70
     1
 71
     0
 91
        1
 92
        1
 93
        4
 72
     1
 10
100.8045274270558
 20
-128.7559651370819
 11
100.5526909470841
 21
-128.7559651370819
 72
     1
 10
100.5526909470841
 20
-128.7559651370819
 11
100.5526909470841
 21
-128.4869031796838
 72
     1
 10
100.5526909470841
 20
-128.4869031796838
 11
100.8045274270558
 21
-128.4869031796838
 72
     1
 10
100.8045274270558
 20
-128.4869031796838
 11
100.8045274270558
 21
-128.7559651370819
 97
        0
 75
     2
 76
     1
 98
        0
  0
SPLINE
  5
63
330
53
100
AcDbEntity
  8
_U+30EC_U+30A4_U+30E4_U+30FC 1
370
     0
100
AcDbSpline
210
0.0
220
0.0
230
1.0
 70
    11
 71
     3
 72
    53
 73
    49
 74
     0
 42
0.0000000001
 43
0.0000000001
 12
1.0
 22
0.0
 32
0.0
 13
1.0
 23
0.0
 33
0.0
 40
0.0
 40
0.0
 40
0.0
 40
0.0
 40
1.0
 40
1.0
 40
1.0
 40
2.0
 40
2.0
 40
2.0
 40
3.0
 40
3.0
 40
3.0
 40
4.0
 40
4.0
 40
4.0
 40
5.0
 40
5.0
 40
5.0
 40
6.0
 40
6.0
 40
6.0
 40
7.0
 40
7.0
 40
7.0
 40
8.0
 40
8.0
 40
8.0
 40
9.0
 40
9.0
 40
9.0
 40
10.0
 40
10.0
 40
10.0
 40
11.0
 40
11.0
 40
11.0
 40
12.0
 40
12.0
 40
12.0
 40
13.0
 40
13.0
 40
13.0
 40
14.0
 40
14.0
 40
14.0
 40
15.0
 40
15.0
 40
15.0
 40
16.0
 40
16.0
 40
16.0
 40
16.0
 10
100.855170330689
 20
-127.7203694342157
 30
0.0
 10
100.855170330689
 20
-127.8037407449588
 30
0.0
 10
100.8382893628113
 20
-127.9126057622927
 30
0.0
 10
100.7748996058827
 20
-128.0207817605295
 30
0.0
 10
100.6650010599032
 20
-128.2064724071845
 30
0.0
 10
100.5337429219152
 20
-128.2288655278386
 30
0.0
 10
100.4259114332269
 20
-128.2491915912016
 30
0.0
 10
100.4259114332269
 20
-128.2491915912016
 30
0.0
 10
100.4259114332269
 20
-128.0118245122679
 30
0.0
 10
100.4259114332269
 20
-128.0118245122679
 30
0.0
 10
100.6246934427258
 20
-127.9532578890186
 30
0.0
 10
100.6543212638989
 20
-127.8175211268998
 30
0.0
 10
100.6543212638989
 20
-127.7179578673761
 30
0.0
 10
100.6543212638989
 20
-127.5687852328648
 30
0.0
 10
100.5547580043752
 20
-127.406176725961
 30
0.0
 10
100.3222140591208
 20
-127.406176725961
 30
0.0
 10
100.0662434645668
 20
-127.406176725961
 30
0.0
 10
99.99630802621621
 20
-127.5980685444894
 30
0.0
 10
99.99630802621621
 20
-127.7269151156377
 30
0.0
 10
99.99630802621621
 20
-127.7610215609417
 30
0.0
 10
99.99630802621621
 20
-127.9126057622927
 30
0.0
 10
100.1254991069131
 20
-128.0073458881371
 30
0.0
 10
100.1254991069131
 20
-128.0073458881371
 30
0.0
 10
100.1065510817442
 20
-128.1951035920832
 30
0.0
 10
100.1065510817442
 20
-128.1951035920832
 30
0.0
 10
100.1065510817442
 20
-128.1951035920832
 30
0.0
 10
99.26009112101832
 20
-128.0662570209348
 30
0.0
 10
99.26009112101832
 20
-128.0662570209348
 30
0.0
 10
99.26009112101832
 20
-128.0662570209348
 30
0.0
 10
99.26009112101832
 20
-127.234266461247
 30
0.0
 10
99.26009112101832
 20
-127.234266461247
 30
0.0
 10
99.26009112101832
 20
-127.234266461247
 30
0.0
 10
99.45473901593493
 20
-127.234266461247
 30
0.0
 10
99.45473901593493
 20
-127.234266461247
 30
0.0
 10
99.45473901593493
 20
-127.234266461247
 30
0.0
 10
99.45473901593493
 20
-127.8919351893812
 30
0.0
 10
99.45473901593493
 20
-127.8919351893812
 30
0.0
 10
99.45473901593493
 20
-127.8919351893812
 30
0.0
 10
99.87779674152361
 20
-127.9622151372803
 30
0.0
 10
99.87779674152361
 20
-127.9622151372803
 30
0.0
 10
99.84403480576816
 20
-127.8967583230605
 30
0.0
 10
99.80372718859074
 20
-127.8085638786381
 30
0.0
 10
99.80372718859074
 20
-127.681784364781
 30
0.0
 10
99.80372718859074
 20
-127.4106553500918
 30
0.0
 10
99.99010685434276
 20
-127.1574408319259
 30
0.0
 10
100.303266033952
 20
-127.1574408319259
 30
0.0
 10
100.6205593281435
 20
-127.1574408319259
 30
0.0
 10
100.855170330689
 20
-127.3968749681508
 30
0.0
 10
100.855170330689
 20
-127.7203694342157
 30
0.0
  0
HATCH
  5
64
330
53
100
AcDbEntity
  8
_U+30EC_U+30A4_U+30E4_U+30FC 1
 62
   179
420
  2234388
100
AcDbHatch
 10
0.0
 20
0.0
 30
0.0
210
0.0
220
0.0
230
1.0
  2
SOLID
 70
     1
 71
     0
 91
        1
 92
        1
 93
        1
 72
     4
 94
        3
 73
     0
 74
     1
 95
       53
 96
       49
 40
0.0
 40
0.0
 40
0.0
 40
0.0
 40
1.0
 40
1.0
 40
1.0
 40
2.0
 40
2.0
 40
2.0
 40
3.0
 40
3.0
 40
3.0
 40
4.0
 40
4.0
 40
4.0
 40
5.0
 40
5.0
 40
5.0
 40
6.0
 40
6.0
 40
6.0
 40
7.0
 40
7.0
 40
7.0
 40
8.0
 40
8.0
 40
8.0
 40
9.0
 40
9.0
 40
9.0
 40
10.0
 40
10.0
 40
10.0
 40
11.0
 40
11.0
 40
11.0
 40
12.0
 40
12.0
 40
12.0
 40
13.0
 40
13.0
 40
13.0
 40
14.0
 40
14.0
 40
14.0
 40
15.0
 40
15.0
 40
15.0
 40
16.0
 40
16.0
 40
16.0
 40
16.0
 10
100.855170330689
 20
-127.7203694342157
 10
100.855170330689
 20
-127.8037407449588
 10
100.8382893628113
 20
-127.9126057622927
 10
100.7748996058827
 20
-128.0207817605295
 10
100.6650010599032
 20
-128.2064724071845
 10
100.5337429219152
 20
-128.2288655278386
 10
100.4259114332269
 20
-128.2491915912016
 10
100.4259114332269
 20
-128.2491915912016
 10
100.4259114332269
 20
-128.0118245122679
 10
100.4259114332269
 20
-128.0118245122679
 10
100.6246934427258
 20
-127.9532578890186
 10
100.6543212638989
 20
-127.8175211268998
 10
100.6543212638989
 20
-127.7179578673761
 10
100.6543212638989
 20
-127.5687852328648
 10
100.5547580043752
 20
-127.406176725961
 10
100.3222140591208
 20
-127.406176725961
 10
100.0662434645668
 20
-127.406176725961
 10
99.99630802621621
 20
-127.5980685444894
 10
99.99630802621621
 20
-127.7269151156377
 10
99.99630802621621
 20
-127.7610215609417
 10
99.99630802621621
 20
-127.9126057622927
 10
100.1254991069131
 20
-128.0073458881371
 10
100.1254991069131
 20
-128.0073458881371
 10
100.1065510817442
 20
-128.1951035920832
 10
100.1065510817442
 20
-128.1951035920832
 10
100.1065510817442
 20
-128.1951035920832
 10
99.26009112101832
 20
-128.0662570209348
 10
99.26009112101832
 20
-128.0662570209348
 10
99.26009112101832
 20
-128.0662570209348
 10
99.26009112101832
 20
-127.234266461247
 10
99.26009112101832
 20
-127.234266461247
 10
99.26009112101832
 20
-127.234266461247
 10
99.45473901593493
 20
-127.234266461247
 10
99.45473901593493
 20
-127.234266461247
 10
99.45473901593493
 20
-127.234266461247
 10
99.45473901593493
 20
-127.8919351893812
 10
99.45473901593493
 20
-127.8919351893812
 10
99.45473901593493
 20
-127.8919351893812
 10
99.87779674152361
 20
-127.9622151372803
 10
99.87779674152361
 20
-127.9622151372803
 10
99.84403480576816
 20
-127.8967583230605
 10
99.80372718859074
 20
-127.8085638786381
 10
99.80372718859074
 20
-127.681784364781
 10
99.80372718859074
 20
-127.4106553500918
 10
99.99010685434276
 20
-127.1574408319259
 10
100.303266033952
 20
-127.1574408319259
 10
100.6205593281435
 20
-127.1574408319259
 10
100.855170330689
 20
-127.3968749681508
 10
100.855170330689
 20
-127.7203694342157
 97
        0
 97
        0
 75
     2
 76
     1
 98
        0
  0
ENDBLK
  5
56
330
53
100
AcDbEntity
  8
0
100
AcDbBlockEnd
  0
BLOCK
  5
70
330
6E
100
AcDbEntity
  8
0
100
AcDbBlockBegin
  2
block 3
 70
     0
 10
0.0
 20
0.0
 30
0.0
  3
block 3
  1

  0
SPLINE
  5
72
330
6E
100
AcDbEntity
  8
_U+30EC_U+30A4_U+30E4_U+30FC 1
370
     0
100
AcDbSpline
210
0.0
220
0.0
230
1.0
 70
    11
 71
     3
 72
    26
 73
    22
 74
     0
 42
0.0000000001
 43
0.0000000001
 12
1.0
 22
0.0
 32
0.0
 13
1.0
 23
0.0
 33
0.0
 40
0.0
 40
0.0
 40
0.0
 40
0.0
 40
1.0
 40
1.0
 40
1.0
 40
2.0
 40
2.0
 40
2.0
 40
3.0
 40
3.0
 40
3.0
 40
4.0
 40
4.0
 40
4.0
 40
5.0
 40
5.0
 40
5.0
 40
6.0
 40
6.0
 40
6.0
 40
7.0
 40
7.0
 40
7.0
 40
7.0
 10
100.8045274270558
 20
-140.4551648954418
 30
0.0
 10
100.8045274270558
 20
-140.4551648954418
 30
0.0
 10
99.70037432403325
 20
-140.4551648954418
 30
0.0
 10
99.70037432403325
 20
-140.4551648954418
 30
0.0
 10
99.70037432403325
 20
-140.4551648954418
 30
0.0
 10
99.70037432403325
 20
-140.8075981635828
 30
0.0
 10
99.70037432403325
 20
-140.8075981635828
 30
0.0
 10
99.70037432403325
 20
-140.8075981635828
 30
0.0
 10
99.5522352181675
 20
-140.8075981635828
 30
0.0
 10
99.5522352181675
 20
-140.8075981635828
 30
0.0
 10
99.53742130758093
 20
-140.4527533286021
 30
0.0
 10
99.37446829112861
 20
-140.4031439536145
 30
0.0
 10
99.26009112101832
 20
-140.3714490751502
 30
0.0
 10
99.26009112101832
 20
-140.3714490751502
 30
0.0
 10
99.26009112101832
 20
-140.2153862496684
 30
0.0
 10
99.26009112101832
 20
-140.2153862496684
 30
0.0
 10
99.26009112101832
 20
-140.2153862496684
 30
0.0
 10
100.8045274270558
 20
-140.2153862496684
 30
0.0
 10
100.8045274270558
 20
-140.2153862496684
 30
0.0
 10
100.8045274270558
 20
-140.2153862496684
 30
0.0
 10
100.8045274270558
 20
-140.4551648954418
 30
0.0
 10
100.8045274270558
 20
-140.4551648954418
 30
0.0
  0
HATCH
  5
73
330
6E
100
AcDbEntity
  8
_U+30EC_U+30A4_U+30E4_U+30FC 1
 62
   179
420
  2234388
100
AcDbHatch
 10
0.0
 20
0.0
 30
0.0
210
0.0
220
0.0
230
1.0
  2
SOLID
 70
     1
 71
     0
 91
        1
 92
        1
 93
        1
 72
     4
 94
        3
 73
     0
 74
     1
 95
       26
 96
       22
 40
0.0
 40
0.0
 40
0.0
 40
0.0
 40
1.0
 40
1.0
 40
1.0
 40
2.0
 40
2.0
 40
2.0
 40
3.0
 40
3.0
 40
3.0
 40
4.0
 40
4.0
 40
4.0
 40
5.0
 40
5.0
 40
5.0
 40
6.0
 40
6.0
 40
6.0
 40
7.0
 40
7.0
 40
7.0
 40
7.0
 10
100.8045274270558
 20
-140.4551648954418
 10
100.8045274270558
 20
-140.4551648954418
 10
99.70037432403325
 20
-140.4551648954418
 10
99.70037432403325
 20
-140.4551648954418
 10
99.70037432403325
 20
-140.4551648954418
 10
99.70037432403325
 20
-140.8075981635828
 10
99.70037432403325
 20
-140.8075981635828
 10
99.70037432403325
 20
-140.8075981635828
 10
99.5522352181675
 20
-140.8075981635828
 10
99.5522352181675
 20
-140.8075981635828
 10
99.53742130758093
 20
-140.4527533286021
 10
99.37446829112861
 20
-140.4031439536145
 10
99.26009112101832
 20
-140.3714490751502
 10
99.26009112101832
 20
-140.3714490751502
 10
99.26009112101832
 20
-140.2153862496684
 10
99.26009112101832
 20
-140.2153862496684
 10
99.26009112101832
 20
-140.2153862496684
 10
100.8045274270558
 20
-140.2153862496684
 10
100.8045274270558
 20
-140.2153862496684
 10
100.8045274270558
 20
-140.2153862496684
 10
100.8045274270558
 20
-140.4551648954418
 10
100.8045274270558
 20
-140.4551648954418
 97
        0
 97
        0
 75
     2
 76
     1
 98
        0
  0
ENDBLK
  5
71
330
6E
100
AcDbEntity
  8
0
100
AcDbBlockEnd
  0
BLOCK
  5
78
330
76
100
AcDbEntity
  8
0
100
AcDbBlockBegin
  2
block 4
 70
     0
 10
0.0
 20
0.0
 30
0.0
  3
block 4
  1

  0
SPLINE
  5
7A
330
76
100
AcDbEntity
  8
_U+30EC_U+30A4_U+30E4_U+30FC 1
370
     0
100
AcDbSpline
210
0.0
220
0.0
230
1.0
 70
    11
 71
     3
 72
    26
 73
    22
 74
     0
 42
0.0000000001
 43
0.0000000001
 12
1.0
 22
0.0
 32
0.0
 13
1.0
 23
0.0
 33
0.0
 40
0.0
 40
0.0
 40
0.0
 40
0.0
 40
1.0
 40
1.0
 40
1.0
 40
2.0
 40
2.0
 40
2.0
 40
3.0
 40
3.0
 40
3.0
 40
4.0
 40
4.0
 40
4.0
 40
5.0
 40
5.0
 40
5.0
 40
6.0
 40
6.0
 40
6.0
 40
7.0
 40
7.0
 40
7.0
 40
7.0
 10
79.06097952667574
 20
-128.5411634335765
 30
0.0
 10
79.06097952667574
 20
-128.5411634335765
 30
0.0
 10
79.06097952667574
 20
-127.4368380757797
 30
0.0
 10
79.06097952667574
 20
-127.4368380757797
 30
0.0
 10
79.06097952667574
 20
-127.4368380757797
 30
0.0
 10
78.7309393791888
 20
-127.4368380757797
 30
0.0
 10
78.7309393791888
 20
-127.4368380757797
 30
0.0
 10
78.7309393791888
 20
-127.4368380757797
 30
0.0
 10
78.7309393791888
 20
-127.2886989699139
 30
0.0
 10
78.7309393791888
 20
-127.2886989699139
 30
0.0
 10
79.06304658396688
 20
-127.2740573141016
 30
0.0
 10
79.10955537301776
 20
-127.1111042976493
 30
0.0
 10
79.1391831941909
 20
-126.9968993823133
 30
0.0
 10
79.1391831941909
 20
-126.9968993823133
 30
0.0
 10
79.2852552427655
 20
-126.9968993823133
 30
0.0
 10
79.2852552427655
 20
-126.9968993823133
 30
0.0
 10
79.2852552427655
 20
-126.9968993823133
 30
0.0
 10
79.2852552427655
 20
-128.5411634335765
 30
0.0
 10
79.2852552427655
 20
-128.5411634335765
 30
0.0
 10
79.2852552427655
 20
-128.5411634335765
 30
0.0
 10
79.06097952667574
 20
-128.5411634335765
 30
0.0
 10
79.06097952667574
 20
-128.5411634335765
 30
0.0
  0
HATCH
  5
7B
330
76
100
AcDbEntity
  8
_U+30EC_U+30A4_U+30E4_U+30FC 1
 62
   179
420
  2234388
100
AcDbHatch
 10
0.0
 20
0.0
 30
0.0
210
0.0
220
0.0
230
1.0
  2
SOLID
 70
     1
 71
     0
 91
        1
 92
        1
 93
        1
 72
     4
 94
        3
 73
     0
 74
     1
 95
       26
 96
       22
 40
0.0
 40
0.0
 40
0.0
 40
0.0
 40
1.0
 40
1.0
 40
1.0
 40
2.0
 40
2.0
 40
2.0
 40
3.0
 40
3.0
 40
3.0
 40
4.0
 40
4.0
 40
4.0
 40
5.0
 40
5.0
 40
5.0
 40
6.0
 40
6.0
 40
6.0
 40
7.0
 40
7.0
 40
7.0
 40
7.0
 10
79.06097952667574
 20
-128.5411634335765
 10
79.06097952667574
 20
-128.5411634335765
 10
79.06097952667574
 20
-127.4368380757797
 10
79.06097952667574
 20
-127.4368380757797
 10
79.06097952667574
 20
-127.4368380757797
 10
78.7309393791888
 20
-127.4368380757797
 10
78.7309393791888
 20
-127.4368380757797
 10
78.7309393791888
 20
-127.4368380757797
 10
78.7309393791888
 20
-127.2886989699139
 10
78.7309393791888
 20
-127.2886989699139
 10
79.06304658396688
 20
-127.2740573141016
 10
79.10955537301776
 20
-127.1111042976493
 10
79.1391831941909
 20
-126.9968993823133
 10
79.1391831941909
 20
-126.9968993823133
 10
79.2852552427655
 20
-126.9968993823133
 10
79.2852552427655
 20
-126.9968993823133
 10
79.2852552427655
 20
-126.9968993823133
 10
79.2852552427655
 20
-128.5411634335765
 10
79.2852552427655
 20
-128.5411634335765
 10
79.2852552427655
 20
-128.5411634335765
 10
79.06097952667574
 20
-128.5411634335765
 10
79.06097952667574
 20
-128.5411634335765
 97
        0
 97
        0
 75
     2
 76
     1
 98
        0
  0
ENDBLK
  5
79
330
76
100
AcDbEntity
  8
0
100
AcDbBlockEnd
  0
BLOCK
  5
BC
330
BA
100
AcDbEntity
  8
0
100
AcDbBlockBegin
  2
block 5
 70
     0
 10
0.0
 20
0.0
 30
0.0
  3
block 5
  1

  0
SPLINE
  5
BE
330
BA
100
AcDbEntity
  8
_U+30EC_U+30A4_U+30E4_U+30FC 1
370
     0
100
AcDbSpline
210
0.0
220
0.0
230
1.0
 70
    11
 71
     3
 72
    29
 73
    25
 74
     0
 42
0.0000000001
 43
0.0000000001
 12
1.0
 22
0.0
 32
0.0
 13
1.0
 23
0.0
 33
0.0
 40
0.0
 40
0.0
 40
0.0
 40
0.0
 40
1.0
 40
1.0
 40
1.0
 40
2.0
 40
2.0
 40
2.0
 40
3.0
 40
3.0
 40
3.0
 40
4.0
 40
4.0
 40
4.0
 40
5.0
 40
5.0
 40
5.0
 40
6.0
 40
6.0
 40
6.0
 40
7.0
 40
7.0
 40
7.0
 40
8.0
 40
8.0
 40
8.0
 40
8.0
 10
84.27754311044103
 20
-112.849098007812
 30
0.0
 10
83.99263371381087
 20
-112.849098007812
 30
0.0
 10
83.72133244434745
 20
-112.7114664431763
 30
0.0
 10
83.72133244434745
 20
-112.3624782705205
 30
0.0
 10
83.72133244434745
 20
-112.1065076759664
 30
0.0
 10
83.87274439092418
 20
-112.0112507857993
 30
0.0
 10
83.98591577761464
 20
-111.9499280861618
 30
0.0
 10
83.85241832756121
 20
-111.8906724438155
 30
0.0
 10
83.7711140741093
 20
-111.7764675284795
 30
0.0
 10
83.7711140741093
 20
-111.6157538240926
 30
0.0
 10
83.7711140741093
 20
-111.3406629495954
 30
0.0
 10
83.98350421077497
 20
-111.2052706970251
 30
0.0
 10
84.27754311044103
 20
-111.2052706970251
 30
0.0
 10
84.58053925836876
 20
-111.2052706970251
 30
0.0
 10
84.78397214677275
 20
-111.3491034335343
 30
0.0
 10
84.78397214677275
 20
-111.6157538240926
 30
0.0
 10
84.78397214677275
 20
-111.7764675284795
 30
0.0
 10
84.7002563264812
 20
-111.8906724438155
 30
0.0
 10
84.56693113120203
 20
-111.9499280861618
 30
0.0
 10
84.66184351182065
 20
-112.0007432445693
 30
0.0
 10
84.83134220969495
 20
-112.0960001347364
 30
0.0
 10
84.83134220969495
 20
-112.3583441559382
 30
0.0
 10
84.83134220969495
 20
-112.7326537804106
 30
0.0
 10
84.5329969406723
 20
-112.849098007812
 30
0.0
 10
84.27754311044103
 20
-112.849098007812
 30
0.0
  0
SPLINE
  5
BF
330
BA
100
AcDbEntity
  8
_U+30EC_U+30A4_U+30E4_U+30FC 1
370
     0
100
AcDbSpline
210
0.0
220
0.0
230
1.0
 70
    11
 71
     3
 72
    17
 73
    13
 74
     0
 42
0.0000000001
 43
0.0000000001
 12
1.0
 22
0.0
 32
0.0
 13
1.0
 23
0.0
 33
0.0
 40
0.0
 40
0.0
 40
0.0
 40
0.0
 40
1.0
 40
1.0
 40
1.0
 40
2.0
 40
2.0
 40
2.0
 40
3.0
 40
3.0
 40
3.0
 40
4.0
 40
4.0
 40
4.0
 40
4.0
 10
84.27754311044103
 20
-112.0579318296244
 30
0.0
 10
84.12371959702463
 20
-112.0579318296244
 30
0.0
 10
83.96093883534658
 20
-112.1445759810784
 30
0.0
 10
83.96093883534658
 20
-112.3476643599339
 30
0.0
 10
83.96093883534658
 20
-112.5528197960806
 30
0.0
 10
84.09667559746542
 20
-112.6544501128954
 30
0.0
 10
84.27754311044103
 20
-112.6544501128954
 30
0.0
 10
84.47649737471421
 20
-112.6544501128954
 30
0.0
 10
84.59397513076124
 20
-112.5318047136205
 30
0.0
 10
84.59397513076124
 20
-112.3540377865816
 30
0.0
 10
84.59397513076124
 20
-112.131829127783
 30
0.0
 10
84.41999780875612
 20
-112.0579318296244
 30
0.0
 10
84.27754311044103
 20
-112.0579318296244
 30
0.0
  0
SPLINE
  5
C0
330
BA
100
AcDbEntity
  8
_U+30EC_U+30A4_U+30E4_U+30FC 1
370
     0
100
AcDbSpline
210
0.0
220
0.0
230
1.0
 70
    11
 71
     3
 72
    17
 73
    13
 74
     0
 42
0.0000000001
 43
0.0000000001
 12
1.0
 22
0.0
 32
0.0
 13
1.0
 23
0.0
 33
0.0
 40
0.0
 40
0.0
 40
0.0
 40
0.0
 40
1.0
 40
1.0
 40
1.0
 40
2.0
 40
2.0
 40
2.0
 40
3.0
 40
3.0
 40
3.0
 40
4.0
 40
4.0
 40
4.0
 40
4.0
 10
84.27754311044103
 20
-111.3978515346505
 30
0.0
 10
84.10115422159625
 20
-111.3978515346505
 30
0.0
 10
84.01072046510843
 20
-111.4929361700434
 30
0.0
 10
84.01072046510843
 20
-111.6283284226138
 30
0.0
 10
84.01072046510843
 20
-111.7511460766629
 30
0.0
 10
84.08754609442951
 20
-111.8696573613555
 30
0.0
 10
84.27754311044103
 20
-111.8696573613555
 30
0.0
 10
84.4673678716783
 20
-111.8696573613555
 30
0.0
 10
84.54436575577364
 20
-111.7511460766629
 30
0.0
 10
84.54436575577364
 20
-111.6283284226138
 30
0.0
 10
84.54436575577364
 20
-111.4929361700434
 30
0.0
 10
84.45152043244615
 20
-111.3978515346505
 30
0.0
 10
84.27754311044103
 20
-111.3978515346505
 30
0.0
  0
HATCH
  5
C1
330
BA
100
AcDbEntity
  8
_U+30EC_U+30A4_U+30E4_U+30FC 1
 62
   179
420
  2234388
100
AcDbHatch
 10
0.0
 20
0.0
 30
0.0
210
0.0
220
0.0
230
1.0
  2
SOLID
 70
     1
 71
     0
 91
        3
 92
        1
 93
        1
 72
     4
 94
        3
 73
     0
 74
     1
 95
       29
 96
       25
 40
0.0
 40
0.0
 40
0.0
 40
0.0
 40
1.0
 40
1.0
 40
1.0
 40
2.0
 40
2.0
 40
2.0
 40
3.0
 40
3.0
 40
3.0
 40
4.0
 40
4.0
 40
4.0
 40
5.0
 40
5.0
 40
5.0
 40
6.0
 40
6.0
 40
6.0
 40
7.0
 40
7.0
 40
7.0
 40
8.0
 40
8.0
 40
8.0
 40
8.0
 10
84.27754311044103
 20
-112.849098007812
 10
83.99263371381087
 20
-112.849098007812
 10
83.72133244434745
 20
-112.7114664431763
 10
83.72133244434745
 20
-112.3624782705205
 10
83.72133244434745
 20
-112.1065076759664
 10
83.87274439092418
 20
-112.0112507857993
 10
83.98591577761464
 20
-111.9499280861618
 10
83.85241832756121
 20
-111.8906724438155
 10
83.7711140741093
 20
-111.7764675284795
 10
83.7711140741093
 20
-111.6157538240926
 10
83.7711140741093
 20
-111.3406629495954
 10
83.98350421077497
 20
-111.2052706970251
 10
84.27754311044103
 20
-111.2052706970251
 10
84.58053925836876
 20
-111.2052706970251
 10
84.78397214677275
 20
-111.3491034335343
 10
84.78397214677275
 20
-111.6157538240926
 10
84.78397214677275
 20
-111.7764675284795
 10
84.7002563264812
 20
-111.8906724438155
 10
84.56693113120203
 20
-111.9499280861618
 10
84.66184351182065
 20
-112.0007432445693
 10
84.83134220969495
 20
-112.0960001347364
 10
84.83134220969495
 20
-112.3583441559382
 10
84.83134220969495
 20
-112.7326537804106
 10
84.5329969406723
 20
-112.849098007812
 10
84.27754311044103
 20
-112.849098007812
 97
        0
 97
        0
 92
        1
 93
        1
 72
     4
 94
        3
 73
     0
 74
     1
 95
       17
 96
       13
 40
0.0
 40
0.0
 40
0.0
 40
0.0
 40
1.0
 40
1.0
 40
1.0
 40
2.0
 40
2.0
 40
2.0
 40
3.0
 40
3.0
 40
3.0
 40
4.0
 40
4.0
 40
4.0
 40
4.0
 10
84.27754311044103
 20
-112.0579318296244
 10
84.12371959702463
 20
-112.0579318296244
 10
83.96093883534658
 20
-112.1445759810784
 10
83.96093883534658
 20
-112.3476643599339
 10
83.96093883534658
 20
-112.5528197960806
 10
84.09667559746542
 20
-112.6544501128954
 10
84.27754311044103
 20
-112.6544501128954
 10
84.47649737471421
 20
-112.6544501128954
 10
84.59397513076124
 20
-112.5318047136205
 10
84.59397513076124
 20
-112.3540377865816
 10
84.59397513076124
 20
-112.131829127783
 10
84.41999780875612
 20
-112.0579318296244
 10
84.27754311044103
 20
-112.0579318296244
 97
        0
 97
        0
 92
        1
 93
        1
 72
     4
 94
        3
 73
     0
 74
     1
 95
       17
 96
       13
 40
0.0
 40
0.0
 40
0.0
 40
0.0
 40
1.0
 40
1.0
 40
1.0
 40
2.0
 40
2.0
 40
2.0
 40
3.0
 40
3.0
 40
3.0
 40
4.0
 40
4.0
 40
4.0
 40
4.0
 10
84.27754311044103
 20
-111.3978515346505
 10
84.10115422159625
 20
-111.3978515346505
 10
84.01072046510843
 20
-111.4929361700434
 10
84.01072046510843
 20
-111.6283284226138
 10
84.01072046510843
 20
-111.7511460766629
 10
84.08754609442951
 20
-111.8696573613555
 10
84.27754311044103
 20
-111.8696573613555
 10
84.4673678716783
 20
-111.8696573613555
 10
84.54436575577364
 20
-111.7511460766629
 10
84.54436575577364
 20
-111.6283284226138
 10
84.54436575577364
 20
-111.4929361700434
 10
84.45152043244615
 20
-111.3978515346505
 10
84.27754311044103
 20
-111.3978515346505
 97
        0
 97
        0
 75
     2
 76
     1
 98
        0
  0
ENDBLK
  5
BD
330
BA
100
AcDbEntity
  8
0
100
AcDbBlockEnd
  0
BLOCK
  5
CC
330
CA
100
AcDbEntity
  8
0
100
AcDbBlockBegin
  2
block 6
 70
     0
 10
0.0
 20
0.0
 30
0.0
  3
block 6
  1

  0
SPLINE
  5
CE
330
CA
100
AcDbEntity
  8
_U+30EC_U+30A4_U+30E4_U+30FC 1
370
     0
100
AcDbSpline
210
0.0
220
0.0
230
1.0
 70
    11
 71
     3
 72
    26
 73
    22
 74
     0
 42
0.0000000001
 43
0.0000000001
 12
1.0
 22
0.0
 32
0.0
 13
1.0
 23
0.0
 33
0.0
 40
0.0
 40
0.0
 40
0.0
 40
0.0
 40
1.0
 40
1.0
 40
1.0
 40
2.0
 40
2.0
 40
2.0
 40
3.0
 40
3.0
 40
3.0
 40
4.0
 40
4.0
 40
4.0
 40
5.0
 40
5.0
 40
5.0
 40
6.0
 40
6.0
 40
6.0
 40
7.0
 40
7.0
 40
7.0
 40
7.0
 10
88.55859101518675
 20
-144.3398545646095
 30
0.0
 10
88.55859101518675
 20
-144.3398545646095
 30
0.0
 10
88.55859101518675
 20
-143.2357014615869
 30
0.0
 10
88.55859101518675
 20
-143.2357014615869
 30
0.0
 10
88.55859101518675
 20
-143.2357014615869
 30
0.0
 10
88.2061577470457
 20
-143.2357014615869
 30
0.0
 10
88.2061577470457
 20
-143.2357014615869
 30
0.0
 10
88.2061577470457
 20
-143.2357014615869
 30
0.0
 10
88.2061577470457
 20
-143.0875623557212
 30
0.0
 10
88.2061577470457
 20
-143.0875623557212
 30
0.0
 10
88.56100258202642
 20
-143.0727484451346
 30
0.0
 10
88.61061195701402
 20
-142.9097954286823
 30
0.0
 10
88.64230683547832
 20
-142.795418258572
 30
0.0
 10
88.64230683547832
 20
-142.795418258572
 30
0.0
 10
88.79836966096013
 20
-142.795418258572
 30
0.0
 10
88.79836966096013
 20
-142.795418258572
 30
0.0
 10
88.79836966096013
 20
-142.795418258572
 30
0.0
 10
88.79836966096013
 20
-144.3398545646095
 30
0.0
 10
88.79836966096013
 20
-144.3398545646095
 30
0.0
 10
88.79836966096013
 20
-144.3398545646095
 30
0.0
 10
88.55859101518675
 20
-144.3398545646095
 30
0.0
 10
88.55859101518675
 20
-144.3398545646095
 30
0.0
  0
HATCH
  5
CF
330
CA
100
AcDbEntity
  8
_U+30EC_U+30A4_U+30E4_U+30FC 1
 62
   179
420
  2234388
100
AcDbHatch
 10
0.0
 20
0.0
 30
0.0
210
0.0
220
0.0
230
1.0
  2
SOLID
 70
     1
 71
     0
 91
        1
 92
        1
 93
        1
 72
     4
 94
        3
 73
     0
 74
     1
 95
       26
 96
       22
 40
0.0
 40
0.0
 40
0.0
 40
0.0
 40
1.0
 40
1.0
 40
1.0
 40
2.0
 40
2.0
 40
2.0
 40
3.0
 40
3.0
 40
3.0
 40
4.0
 40
4.0
 40
4.0
 40
5.0
 40
5.0
 40
5.0
 40
6.0
 40
6.0
 40
6.0
 40
7.0
 40
7.0
 40
7.0
 40
7.0
 10
88.55859101518675
 20
-144.3398545646095
 10
88.55859101518675
 20
-144.3398545646095
 10
88.55859101518675
 20
-143.2357014615869
 10
88.55859101518675
 20
-143.2357014615869
 10
88.55859101518675
 20
-143.2357014615869
 10
88.2061577470457
 20
-143.2357014615869
 10
88.2061577470457
 20
-143.2357014615869
 10
88.2061577470457
 20
-143.2357014615869
 10
88.2061577470457
 20
-143.0875623557212
 10
88.2061577470457
 20
-143.0875623557212
 10
88.56100258202642
 20
-143.0727484451346
 10
88.61061195701402
 20
-142.9097954286823
 10
88.64230683547832
 20
-142.795418258572
 10
88.64230683547832
 20
-142.795418258572
 10
88.79836966096013
 20
-142.795418258572
 10
88.79836966096013
 20
-142.795418258572
 10
88.79836966096013
 20
-142.795418258572
 10
88.79836966096013
 20
-144.3398545646095
 10
88.79836966096013
 20
-144.3398545646095
 10
88.79836966096013
 20
-144.3398545646095
 10
88.55859101518675
 20
-144.3398545646095
 10
88.55859101518675
 20
-144.3398545646095
 97
        0
 97
        0
 75
     2
 76
     1
 98
        0
  0
SPLINE
  5
D0
330
CA
100
AcDbEntity
  8
_U+30EC_U+30A4_U+30E4_U+30FC 1
370
     0
100
AcDbSpline
210
0.0
220
0.0
230
1.0
 70
    11
 71
     3
 72
    29
 73
    25
 74
     0
 42
0.0000000001
 43
0.0000000001
 12
1.0
 22
0.0
 32
0.0
 13
1.0
 23
0.0
 33
0.0
 40
0.0
 40
0.0
 40
0.0
 40
0.0
 40
1.0
 40
1.0
 40
1.0
 40
2.0
 40
2.0
 40
2.0
 40
3.0
 40
3.0
 40
3.0
 40
4.0
 40
4.0
 40
4.0
 40
5.0
 40
5.0
 40
5.0
 40
6.0
 40
6.0
 40
6.0
 40
7.0
 40
7.0
 40
7.0
 40
8.0
 40
8.0
 40
8.0
 40
8.0
 10
89.86841631867874
 20
-144.3904974682427
 30
0.0
 10
89.58350692204857
 20
-144.3904974682427
 30
0.0
 10
89.3123779073594
 20
-144.2530381583812
 30
0.0
 10
89.3123779073594
 20
-143.9040499857254
 30
0.0
 10
89.3123779073594
 20
-143.6480793911713
 30
0.0
 10
89.4639621087104
 20
-143.5529947557784
 30
0.0
 10
89.5769612406266
 20
-143.491672056141
 30
0.0
 10
89.44363604534743
 20
-143.4324164137947
 30
0.0
 10
89.361987282347
 20
-143.3180392436844
 30
0.0
 10
89.361987282347
 20
-143.1571532845232
 30
0.0
 10
89.361987282347
 20
-142.8822346648003
 30
0.0
 10
89.57454967378692
 20
-142.74684241223
 30
0.0
 10
89.86841631867874
 20
-142.74684241223
 30
0.0
 10
90.17158472138073
 20
-142.74684241223
 30
0.0
 10
90.37484535501046
 20
-142.8908474035134
 30
0.0
 10
90.37484535501046
 20
-143.1571532845232
 30
0.0
 10
90.37484535501046
 20
-143.3180392436844
 30
0.0
 10
90.29147404426742
 20
-143.4324164137947
 30
0.0
 10
90.15780433943972
 20
-143.491672056141
 30
0.0
 10
90.25288897483262
 20
-143.5423149597742
 30
0.0
 10
90.4223876727069
 20
-143.637399595167
 30
0.0
 10
90.4223876727069
 20
-143.8999158711431
 30
0.0
 10
90.4223876727069
 20
-144.2743977503897
 30
0.0
 10
90.12404240368427
 20
-144.3904974682427
 30
0.0
 10
89.86841631867874
 20
-144.3904974682427
 30
0.0
  0
SPLINE
  5
D1
330
CA
100
AcDbEntity
  8
_U+30EC_U+30A4_U+30E4_U+30FC 1
370
     0
100
AcDbSpline
210
0.0
220
0.0
230
1.0
 70
    11
 71
     3
 72
    17
 73
    13
 74
     0
 42
0.0000000001
 43
0.0000000001
 12
1.0
 22
0.0
 32
0.0
 13
1.0
 23
0.0
 33
0.0
 40
0.0
 40
0.0
 40
0.0
 40
0.0
 40
1.0
 40
1.0
 40
1.0
 40
2.0
 40
2.0
 40
2.0
 40
3.0
 40
3.0
 40
3.0
 40
4.0
 40
4.0
 40
4.0
 40
4.0
 10
89.86841631867874
 20
-143.5995035448293
 30
0.0
 10
89.71476506003658
 20
-143.5995035448293
 30
0.0
 10
89.5521565531328
 20
-143.6863199510576
 30
0.0
 10
89.5521565531328
 20
-143.8892360751388
 30
0.0
 10
89.5521565531328
 20
-144.0945637660597
 30
0.0
 10
89.68754880570312
 20
-144.1958495733261
 30
0.0
 10
89.86841631867874
 20
-144.1958495733261
 30
0.0
 10
90.06754283772618
 20
-144.1958495733261
 30
0.0
 10
90.18502059377319
 20
-144.0732041740511
 30
0.0
 10
90.18502059377319
 20
-143.8954372470123
 30
0.0
 10
90.18502059377319
 20
-143.6735730977622
 30
0.0
 10
90.01104327176807
 20
-143.5995035448293
 30
0.0
 10
89.86841631867874
 20
-143.5995035448293
 30
0.0
  0
SPLINE
  5
D2
330
CA
100
AcDbEntity
  8
_U+30EC_U+30A4_U+30E4_U+30FC 1
370
     0
100
AcDbSpline
210
0.0
220
0.0
230
1.0
 70
    11
 71
     3
 72
    17
 73
    13
 74
     0
 42
0.0000000001
 43
0.0000000001
 12
1.0
 22
0.0
 32
0.0
 13
1.0
 23
0.0
 33
0.0
 40
0.0
 40
0.0
 40
0.0
 40
0.0
 40
1.0
 40
1.0
 40
1.0
 40
2.0
 40
2.0
 40
2.0
 40
3.0
 40
3.0
 40
3.0
 40
4.0
 40
4.0
 40
4.0
 40
4.0
 10
89.86841631867874
 20
-142.9394232498554
 30
0.0
 10
89.69237193938247
 20
-142.9394232498554
 30
0.0
 10
89.6017659281204
 20
-143.0345078852483
 30
0.0
 10
89.6017659281204
 20
-143.1699001378186
 30
0.0
 10
89.6017659281204
 20
-143.2925455370935
 30
0.0
 10
89.67859155744146
 20
-143.4110568217861
 30
0.0
 10
89.86841631867874
 20
-143.4110568217861
 30
0.0
 10
90.05858558946453
 20
-143.4110568217861
 30
0.0
 10
90.13541121878559
 20
-143.2925455370935
 30
0.0
 10
90.13541121878559
 20
-143.1699001378186
 30
0.0
 10
90.13541121878559
 20
-143.0345078852483
 30
0.0
 10
90.04273815023238
 20
-142.9394232498554
 30
0.0
 10
89.86841631867874
 20
-142.9394232498554
 30
0.0
  0
HATCH
  5
D3
330
CA
100
AcDbEntity
  8
_U+30EC_U+30A4_U+30E4_U+30FC 1
 62
   179
420
  2234388
100
AcDbHatch
 10
0.0
 20
0.0
 30
0.0
210
0.0
220
0.0
230
1.0
  2
SOLID
 70
     1
 71
     0
 91
        3
 92
        1
 93
        1
 72
     4
 94
        3
 73
     0
 74
     1
 95
       29
 96
       25
 40
0.0
 40
0.0
 40
0.0
 40
0.0
 40
1.0
 40
1.0
 40
1.0
 40
2.0
 40
2.0
 40
2.0
 40
3.0
 40
3.0
 40
3.0
 40
4.0
 40
4.0
 40
4.0
 40
5.0
 40
5.0
 40
5.0
 40
6.0
 40
6.0
 40
6.0
 40
7.0
 40
7.0
 40
7.0
 40
8.0
 40
8.0
 40
8.0
 40
8.0
 10
89.86841631867874
 20
-144.3904974682427
 10
89.58350692204857
 20
-144.3904974682427
 10
89.3123779073594
 20
-144.2530381583812
 10
89.3123779073594
 20
-143.9040499857254
 10
89.3123779073594
 20
-143.6480793911713
 10
89.4639621087104
 20
-143.5529947557784
 10
89.5769612406266
 20
-143.491672056141
 10
89.44363604534743
 20
-143.4324164137947
 10
89.361987282347
 20
-143.3180392436844
 10
89.361987282347
 20
-143.1571532845232
 10
89.361987282347
 20
-142.8822346648003
 10
89.57454967378692
 20
-142.74684241223
 10
89.86841631867874
 20
-142.74684241223
 10
90.17158472138073
 20
-142.74684241223
 10
90.37484535501046
 20
-142.8908474035134
 10
90.37484535501046
 20
-143.1571532845232
 10
90.37484535501046
 20
-143.3180392436844
 10
90.29147404426742
 20
-143.4324164137947
 10
90.15780433943972
 20
-143.491672056141
 10
90.25288897483262
 20
-143.5423149597742
 10
90.4223876727069
 20
-143.637399595167
 10
90.4223876727069
 20
-143.8999158711431
 10
90.4223876727069
 20
-144.2743977503897
 10
90.12404240368427
 20
-144.3904974682427
 10
89.86841631867874
 20
-144.3904974682427
 97
        0
 97
        0
 92
        1
 93
        1
 72
     4
 94
        3
 73
     0
 74
     1
 95
       17
 96
       13
 40
0.0
 40
0.0
 40
0.0
 40
0.0
 40
1.0
 40
1.0
 40
1.0
 40
2.0
 40
2.0
 40
2.0
 40
3.0
 40
3.0
 40
3.0
 40
4.0
 40
4.0
 40
4.0
 40
4.0
 10
89.86841631867874
 20
-143.5995035448293
 10
89.71476506003658
 20
-143.5995035448293
 10
89.5521565531328
 20
-143.6863199510576
 10
89.5521565531328
 20
-143.8892360751388
 10
89.5521565531328
 20
-144.0945637660597
 10
89.68754880570312
 20
-144.1958495733261
 10
89.86841631867874
 20
-144.1958495733261
 10
90.06754283772618
 20
-144.1958495733261
 10
90.18502059377319
 20
-144.0732041740511
 10
90.18502059377319
 20
-143.8954372470123
 10
90.18502059377319
 20
-143.6735730977622
 10
90.01104327176807
 20
-143.5995035448293
 10
89.86841631867874
 20
-143.5995035448293
 97
        0
 97
        0
 92
        1
 93
        1
 72
     4
 94
        3
 73
     0
 74
     1
 95
       17
 96
       13
 40
0.0
 40
0.0
 40
0.0
 40
0.0
 40
1.0
 40
1.0
 40
1.0
 40
2.0
 40
2.0
 40
2.0
 40
3.0
 40
3.0
 40
3.0
 40
4.0
 40
4.0
 40
4.0
 40
4.0
 10
89.86841631867874
 20
-142.9394232498554
 10
89.69237193938247
 20
-142.9394232498554
 10
89.6017659281204
 20
-143.0345078852483
 10
89.6017659281204
 20
-143.1699001378186
 10
89.6017659281204
 20
-143.2925455370935
 10
89.67859155744146
 20
-143.4110568217861
 10
89.86841631867874
 20
-143.4110568217861
 10
90.05858558946453
 20
-143.4110568217861
 10
90.13541121878559
 20
-143.2925455370935
 10
90.13541121878559
 20
-143.1699001378186
 10
90.13541121878559
 20
-143.0345078852483
 10
90.04273815023238
 20
-142.9394232498554
 10
89.86841631867874
 20
-142.9394232498554
 97
        0
 97
        0
 75
     2
 76
     1
 98
        0
  0
ENDBLK
  5
CD
330
CA
100
AcDbEntity
  8
0
100
AcDbBlockEnd
  0
ENDSEC
  0
SECTION
  2
ENTITIES
  0
SPLINE
  5
41
330
1F
100
AcDbEntity
  8
_U+30EC_U+30A4_U+30E4_U+30FC 1
 62
   179
420
  2234388
370
     9
100
AcDbSpline
210
0.0
220
0.0
230
1.0
 70
    11
 71
     3
 72
    17
 73
    13
 74
     0
 42
0.0000000001
 43
0.0000000001
 12
1.0
 22
0.0
 32
0.0
 13
1.0
 23
0.0
 33
0.0
 40
0.0
 40
0.0
 40
0.0
 40
0.0
 40
1.0
 40
1.0
 40
1.0
 40
2.0
 40
2.0
 40
2.0
 40
3.0
 40
3.0
 40
3.0
 40
4.0
 40
4.0
 40
4.0
 40
4.0
 10
102.2059990591744
 20
-118.4254891370603
 30
0.0
 10
102.2059990591744
 20
-118.3703852481851
 30
0.0
 10
102.1611962825396
 20
-118.3255824704187
 30
0.0
 10
102.1060923950566
 20
-118.3255824704187
 30
0.0
 10
102.0509532297966
 20
-118.3255824704187
 30
0.0
 10
102.0061857309387
 20
-118.3703852481851
 30
0.0
 10
102.0061857309387
 20
-118.4254891370603
 30
0.0
 10
102.0061857309387
 20
-118.4806283037131
 30
0.0
 10
102.0509532297966
 20
-118.525395803702
 30
0.0
 10
102.1060923950566
 20
-118.525395803702
 30
0.0
 10
102.1611962825396
 20
-118.525395803702
 30
0.0
 10
102.2059990591744
 20
-118.4806283037131
 30
0.0
 10
102.2059990591744
 20
-118.4254891370603
 30
0.0
  0
SPLINE
  5
42
330
1F
100
AcDbEntity
  8
_U+30EC_U+30A4_U+30E4_U+30FC 1
 62
   179
420
  2234388
370
     9
100
AcDbSpline
210
0.0
220
0.0
230
1.0
 70
    11
 71
     3
 72
    17
 73
    13
 74
     0
 42
0.0000000001
 43
0.0000000001
 12
1.0
 22
0.0
 32
0.0
 13
1.0
 23
0.0
 33
0.0
 40
0.0
 40
0.0
 40
0.0
 40
0.0
 40
1.0
 40
1.0
 40
1.0
 40
2.0
 40
2.0
 40
2.0
 40
3.0
 40
3.0
 40
3.0
 40
4.0
 40
4.0
 40
4.0
 40
4.0
 10
102.2059990591744
 20
-139.9359730205718
 30
0.0
 10
102.2059990591744
 20
-139.8801635761413
 30
0.0
 10
102.1611962825396
 20
-139.8353960761521
 30
0.0
 10
102.1060923950566
 20
-139.8353960761521
 30
0.0
 10
102.0509532297966
 20
-139.8353960761521
 30
0.0
 10
102.0061857309387
 20
-139.8801635761413
 30
0.0
 10
102.0061857309387
 20
-139.9359730205718
 30
0.0
 10
102.0061857309387
 20
-139.9911121872242
 30
0.0
 10
102.0509532297966
 20
-140.0358796872134
 30
0.0
 10
102.1060923950566
 20
-140.0358796872134
 30
0.0
 10
102.1611962825396
 20
-140.0358796872134
 30
0.0
 10
102.2059990591744
 20
-139.9911121872242
 30
0.0
 10
102.2059990591744
 20
-139.9359730205718
 30
0.0
  0
POLYLINE
  5
43
330
1F
100
AcDbEntity
  8
_U+30EC_U+30A4_U+30E4_U+30FC 1
 62
   179
420
  2234388
370
     9
100
AcDb2dPolyline
 66
     1
 10
0.0
 20
0.0
 30
0.0
  0
VERTEX
  5
44
330
43
100
AcDbEntity
  8
_U+30EC_U+30A4_U+30E4_U+30FC 1
 62
   179
420
  2234388
370
     9
100
AcDbVertex
100
AcDb2dVertex
 10
98.2282886050987
 20
-143.4754630196869
 30
0.0
  0
VERTEX
  5
45
330
43
100
AcDbEntity
  8
_U+30EC_U+30A4_U+30E4_U+30FC 1
 62
   179
420
  2234388
370
     9
100
AcDbVertex
100
AcDb2dVertex
 10
98.2282886050987
 20
-145.9352766301831
 30
0.0
  0
SEQEND
  5
46
330
43
100
AcDbEntity
  8
_U+30EC_U+30A4_U+30E4_U+30FC 1
 62
   179
420
  2234388
370
     9
  0
POLYLINE
  5
47
330
1F
100
AcDbEntity
  8
_U+30EC_U+30A4_U+30E4_U+30FC 1
 62
   179
420
  2234388
370
     9
100
AcDb2dPolyline
 66
     1
 10
0.0
 20
0.0
 30
0.0
  0
VERTEX
  5
48
330
47
100
AcDbEntity
  8
_U+30EC_U+30A4_U+30E4_U+30FC 1
 62
   179
420
  2234388
370
     9
100
AcDbVertex
100
AcDb2dVertex
 10
102.1060923950566
 20
-139.9359730205718
 30
0.0
  0
VERTEX
  5
49
330
47
100
AcDbEntity
  8
_U+30EC_U+30A4_U+30E4_U+30FC 1
 62
   179
420
  2234388
370
     9
100
AcDbVertex
100
AcDb2dVertex
 10
102.1060923950566
 20
-118.4254891370603
 30
0.0
  0
SEQEND
  5
4A
330
47
100
AcDbEntity
  8
_U+30EC_U+30A4_U+30E4_U+30FC 1
 62
   179
420
  2234388
370
     9
  0
POLYLINE
  5
4B
330
1F
100
AcDbEntity
  8
_U+30EC_U+30A4_U+30E4_U+30FC 1
 62
   179
420
  2234388
370
     9
100
AcDb2dPolyline
 66
     1
 10
0.0
 20
0.0
 30
0.0
  0
VERTEX
  5
4C
330
4B
100
AcDbEntity
  8
_U+30EC_U+30A4_U+30E4_U+30FC 1
 62
   179
420
  2234388
370
     9
100
AcDbVertex
100
AcDb2dVertex
 10
100.9781560349437
 20
-139.9359730205718
 30
0.0
  0
VERTEX
  5
4D
330
4B
100
AcDbEntity
  8
_U+30EC_U+30A4_U+30E4_U+30FC 1
 62
   179
420
  2234388
370
     9
100
AcDbVertex
100
AcDb2dVertex
 10
103.1065348695331
 20
-139.9359730205718
 30
0.0
  0
SEQEND
  5
4E
330
4B
100
AcDbEntity
  8
_U+30EC_U+30A4_U+30E4_U+30FC 1
 62
   179
420
  2234388
370
     9
  0
POLYLINE
  5
4F
330
1F
100
AcDbEntity
  8
_U+30EC_U+30A4_U+30E4_U+30FC 1
 62
   179
420
  2234388
370
     9
100
AcDb2dPolyline
 66
     1
 10
0.0
 20
0.0
 30
0.0
  0
VERTEX
  5
50
330
4F
100
AcDbEntity
  8
_U+30EC_U+30A4_U+30E4_U+30FC 1
 62
   179
420
  2234388
370
     9
100
AcDbVertex
100
AcDb2dVertex
 10
100.9781560349437
 20
-118.4248188592827
 30
0.0
  0
VERTEX
  5
51
330
4F
100
AcDbEntity
  8
_U+30EC_U+30A4_U+30E4_U+30FC 1
 62
   179
420
  2234388
370
     9
100
AcDbVertex
100
AcDb2dVertex
 10
103.1065348695331
 20
-118.4254891370603
 30
0.0
  0
SEQEND
  5
52
330
4F
100
AcDbEntity
  8
_U+30EC_U+30A4_U+30E4_U+30FC 1
 62
   179
420
  2234388
370
     9
  0
INSERT
  5
54
330
1F
100
AcDbEntity
  8
_U+30EC_U+30A4_U+30E4_U+30FC 1
100
AcDbBlockReference
  2
block 2
 10
0.0
 20
0.0
 30
0.0
  0
SPLINE
  5
65
330
1F
100
AcDbEntity
  8
_U+30EC_U+30A4_U+30E4_U+30FC 1
 62
   179
420
  2234388
370
     9
100
AcDbSpline
210
0.0
220
0.0
230
1.0
 70
    11
 71
     3
 72
    17
 73
    13
 74
     0
 42
0.0000000001
 43
0.0000000001
 12
1.0
 22
0.0
 32
0.0
 13
1.0
 23
0.0
 33
0.0
 40
0.0
 40
0.0
 40
0.0
 40
0.0
 40
1.0
 40
1.0
 40
1.0
 40
2.0
 40
2.0
 40
2.0
 40
3.0
 40
3.0
 40
3.0
 40
4.0
 40
4.0
 40
4.0
 40
4.0
 10
102.2059990591744
 20
-140.931617742545
 30
0.0
 10
102.2059990591744
 20
-140.8758082981146
 30
0.0
 10
102.1611962825396
 20
-140.8310407981254
 30
0.0
 10
102.1060923950566
 20
-140.8310407981254
 30
0.0
 10
102.0509532297966
 20
-140.8310407981254
 30
0.0
 10
102.0061857309387
 20
-140.8758082981146
 30
0.0
 10
102.0061857309387
 20
-140.931617742545
 30
0.0
 10
102.0061857309387
 20
-140.9867569091975
 30
0.0
 10
102.0509532297966
 20
-141.0315244091867
 30
0.0
 10
102.1060923950566
 20
-141.0315244091867
 30
0.0
 10
102.1611962825396
 20
-141.0315244091867
 30
0.0
 10
102.2059990591744
 20
-140.9867569091975
 30
0.0
 10
102.2059990591744
 20
-140.931617742545
 30
0.0
  0
POLYLINE
  5
66
330
1F
100
AcDbEntity
  8
_U+30EC_U+30A4_U+30E4_U+30FC 1
 62
   179
420
  2234388
370
     9
100
AcDb2dPolyline
 66
     1
 10
0.0
 20
0.0
 30
0.0
  0
VERTEX
  5
67
330
66
100
AcDbEntity
  8
_U+30EC_U+30A4_U+30E4_U+30FC 1
 62
   179
420
  2234388
370
     9
100
AcDbVertex
100
AcDb2dVertex
 10
102.1060923950566
 20
-140.931617742545
 30
0.0
  0
VERTEX
  5
68
330
66
100
AcDbEntity
  8
_U+30EC_U+30A4_U+30E4_U+30FC 1
 62
   179
420
  2234388
370
     9
100
AcDbVertex
100
AcDb2dVertex
 10
102.1060923950566
 20
-138.7784385764163
 30
0.0
  0
SEQEND
  5
69
330
66
100
AcDbEntity
  8
_U+30EC_U+30A4_U+30E4_U+30FC 1
 62
   179
420
  2234388
370
     9
  0
POLYLINE
  5
6A
330
1F
100
AcDbEntity
  8
_U+30EC_U+30A4_U+30E4_U+30FC 1
 62
   179
420
  2234388
370
     9
100
AcDb2dPolyline
 66
     1
 10
0.0
 20
0.0
 30
0.0
  0
VERTEX
  5
6B
330
6A
100
AcDbEntity
  8
_U+30EC_U+30A4_U+30E4_U+30FC 1
 62
   179
420
  2234388
370
     9
100
AcDbVertex
100
AcDb2dVertex
 10
100.9781560349437
 20
-140.931617742545
 30
0.0
  0
VERTEX
  5
6C
330
6A
100
AcDbEntity
  8
_U+30EC_U+30A4_U+30E4_U+30FC 1
 62
   179
420
  2234388
370
     9
100
AcDbVertex
100
AcDb2dVertex
 10
103.1065348695331
 20
-140.931617742545
 30
0.0
  0
SEQEND
  5
6D
330
6A
100
AcDbEntity
  8
_U+30EC_U+30A4_U+30E4_U+30FC 1
 62
   179
420
  2234388
370
     9
  0
INSERT
  5
6F
330
1F
100
AcDbEntity
  8
_U+30EC_U+30A4_U+30E4_U+30FC 1
100
AcDbBlockReference
  2
block 3
 10
0.0
 20
0.0
 30
0.0
  0
SPLINE
  5
74
330
1F
100
AcDbEntity
  8
_U+30EC_U+30A4_U+30E4_U+30FC 1
 62
   179
420
  2234388
370
     9
100
AcDbSpline
210
0.0
220
0.0
230
1.0
 70
    11
 71
     3
 72
    17
 73
    13
 74
     0
 42
0.0000000001
 43
0.0000000001
 12
1.0
 22
0.0
 32
0.0
 13
1.0
 23
0.0
 33
0.0
 40
0.0
 40
0.0
 40
0.0
 40
0.0
 40
1.0
 40
1.0
 40
1.0
 40
2.0
 40
2.0
 40
2.0
 40
3.0
 40
3.0
 40
3.0
 40
4.0
 40
4.0
 40
4.0
 40
4.0
 10
80.33652906155551
 20
-129.1294019121619
 30
0.0
 10
80.33652906155551
 20
-129.074298023287
 30
0.0
 10
80.29172628492074
 20
-129.0294952455202
 30
0.0
 10
80.23662239743767
 20
-129.0294952455202
 30
0.0
 10
80.18148323217773
 20
-129.0294952455202
 30
0.0
 10
80.13671573331983
 20
-129.074298023287
 30
0.0
 10
80.13671573331983
 20
-129.1294019121619
 30
0.0
 10
80.13671573331983
 20
-129.184541078815
 30
0.0
 10
80.18148323217773
 20
-129.2293085788035
 30
0.0
 10
80.23662239743767
 20
-129.2293085788035
 30
0.0
 10
80.29172628492074
 20
-129.2293085788035
 30
0.0
 10
80.33652906155551
 20
-129.184541078815
 30
0.0
 10
80.33652906155551
 20
-129.1294019121619
 30
0.0
  0
SPLINE
  5
75
330
1F
100
AcDbEntity
  8
_U+30EC_U+30A4_U+30E4_U+30FC 1
 62
   179
420
  2234388
370
     9
100
AcDbSpline
210
0.0
220
0.0
230
1.0
 70
    11
 71
     3
 72
    17
 73
    13
 74
     0
 42
0.0000000001
 43
0.0000000001
 12
1.0
 22
0.0
 32
0.0
 13
1.0
 23
0.0
 33
0.0
 40
0.0
 40
0.0
 40
0.0
 40
0.0
 40
1.0
 40
1.0
 40
1.0
 40
2.0
 40
2.0
 40
2.0
 40
3.0
 40
3.0
 40
3.0
 40
4.0
 40
4.0
 40
4.0
 40
4.0
 10
81.33630125827142
 20
-129.1294019121619
 30
0.0
 10
81.33630125827142
 20
-129.074298023287
 30
0.0
 10
81.29149848163665
 20
-129.0294952455202
 30
0.0
 10
81.23639459415358
 20
-129.0294952455202
 30
0.0
 10
81.18125542889364
 20
-129.0294952455202
 30
0.0
 10
81.13648793003574
 20
-129.074298023287
 30
0.0
 10
81.13648793003574
 20
-129.1294019121619
 30
0.0
 10
81.13648793003574
 20
-129.184541078815
 30
0.0
 10
81.18125542889364
 20
-129.2293085788035
 30
0.0
 10
81.23639459415358
 20
-129.2293085788035
 30
0.0
 10
81.29149848163665
 20
-129.2293085788035
 30
0.0
 10
81.33630125827142
 20
-129.184541078815
 30
0.0
 10
81.33630125827142
 20
-129.1294019121619
 30
0.0
  0
INSERT
  5
77
330
1F
100
AcDbEntity
  8
_U+30EC_U+30A4_U+30E4_U+30FC 1
100
AcDbBlockReference
  2
block 4
 10
0.0
 20
0.0
 30
0.0
  0
SPLINE
  5
7C
330
1F
100
AcDbEntity
  8
_U+30EC_U+30A4_U+30E4_U+30FC 1
 62
   253
420
 11711154
370
     9
100
AcDbSpline
210
0.0
220
0.0
230
1.0
 70
    11
 71
     3
 72
    44
 73
    40
 74
     0
 42
0.0000000001
 43
0.0000000001
 12
1.0
 22
0.0
 32
0.0
 13
1.0
 23
0.0
 33
0.0
 40
0.0
 40
0.0
 40
0.0
 40
0.0
 40
1.0
 40
1.0
 40
1.0
 40
2.0
 40
2.0
 40
2.0
 40
3.0
 40
3.0
 40
3.0
 40
4.0
 40
4.0
 40
4.0
 40
5.0
 40
5.0
 40
5.0
 40
6.0
 40
6.0
 40
6.0
 40
7.0
 40
7.0
 40
7.0
 40
8.0
 40
8.0
 40
8.0
 40
9.0
 40
9.0
 40
9.0
 40
10.0
 40
10.0
 40
10.0
 40
11.0
 40
11.0
 40
11.0
 40
12.0
 40
12.0
 40
12.0
 40
13.0
 40
13.0
 40
13.0
 40
13.0
 10
80.18286109106539
 20
-117.3781977484332
 30
0.0
 10
80.18286109106539
 20
-117.3781977484332
 30
0.0
 10
82.74222650018105
 20
-117.3781977484332
 30
0.0
 10
82.74222650018105
 20
-117.3781977484332
 30
0.0
 10
82.74222650018105
 20
-117.3781977484332
 30
0.0
 10
88.13760969586669
 20
-117.8260491372102
 30
0.0
 10
88.13760969586669
 20
-117.8260491372102
 30
0.0
 10
88.13760969586669
 20
-117.8260491372102
 30
0.0
 10
88.20167413867671
 20
-118.4020646926218
 30
0.0
 10
88.20167413867671
 20
-118.4020646926218
 30
0.0
 10
88.20167413867671
 20
-118.4020646926218
 30
0.0
 10
81.24912987160646
 20
-118.4447860814998
 30
0.0
 10
81.24912987160646
 20
-118.4447860814998
 30
0.0
 10
81.24912987160646
 20
-118.4447860814998
 30
0.0
 10
81.24912987160646
 20
-139.9277180205738
 30
0.0
 10
81.24912987160646
 20
-139.9277180205738
 30
0.0
 10
81.24912987160646
 20
-139.9277180205738
 30
0.0
 10
87.41240443659044
 20
-139.9063749650231
 30
0.0
 10
87.41240443659044
 20
-139.9063749650231
 30
0.0
 10
87.41240443659044
 20
-139.9063749650231
 30
0.0
 10
88.26542108149484
 20
-140.2260621871658
 30
0.0
 10
88.26542108149484
 20
-140.4396691315568
 30
0.0
 10
88.26542108149484
 20
-140.4396691315568
 30
0.0
 10
97.77698000550141
 20
-140.4396691315568
 30
0.0
 10
97.77698000550141
 20
-140.4396691315568
 30
0.0
 10
97.77698000550141
 20
-140.4396691315568
 30
0.0
 10
98.35264276859282
 20
-140.5678332981911
 30
0.0
 10
98.20348832795362
 20
-140.9516202425397
 30
0.0
 10
98.20348832795362
 20
-140.9516202425397
 30
0.0
 10
80.86534293695323
 20
-140.9943063536405
 30
0.0
 10
80.86534293695323
 20
-140.9943063536405
 30
0.0
 10
80.86534293695323
 20
-140.9943063536405
 30
0.0
 10
80.35339183890308
 20
-140.5891763537418
 30
0.0
 10
80.35339183890308
 20
-140.5891763537418
 30
0.0
 10
80.35339183890308
 20
-140.5891763537418
 30
0.0
 10
80.267984341082
 20
-140.3542263538002
 30
0.0
 10
80.267984341082
 20
-140.3542263538002
 30
0.0
 10
80.267984341082
 20
-140.3542263538002
 30
0.0
 10
80.18286109106539
 20
-117.3781977484332
 30
0.0
 10
80.18286109106539
 20
-117.3781977484332
 30
0.0
  0
HATCH
  5
7D
330
1F
100
AcDbEntity
  8
_U+30EC_U+30A4_U+30E4_U+30FC 1
 62
   253
420
 11711154
100
AcDbHatch
 10
0.0
 20
0.0
 30
0.0
210
0.0
220
0.0
230
1.0
  2
SOLID
 70
     1
 71
     0
 91
        1
 92
        1
 93
        1
 72
     4
 94
        3
 73
     0
 74
     1
 95
       44
 96
       40
 40
0.0
 40
0.0
 40
0.0
 40
0.0
 40
1.0
 40
1.0
 40
1.0
 40
2.0
 40
2.0
 40
2.0
 40
3.0
 40
3.0
 40
3.0
 40
4.0
 40
4.0
 40
4.0
 40
5.0
 40
5.0
 40
5.0
 40
6.0
 40
6.0
 40
6.0
 40
7.0
 40
7.0
 40
7.0
 40
8.0
 40
8.0
 40
8.0
 40
9.0
 40
9.0
 40
9.0
 40
10.0
 40
10.0
 40
10.0
 40
11.0
 40
11.0
 40
11.0
 40
12.0
 40
12.0
 40
12.0
 40
13.0
 40
13.0
 40
13.0
 40
13.0
 10
80.18286109106539
 20
-117.3781977484332
 10
80.18286109106539
 20
-117.3781977484332
 10
82.74222650018105
 20
-117.3781977484332
 10
82.74222650018105
 20
-117.3781977484332
 10
82.74222650018105
 20
-117.3781977484332
 10
88.13760969586669
 20
-117.8260491372102
 10
88.13760969586669
 20
-117.8260491372102
 10
88.13760969586669
 20
-117.8260491372102
 10
88.20167413867671
 20
-118.4020646926218
 10
88.20167413867671
 20
-118.4020646926218
 10
88.20167413867671
 20
-118.4020646926218
 10
81.24912987160646
 20
-118.4447860814998
 10
81.24912987160646
 20
-118.4447860814998
 10
81.24912987160646
 20
-118.4447860814998
 10
81.24912987160646
 20
-139.9277180205738
 10
81.24912987160646
 20
-139.9277180205738
 10
81.24912987160646
 20
-139.9277180205738
 10
87.41240443659044
 20
-139.9063749650231
 10
87.41240443659044
 20
-139.9063749650231
 10
87.41240443659044
 20
-139.9063749650231
 10
88.26542108149484
 20
-140.2260621871658
 10
88.26542108149484
 20
-140.4396691315568
 10
88.26542108149484
 20
-140.4396691315568
 10
97.77698000550141
 20
-140.4396691315568
 10
97.77698000550141
 20
-140.4396691315568
 10
97.77698000550141
 20
-140.4396691315568
 10
98.35264276859282
 20
-140.5678332981911
 10
98.20348832795362
 20
-140.9516202425397
 10
98.20348832795362
 20
-140.9516202425397
 10
80.86534293695323
 20
-140.9943063536405
 10
80.86534293695323
 20
-140.9943063536405
 10
80.86534293695323
 20
-140.9943063536405
 10
80.35339183890308
 20
-140.5891763537418
 10
80.35339183890308
 20
-140.5891763537418
 10
80.35339183890308
 20
-140.5891763537418
 10
80.267984341082
 20
-140.3542263538002
 10
80.267984341082
 20
-140.3542263538002
 10
80.267984341082
 20
-140.3542263538002
 10
80.18286109106539
 20
-117.3781977484332
 10
80.18286109106539
 20
-117.3781977484332
 97
        0
 97
        0
 75
     2
 76
     1
 98
        0
  0
POLYLINE
  5
7E
330
1F
100
AcDbEntity
  8
_U+30EC_U+30A4_U+30E4_U+30FC 1
 62
   179
420
  2234388
370
    25
100
AcDb2dPolyline
 66
     1
 10
0.0
 20
0.0
 30
0.0
  0
VERTEX
  5
7F
330
7E
100
AcDbEntity
  8
_U+30EC_U+30A4_U+30E4_U+30FC 1
 62
   179
420
  2234388
370
    25
100
AcDbVertex
100
AcDb2dVertex
 10
80.23489378637066
 20
-117.4360533039745
 30
0.0
  0
VERTEX
  5
80
330
7E
100
AcDbEntity
  8
_U+30EC_U+30A4_U+30E4_U+30FC 1
 62
   179
420
  2234388
370
    25
100
AcDbVertex
100
AcDb2dVertex
 10
80.23489378637066
 20
-140.1364919094106
 30
0.0
  0
SEQEND
  5
81
330
7E
100
AcDbEntity
  8
_U+30EC_U+30A4_U+30E4_U+30FC 1
 62
   179
420
  2234388
370
    25
  0
POLYLINE
  5
82
330
1F
100
AcDbEntity
  8
_U+30EC_U+30A4_U+30E4_U+30FC 1
 62
   179
420
  2234388
370
    25
100
AcDb2dPolyline
 66
     1
 10
0.0
 20
0.0
 30
0.0
  0
VERTEX
  5
83
330
82
100
AcDbEntity
  8
_U+30EC_U+30A4_U+30E4_U+30FC 1
 62
   179
420
  2234388
370
    25
100
AcDbVertex
100
AcDb2dVertex
 10
81.23466598308657
 20
-118.4358255259467
 30
0.0
  0
VERTEX
  5
84
330
82
100
AcDbEntity
  8
_U+30EC_U+30A4_U+30E4_U+30FC 1
 62
   179
420
  2234388
370
    25
100
AcDbVertex
100
AcDb2dVertex
 10
81.23466598308657
 20
-139.9366785761267
 30
0.0
  0
SEQEND
  5
85
330
82
100
AcDbEntity
  8
_U+30EC_U+30A4_U+30E4_U+30FC 1
 62
   179
420
  2234388
370
    25
  0
POLYLINE
  5
86
330
1F
100
AcDbEntity
  8
_U+30EC_U+30A4_U+30E4_U+30FC 1
 62
   179
420
  2234388
370
     9
100
AcDb2dPolyline
 66
     1
 10
0.0
 20
0.0
 30
0.0
  0
VERTEX
  5
87
330
86
100
AcDbEntity
  8
_U+30EC_U+30A4_U+30E4_U+30FC 1
 62
   179
420
  2234388
370
     9
100
AcDbVertex
100
AcDb2dVertex
 10
82.09766623884738
 20
-129.1294019121619
 30
0.0
  0
VERTEX
  5
88
330
86
100
AcDbEntity
  8
_U+30EC_U+30A4_U+30E4_U+30FC 1
 62
   179
420
  2234388
370
     9
100
AcDbVertex
100
AcDb2dVertex
 10
78.25845831376874
 20
-129.1294019121619
 30
0.0
  0
SEQEND
  5
89
330
86
100
AcDbEntity
  8
_U+30EC_U+30A4_U+30E4_U+30FC 1
 62
   179
420
  2234388
370
     9
  0
POLYLINE
  5
8A
330
1F
100
AcDbEntity
  8
_U+30EC_U+30A4_U+30E4_U+30FC 1
 62
   179
420
  2234388
370
    25
100
AcDb2dPolyline
 66
     1
 10
0.0
 20
0.0
 30
0.0
  0
VERTEX
  5
8B
330
8A
100
AcDbEntity
  8
_U+30EC_U+30A4_U+30E4_U+30FC 1
 62
   179
420
  2234388
370
    25
100
AcDbVertex
100
AcDb2dVertex
 10
81.23466598308657
 20
-118.3944799704013
 30
0.0
  0
VERTEX
  5
8C
330
8A
100
AcDbEntity
  8
_U+30EC_U+30A4_U+30E4_U+30FC 1
 62
   179
420
  2234388
370
    25
100
AcDbVertex
100
AcDb2dVertex
 10
88.23476469338806
 20
-118.3944799704013
 30
0.0
  0
SEQEND
  5
8D
330
8A
100
AcDbEntity
  8
_U+30EC_U+30A4_U+30E4_U+30FC 1
 62
   179
420
  2234388
370
    25
  0
POLYLINE
  5
8E
330
1F
100
AcDbEntity
  8
_U+30EC_U+30A4_U+30E4_U+30FC 1
 62
   179
420
  2234388
370
    25
100
AcDb2dPolyline
 66
     1
 10
0.0
 20
0.0
 30
0.0
  0
VERTEX
  5
8F
330
8E
100
AcDbEntity
  8
_U+30EC_U+30A4_U+30E4_U+30FC 1
 62
   179
420
  2234388
370
    25
100
AcDbVertex
100
AcDb2dVertex
 10
80.23489378637066
 20
-117.3947430262069
 30
0.0
  0
VERTEX
  5
90
330
8E
100
AcDbEntity
  8
_U+30EC_U+30A4_U+30E4_U+30FC 1
 62
   179
420
  2234388
370
    25
100
AcDbVertex
100
AcDb2dVertex
 10
82.23510845756316
 20
-117.3947430262069
 30
0.0
  0
SEQEND
  5
91
330
8E
100
AcDbEntity
  8
_U+30EC_U+30A4_U+30E4_U+30FC 1
 62
   179
420
  2234388
370
    25
  0
POLYLINE
  5
92
330
1F
100
AcDbEntity
  8
_U+30EC_U+30A4_U+30E4_U+30FC 1
 62
   179
420
  2234388
370
    25
100
AcDb2dPolyline
 66
     1
 10
0.0
 20
0.0
 30
0.0
  0
VERTEX
  5
93
330
92
100
AcDbEntity
  8
_U+30EC_U+30A4_U+30E4_U+30FC 1
 62
   179
420
  2234388
370
    25
100
AcDbVertex
100
AcDb2dVertex
 10
81.23466598308657
 20
-139.9366785761267
 30
0.0
  0
VERTEX
  5
94
330
92
100
AcDbEntity
  8
_U+30EC_U+30A4_U+30E4_U+30FC 1
 62
   179
420
  2234388
370
    25
100
AcDbVertex
100
AcDb2dVertex
 10
87.36901277103078
 20
-139.9366785761267
 30
0.0
  0
SEQEND
  5
95
330
92
100
AcDbEntity
  8
_U+30EC_U+30A4_U+30E4_U+30FC 1
 62
   179
420
  2234388
370
    25
  0
POLYLINE
  5
96
330
1F
100
AcDbEntity
  8
_U+30EC_U+30A4_U+30E4_U+30FC 1
 62
   179
420
  2234388
370
    25
100
AcDb2dPolyline
 66
     1
 10
0.0
 20
0.0
 30
0.0
  0
VERTEX
  5
97
330
96
100
AcDbEntity
  8
_U+30EC_U+30A4_U+30E4_U+30FC 1
 62
   179
420
  2234388
370
    25
100
AcDbVertex
100
AcDb2dVertex
 10
81.0348526548509
 20
-140.9364507980992
 30
0.0
  0
VERTEX
  5
98
330
96
100
AcDbEntity
  8
_U+30EC_U+30A4_U+30E4_U+30FC 1
 62
   179
420
  2234388
370
    25
100
AcDbVertex
100
AcDb2dVertex
 10
98.23481499382108
 20
-140.9364507980992
 30
0.0
  0
SEQEND
  5
99
330
96
100
AcDbEntity
  8
_U+30EC_U+30A4_U+30E4_U+30FC 1
 62
   179
420
  2234388
370
    25
  0
POLYLINE
  5
9A
330
1F
100
AcDbEntity
  8
_U+30EC_U+30A4_U+30E4_U+30FC 1
 62
   179
420
  2234388
370
    25
100
AcDb2dPolyline
 66
     1
 10
0.0
 20
0.0
 30
0.0
  0
VERTEX
  5
9B
330
9A
100
AcDbEntity
  8
_U+30EC_U+30A4_U+30E4_U+30FC 1
 62
   179
420
  2234388
370
    25
100
AcDbVertex
100
AcDb2dVertex
 10
88.23476469338806
 20
-117.7943696927738
 30
0.0
  0
VERTEX
  5
9C
330
9A
100
AcDbEntity
  8
_U+30EC_U+30A4_U+30E4_U+30FC 1
 62
   179
420
  2234388
370
    25
100
AcDbVertex
100
AcDb2dVertex
 10
88.23476469338806
 20
-118.3944799704013
 30
0.0
  0
SEQEND
  5
9D
330
9A
100
AcDbEntity
  8
_U+30EC_U+30A4_U+30E4_U+30FC 1
 62
   179
420
  2234388
370
    25
  0
POLYLINE
  5
9E
330
1F
100
AcDbEntity
  8
_U+30EC_U+30A4_U+30E4_U+30FC 1
 62
   179
420
  2234388
370
    25
100
AcDb2dPolyline
 66
     1
 10
0.0
 20
0.0
 30
0.0
  0
VERTEX
  5
9F
330
9E
100
AcDbEntity
  8
_U+30EC_U+30A4_U+30E4_U+30FC 1
 62
   179
420
  2234388
370
    25
100
AcDbVertex
100
AcDb2dVertex
 10
86.22488608955503
 20
-117.593850803935
 30
0.0
  0
VERTEX
  5
A0
330
9E
100
AcDbEntity
  8
_U+30EC_U+30A4_U+30E4_U+30FC 1
 62
   179
420
  2234388
370
    25
100
AcDbVertex
100
AcDb2dVertex
 10
88.23476469338806
 20
-117.7943696927738
 30
0.0
  0
SEQEND
  5
A1
330
9E
100
AcDbEntity
  8
_U+30EC_U+30A4_U+30E4_U+30FC 1
 62
   179
420
  2234388
370
    25
  0
POLYLINE
  5
A2
330
1F
100
AcDbEntity
  8
_U+30EC_U+30A4_U+30E4_U+30FC 1
 62
   179
420
  2234388
370
    25
100
AcDb2dPolyline
 66
     1
 10
0.0
 20
0.0
 30
0.0
  0
VERTEX
  5
A3
330
A2
100
AcDbEntity
  8
_U+30EC_U+30A4_U+30E4_U+30FC 1
 62
   179
420
  2234388
370
    25
100
AcDbVertex
100
AcDb2dVertex
 10
88.23476469338806
 20
-140.4362119093355
 30
0.0
  0
VERTEX
  5
A4
330
A2
100
AcDbEntity
  8
_U+30EC_U+30A4_U+30E4_U+30FC 1
 62
   179
420
  2234388
370
    25
100
AcDbVertex
100
AcDb2dVertex
 10
97.73492889546313
 20
-140.4362119093355
 30
0.0
  0
SEQEND
  5
A5
330
A2
100
AcDbEntity
  8
_U+30EC_U+30A4_U+30E4_U+30FC 1
 62
   179
420
  2234388
370
    25
  0
SPLINE
  5
A6
330
1F
100
AcDbEntity
  8
_U+30EC_U+30A4_U+30E4_U+30FC 1
 62
   179
420
  2234388
370
    25
100
AcDbSpline
210
0.0
220
0.0
230
1.0
 70
     8
 71
     3
 72
     8
 73
     4
 74
     0
 42
0.0000000001
 43
0.0000000001
 12
1.0
 22
0.0
 32
0.0
 13
1.0
 23
0.0
 33
0.0
 40
0.0
 40
0.0
 40
0.0
 40
0.0
 40
1.0
 40
1.0
 40
1.0
 40
1.0
 10
80.23489378637066
 20
-140.1364919094106
 30
0.0
 10
80.23489378637066
 20
-140.5781696870774
 30
0.0
 10
80.59317488834125
 20
-140.9364507980992
 30
0.0
 10
81.0348526548509
 20
-140.9364507980992
 30
0.0
  0
SPLINE
  5
A7
330
1F
100
AcDbEntity
  8
_U+30EC_U+30A4_U+30E4_U+30FC 1
 62
   179
420
  2234388
370
    25
100
AcDbSpline
210
0.0
220
0.0
230
1.0
 70
     8
 71
     3
 72
     8
 73
     4
 74
     0
 42
0.0000000001
 43
0.0000000001
 12
1.0
 22
0.0
 32
0.0
 13
1.0
 23
0.0
 33
0.0
 40
0.0
 40
0.0
 40
0.0
 40
0.0
 40
1.0
 40
1.0
 40
1.0
 40
1.0
 10
98.23481499382108
 20
-140.9364507980992
 30
0.0
 10
98.23481499382108
 20
-140.6601552426128
 30
0.0
 10
98.01090694397789
 20
-140.4362119093355
 30
0.0
 10
97.73492889546313
 20
-140.4362119093355
 30
0.0
  0
SPLINE
  5
A8
330
1F
100
AcDbEntity
  8
_U+30EC_U+30A4_U+30E4_U+30FC 1
 62
   179
420
  2234388
370
    25
100
AcDbSpline
210
0.0
220
0.0
230
1.0
 70
     8
 71
     3
 72
     8
 73
     4
 74
     0
 42
0.0000000001
 43
0.0000000001
 12
1.0
 22
0.0
 32
0.0
 13
1.0
 23
0.0
 33
0.0
 40
0.0
 40
0.0
 40
0.0
 40
0.0
 40
1.0
 40
1.0
 40
1.0
 40
1.0
 10
88.23476469338806
 20
-140.4362119093355
 30
0.0
 10
88.05629442016344
 20
-140.1268610760791
 30
0.0
 10
87.72627081747193
 20
-139.9366785761267
 30
0.0
 10
87.36901277103078
 20
-139.9366785761267
 30
0.0
  0
SPLINE
  5
A9
330
1F
100
AcDbEntity
  8
_U+30EC_U+30A4_U+30E4_U+30FC 1
 62
   179
420
  2234388
370
    25
100
AcDbSpline
210
0.0
220
0.0
230
1.0
 70
     8
 71
     3
 72
     8
 73
     4
 74
     0
 42
0.0000000001
 43
0.0000000001
 12
1.0
 22
0.0
 32
0.0
 13
1.0
 23
0.0
 33
0.0
 40
0.0
 40
0.0
 40
0.0
 40
0.0
 40
1.0
 40
1.0
 40
1.0
 40
1.0
 10
86.22488608955503
 20
-117.593850803935
 30
0.0
 10
84.89886283404957
 20
-117.4608888595237
 30
0.0
 10
83.56733842357514
 20
-117.3947430262069
 30
0.0
 10
82.23510845756316
 20
-117.3947430262069
 30
0.0
  0
SPLINE
  5
AA
330
1F
100
AcDbEntity
  8
_U+30EC_U+30A4_U+30E4_U+30FC 1
 62
   179
420
  2234388
370
     9
100
AcDbSpline
210
0.0
220
0.0
230
1.0
 70
    11
 71
     3
 72
    17
 73
    13
 74
     0
 42
0.0000000001
 43
0.0000000001
 12
1.0
 22
0.0
 32
0.0
 13
1.0
 23
0.0
 33
0.0
 40
0.0
 40
0.0
 40
0.0
 40
0.0
 40
1.0
 40
1.0
 40
1.0
 40
2.0
 40
2.0
 40
2.0
 40
3.0
 40
3.0
 40
3.0
 40
4.0
 40
4.0
 40
4.0
 40
4.0
 10
80.3348004504885
 20
-113.3942783049848
 30
0.0
 10
80.3348004504885
 20
-113.3391744161096
 30
0.0
 10
80.29003295163061
 20
-113.2943716383432
 30
0.0
 10
80.23489378637066
 20
-113.2943716383432
 30
0.0
 10
80.17978989888759
 20
-113.2943716383432
 30
0.0
 10
80.13498712225282
 20
-113.3391744161096
 30
0.0
 10
80.13498712225282
 20
-113.3942783049848
 30
0.0
 10
80.13498712225282
 20
-113.4500877494152
 30
0.0
 10
80.17978989888759
 20
-113.494890527182
 30
0.0
 10
80.23489378637066
 20
-113.494890527182
 30
0.0
 10
80.29003295163061
 20
-113.494890527182
 30
0.0
 10
80.3348004504885
 20
-113.4500877494152
 30
0.0
 10
80.3348004504885
 20
-113.3942783049848
 30
0.0
  0
SPLINE
  5
AB
330
1F
100
AcDbEntity
  8
_U+30EC_U+30A4_U+30E4_U+30FC 1
 62
   179
420
  2234388
370
     9
100
AcDbSpline
210
0.0
220
0.0
230
1.0
 70
    11
 71
     3
 72
    17
 73
    13
 74
     0
 42
0.0000000001
 43
0.0000000001
 12
1.0
 22
0.0
 32
0.0
 13
1.0
 23
0.0
 33
0.0
 40
0.0
 40
0.0
 40
0.0
 40
0.0
 40
1.0
 40
1.0
 40
1.0
 40
2.0
 40
2.0
 40
2.0
 40
3.0
 40
3.0
 40
3.0
 40
4.0
 40
4.0
 40
4.0
 40
4.0
 10
88.33498885749779
 20
-113.3942783049848
 30
0.0
 10
88.33498885749779
 20
-113.3391744161096
 30
0.0
 10
88.29022135863991
 20
-113.2943716383432
 30
0.0
 10
88.23476469338806
 20
-113.2943716383432
 30
0.0
 10
88.17962775573274
 20
-113.2943716383432
 30
0.0
 10
88.13485802927022
 20
-113.3391744161096
 30
0.0
 10
88.13485802927022
 20
-113.3942783049848
 30
0.0
 10
88.13485802927022
 20
-113.4500877494152
 30
0.0
 10
88.17962775573274
 20
-113.494890527182
 30
0.0
 10
88.23476469338806
 20
-113.494890527182
 30
0.0
 10
88.29022135863991
 20
-113.494890527182
 30
0.0
 10
88.33498885749779
 20
-113.4500877494152
 30
0.0
 10
88.33498885749779
 20
-113.3942783049848
 30
0.0
  0
SPLINE
  5
AC
330
1F
100
AcDbEntity
  8
_U+30EC_U+30A4_U+30E4_U+30FC 1
 62
   179
420
  2234388
370
     9
100
AcDbSpline
210
0.0
220
0.0
230
1.0
 70
    11
 71
     3
 72
    17
 73
    13
 74
     0
 42
0.0000000001
 43
0.0000000001
 12
1.0
 22
0.0
 32
0.0
 13
1.0
 23
0.0
 33
0.0
 40
0.0
 40
0.0
 40
0.0
 40
0.0
 40
1.0
 40
1.0
 40
1.0
 40
2.0
 40
2.0
 40
2.0
 40
3.0
 40
3.0
 40
3.0
 40
4.0
 40
4.0
 40
4.0
 40
4.0
 10
80.3348004504885
 20
-144.9362099637661
 30
0.0
 10
80.3348004504885
 20
-144.881070797113
 30
0.0
 10
80.29003295163061
 20
-144.8363032971244
 30
0.0
 10
80.23489378637066
 20
-144.8363032971244
 30
0.0
 10
80.17978989888759
 20
-144.8363032971244
 30
0.0
 10
80.13498712225282
 20
-144.881070797113
 30
0.0
 10
80.13498712225282
 20
-144.9362099637661
 30
0.0
 10
80.13498712225282
 20
-144.991313852641
 30
0.0
 10
80.17978989888759
 20
-145.0361166304077
 30
0.0
 10
80.23489378637066
 20
-145.0361166304077
 30
0.0
 10
80.29003295163061
 20
-145.0361166304077
 30
0.0
 10
80.3348004504885
 20
-144.991313852641
 30
0.0
 10
80.3348004504885
 20
-144.9362099637661
 30
0.0
  0
SPLINE
  5
AD
330
1F
100
AcDbEntity
  8
_U+30EC_U+30A4_U+30E4_U+30FC 1
 62
   179
420
  2234388
370
     9
100
AcDbSpline
210
0.0
220
0.0
230
1.0
 70
    11
 71
     3
 72
    17
 73
    13
 74
     0
 42
0.0000000001
 43
0.0000000001
 12
1.0
 22
0.0
 32
0.0
 13
1.0
 23
0.0
 33
0.0
 40
0.0
 40
0.0
 40
0.0
 40
0.0
 40
1.0
 40
1.0
 40
1.0
 40
2.0
 40
2.0
 40
2.0
 40
3.0
 40
3.0
 40
3.0
 40
4.0
 40
4.0
 40
4.0
 40
4.0
 10
98.33472165793891
 20
-144.9362099637661
 30
0.0
 10
98.33472165793891
 20
-144.881070797113
 30
0.0
 10
98.28995415908102
 20
-144.8363032971244
 30
0.0
 10
98.23481499382108
 20
-144.8363032971244
 30
0.0
 10
98.179711106338
 20
-144.8363032971244
 30
0.0
 10
98.13490832970324
 20
-144.881070797113
 30
0.0
 10
98.13490832970324
 20
-144.9362099637661
 30
0.0
 10
98.13490832970324
 20
-144.991313852641
 30
0.0
 10
98.179711106338
 20
-145.0361166304077
 30
0.0
 10
98.23481499382108
 20
-145.0361166304077
 30
0.0
 10
98.28995415908102
 20
-145.0361166304077
 30
0.0
 10
98.33472165793891
 20
-144.991313852641
 30
0.0
 10
98.33472165793891
 20
-144.9362099637661
 30
0.0
  0
POLYLINE
  5
AE
330
1F
100
AcDbEntity
  8
_U+30EC_U+30A4_U+30E4_U+30FC 1
 62
   179
420
  2234388
370
     9
100
AcDb2dPolyline
 66
     1
 10
0.0
 20
0.0
 30
0.0
  0
VERTEX
  5
AF
330
AE
100
AcDbEntity
  8
_U+30EC_U+30A4_U+30E4_U+30FC 1
 62
   179
420
  2234388
370
     9
100
AcDbVertex
100
AcDb2dVertex
 10
80.23489378637066
 20
-113.3942783049848
 30
0.0
  0
VERTEX
  5
B0
330
AE
100
AcDbEntity
  8
_U+30EC_U+30A4_U+30E4_U+30FC 1
 62
   179
420
  2234388
370
     9
100
AcDbVertex
100
AcDb2dVertex
 10
88.23476469338806
 20
-113.3942783049848
 30
0.0
  0
SEQEND
  5
B1
330
AE
100
AcDbEntity
  8
_U+30EC_U+30A4_U+30E4_U+30FC 1
 62
   179
420
  2234388
370
     9
  0
POLYLINE
  5
B2
330
1F
100
AcDbEntity
  8
_U+30EC_U+30A4_U+30E4_U+30FC 1
 62
   179
420
  2234388
370
     9
100
AcDb2dPolyline
 66
     1
 10
0.0
 20
0.0
 30
0.0
  0
VERTEX
  5
B3
330
B2
100
AcDbEntity
  8
_U+30EC_U+30A4_U+30E4_U+30FC 1
 62
   179
420
  2234388
370
     9
100
AcDbVertex
100
AcDb2dVertex
 10
80.23489378637066
 20
-114.8543196935085
 30
0.0
  0
VERTEX
  5
B4
330
B2
100
AcDbEntity
  8
_U+30EC_U+30A4_U+30E4_U+30FC 1
 62
   179
420
  2234388
370
     9
100
AcDbVertex
100
AcDb2dVertex
 10
80.23489378637066
 20
-112.3945060830126
 30
0.0
  0
SEQEND
  5
B5
330
B2
100
AcDbEntity
  8
_U+30EC_U+30A4_U+30E4_U+30FC 1
 62
   179
420
  2234388
370
     9
  0
POLYLINE
  5
B6
330
1F
100
AcDbEntity
  8
_U+30EC_U+30A4_U+30E4_U+30FC 1
 62
   179
420
  2234388
370
     9
100
AcDb2dPolyline
 66
     1
 10
0.0
 20
0.0
 30
0.0
  0
VERTEX
  5
B7
330
B6
100
AcDbEntity
  8
_U+30EC_U+30A4_U+30E4_U+30FC 1
 62
   179
420
  2234388
370
     9
100
AcDbVertex
100
AcDb2dVertex
 10
88.23476469338806
 20
-115.2546519156309
 30
0.0
  0
VERTEX
  5
B8
330
B6
100
AcDbEntity
  8
_U+30EC_U+30A4_U+30E4_U+30FC 1
 62
   179
420
  2234388
370
     9
100
AcDbVertex
100
AcDb2dVertex
 10
88.23476469338806
 20
-112.3945060830126
 30
0.0
  0
SEQEND
  5
B9
330
B6
100
AcDbEntity
  8
_U+30EC_U+30A4_U+30E4_U+30FC 1
 62
   179
420
  2234388
370
     9
  0
INSERT
  5
BB
330
1F
100
AcDbEntity
  8
_U+30EC_U+30A4_U+30E4_U+30FC 1
100
AcDbBlockReference
  2
block 5
 10
0.0
 20
0.0
 30
0.0
  0
POLYLINE
  5
C2
330
1F
100
AcDbEntity
  8
_U+30EC_U+30A4_U+30E4_U+30FC 1
 62
   179
420
  2234388
370
     9
100
AcDb2dPolyline
 66
     1
 10
0.0
 20
0.0
 30
0.0
  0
VERTEX
  5
C3
330
C2
100
AcDbEntity
  8
_U+30EC_U+30A4_U+30E4_U+30FC 1
 62
   179
420
  2234388
370
     9
100
AcDbVertex
100
AcDb2dVertex
 10
80.23489378637066
 20
-144.9362099637661
 30
0.0
  0
VERTEX
  5
C4
330
C2
100
AcDbEntity
  8
_U+30EC_U+30A4_U+30E4_U+30FC 1
 62
   179
420
  2234388
370
     9
100
AcDbVertex
100
AcDb2dVertex
 10
98.23481499382108
 20
-144.9362099637661
 30
0.0
  0
SEQEND
  5
C5
330
C2
100
AcDbEntity
  8
_U+30EC_U+30A4_U+30E4_U+30FC 1
 62
   179
420
  2234388
370
     9
  0
POLYLINE
  5
C6
330
1F
100
AcDbEntity
  8
_U+30EC_U+30A4_U+30E4_U+30FC 1
 62
   179
420
  2234388
370
     9
100
AcDb2dPolyline
 66
     1
 10
0.0
 20
0.0
 30
0.0
  0
VERTEX
  5
C7
330
C6
100
AcDbEntity
  8
_U+30EC_U+30A4_U+30E4_U+30FC 1
 62
   179
420
  2234388
370
     9
100
AcDbVertex
100
AcDb2dVertex
 10
80.23489378637066
 20
-142.6762096865531
 30
0.0
  0
VERTEX
  5
C8
330
C6
100
AcDbEntity
  8
_U+30EC_U+30A4_U+30E4_U+30FC 1
 62
   179
420
  2234388
370
     9
100
AcDbVertex
100
AcDb2dVertex
 10
80.23489378637066
 20
-145.935982185738
 30
0.0
  0
SEQEND
  5
C9
330
C6
100
AcDbEntity
  8
_U+30EC_U+30A4_U+30E4_U+30FC 1
 62
   179
420
  2234388
370
     9
  0
INSERT
  5
CB
330
1F
100
AcDbEntity
  8
_U+30EC_U+30A4_U+30E4_U+30FC 1
100
AcDbBlockReference
  2
block 6
 10
0.0
 20
0.0
 30
0.0
  0
ENDSEC
  0
SECTION
  2
OBJECTS
  0
DICTIONARY
  5
C
330
0
100
AcDbDictionary
281
     1
  3
ACAD_GROUP
350
D
  3
ACAD_LAYOUT
350
1A
  3
ACAD_MATERIAL
350
3B
  3
ACAD_MLEADERSTYLE
350
D5
  3
ACAD_MLINESTYLE
350
17
  3
ACAD_PLOTSETTINGS
350
19
  3
ACAD_PLOTSTYLENAME
350
E
  3
ACAD_TABLESTYLE
350
D4
  3
ACAD_VISUALSTYLE
350
2A
  0
SUN
  5
3F
330
29
100
AcDbSun
 90
        1
290
     0
 63
     7
421
 16777215
 40
1.0
291
     1
 91
  2455826
 92
 54000000
292
     0
 70
     2
 71
   256
280
     1
  0
DICTIONARY
  5
D
102
{ACAD_REACTORS
330
C
102
}
330
C
100
AcDbDictionary
281
     1
  0
DICTIONARY
  5
1A
102
{ACAD_REACTORS
330
C
102
}
330
C
100
AcDbDictionary
281
     1
  3
Layout1
350
1E
  3
Layout2
350
26
  3
Model
350
22
  0
DICTIONARY
  5
3B
102
{ACAD_REACTORS
330
C
102
}
330
C
100
AcDbDictionary
281
     1
  3
ByBlock
350
3D
  3
ByLayer
350
3C
  3
Global
350
3E
  0
DICTIONARY
  5
D5
102
{ACAD_REACTORS
330
C
102
}
330
C
100
AcDbDictionary
281
     1
  0
DICTIONARY
  5
17
102
{ACAD_REACTORS
330
C
102
}
330
C
100
AcDbDictionary
281
     1
  3
Standard
350
18
  0
DICTIONARY
  5
19
102
{ACAD_REACTORS
330
C
102
}
330
C
100
AcDbDictionary
281
     1
  0
ACDBDICTIONARYWDFLT
  5
E
102
{ACAD_REACTORS
330
C
102
}
330
C
100
AcDbDictionary
281
     1
  3
Normal
350
F
100
AcDbDictionaryWithDefault
340
F
  0
DICTIONARY
  5
D4
102
{ACAD_REACTORS
330
C
102
}
330
C
100
AcDbDictionary
281
     1
  0
DICTIONARY
  5
2A
102
{ACAD_REACTORS
330
C
102
}
330
C
100
AcDbDictionary
281
     1
  3
2dWireframe
350
2F
  3
3D Hidden
350
31
  3
3dWireframe
350
30
  3
Basic
350
32
  3
Brighten
350
36
  3
ColorChange
350
3A
  3
Conceptual
350
34
  3
Dim
350
35
  3
Facepattern
350
39
  3
Flat
350
2B
  3
FlatWithEdges
350
2C
  3
Gouraud
350
2D
  3
GouraudWithEdges
350
2E
  3
Linepattern
350
38
  3
Realistic
350
33
  3
Thicken
350
37
  0
LAYOUT
  5
1E
102
{ACAD_REACTORS
330
1A
102
}
330
1A
100
AcDbPlotSettings
  1

  2
none_device
  4

  6

 40
0.0
 41
0.0
 42
0.0
 43
0.0
 44
0.0
 45
0.0
 46
0.0
 47
0.0
 48
0.0
 49
0.0
140
0.0
141
0.0
142
1.0
143
1.0
 70
   688
 72
     0
 73
     0
 74
     5
  7

 75
    16
 76
     0
 77
     2
 78
   300
147
1.0
148
0.0
149
0.0
100
AcDbLayout
  1
Layout1
 70
     1
 71
     1
 10
0.0
 20
0.0
 11
12.0
 21
9.0
 12
0.0
 22
0.0
 32
0.0
 14
1.000000000000000E+20
 24
1.000000000000000E+20
 34
1.000000000000000E+20
 15
-1.000000000000000E+20
 25
-1.000000000000000E+20
 35
-1.000000000000000E+20
146
0.0
 13
0.0
 23
0.0
 33
0.0
 16
1.0
 26
0.0
 36
0.0
 17
0.0
 27
1.0
 37
0.0
 76
     0
330
1B
  0
LAYOUT
  5
26
102
{ACAD_REACTORS
330
1A
102
}
330
1A
100
AcDbPlotSettings
  1

  2
none_device
  4

  6

 40
0.0
 41
0.0
 42
0.0
 43
0.0
 44
0.0
 45
0.0
 46
0.0
 47
0.0
 48
0.0
 49
0.0
140
0.0
141
0.0
142
1.0
143
1.0
 70
   688
 72
     0
 73
     0
 74
     5
  7

 75
    16
 76
     0
 77
     2
 78
   300
147
1.0
148
0.0
149
0.0
100
AcDbLayout
  1
Layout2
 70
     1
 71
     2
 10
0.0
 20
0.0
 11
0.0
 21
0.0
 12
0.0
 22
0.0
 32
0.0
 14
0.0
 24
0.0
 34
0.0
 15
0.0
 25
0.0
 35
0.0
146
0.0
 13
0.0
 23
0.0
 33
0.0
 16
1.0
 26
0.0
 36
0.0
 17
0.0
 27
1.0
 37
0.0
 76
     0
330
23
  0
LAYOUT
  5
22
102
{ACAD_REACTORS
330
1A
102
}
330
1A
100
AcDbPlotSettings
  1

  2
none_device
  4

  6

 40
0.0
 41
0.0
 42
0.0
 43
0.0
 44
0.0
 45
0.0
 46
0.0
 47
0.0
 48
0.0
 49
0.0
140
0.0
141
0.0
142
1.0
143
1.0
 70
  1712
 72
     0
 73
     0
 74
     0
  7

 75
     0
 76
     0
 77
     2
 78
   300
147
1.0
148
0.0
149
0.0
100
AcDbLayout
  1
Model
 70
     1
 71
     0
 10
0.0
 20
0.0
 11
12.0
 21
9.0
 12
0.0
 22
0.0
 32
0.0
 14
1.000000000000000E+20
 24
1.000000000000000E+20
 34
1.000000000000000E+20
 15
-1.000000000000000E+20
 25
-1.000000000000000E+20
 35
-1.000000000000000E+20
146
0.0
 13
0.0
 23
0.0
 33
0.0
 16
1.0
 26
0.0
 36
0.0
 17
0.0
 27
1.0
 37
0.0
 76
     0
330
1F
331
29
  0
MATERIAL
  5
3D
102
{ACAD_REACTORS
330
3B
102
}
330
3B
100
AcDbMaterial
  1
ByBlock
 72
     1
 94
      127
  0
MATERIAL
  5
3C
102
{ACAD_REACTORS
330
3B
102
}
330
3B
100
AcDbMaterial
  1
ByLayer
 72
     1
 94
      127
  0
MATERIAL
  5
3E
102
{ACAD_REACTORS
330
3B
102
}
330
3B
100
AcDbMaterial
  1
Global
 72
     1
 94
      127
  0
MLINESTYLE
  5
18
102
{ACAD_REACTORS
330
17
102
}
330
17
100
AcDbMlineStyle
  2
Standard
 70
     0
  3

 62
   256
 51
90.0
 52
90.0
 71
     2
 49
0.5
 62
   256
  6
BYLAYER
 49
-0.5
 62
   256
  6
BYLAYER
  0
ACDBPLACEHOLDER
  5
F
102
{ACAD_REACTORS
330
E
102
}
330
E
  0
VISUALSTYLE
  5
2F
102
{ACAD_REACTORS
330
2A
102
}
330
2A
100
AcDbVisualStyle
  2
2dWireframe
 70
     4
177
     2
291
     0
 71
     0
176
     1
 72
     2
176
     1
 73
     0
176
     1
 90
        0
176
     1
 40
-0.6
176
     1
 41
-30.0
176
     1
 62
     5
 63
     7
421
 16777215
176
     1
 74
     1
176
     1
 91
        4
176
     1
 64
     7
176
     1
 65
   257
176
     1
 75
     1
176
     1
175
     1
176
     1
 42
1.0
176
     1
 92
        0
176
     1
 66
   257
176
     1
 43
1.0
176
     1
 76
     1
176
     1
 77
     6
176
     1
 78
     2
176
     1
 67
     7
176
     1
 79
     5
176
     1
170
     0
176
     1
171
     0
176
     1
290
     0
176
     1
 93
        1
176
     1
 44
0.0
176
     1
173
     0
176
     1
  0
VISUALSTYLE
  5
31
102
{ACAD_REACTORS
330
2A
102
}
330
2A
100
AcDbVisualStyle
  2
3D Hidden
 70
     6
177
     2
291
     0
 71
     1
176
     1
 72
     2
176
     1
 73
     2
176
     1
 90
        0
176
     1
 40
-0.6
176
     1
 41
-30.0
176
     1
 62
     5
 63
     7
421
 16777215
176
     1
 74
     2
176
     1
 91
        2
176
     1
 64
     7
176
     1
 65
   257
176
     1
 75
     2
176
     1
175
     1
176
     1
 42
40.0
176
     1
 92
        0
176
     1
 66
   257
176
     1
 43
1.0
176
     1
 76
     1
176
     1
 77
     6
176
     1
 78
     2
176
     1
 67
     7
176
     1
 79
     3
176
     1
170
     0
176
     1
171
     0
176
     1
290
     0
176
     1
 93
        1
176
     1
 44
0.0
176
     1
173
     0
176
     1
  0
VISUALSTYLE
  5
30
102
{ACAD_REACTORS
330
2A
102
}
330
2A
100
AcDbVisualStyle
  2
3dWireframe
 70
     5
177
     2
291
     0
 71
     0
176
     1
 72
     2
176
     1
 73
     0
176
     1
 90
        0
176
     1
 40
-0.6
176
     1
 41
-30.0
176
     1
 62
     5
 63
     7
421
 16777215
176
     1
 74
     1
176
     1
 91
        4
176
     1
 64
     7
176
     1
 65
   257
176
     1
 75
     1
176
     1
175
     1
176
     1
 42
1.0
176
     1
 92
        0
176
     1
 66
   257
176
     1
 43
1.0
176
     1
 76
     1
176
     1
 77
     6
176
     1
 78
     2
176
     1
 67
     7
176
     1
 79
     5
176
     1
170
     0
176
     1
171
     0
176
     1
290
     0
176
     1
 93
        1
176
     1
 44
0.0
176
     1
173
     0
176
     1
  0
VISUALSTYLE
  5
32
102
{ACAD_REACTORS
330
2A
102
}
330
2A
100
AcDbVisualStyle
  2
Basic
 70
     7
177
     2
291
     1
 71
     1
176
     1
 72
     0
176
     1
 73
     1
176
     1
 90
        0
176
     1
 40
-0.6
176
     1
 41
-30.0
176
     1
 62
     5
 63
     7
421
 16777215
176
     1
 74
     0
176
     1
 91
        4
176
     1
 64
     7
176
     1
 65
   257
176
     1
 75
     1
176
     1
175
     1
176
     1
 42
1.0
176
     1
 92
        8
176
     1
 66
     7
176
     1
 43
1.0
176
     1
 76
     1
176
     1
 77
     6
176
     1
 78
     2
176
     1
 67
     7
176
     1
 79
     5
176
     1
170
     0
176
     1
171
     0
176
     1
290
     0
176
     1
 93
        1
176
     1
 44
0.0
176
     1
173
     0
176
     1
  0
VISUALSTYLE
  5
36
102
{ACAD_REACTORS
330
2A
102
}
330
2A
100
AcDbVisualStyle
  2
Brighten
 70
    12
177
     2
291
     1
 71
     2
176
     1
 72
     2
176
     1
 73
     0
176
     1
 90
        0
176
     1
 40
-0.6
176
     1
 41
-30.0
176
     1
 62
     5
 63
     7
421
 16777215
176
     1
 74
     1
176
     1
 91
        4
176
     1
 64
     7
176
     1
 65
   257
176
     1
 75
     1
176
     1
175
     1
176
     1
 42
1.0
176
     1
 92
        8
176
     1
 66
     7
176
     1
 43
1.0
176
     1
 76
     1
176
     1
 77
     6
176
     1
 78
     2
176
     1
 67
     7
176
     1
 79
     5
176
     1
170
     0
176
     1
171
     0
176
     1
290
     0
176
     1
 93
        1
176
     1
 44
50.0
176
     1
173
     0
176
     1
  0
VISUALSTYLE
  5
3A
102
{ACAD_REACTORS
330
2A
102
}
330
2A
100
AcDbVisualStyle
  2
ColorChange
 70
    16
177
     2
291
     1
 71
     2
176
     1
 72
     2
176
     1
 73
     3
176
     1
 90
        0
176
     1
 40
-0.6
176
     1
 41
-30.0
176
     1
 62
     5
 63
     8
421
  8421504
176
     1
 74
     1
176
     1
 91
        4
176
     1
 64
     7
176
     1
 65
   257
176
     1
 75
     1
176
     1
175
     1
176
     1
 42
1.0
176
     1
 92
        8
176
     1
 66
     8
424
  8421504
176
     1
 43
1.0
176
     1
 76
     1
176
     1
 77
     6
176
     1
 78
     2
176
     1
 67
     7
176
     1
 79
     5
176
     1
170
     0
176
     1
171
     0
176
     1
290
     0
176
     1
 93
        1
176
     1
 44
0.0
176
     1
173
     0
176
     1
  0
VISUALSTYLE
  5
34
102
{ACAD_REACTORS
330
2A
102
}
330
2A
100
AcDbVisualStyle
  2
Conceptual
 70
     9
177
     2
291
     0
 71
     3
176
     1
 72
     2
176
     1
 73
     0
176
     1
 90
        0
176
     1
 40
-0.6
176
     1
 41
-30.0
176
     1
 62
     5
 63
     7
421
 16777215
176
     1
 74
     2
176
     1
 91
        2
176
     1
 64
     7
176
     1
 65
   257
176
     1
 75
     1
176
     1
175
     1
176
     1
 42
40.0
176
     1
 92
        8
176
     1
 66
     7
176
     1
 43
1.0
176
     1
 76
     1
176
     1
 77
     6
176
     1
 78
     2
176
     1
 67
     7
176
     1
 79
     3
176
     1
170
     0
176
     1
171
     0
176
     1
290
     0
176
     1
 93
        1
176
     1
 44
0.0
176
     1
173
     0
176
     1
  0
VISUALSTYLE
  5
35
102
{ACAD_REACTORS
330
2A
102
}
330
2A
100
AcDbVisualStyle
  2
Dim
 70
    11
177
     2
291
     1
 71
     2
176
     1
 72
     2
176
     1
 73
     0
176
     1
 90
        0
176
     1
 40
-0.6
176
     1
 41
-30.0
176
     1
 62
     5
 63
     7
421
 16777215
176
     1
 74
     1
176
     1
 91
        4
176
     1
 64
     7
176
     1
 65
   257
176
     1
 75
     1
176
     1
175
     1
176
     1
 42
1.0
176
     1
 92
        8
176
     1
 66
     7
176
     1
 43
1.0
176
     1
 76
     1
176
     1
 77
     6
176
     1
 78
     2
176
     1
 67
     7
176
     1
 79
     5
176
     1
170
     0
176
     1
171
     0
176
     1
290
     0
176
     1
 93
        1
176
     1
 44
-50.0
176
     1
173
     0
176
     1
  0
VISUALSTYLE
  5
39
102
{ACAD_REACTORS
330
2A
102
}
330
2A
100
AcDbVisualStyle
  2
Facepattern
 70
    15
177
     2
291
     1
 71
     2
176
     1
 72
     2
176
     1
 73
     0
176
     1
 90
        0
176
     1
 40
-0.6
176
     1
 41
-30.0
176
     1
 62
     5
 63
     7
421
 16777215
176
     1
 74
     1
176
     1
 91
        4
176
     1
 64
     7
176
     1
 65
   257
176
     1
 75
     1
176
     1
175
     1
176
     1
 42
1.0
176
     1
 92
        8
176
     1
 66
     7
176
     1
 43
1.0
176
     1
 76
     1
176
     1
 77
     6
176
     1
 78
     2
176
     1
 67
     7
176
     1
 79
     5
176
     1
170
     0
176
     1
171
     0
176
     1
290
     0
176
     1
 93
        1
176
     1
 44
0.0
176
     1
173
     0
176
     1
  0
VISUALSTYLE
  5
2B
102
{ACAD_REACTORS
330
2A
102
}
330
2A
100
AcDbVisualStyle
  2
Flat
 70
     0
177
     2
291
     1
 71
     2
176
     1
 72
     1
176
     1
 73
     1
176
     1
 90
        2
176
     1
 40
-0.6
176
     1
 41
30.0
176
     1
 62
     5
 63
     7
421
 16777215
176
     1
 74
     0
176
     1
 91
        4
176
     1
 64
     7
176
     1
 65
   257
176
     1
 75
     1
176
     1
175
     1
176
     1
 42
1.0
176
     1
 92
        8
176
     1
 66
     7
176
     1
 43
1.0
176
     1
 76
     1
176
     1
 77
     6
176
     1
 78
     2
176
     1
 67
     7
176
     1
 79
     5
176
     1
170
     0
176
     1
171
     0
176
     1
290
     0
176
     1
 93
       13
176
     1
 44
0.0
176
     1
173
     0
176
     1
  0
VISUALSTYLE
  5
2C
102
{ACAD_REACTORS
330
2A
102
}
330
2A
100
AcDbVisualStyle
  2
FlatWithEdges
 70
     1
177
     2
291
     1
 71
     2
176
     1
 72
     1
176
     1
 73
     1
176
     1
 90
        2
176
     1
 40
-0.6
176
     1
 41
30.0
176
     1
 62
     5
 63
     7
421
 16777215
176
     1
 74
     1
176
     1
 91
        4
176
     1
 64
     7
176
     1
 65
   257
176
     1
 75
     1
176
     1
175
     1
176
     1
 42
1.0
176
     1
 92
        0
176
     1
 66
   257
176
     1
 43
1.0
176
     1
 76
     1
176
     1
 77
     6
176
     1
 78
     2
176
     1
 67
     7
176
     1
 79
     5
176
     1
170
     0
176
     1
171
     0
176
     1
290
     0
176
     1
 93
       13
176
     1
 44
0.0
176
     1
173
     0
176
     1
  0
VISUALSTYLE
  5
2D
102
{ACAD_REACTORS
330
2A
102
}
330
2A
100
AcDbVisualStyle
  2
Gouraud
 70
     2
177
     2
291
     1
 71
     2
176
     1
 72
     2
176
     1
 73
     1
176
     1
 90
        2
176
     1
 40
-0.6
176
     1
 41
30.0
176
     1
 62
     5
 63
     7
421
 16777215
176
     1
 74
     0
176
     1
 91
        4
176
     1
 64
     7
176
     1
 65
   257
176
     1
 75
     1
176
     1
175
     1
176
     1
 42
1.0
176
     1
 92
        0
176
     1
 66
     7
176
     1
 43
1.0
176
     1
 76
     1
176
     1
 77
     6
176
     1
 78
     2
176
     1
 67
     7
176
     1
 79
     5
176
     1
170
     0
176
     1
171
     0
176
     1
290
     0
176
     1
 93
       13
176
     1
 44
0.0
176
     1
173
     0
176
     1
  0
VISUALSTYLE
  5
2E
102
{ACAD_REACTORS
330
2A
102
}
330
2A
100
AcDbVisualStyle
  2
GouraudWithEdges
 70
     3
177
     2
291
     1
 71
     2
176
     1
 72
     2
176
     1
 73
     1
176
     1
 90
        2
176
     1
 40
-0.6
176
     1
 41
30.0
176
     1
 62
     5
 63
     7
421
 16777215
176
     1
 74
     1
176
     1
 91
        4
176
     1
 64
     7
176
     1
 65
   257
176
     1
 75
     1
176
     1
175
     1
176
     1
 42
1.0
176
     1
 92
        0
176
     1
 66
   257
176
     1
 43
1.0
176
     1
 76
     1
176
     1
 77
     6
176
     1
 78
     2
176
     1
 67
     7
176
     1
 79
     5
176
     1
170
     0
176
     1
171
     0
176
     1
290
     0
176
     1
 93
       13
176
     1
 44
0.0
176
     1
173
     0
176
     1
  0
VISUALSTYLE
  5
38
102
{ACAD_REACTORS
330
2A
102
}
330
2A
100
AcDbVisualStyle
  2
Linepattern
 70
    14
177
     2
291
     1
 71
     2
176
     1
 72
     2
176
     1
 73
     0
176
     1
 90
        0
176
     1
 40
-0.6
176
     1
 41
-30.0
176
     1
 62
     5
 63
     7
421
 16777215
176
     1
 74
     1
176
     1
 91
        4
176
     1
 64
     7
176
     1
 65
   257
176
     1
 75
     7
176
     1
175
     7
176
     1
 42
1.0
176
     1
 92
        8
176
     1
 66
     7
176
     1
 43
1.0
176
     1
 76
     1
176
     1
 77
     6
176
     1
 78
     2
176
     1
 67
     7
176
     1
 79
     5
176
     1
170
     0
176
     1
171
     0
176
     1
290
     0
176
     1
 93
        1
176
     1
 44
0.0
176
     1
173
     0
176
     1
  0
VISUALSTYLE
  5
33
102
{ACAD_REACTORS
330
2A
102
}
330
2A
100
AcDbVisualStyle
  2
Realistic
 70
     8
177
     2
291
     0
 71
     2
176
     1
 72
     2
176
     1
 73
     0
176
     1
 90
        0
176
     1
 40
-0.6
176
     1
 41
-30.0
176
     1
 62
     5
 63
     7
421
 16777215
176
     1
 74
     1
176
     1
 91
        0
176
     1
 64
     7
176
     1
 65
   257
176
     1
 75
     1
176
     1
175
     1
176
     1
 42
1.0
176
     1
 92
        8
176
     1
 66
     8
424
  7895160
176
     1
 43
1.0
176
     1
 76
     1
176
     1
 77
     6
176
     1
 78
     2
176
     1
 67
     7
176
     1
 79
     5
176
     1
170
     0
176
     1
171
     0
176
     1
290
     0
176
     1
 93
       13
176
     1
 44
0.0
176
     1
173
     0
176
     1
  0
VISUALSTYLE
  5
37
102
{ACAD_REACTORS
330
2A
102
}
330
2A
100
AcDbVisualStyle
  2
Thicken
 70
    13
177
     2
291
     1
 71
     2
176
     1
 72
     2
176
     1
 73
     0
176
     1
 90
        0
176
     1
 40
-0.6
176
     1
 41
-30.0
176
     1
 62
     5
 63
     7
421
 16777215
176
     1
 74
     1
176
     1
 91
        4
176
     1
 64
     7
176
     1
 65
   257
176
     1
 75
     1
176
     1
175
     1
176
     1
 42
1.0
176
     1
 92
       12
176
     1
 66
     7
176
     1
 43
1.0
176
     1
 76
     1
176
     1
 77
     6
176
     1
 78
     2
176
     1
 67
     7
176
     1
 79
     5
176
     1
170
     0
176
     1
171
     0
176
     1
290
     0
176
     1
 93
        1
176
     1
 44
0.0
176
     1
173
     0
176
     1
  0
ENDSEC
  0
EOF
