  0
SECTION
  2
HEADER
  9
$ACADVER
  1
AC1024
  9
$ACADMAINTVER
 70
     6
  9
$DWGCODEPAGE
  3
UNDEFINED
  9
$INSBASE
 10
0.0
 20
0.0
 30
0.0
  9
$EXTMIN
 10
1.000000000000000E+20
 20
1.000000000000000E+20
 30
1.000000000000000E+20
  9
$EXTMAX
 10
-1.000000000000000E+20
 20
-1.000000000000000E+20
 30
-1.000000000000000E+20
  9
$LIMMIN
 10
0.0
 20
0.0
  9
$LIMMAX
 10
12.0
 20
9.0
  9
$ORTHOMODE
 70
     0
  9
$REGENMODE
 70
     1
  9
$FILLMODE
 70
     1
  9
$QTEXTMODE
 70
     0
  9
$MIRRTEXT
 70
     1
  9
$LTSCALE
 40
1.0
  9
$ATTMODE
 70
     1
  9
$TEXTSIZE
 40
0.2
  9
$TRACEWID
 40
0.05
  9
$TEXTSTYLE
  7
Standard
  9
$CLAYER
  8
0
  9
$CELTYPE
  6
ByLayer
  9
$CECOLOR
 62
   256
  9
$CELTSCALE
 40
1.0
  9
$DISPSILH
 70
     0
  9
$DIMSCALE
 40
1.0
  9
$DIMASZ
 40
0.18
  9
$DIMEXO
 40
0.0625
  9
$DIMDLI
 40
0.38
  9
$DIMRND
 40
0.0
  9
$DIMDLE
 40
0.0
  9
$DIMEXE
 40
0.18
  9
$DIMTP
 40
0.0
  9
$DIMTM
 40
0.0
  9
$DIMTXT
 40
0.18
  9
$DIMCEN
 40
0.09
  9
$DIMTSZ
 40
0.0
  9
$DIMTOL
 70
     0
  9
$DIMLIM
 70
     0
  9
$DIMTIH
 70
     1
  9
$DIMTOH
 70
     1
  9
$DIMSE1
 70
     0
  9
$DIMSE2
 70
     0
  9
$DIMTAD
 70
     0
  9
$DIMZIN
 70
     0
  9
$DIMBLK
  1

  9
$DIMASO
 70
     1
  9
$DIMSHO
 70
     1
  9
$DIMPOST
  1

  9
$DIMAPOST
  1

  9
$DIMALT
 70
     0
  9
$DIMALTD
 70
     2
  9
$DIMALTF
 40
25.4
  9
$DIMLFAC
 40
1.0
  9
$DIMTOFL
 70
     0
  9
$DIMTVP
 40
0.0
  9
$DIMTIX
 70
     0
  9
$DIMSOXD
 70
     0
  9
$DIMSAH
 70
     0
  9
$DIMBLK1
  1

  9
$DIMBLK2
  1

  9
$DIMSTYLE
  2
Standard
  9
$DIMCLRD
 70
     0
  9
$DIMCLRE
 70
     0
  9
$DIMCLRT
 70
     0
  9
$DIMTFAC
 40
1.0
  9
$DIMGAP
 40
0.09
  9
$DIMJUST
 70
     0
  9
$DIMSD1
 70
     0
  9
$DIMSD2
 70
     0
  9
$DIMTOLJ
 70
     1
  9
$DIMTZIN
 70
     0
  9
$DIMALTZ
 70
     0
  9
$DIMALTTZ
 70
     0
  9
$DIMUPT
 70
     0
  9
$DIMDEC
 70
     4
  9
$DIMTDEC
 70
     4
  9
$DIMALTU
 70
     2
  9
$DIMALTTD
 70
     2
  9
$DIMTXSTY
  7
Standard
  9
$DIMAUNIT
 70
     0
  9
$DIMADEC
 70
     0
  9
$DIMALTRND
 40
0.0
  9
$DIMAZIN
 70
     0
  9
$DIMDSEP
 70
    46
  9
$DIMATFIT
 70
     3
  9
$DIMFRAC
 70
     0
  9
$DIMLDRBLK
  1

  9
$DIMLUNIT
 70
     2
  9
$DIMLWD
 70
    -2
  9
$DIMLWE
 70
    -2
  9
$DIMTMOVE
 70
     0
  9
$DIMFXL
 40
1.0
  9
$DIMFXLON
 70
     0
  9
$DIMJOGANG
 40
0.7853981633974483
  9
$DIMTFILL
 70
     0
  9
$DIMTFILLCLR
 70
     0
  9
$DIMARCSYM
 70
     0
  9
$DIMLTYPE
  6

  9
$DIMLTEX1
  6

  9
$DIMLTEX2
  6

  9
$DIMTXTDIRECTION
 70
     0
  9
$LUNITS
 70
     2
  9
$LUPREC
 70
     4
  9
$SKETCHINC
 40
0.1
  9
$FILLETRAD
 40
0.5
  9
$AUNITS
 70
     0
  9
$AUPREC
 70
     0
  9
$MENU
  1
.
  9
$ELEVATION
 40
0.0
  9
$PELEVATION
 40
0.0
  9
$THICKNESS
 40
0.0
  9
$LIMCHECK
 70
     0
  9
$CHAMFERA
 40
0.5
  9
$CHAMFERB
 40
0.5
  9
$CHAMFERC
 40
1.0
  9
$CHAMFERD
 40
0.0
  9
$SKPOLY
 70
     0
  9
$TDCREATE
 40
2457917.622013877
  9
$TDUCREATE
 40
2457917.247013889
  9
$TDUPDATE
 40
2457917.622013877
  9
$TDUUPDATE
 40
2457917.247013889
  9
$TDINDWG
 40
0.0000000116
  9
$TDUSRTIMER
 40
0.0000000116
  9
$USRTIMER
 70
     1
  9
$ANGBASE
 50
0.0
  9
$ANGDIR
 70
     0
  9
$PDMODE
 70
     0
  9
$PDSIZE
 40
0.0
  9
$PLINEWID
 40
0.0
  9
$SPLFRAME
 70
     0
  9
$SPLINETYPE
 70
     6
  9
$SPLINESEGS
 70
     8
  9
$HANDSEED
  5
D5
  9
$SURFTAB1
 70
     6
  9
$SURFTAB2
 70
     6
  9
$SURFTYPE
 70
     6
  9
$SURFU
 70
     6
  9
$SURFV
 70
     6
  9
$UCSBASE
  2

  9
$UCSNAME
  2

  9
$UCSORG
 10
0.0
 20
0.0
 30
0.0
  9
$UCSXDIR
 10
1.0
 20
0.0
 30
0.0
  9
$UCSYDIR
 10
0.0
 20
1.0
 30
0.0
  9
$UCSORTHOREF
  2

  9
$UCSORTHOVIEW
 70
     0
  9
$UCSORGTOP
 10
0.0
 20
0.0
 30
0.0
  9
$UCSORGBOTTOM
 10
0.0
 20
0.0
 30
0.0
  9
$UCSORGLEFT
 10
0.0
 20
0.0
 30
0.0
  9
$UCSORGRIGHT
 10
0.0
 20
0.0
 30
0.0
  9
$UCSORGFRONT
 10
0.0
 20
0.0
 30
0.0
  9
$UCSORGBACK
 10
0.0
 20
0.0
 30
0.0
  9
$PUCSBASE
  2

  9
$PUCSNAME
  2

  9
$PUCSORG
 10
0.0
 20
0.0
 30
0.0
  9
$PUCSXDIR
 10
1.0
 20
0.0
 30
0.0
  9
$PUCSYDIR
 10
0.0
 20
1.0
 30
0.0
  9
$PUCSORTHOREF
  2

  9
$PUCSORTHOVIEW
 70
     0
  9
$PUCSORGTOP
 10
0.0
 20
0.0
 30
0.0
  9
$PUCSORGBOTTOM
 10
0.0
 20
0.0
 30
0.0
  9
$PUCSORGLEFT
 10
0.0
 20
0.0
 30
0.0
  9
$PUCSORGRIGHT
 10
0.0
 20
0.0
 30
0.0
  9
$PUCSORGFRONT
 10
0.0
 20
0.0
 30
0.0
  9
$PUCSORGBACK
 10
0.0
 20
0.0
 30
0.0
  9
$USERI1
 70
     0
  9
$USERI2
 70
     0
  9
$USERI3
 70
     0
  9
$USERI4
 70
     0
  9
$USERI5
 70
     0
  9
$USERR1
 40
0.0
  9
$USERR2
 40
0.0
  9
$USERR3
 40
0.0
  9
$USERR4
 40
0.0
  9
$USERR5
 40
0.0
  9
$WORLDVIEW
 70
     1
  9
$SHADEDGE
 70
     3
  9
$SHADEDIF
 70
    70
  9
$TILEMODE
 70
     1
  9
$MAXACTVP
 70
    64
  9
$PINSBASE
 10
0.0
 20
0.0
 30
0.0
  9
$PLIMCHECK
 70
     0
  9
$PEXTMIN
 10
1.000000000000000E+20
 20
1.000000000000000E+20
 30
1.000000000000000E+20
  9
$PEXTMAX
 10
-1.000000000000000E+20
 20
-1.000000000000000E+20
 30
-1.000000000000000E+20
  9
$PLIMMIN
 10
0.0
 20
0.0
  9
$PLIMMAX
 10
12.0
 20
9.0
  9
$UNITMODE
 70
     0
  9
$VISRETAIN
 70
     1
  9
$PLINEGEN
 70
     0
  9
$PSLTSCALE
 70
     1
  9
$TREEDEPTH
 70
  3020
  9
$CMLSTYLE
  2
Standard
  9
$CMLJUST
 70
     0
  9
$CMLSCALE
 40
1.0
  9
$PROXYGRAPHICS
 70
     1
  9
$MEASUREMENT
 70
     0
  9
$CELWEIGHT
370
    -1
  9
$ENDCAPS
280
     0
  9
$JOINSTYLE
280
     0
  9
$LWDISPLAY
290
     1
  9
$INSUNITS
 70
     1
  9
$HYPERLINKBASE
  1

  9
$STYLESHEET
  1

  9
$XEDIT
290
     1
  9
$CEPSNTYPE
380
     0
  9
$PSTYLEMODE
290
     1
  9
$FINGERPRINTGUID
  2
{7E8BCD06-563C-50F5-592B-2451AEC8C010}
  9
$VERSIONGUID
  2
{FAEB1C32-E019-11D5-929B-00C0DF256EC4}
  9
$EXTNAMES
290
     1
  9
$PSVPSCALE
 40
0.0
  9
$OLESTARTUP
290
     0
  9
$SORTENTS
280
   127
  9
$INDEXCTL
280
     0
  9
$HIDETEXT
280
     1
  9
$XCLIPFRAME
280
     2
  9
$HALOGAP
280
     0
  9
$OBSCOLOR
 70
   257
  9
$OBSLTYPE
280
     0
  9
$INTERSECTIONDISPLAY
280
     0
  9
$INTERSECTIONCOLOR
 70
   257
  9
$DIMASSOC
280
     2
  9
$PROJECTNAME
  1

  9
$CAMERADISPLAY
290
     0
  9
$LENSLENGTH
 40
50.0
  9
$CAMERAHEIGHT
 40
0.0
  9
$STEPSPERSEC
 40
2.0
  9
$STEPSIZE
 40
6.0
  9
$3DDWFPREC
 40
2.0
  9
$PSOLWIDTH
 40
0.25
  9
$PSOLHEIGHT
 40
4.0
  9
$LOFTANG1
 40
1.570796326794897
  9
$LOFTANG2
 40
1.570796326794897
  9
$LOFTMAG1
 40
0.0
  9
$LOFTMAG2
 40
0.0
  9
$LOFTPARAM
 70
     7
  9
$LOFTNORMALS
280
     1
  9
$LATITUDE
 40
37.795
  9
$LONGITUDE
 40
-122.394
  9
$NORTHDIRECTION
 40
0.0
  9
$TIMEZONE
 70
 -8000
  9
$LIGHTGLYPHDISPLAY
280
     1
  9
$TILEMODELIGHTSYNCH
280
     1
  9
$CMATERIAL
347
3C
  9
$SOLIDHIST
280
     1
  9
$SHOWHIST
280
     1
  9
$DWFFRAME
280
     2
  9
$DGNFRAME
280
     2
  9
$REALWORLDSCALE
290
     1
  9
$INTERFERECOLOR
 62
   256
  9
$CSHADOW
280
     0
  9
$SHADOWPLANELOCATION
 40
0.0
  0
ENDSEC
  0
SECTION
  2
CLASSES
  0
CLASS
  1
ACDBDICTIONARYWDFLT
  2
AcDbDictionaryWithDefault
  3
ObjectDBX Classes
 90
        0
 91
        4
280
     0
281
     0
  0
CLASS
  1
VISUALSTYLE
  2
AcDbVisualStyle
  3
ObjectDBX Classes
 90
     4095
 91
        4
280
     0
281
     0
  0
CLASS
  1
MATERIAL
  2
AcDbMaterial
  3
ObjectDBX Classes
 90
     1153
 91
        4
280
     0
281
     0
  0
CLASS
  1
SUN
  2
AcDbSun
  3
SCENEOE
 90
     1024
 91
        4
280
     0
281
     0
  0
ENDSEC
  0
SECTION
  2
TABLES
  0
TABLE
  2
VPORT
  5
8
330
0
100
AcDbSymbolTable
 70
     1
  0
VPORT
  5
29
330
8
100
AcDbSymbolTableRecord
100
AcDbViewportTableRecord
  2
*Active
 70
     0
 10
0.0
 20
0.0
 11
1.0
 21
1.0
 12
0.0
 22
0.0
 13
0.0
 23
0.0
 14
0.5
 24
0.5
 15
0.5
 25
0.5
 16
0.0
 26
0.0
 36
1.0
 17
91.00082462281999
 27
-128.4993055234307
 37
0.0
 40
256.9986110468615
 41
0.7081814508812795
 42
50.0
 43
0.0
 44
0.0
 50
0.0
 51
0.0
 71
     0
 72
   100
 73
     1
 74
     3
 75
     0
 76
     0
 77
     0
 78
     0
281
     0
 65
     1
110
0.0
120
0.0
130
0.0
111
1.0
121
0.0
131
0.0
112
0.0
122
1.0
132
0.0
 79
     0
146
0.0
 60
     3
 61
     5
292
     1
282
     1
141
0.0
142
0.0
 63
   250
361
3F
  0
ENDTAB
  0
TABLE
  2
LTYPE
  5
5
330
0
100
AcDbSymbolTable
 70
     1
  0
LTYPE
  5
14
330
5
100
AcDbSymbolTableRecord
100
AcDbLinetypeTableRecord
  2
ByBlock
 70
     0
  3

 72
    65
 73
     0
 40
0.0
  0
LTYPE
  5
15
330
5
100
AcDbSymbolTableRecord
100
AcDbLinetypeTableRecord
  2
ByLayer
 70
     0
  3

 72
    65
 73
     0
 40
0.0
  0
LTYPE
  5
16
330
5
100
AcDbSymbolTableRecord
100
AcDbLinetypeTableRecord
  2
Continuous
 70
     0
  3
Solid line
 72
    65
 73
     0
 40
0.0
  0
ENDTAB
  0
TABLE
  2
LAYER
  5
2
330
0
100
AcDbSymbolTable
 70
     2
  0
LAYER
  5
10
330
2
100
AcDbSymbolTableRecord
100
AcDbLayerTableRecord
  2
0
 70
     0
 62
     7
  6
Continuous
370
    -3
390
F
347
3E
  0
LAYER
  5
40
330
2
100
AcDbSymbolTableRecord
100
AcDbLayerTableRecord
  2
_U+30EC_U+30A4_U+30E4_U+30FC 1
 70
     0
 62
     7
  6
Continuous
370
    -3
390
F
347
3E
  0
ENDTAB
  0
TABLE
  2
STYLE
  5
3
330
0
100
AcDbSymbolTable
 70
     1
  0
STYLE
  5
11
330
3
100
AcDbSymbolTableRecord
100
AcDbTextStyleTableRecord
  2
Standard
 70
     0
 40
0.0
 41
1.0
 50
0.0
 71
     0
 42
0.2
  3
txt
  4

  0
ENDTAB
  0
TABLE
  2
VIEW
  5
6
330
0
100
AcDbSymbolTable
 70
     0
  0
ENDTAB
  0
TABLE
  2
UCS
  5
7
330
0
100
AcDbSymbolTable
 70
     0
  0
ENDTAB
  0
TABLE
  2
APPID
  5
9
330
0
100
AcDbSymbolTable
 70
     1
  0
APPID
  5
12
330
9
100
AcDbSymbolTableRecord
100
AcDbRegAppTableRecord
  2
ACAD
 70
     0
  0
ENDTAB
  0
TABLE
  2
DIMSTYLE
  5
A
330
0
100
AcDbSymbolTable
 70
     1
100
AcDbDimStyleTable
  0
DIMSTYLE
105
27
330
A
100
AcDbSymbolTableRecord
100
AcDbDimStyleTableRecord
  2
Standard
 70
     0
178
     0
340
11
  0
ENDTAB
  0
TABLE
  2
BLOCK_RECORD
  5
1
330
0
100
AcDbSymbolTable
 70
     9
  0
BLOCK_RECORD
  5
1F
330
1
100
AcDbSymbolTableRecord
100
AcDbBlockTableRecord
  2
*Model_Space
340
22
 70
     0
280
     1
281
     0
  0
BLOCK_RECORD
  5
1B
330
1
100
AcDbSymbolTableRecord
100
AcDbBlockTableRecord
  2
*Paper_Space
340
1E
 70
     0
280
     1
281
     0
  0
BLOCK_RECORD
  5
23
330
1
100
AcDbSymbolTableRecord
100
AcDbBlockTableRecord
  2
*Paper_Space0
340
26
 70
     0
280
     1
281
     0
  0
BLOCK_RECORD
  5
41
330
1
100
AcDbSymbolTableRecord
100
AcDbBlockTableRecord
  2
block 2
340
0
102
{BLKREFS
331
42
102
}
 70
     0
280
     1
281
     0
  0
BLOCK_RECORD
  5
45
330
1
100
AcDbSymbolTableRecord
100
AcDbBlockTableRecord
  2
block 3
340
0
102
{BLKREFS
331
46
102
}
 70
     0
280
     1
281
     0
  0
BLOCK_RECORD
  5
5D
330
1
100
AcDbSymbolTableRecord
100
AcDbBlockTableRecord
  2
block 4
340
0
102
{BLKREFS
331
5E
102
}
 70
     0
280
     1
281
     0
  0
BLOCK_RECORD
  5
69
330
1
100
AcDbSymbolTableRecord
100
AcDbBlockTableRecord
  2
block 5
340
0
102
{BLKREFS
331
6A
102
}
 70
     0
280
     1
281
     0
  0
BLOCK_RECORD
  5
76
330
1
100
AcDbSymbolTableRecord
100
AcDbBlockTableRecord
  2
block 6
340
0
102
{BLKREFS
331
77
102
}
 70
     0
280
     1
281
     0
  0
BLOCK_RECORD
  5
82
330
1
100
AcDbSymbolTableRecord
100
AcDbBlockTableRecord
  2
block 7
340
0
102
{BLKREFS
331
83
102
}
 70
     0
280
     1
281
     0
  0
BLOCK_RECORD
  5
CA
330
1
100
AcDbSymbolTableRecord
100
AcDbBlockTableRecord
  2
block 8
340
0
102
{BLKREFS
331
CB
102
}
 70
     0
280
     1
281
     0
  0
BLOCK_RECORD
  5
CE
330
1
100
AcDbSymbolTableRecord
100
AcDbBlockTableRecord
  2
block 9
340
0
102
{BLKREFS
331
CF
102
}
 70
     0
280
     1
281
     0
  0
ENDTAB
  0
ENDSEC
  0
SECTION
  2
BLOCKS
  0
BLOCK
  5
20
330
1F
100
AcDbEntity
  8
0
100
AcDbBlockBegin
  2
*Model_Space
 70
     0
 10
0.0
 20
0.0
 30
0.0
  3
*Model_Space
  1

  0
ENDBLK
  5
21
330
1F
100
AcDbEntity
  8
0
100
AcDbBlockEnd
  0
BLOCK
  5
1C
330
1B
100
AcDbEntity
 67
     1
  8
0
100
AcDbBlockBegin
  2
*Paper_Space
 70
     0
 10
0.0
 20
0.0
 30
0.0
  3
*Paper_Space
  1

  0
ENDBLK
  5
1D
330
1B
100
AcDbEntity
 67
     1
  8
0
100
AcDbBlockEnd
  0
BLOCK
  5
24
330
23
100
AcDbEntity
  8
0
100
AcDbBlockBegin
  2
*Paper_Space0
 70
     0
 10
0.0
 20
0.0
 30
0.0
  3
*Paper_Space0
  1

  0
ENDBLK
  5
25
330
23
100
AcDbEntity
  8
0
100
AcDbBlockEnd
  0
BLOCK
  5
43
330
41
100
AcDbEntity
  8
0
100
AcDbBlockBegin
  2
block 2
 70
     0
 10
0.0
 20
0.0
 30
0.0
  3
block 2
  1

  0
INSERT
  5
46
330
41
100
AcDbEntity
  8
_U+30EC_U+30A4_U+30E4_U+30FC 1
100
AcDbBlockReference
  2
block 3
 10
0.0
 20
0.0
 30
0.0
  0
ENDBLK
  5
44
330
41
100
AcDbEntity
  8
0
100
AcDbBlockEnd
  0
BLOCK
  5
47
330
45
100
AcDbEntity
  8
0
100
AcDbBlockBegin
  2
block 3
 70
     0
 10
0.0
 20
0.0
 30
0.0
  3
block 3
  1

  0
POLYLINE
  5
49
330
45
100
AcDbEntity
  8
_U+30EC_U+30A4_U+30E4_U+30FC 1
370
     0
100
AcDb2dPolyline
 66
     1
 10
0.0
 20
0.0
 30
0.0
  0
VERTEX
  5
4A
330
49
100
AcDbEntity
  8
_U+30EC_U+30A4_U+30E4_U+30FC 1
370
     0
100
AcDbVertex
100
AcDb2dVertex
 10
118.9577572429125
 20
-110.8764327500587
 30
0.0
  0
VERTEX
  5
4B
330
49
100
AcDbEntity
  8
_U+30EC_U+30A4_U+30E4_U+30FC 1
370
     0
100
AcDbVertex
100
AcDb2dVertex
 10
92.21522681406023
 20
-123.1442446914363
 30
0.0
  0
VERTEX
  5
4C
330
49
100
AcDbEntity
  8
_U+30EC_U+30A4_U+30E4_U+30FC 1
370
     0
100
AcDbVertex
100
AcDb2dVertex
 10
92.21522681406023
 20
-124.7720671910291
 30
0.0
  0
VERTEX
  5
4D
330
49
100
AcDbEntity
  8
_U+30EC_U+30A4_U+30E4_U+30FC 1
370
     0
100
AcDbVertex
100
AcDb2dVertex
 10
89.20970133518202
 20
-124.5315785799784
 30
0.0
  0
VERTEX
  5
4E
330
49
100
AcDbEntity
  8
_U+30EC_U+30A4_U+30E4_U+30FC 1
370
     0
100
AcDbVertex
100
AcDb2dVertex
 10
56.70902776360052
 20
-139.6183671873174
 30
0.0
  0
VERTEX
  5
4F
330
49
100
AcDbEntity
  8
_U+30EC_U+30A4_U+30E4_U+30FC 1
370
     0
100
AcDbVertex
100
AcDb2dVertex
 10
56.66528331916709
 20
-139.6769282984143
 30
0.0
  0
VERTEX
  5
50
330
49
100
AcDbEntity
  8
_U+30EC_U+30A4_U+30E4_U+30FC 1
370
     0
100
AcDbVertex
100
AcDb2dVertex
 10
56.84131943023412
 20
-145.1670324637084
 30
0.0
  0
VERTEX
  5
51
330
49
100
AcDbEntity
  8
_U+30EC_U+30A4_U+30E4_U+30FC 1
370
     0
100
AcDbVertex
100
AcDb2dVertex
 10
57.06526132192167
 20
-145.3213727414476
 30
0.0
  0
VERTEX
  5
52
330
49
100
AcDbEntity
  8
_U+30EC_U+30A4_U+30E4_U+30FC 1
370
     0
100
AcDbVertex
100
AcDb2dVertex
 10
89.70856664423965
 20
-129.8211991342116
 30
0.0
  0
VERTEX
  5
53
330
49
100
AcDbEntity
  8
_U+30EC_U+30A4_U+30E4_U+30FC 1
370
     0
100
AcDbVertex
100
AcDb2dVertex
 10
89.70856664423965
 20
-128.5220596900919
 30
0.0
  0
VERTEX
  5
54
330
49
100
AcDbEntity
  8
_U+30EC_U+30A4_U+30E4_U+30FC 1
370
     0
100
AcDbVertex
100
AcDb2dVertex
 10
92.41331386578582
 20
-127.2432402459671
 30
0.0
  0
VERTEX
  5
55
330
49
100
AcDbEntity
  8
_U+30EC_U+30A4_U+30E4_U+30FC 1
370
     0
100
AcDbVertex
100
AcDb2dVertex
 10
92.41331386578582
 20
-128.5423796900868
 30
0.0
  0
VERTEX
  5
56
330
49
100
AcDbEntity
  8
_U+30EC_U+30A4_U+30E4_U+30FC 1
370
     0
100
AcDbVertex
100
AcDb2dVertex
 10
119.1655110813196
 20
-115.8334191377083
 30
0.0
  0
VERTEX
  5
57
330
49
100
AcDbEntity
  8
_U+30EC_U+30A4_U+30E4_U+30FC 1
370
     0
100
AcDbVertex
100
AcDb2dVertex
 10
119.1655110813196
 20
-114.4433335825002
 30
0.0
  0
VERTEX
  5
58
330
49
100
AcDbEntity
  8
_U+30EC_U+30A4_U+30E4_U+30FC 1
370
     0
100
AcDbVertex
100
AcDb2dVertex
 10
120.1590713789311
 20
-113.9255263604076
 30
0.0
  0
VERTEX
  5
59
330
49
100
AcDbEntity
  8
_U+30EC_U+30A4_U+30E4_U+30FC 1
370
     0
100
AcDbVertex
100
AcDb2dVertex
 10
120.1590713789311
 20
-111.5700996943297
 30
0.0
  0
VERTEX
  5
5A
330
49
100
AcDbEntity
  8
_U+30EC_U+30A4_U+30E4_U+30FC 1
370
     0
100
AcDbVertex
100
AcDb2dVertex
 10
118.9577572429125
 20
-110.8764327500587
 30
0.0
  0
SEQEND
  5
5C
330
49
100
AcDbEntity
  8
_U+30EC_U+30A4_U+30E4_U+30FC 1
370
     0
  0
HATCH
  5
5B
330
45
100
AcDbEntity
  8
_U+30EC_U+30A4_U+30E4_U+30FC 1
 62
     9
420
 13224394
100
AcDbHatch
 10
0.0
 20
0.0
 30
0.0
210
0.0
220
0.0
230
1.0
  2
SOLID
 70
     1
 71
     0
 91
        1
 92
        1
 93
       16
 72
     1
 10
118.9577572429125
 20
-110.8764327500587
 11
92.21522681406023
 21
-123.1442446914363
 72
     1
 10
92.21522681406023
 20
-123.1442446914363
 11
92.21522681406023
 21
-124.7720671910291
 72
     1
 10
92.21522681406023
 20
-124.7720671910291
 11
89.20970133518202
 21
-124.5315785799784
 72
     1
 10
89.20970133518202
 20
-124.5315785799784
 11
56.70902776360052
 21
-139.6183671873174
 72
     1
 10
56.70902776360052
 20
-139.6183671873174
 11
56.66528331916709
 21
-139.6769282984143
 72
     1
 10
56.66528331916709
 20
-139.6769282984143
 11
56.84131943023412
 21
-145.1670324637084
 72
     1
 10
56.84131943023412
 20
-145.1670324637084
 11
57.06526132192167
 21
-145.3213727414476
 72
     1
 10
57.06526132192167
 20
-145.3213727414476
 11
89.70856664423965
 21
-129.8211991342116
 72
     1
 10
89.70856664423965
 20
-129.8211991342116
 11
89.70856664423965
 21
-128.5220596900919
 72
     1
 10
89.70856664423965
 20
-128.5220596900919
 11
92.41331386578582
 21
-127.2432402459671
 72
     1
 10
92.41331386578582
 20
-127.2432402459671
 11
92.41331386578582
 21
-128.5423796900868
 72
     1
 10
92.41331386578582
 20
-128.5423796900868
 11
119.1655110813196
 21
-115.8334191377083
 72
     1
 10
119.1655110813196
 20
-115.8334191377083
 11
119.1655110813196
 21
-114.4433335825002
 72
     1
 10
119.1655110813196
 20
-114.4433335825002
 11
120.1590713789311
 21
-113.9255263604076
 72
     1
 10
120.1590713789311
 20
-113.9255263604076
 11
120.1590713789311
 21
-111.5700996943297
 72
     1
 10
120.1590713789311
 20
-111.5700996943297
 11
118.9577572429125
 21
-110.8764327500587
 97
        0
 75
     2
 76
     1
 98
        0
  0
ENDBLK
  5
48
330
45
100
AcDbEntity
  8
0
100
AcDbBlockEnd
  0
BLOCK
  5
5F
330
5D
100
AcDbEntity
  8
0
100
AcDbBlockBegin
  2
block 4
 70
     0
 10
0.0
 20
0.0
 30
0.0
  3
block 4
  1

  0
SPLINE
  5
61
330
5D
100
AcDbEntity
  8
_U+30EC_U+30A4_U+30E4_U+30FC 1
370
     0
100
AcDbSpline
210
0.0
220
0.0
230
1.0
 70
    11
 71
     3
 72
    62
 73
    58
 74
     0
 42
0.0000000001
 43
0.0000000001
 12
1.0
 22
0.0
 32
0.0
 13
1.0
 23
0.0
 33
0.0
 40
0.0
 40
0.0
 40
0.0
 40
0.0
 40
1.0
 40
1.0
 40
1.0
 40
2.0
 40
2.0
 40
2.0
 40
3.0
 40
3.0
 40
3.0
 40
4.0
 40
4.0
 40
4.0
 40
5.0
 40
5.0
 40
5.0
 40
6.0
 40
6.0
 40
6.0
 40
7.0
 40
7.0
 40
7.0
 40
8.0
 40
8.0
 40
8.0
 40
9.0
 40
9.0
 40
9.0
 40
10.0
 40
10.0
 40
10.0
 40
11.0
 40
11.0
 40
11.0
 40
12.0
 40
12.0
 40
12.0
 40
13.0
 40
13.0
 40
13.0
 40
14.0
 40
14.0
 40
14.0
 40
15.0
 40
15.0
 40
15.0
 40
16.0
 40
16.0
 40
16.0
 40
17.0
 40
17.0
 40
17.0
 40
18.0
 40
18.0
 40
18.0
 40
19.0
 40
19.0
 40
19.0
 40
19.0
 10
67.64651691017171
 20
-128.1448051979985
 30
0.0
 10
67.55108776523029
 20
-128.1448051979985
 30
0.0
 10
67.3333577305625
 20
-128.1237901155385
 30
0.0
 10
67.20830076444793
 20
-127.937754959335
 30
0.0
 10
67.13457572106358
 20
-127.8254448465159
 30
0.0
 10
67.13009709693276
 20
-127.7262260965407
 30
0.0
 10
67.12596298235046
 20
-127.6414767476035
 30
0.0
 10
67.12596298235046
 20
-127.6414767476035
 30
0.0
 10
67.34610458385792
 20
-127.6414767476035
 30
0.0
 10
67.34610458385792
 20
-127.6414767476035
 30
0.0
 10
67.34817164114907
 20
-127.7155463005364
 30
0.0
 10
67.35850692760482
 20
-127.9501573030819
 30
0.0
 10
67.64203828604089
 20
-127.9501573030819
 30
0.0
 10
67.77949759590236
 20
-127.9501573030819
 30
0.0
 10
67.93211532589892
 20
-127.8805663742799
 30
0.0
 10
67.93211532589892
 20
-127.6521565436078
 30
0.0
 10
67.93211532589892
 20
-127.5357123162064
 30
0.0
 10
67.89387476601264
 20
-127.4871364698643
 30
0.0
 10
67.86217988754835
 20
-127.4554415914
 30
0.0
 10
67.78811033461548
 20
-127.3813720384672
 30
0.0
 10
67.67166610721404
 20
-127.3686251851717
 30
0.0
 10
67.61688908899856
 20
-127.3686251851717
 30
0.0
 10
67.59759655428115
 20
-127.3686251851717
 30
0.0
 10
67.56176756123456
 20
-127.3706922424629
 30
0.0
 10
67.53420679735257
 20
-127.3748263570452
 30
0.0
 10
67.53420679735257
 20
-127.3748263570452
 30
0.0
 10
67.53420679735257
 20
-127.1801784621286
 30
0.0
 10
67.53420679735257
 20
-127.1801784621286
 30
0.0
 10
67.57244735723883
 20
-127.1867241435505
 30
0.0
 10
67.61447752215888
 20
-127.1887912008417
 30
0.0
 10
67.62102320358086
 20
-127.1887912008417
 30
0.0
 10
67.6864800178006
 20
-127.1887912008417
 30
0.0
 10
67.88526202729952
 20
-127.1674316088331
 30
0.0
 10
67.88526202729952
 20
-126.9307535489965
 30
0.0
 10
67.88526202729952
 20
-126.7529866219576
 30
0.0
 10
67.75434839886003
 20
-126.6978650941936
 30
0.0
 10
67.64410534333203
 20
-126.6978650941936
 30
0.0
 10
67.37986651961337
 20
-126.6978650941936
 30
0.0
 10
67.37125378090025
 20
-126.9307535489965
 30
0.0
 10
67.36711966631795
 20
-127.0024115350897
 30
0.0
 10
67.36711966631795
 20
-127.0024115350897
 30
0.0
 10
67.16385903268821
 20
-127.0024115350897
 30
0.0
 10
67.16385903268821
 20
-127.0024115350897
 30
0.0
 10
67.17247177140133
 20
-126.8776990785236
 30
0.0
 10
67.20003253528333
 20
-126.5011501419858
 30
0.0
 10
67.65685219662745
 20
-126.5011501419858
 30
0.0
 10
67.88112791271722
 20
-126.5011501419858
 30
0.0
 10
68.12228459668471
 20
-126.6282741653915
 30
0.0
 10
68.12228459668471
 20
-126.9242078675745
 30
0.0
 10
68.12228459668471
 20
-127.1105875333265
 30
0.0
 10
68.02719996129181
 20
-127.192925315424
 30
0.0
 10
67.9276367017681
 20
-127.2542480150614
 30
0.0
 10
67.98895940140554
 20
-127.2818087789434
 30
0.0
 10
68.17086044302673
 20
-127.3620795037498
 30
0.0
 10
68.17086044302673
 20
-127.6394096903124
 30
0.0
 10
68.17086044302673
 20
-127.9777180669639
 30
0.0
 10
67.9235025871858
 20
-128.1448051979985
 30
0.0
 10
67.64651691017171
 20
-128.1448051979985
 30
0.0
  0
HATCH
  5
62
330
5D
100
AcDbEntity
  8
_U+30EC_U+30A4_U+30E4_U+30FC 1
 62
   179
420
  2234388
100
AcDbHatch
 10
0.0
 20
0.0
 30
0.0
210
0.0
220
0.0
230
1.0
  2
SOLID
 70
     1
 71
     0
 91
        1
 92
        1
 93
        1
 72
     4
 94
        3
 73
     0
 74
     1
 95
       62
 96
       58
 40
0.0
 40
0.0
 40
0.0
 40
0.0
 40
1.0
 40
1.0
 40
1.0
 40
2.0
 40
2.0
 40
2.0
 40
3.0
 40
3.0
 40
3.0
 40
4.0
 40
4.0
 40
4.0
 40
5.0
 40
5.0
 40
5.0
 40
6.0
 40
6.0
 40
6.0
 40
7.0
 40
7.0
 40
7.0
 40
8.0
 40
8.0
 40
8.0
 40
9.0
 40
9.0
 40
9.0
 40
10.0
 40
10.0
 40
10.0
 40
11.0
 40
11.0
 40
11.0
 40
12.0
 40
12.0
 40
12.0
 40
13.0
 40
13.0
 40
13.0
 40
14.0
 40
14.0
 40
14.0
 40
15.0
 40
15.0
 40
15.0
 40
16.0
 40
16.0
 40
16.0
 40
17.0
 40
17.0
 40
17.0
 40
18.0
 40
18.0
 40
18.0
 40
19.0
 40
19.0
 40
19.0
 40
19.0
 10
67.64651691017171
 20
-128.1448051979985
 10
67.55108776523029
 20
-128.1448051979985
 10
67.3333577305625
 20
-128.1237901155385
 10
67.20830076444793
 20
-127.937754959335
 10
67.13457572106358
 20
-127.8254448465159
 10
67.13009709693276
 20
-127.7262260965407
 10
67.12596298235046
 20
-127.6414767476035
 10
67.12596298235046
 20
-127.6414767476035
 10
67.34610458385792
 20
-127.6414767476035
 10
67.34610458385792
 20
-127.6414767476035
 10
67.34817164114907
 20
-127.7155463005364
 10
67.35850692760482
 20
-127.9501573030819
 10
67.64203828604089
 20
-127.9501573030819
 10
67.77949759590236
 20
-127.9501573030819
 10
67.93211532589892
 20
-127.8805663742799
 10
67.93211532589892
 20
-127.6521565436078
 10
67.93211532589892
 20
-127.5357123162064
 10
67.89387476601264
 20
-127.4871364698643
 10
67.86217988754835
 20
-127.4554415914
 10
67.78811033461548
 20
-127.3813720384672
 10
67.67166610721404
 20
-127.3686251851717
 10
67.61688908899856
 20
-127.3686251851717
 10
67.59759655428115
 20
-127.3686251851717
 10
67.56176756123456
 20
-127.3706922424629
 10
67.53420679735257
 20
-127.3748263570452
 10
67.53420679735257
 20
-127.3748263570452
 10
67.53420679735257
 20
-127.1801784621286
 10
67.53420679735257
 20
-127.1801784621286
 10
67.57244735723883
 20
-127.1867241435505
 10
67.61447752215888
 20
-127.1887912008417
 10
67.62102320358086
 20
-127.1887912008417
 10
67.6864800178006
 20
-127.1887912008417
 10
67.88526202729952
 20
-127.1674316088331
 10
67.88526202729952
 20
-126.9307535489965
 10
67.88526202729952
 20
-126.7529866219576
 10
67.75434839886003
 20
-126.6978650941936
 10
67.64410534333203
 20
-126.6978650941936
 10
67.37986651961337
 20
-126.6978650941936
 10
67.37125378090025
 20
-126.9307535489965
 10
67.36711966631795
 20
-127.0024115350897
 10
67.36711966631795
 20
-127.0024115350897
 10
67.16385903268821
 20
-127.0024115350897
 10
67.16385903268821
 20
-127.0024115350897
 10
67.17247177140133
 20
-126.8776990785236
 10
67.20003253528333
 20
-126.5011501419858
 10
67.65685219662745
 20
-126.5011501419858
 10
67.88112791271722
 20
-126.5011501419858
 10
68.12228459668471
 20
-126.6282741653915
 10
68.12228459668471
 20
-126.9242078675745
 10
68.12228459668471
 20
-127.1105875333265
 10
68.02719996129181
 20
-127.192925315424
 10
67.9276367017681
 20
-127.2542480150614
 10
67.98895940140554
 20
-127.2818087789434
 10
68.17086044302673
 20
-127.3620795037498
 10
68.17086044302673
 20
-127.6394096903124
 10
68.17086044302673
 20
-127.9777180669639
 10
67.9235025871858
 20
-128.1448051979985
 10
67.64651691017171
 20
-128.1448051979985
 97
        0
 97
        0
 75
     2
 76
     1
 98
        0
  0
SPLINE
  5
63
330
5D
100
AcDbEntity
  8
_U+30EC_U+30A4_U+30E4_U+30FC 1
370
     0
100
AcDbSpline
210
0.0
220
0.0
230
1.0
 70
    11
 71
     3
 72
    29
 73
    25
 74
     0
 42
0.0000000001
 43
0.0000000001
 12
1.0
 22
0.0
 32
0.0
 13
1.0
 23
0.0
 33
0.0
 40
0.0
 40
0.0
 40
0.0
 40
0.0
 40
1.0
 40
1.0
 40
1.0
 40
2.0
 40
2.0
 40
2.0
 40
3.0
 40
3.0
 40
3.0
 40
4.0
 40
4.0
 40
4.0
 40
5.0
 40
5.0
 40
5.0
 40
6.0
 40
6.0
 40
6.0
 40
7.0
 40
7.0
 40
7.0
 40
8.0
 40
8.0
 40
8.0
 40
8.0
 10
69.22953828564401
 20
-127.9163953673265
 30
0.0
 10
69.12136228740717
 20
-128.1258571728297
 30
0.0
 10
68.94807398449909
 20
-128.1448051979985
 30
0.0
 10
68.83162975709764
 20
-128.1448051979985
 30
0.0
 10
68.67074379793648
 20
-128.1448051979985
 30
0.0
 10
68.52915037349271
 20
-128.0982964089476
 30
0.0
 10
68.43406573809982
 20
-127.9163953673265
 30
0.0
 10
68.3303683639938
 20
-127.7217474724098
 30
0.0
 10
68.31142033882493
 20
-127.4847249030247
 30
0.0
 10
68.31142033882493
 20
-127.3221163961209
 30
0.0
 10
68.31142033882493
 20
-127.1781114048374
 30
0.0
 10
68.32830130670266
 20
-126.9262749248657
 30
0.0
 10
68.43406573809982
 20
-126.7274929153667
 30
0.0
 10
68.54189722678814
 20
-126.5245767912855
 30
0.0
 10
68.7027831859493
 20
-126.5011501419858
 30
0.0
 10
68.83162975709764
 20
-126.5011501419858
 30
0.0
 10
68.99044865896767
 20
-126.5011501419858
 30
0.0
 10
69.13410914070259
 20
-126.5455918737456
 30
0.0
 10
69.22953828564401
 20
-126.7274929153667
 30
0.0
 10
69.3287570356192
 20
-126.9200737529922
 30
0.0
 10
69.3521836849189
 20
-127.1484835836643
 30
0.0
 10
69.3521836849189
 20
-127.3221163961209
 30
0.0
 10
69.3521836849189
 20
-127.4933376417378
 30
0.0
 10
69.33082409291035
 20
-127.723814529701
 30
0.0
 10
69.22953828564401
 20
-127.9163953673265
 30
0.0
  0
SPLINE
  5
64
330
5D
100
AcDbEntity
  8
_U+30EC_U+30A4_U+30E4_U+30FC 1
370
     0
100
AcDbSpline
210
0.0
220
0.0
230
1.0
 70
    11
 71
     3
 72
    17
 73
    13
 74
     0
 42
0.0000000001
 43
0.0000000001
 12
1.0
 22
0.0
 32
0.0
 13
1.0
 23
0.0
 33
0.0
 40
0.0
 40
0.0
 40
0.0
 40
0.0
 40
1.0
 40
1.0
 40
1.0
 40
2.0
 40
2.0
 40
2.0
 40
3.0
 40
3.0
 40
3.0
 40
4.0
 40
4.0
 40
4.0
 40
4.0
 10
68.83162975709764
 20
-126.6937309796113
 30
0.0
 10
68.58220484396556
 20
-126.6937309796113
 30
0.0
 10
68.53535154536617
 20
-126.9772623380474
 30
0.0
 10
68.53535154536617
 20
-127.3221163961209
 30
0.0
 10
68.53535154536617
 20
-127.6414767476035
 30
0.0
 10
68.57152504796129
 20
-127.9501573030819
 30
0.0
 10
68.83162975709764
 20
-127.9501573030819
 30
0.0
 10
69.07933212248712
 20
-127.9501573030819
 30
0.0
 10
69.12790796882913
 20
-127.6690375114855
 30
0.0
 10
69.12790796882913
 20
-127.3221163961209
 30
0.0
 10
69.12790796882913
 20
-127.0024115350897
 30
0.0
 10
69.08966740894286
 20
-126.6937309796113
 30
0.0
 10
68.83162975709764
 20
-126.6937309796113
 30
0.0
  0
HATCH
  5
65
330
5D
100
AcDbEntity
  8
_U+30EC_U+30A4_U+30E4_U+30FC 1
 62
   179
420
  2234388
100
AcDbHatch
 10
0.0
 20
0.0
 30
0.0
210
0.0
220
0.0
230
1.0
  2
SOLID
 70
     1
 71
     0
 91
        2
 92
        1
 93
        1
 72
     4
 94
        3
 73
     0
 74
     1
 95
       29
 96
       25
 40
0.0
 40
0.0
 40
0.0
 40
0.0
 40
1.0
 40
1.0
 40
1.0
 40
2.0
 40
2.0
 40
2.0
 40
3.0
 40
3.0
 40
3.0
 40
4.0
 40
4.0
 40
4.0
 40
5.0
 40
5.0
 40
5.0
 40
6.0
 40
6.0
 40
6.0
 40
7.0
 40
7.0
 40
7.0
 40
8.0
 40
8.0
 40
8.0
 40
8.0
 10
69.22953828564401
 20
-127.9163953673265
 10
69.12136228740717
 20
-128.1258571728297
 10
68.94807398449909
 20
-128.1448051979985
 10
68.83162975709764
 20
-128.1448051979985
 10
68.67074379793648
 20
-128.1448051979985
 10
68.52915037349271
 20
-128.0982964089476
 10
68.43406573809982
 20
-127.9163953673265
 10
68.3303683639938
 20
-127.7217474724098
 10
68.31142033882493
 20
-127.4847249030247
 10
68.31142033882493
 20
-127.3221163961209
 10
68.31142033882493
 20
-127.1781114048374
 10
68.32830130670266
 20
-126.9262749248657
 10
68.43406573809982
 20
-126.7274929153667
 10
68.54189722678814
 20
-126.5245767912855
 10
68.7027831859493
 20
-126.5011501419858
 10
68.83162975709764
 20
-126.5011501419858
 10
68.99044865896767
 20
-126.5011501419858
 10
69.13410914070259
 20
-126.5455918737456
 10
69.22953828564401
 20
-126.7274929153667
 10
69.3287570356192
 20
-126.9200737529922
 10
69.3521836849189
 20
-127.1484835836643
 10
69.3521836849189
 20
-127.3221163961209
 10
69.3521836849189
 20
-127.4933376417378
 10
69.33082409291035
 20
-127.723814529701
 10
69.22953828564401
 20
-127.9163953673265
 97
        0
 97
        0
 92
        1
 93
        1
 72
     4
 94
        3
 73
     0
 74
     1
 95
       17
 96
       13
 40
0.0
 40
0.0
 40
0.0
 40
0.0
 40
1.0
 40
1.0
 40
1.0
 40
2.0
 40
2.0
 40
2.0
 40
3.0
 40
3.0
 40
3.0
 40
4.0
 40
4.0
 40
4.0
 40
4.0
 10
68.83162975709764
 20
-126.6937309796113
 10
68.58220484396556
 20
-126.6937309796113
 10
68.53535154536617
 20
-126.9772623380474
 10
68.53535154536617
 20
-127.3221163961209
 10
68.53535154536617
 20
-127.6414767476035
 10
68.57152504796129
 20
-127.9501573030819
 10
68.83162975709764
 20
-127.9501573030819
 10
69.07933212248712
 20
-127.9501573030819
 10
69.12790796882913
 20
-127.6690375114855
 10
69.12790796882913
 20
-127.3221163961209
 10
69.12790796882913
 20
-127.0024115350897
 10
69.08966740894286
 20
-126.6937309796113
 10
68.83162975709764
 20
-126.6937309796113
 97
        0
 97
        0
 75
     2
 76
     1
 98
        0
  0
SPLINE
  5
66
330
5D
100
AcDbEntity
  8
_U+30EC_U+30A4_U+30E4_U+30FC 1
370
     0
100
AcDbSpline
210
0.0
220
0.0
230
1.0
 70
    11
 71
     3
 72
    29
 73
    25
 74
     0
 42
0.0000000001
 43
0.0000000001
 12
1.0
 22
0.0
 32
0.0
 13
1.0
 23
0.0
 33
0.0
 40
0.0
 40
0.0
 40
0.0
 40
0.0
 40
1.0
 40
1.0
 40
1.0
 40
2.0
 40
2.0
 40
2.0
 40
3.0
 40
3.0
 40
3.0
 40
4.0
 40
4.0
 40
4.0
 40
5.0
 40
5.0
 40
5.0
 40
6.0
 40
6.0
 40
6.0
 40
7.0
 40
7.0
 40
7.0
 40
8.0
 40
8.0
 40
8.0
 40
8.0
 10
70.40638290340536
 20
-127.9163953673265
 30
0.0
 10
70.29820690516851
 20
-128.1258571728297
 30
0.0
 10
70.12491860226044
 20
-128.1448051979985
 30
0.0
 10
70.00847437485899
 20
-128.1448051979985
 30
0.0
 10
69.84758841569783
 20
-128.1448051979985
 30
0.0
 10
69.70599499125406
 20
-128.0982964089476
 30
0.0
 10
69.61091035586117
 20
-127.9163953673265
 30
0.0
 10
69.50721298175515
 20
-127.7217474724098
 30
0.0
 10
69.48826495658626
 20
-127.4847249030247
 30
0.0
 10
69.48826495658626
 20
-127.3221163961209
 30
0.0
 10
69.48826495658626
 20
-127.1781114048374
 30
0.0
 10
69.50514592446399
 20
-126.9262749248657
 30
0.0
 10
69.61091035586117
 20
-126.7274929153667
 30
0.0
 10
69.71874184454948
 20
-126.5245767912855
 30
0.0
 10
69.87962780371065
 20
-126.5011501419858
 30
0.0
 10
70.00847437485899
 20
-126.5011501419858
 30
0.0
 10
70.16729327672901
 20
-126.5011501419858
 30
0.0
 10
70.31095375846394
 20
-126.5455918737456
 30
0.0
 10
70.40638290340536
 20
-126.7274929153667
 30
0.0
 10
70.50560165338055
 20
-126.9200737529922
 30
0.0
 10
70.52902830268025
 20
-127.1484835836643
 30
0.0
 10
70.52902830268025
 20
-127.3221163961209
 30
0.0
 10
70.52902830268025
 20
-127.4933376417378
 30
0.0
 10
70.5076687106717
 20
-127.723814529701
 30
0.0
 10
70.40638290340536
 20
-127.9163953673265
 30
0.0
  0
SPLINE
  5
67
330
5D
100
AcDbEntity
  8
_U+30EC_U+30A4_U+30E4_U+30FC 1
370
     0
100
AcDbSpline
210
0.0
220
0.0
230
1.0
 70
    11
 71
     3
 72
    17
 73
    13
 74
     0
 42
0.0000000001
 43
0.0000000001
 12
1.0
 22
0.0
 32
0.0
 13
1.0
 23
0.0
 33
0.0
 40
0.0
 40
0.0
 40
0.0
 40
0.0
 40
1.0
 40
1.0
 40
1.0
 40
2.0
 40
2.0
 40
2.0
 40
3.0
 40
3.0
 40
3.0
 40
4.0
 40
4.0
 40
4.0
 40
4.0
 10
70.00847437485899
 20
-126.6937309796113
 30
0.0
 10
69.7590494617269
 20
-126.6937309796113
 30
0.0
 10
69.71219616312752
 20
-126.9772623380474
 30
0.0
 10
69.71219616312752
 20
-127.3221163961209
 30
0.0
 10
69.71219616312752
 20
-127.6414767476035
 30
0.0
 10
69.74836966572263
 20
-127.9501573030819
 30
0.0
 10
70.00847437485899
 20
-127.9501573030819
 30
0.0
 10
70.25617674024846
 20
-127.9501573030819
 30
0.0
 10
70.30475258659048
 20
-127.6690375114855
 30
0.0
 10
70.30475258659048
 20
-127.3221163961209
 30
0.0
 10
70.30475258659048
 20
-127.0024115350897
 30
0.0
 10
70.2665120267042
 20
-126.6937309796113
 30
0.0
 10
70.00847437485899
 20
-126.6937309796113
 30
0.0
  0
HATCH
  5
68
330
5D
100
AcDbEntity
  8
_U+30EC_U+30A4_U+30E4_U+30FC 1
 62
   179
420
  2234388
100
AcDbHatch
 10
0.0
 20
0.0
 30
0.0
210
0.0
220
0.0
230
1.0
  2
SOLID
 70
     1
 71
     0
 91
        2
 92
        1
 93
        1
 72
     4
 94
        3
 73
     0
 74
     1
 95
       29
 96
       25
 40
0.0
 40
0.0
 40
0.0
 40
0.0
 40
1.0
 40
1.0
 40
1.0
 40
2.0
 40
2.0
 40
2.0
 40
3.0
 40
3.0
 40
3.0
 40
4.0
 40
4.0
 40
4.0
 40
5.0
 40
5.0
 40
5.0
 40
6.0
 40
6.0
 40
6.0
 40
7.0
 40
7.0
 40
7.0
 40
8.0
 40
8.0
 40
8.0
 40
8.0
 10
70.40638290340536
 20
-127.9163953673265
 10
70.29820690516851
 20
-128.1258571728297
 10
70.12491860226044
 20
-128.1448051979985
 10
70.00847437485899
 20
-128.1448051979985
 10
69.84758841569783
 20
-128.1448051979985
 10
69.70599499125406
 20
-128.0982964089476
 10
69.61091035586117
 20
-127.9163953673265
 10
69.50721298175515
 20
-127.7217474724098
 10
69.48826495658626
 20
-127.4847249030247
 10
69.48826495658626
 20
-127.3221163961209
 10
69.48826495658626
 20
-127.1781114048374
 10
69.50514592446399
 20
-126.9262749248657
 10
69.61091035586117
 20
-126.7274929153667
 10
69.71874184454948
 20
-126.5245767912855
 10
69.87962780371065
 20
-126.5011501419858
 10
70.00847437485899
 20
-126.5011501419858
 10
70.16729327672901
 20
-126.5011501419858
 10
70.31095375846394
 20
-126.5455918737456
 10
70.40638290340536
 20
-126.7274929153667
 10
70.50560165338055
 20
-126.9200737529922
 10
70.52902830268025
 20
-127.1484835836643
 10
70.52902830268025
 20
-127.3221163961209
 10
70.52902830268025
 20
-127.4933376417378
 10
70.5076687106717
 20
-127.723814529701
 10
70.40638290340536
 20
-127.9163953673265
 97
        0
 97
        0
 92
        1
 93
        1
 72
     4
 94
        3
 73
     0
 74
     1
 95
       17
 96
       13
 40
0.0
 40
0.0
 40
0.0
 40
0.0
 40
1.0
 40
1.0
 40
1.0
 40
2.0
 40
2.0
 40
2.0
 40
3.0
 40
3.0
 40
3.0
 40
4.0
 40
4.0
 40
4.0
 40
4.0
 10
70.00847437485899
 20
-126.6937309796113
 10
69.7590494617269
 20
-126.6937309796113
 10
69.71219616312752
 20
-126.9772623380474
 10
69.71219616312752
 20
-127.3221163961209
 10
69.71219616312752
 20
-127.6414767476035
 10
69.74836966572263
 20
-127.9501573030819
 10
70.00847437485899
 20
-127.9501573030819
 10
70.25617674024846
 20
-127.9501573030819
 10
70.30475258659048
 20
-127.6690375114855
 10
70.30475258659048
 20
-127.3221163961209
 10
70.30475258659048
 20
-127.0024115350897
 10
70.2665120267042
 20
-126.6937309796113
 10
70.00847437485899
 20
-126.6937309796113
 97
        0
 97
        0
 75
     2
 76
     1
 98
        0
  0
ENDBLK
  5
60
330
5D
100
AcDbEntity
  8
0
100
AcDbBlockEnd
  0
BLOCK
  5
6B
330
69
100
AcDbEntity
  8
0
100
AcDbBlockBegin
  2
block 5
 70
     0
 10
0.0
 20
0.0
 30
0.0
  3
block 5
  1

  0
SPLINE
  5
6D
330
69
100
AcDbEntity
  8
_U+30EC_U+30A4_U+30E4_U+30FC 1
370
     0
100
AcDbSpline
210
0.0
220
0.0
230
1.0
 70
    11
 71
     3
 72
    32
 73
    28
 74
     0
 42
0.0000000001
 43
0.0000000001
 12
1.0
 22
0.0
 32
0.0
 13
1.0
 23
0.0
 33
0.0
 40
0.0
 40
0.0
 40
0.0
 40
0.0
 40
1.0
 40
1.0
 40
1.0
 40
2.0
 40
2.0
 40
2.0
 40
3.0
 40
3.0
 40
3.0
 40
4.0
 40
4.0
 40
4.0
 40
5.0
 40
5.0
 40
5.0
 40
6.0
 40
6.0
 40
6.0
 40
7.0
 40
7.0
 40
7.0
 40
8.0
 40
8.0
 40
8.0
 40
9.0
 40
9.0
 40
9.0
 40
9.0
 10
97.90961369080038
 20
-133.7892496410319
 30
0.0
 10
97.39353838710996
 20
-133.7892496410319
 30
0.0
 10
97.38527015794536
 20
-133.2352782870037
 30
0.0
 10
97.38527015794536
 20
-133.0213378573697
 30
0.0
 10
97.38527015794536
 20
-132.7908609694065
 30
0.0
 10
97.40421818311422
 20
-132.143527527728
 30
0.0
 10
97.94785425068665
 20
-132.143527527728
 30
0.0
 10
98.12114255359472
 20
-132.143527527728
 30
0.0
 10
98.36677786169304
 20
-132.2134629660786
 30
0.0
 10
98.40467391203077
 20
-132.5455701708567
 30
0.0
 10
98.40467391203077
 20
-132.5455701708567
 30
0.0
 10
98.19107799194529
 20
-132.5455701708567
 30
0.0
 10
98.19107799194529
 20
-132.5455701708567
 30
0.0
 10
98.18039819594101
 20
-132.4883815858015
 30
0.0
 10
98.14870331747672
 20
-132.3402424799358
 30
0.0
 10
97.9457871933955
 20
-132.3402424799358
 30
0.0
 10
97.65364309624631
 20
-132.3402424799358
 30
0.0
 10
97.61367998861742
 20
-132.6682155701316
 30
0.0
 10
97.600933135322
 20
-132.8731987515039
 30
0.0
 10
97.69395071342375
 20
-132.7949950839888
 30
0.0
 10
97.76181909448316
 20
-132.7357394416425
 30
0.0
 10
97.94372013610435
 20
-132.7357394416425
 30
0.0
 10
98.12355412043439
 20
-132.7357394416425
 30
0.0
 10
98.42603350403932
 20
-132.8439154398793
 30
0.0
 10
98.42603350403932
 20
-133.2500921975902
 30
0.0
 10
98.42603350403932
 20
-133.5694525490729
 30
0.0
 10
98.22690698499188
 20
-133.7892496410319
 30
0.0
 10
97.90961369080038
 20
-133.7892496410319
 30
0.0
  0
SPLINE
  5
6E
330
69
100
AcDbEntity
  8
_U+30EC_U+30A4_U+30E4_U+30FC 1
370
     0
100
AcDbSpline
210
0.0
220
0.0
230
1.0
 70
    11
 71
     3
 72
    17
 73
    13
 74
     0
 42
0.0000000001
 43
0.0000000001
 12
1.0
 22
0.0
 32
0.0
 13
1.0
 23
0.0
 33
0.0
 40
0.0
 40
0.0
 40
0.0
 40
0.0
 40
1.0
 40
1.0
 40
1.0
 40
2.0
 40
2.0
 40
2.0
 40
3.0
 40
3.0
 40
3.0
 40
4.0
 40
4.0
 40
4.0
 40
4.0
 10
97.92683916822662
 20
-132.9303873365591
 30
0.0
 10
97.6643228922506
 20
-132.9303873365591
 30
0.0
 10
97.62642684191285
 20
-133.1419161993534
 30
0.0
 10
97.62642684191285
 20
-133.2583604267548
 30
0.0
 10
97.62642684191285
 20
-133.4340602965026
 30
0.0
 10
97.72151147730574
 20
-133.5970133129549
 30
0.0
 10
97.90547957621808
 20
-133.5970133129549
 30
0.0
 10
98.02605791820183
 20
-133.5970133129549
 30
0.0
 10
98.20175778794956
 20
-133.5377576706086
 30
0.0
 10
98.20175778794956
 20
-133.2521592548814
 30
0.0
 10
98.20175778794956
 20
-133.0278835387917
 30
0.0
 10
98.06188691124842
 20
-132.9303873365591
 30
0.0
 10
97.92683916822662
 20
-132.9303873365591
 30
0.0
  0
HATCH
  5
6F
330
69
100
AcDbEntity
  8
_U+30EC_U+30A4_U+30E4_U+30FC 1
 62
   179
420
  2234388
100
AcDbHatch
 10
0.0
 20
0.0
 30
0.0
210
0.0
220
0.0
230
1.0
  2
SOLID
 70
     1
 71
     0
 91
        2
 92
        1
 93
        1
 72
     4
 94
        3
 73
     0
 74
     1
 95
       32
 96
       28
 40
0.0
 40
0.0
 40
0.0
 40
0.0
 40
1.0
 40
1.0
 40
1.0
 40
2.0
 40
2.0
 40
2.0
 40
3.0
 40
3.0
 40
3.0
 40
4.0
 40
4.0
 40
4.0
 40
5.0
 40
5.0
 40
5.0
 40
6.0
 40
6.0
 40
6.0
 40
7.0
 40
7.0
 40
7.0
 40
8.0
 40
8.0
 40
8.0
 40
9.0
 40
9.0
 40
9.0
 40
9.0
 10
97.90961369080038
 20
-133.7892496410319
 10
97.39353838710996
 20
-133.7892496410319
 10
97.38527015794536
 20
-133.2352782870037
 10
97.38527015794536
 20
-133.0213378573697
 10
97.38527015794536
 20
-132.7908609694065
 10
97.40421818311422
 20
-132.143527527728
 10
97.94785425068665
 20
-132.143527527728
 10
98.12114255359472
 20
-132.143527527728
 10
98.36677786169304
 20
-132.2134629660786
 10
98.40467391203077
 20
-132.5455701708567
 10
98.40467391203077
 20
-132.5455701708567
 10
98.19107799194529
 20
-132.5455701708567
 10
98.19107799194529
 20
-132.5455701708567
 10
98.18039819594101
 20
-132.4883815858015
 10
98.14870331747672
 20
-132.3402424799358
 10
97.9457871933955
 20
-132.3402424799358
 10
97.65364309624631
 20
-132.3402424799358
 10
97.61367998861742
 20
-132.6682155701316
 10
97.600933135322
 20
-132.8731987515039
 10
97.69395071342375
 20
-132.7949950839888
 10
97.76181909448316
 20
-132.7357394416425
 10
97.94372013610435
 20
-132.7357394416425
 10
98.12355412043439
 20
-132.7357394416425
 10
98.42603350403932
 20
-132.8439154398793
 10
98.42603350403932
 20
-133.2500921975902
 10
98.42603350403932
 20
-133.5694525490729
 10
98.22690698499188
 20
-133.7892496410319
 10
97.90961369080038
 20
-133.7892496410319
 97
        0
 97
        0
 92
        1
 93
        1
 72
     4
 94
        3
 73
     0
 74
     1
 95
       17
 96
       13
 40
0.0
 40
0.0
 40
0.0
 40
0.0
 40
1.0
 40
1.0
 40
1.0
 40
2.0
 40
2.0
 40
2.0
 40
3.0
 40
3.0
 40
3.0
 40
4.0
 40
4.0
 40
4.0
 40
4.0
 10
97.92683916822662
 20
-132.9303873365591
 10
97.6643228922506
 20
-132.9303873365591
 10
97.62642684191285
 20
-133.1419161993534
 10
97.62642684191285
 20
-133.2583604267548
 10
97.62642684191285
 20
-133.4340602965026
 10
97.72151147730574
 20
-133.5970133129549
 10
97.90547957621808
 20
-133.5970133129549
 10
98.02605791820183
 20
-133.5970133129549
 10
98.20175778794956
 20
-133.5377576706086
 10
98.20175778794956
 20
-133.2521592548814
 10
98.20175778794956
 20
-133.0278835387917
 10
98.06188691124842
 20
-132.9303873365591
 10
97.92683916822662
 20
-132.9303873365591
 97
        0
 97
        0
 75
     2
 76
     1
 98
        0
  0
SPLINE
  5
70
330
69
100
AcDbEntity
  8
_U+30EC_U+30A4_U+30E4_U+30FC 1
370
     0
100
AcDbSpline
210
0.0
220
0.0
230
1.0
 70
    11
 71
     3
 72
    29
 73
    25
 74
     0
 42
0.0000000001
 43
0.0000000001
 12
1.0
 22
0.0
 32
0.0
 13
1.0
 23
0.0
 33
0.0
 40
0.0
 40
0.0
 40
0.0
 40
0.0
 40
1.0
 40
1.0
 40
1.0
 40
2.0
 40
2.0
 40
2.0
 40
3.0
 40
3.0
 40
3.0
 40
4.0
 40
4.0
 40
4.0
 40
5.0
 40
5.0
 40
5.0
 40
6.0
 40
6.0
 40
6.0
 40
7.0
 40
7.0
 40
7.0
 40
8.0
 40
8.0
 40
8.0
 40
8.0
 10
99.48023272252578
 20
-133.5608398103598
 30
0.0
 10
99.37205672428894
 20
-133.770301615863
 30
0.0
 10
99.19876842138086
 20
-133.7892496410319
 30
0.0
 10
99.08232419397942
 20
-133.7892496410319
 30
0.0
 10
98.92143823481825
 20
-133.7892496410319
 30
0.0
 10
98.77984481037448
 20
-133.742740851981
 30
0.0
 10
98.68476017498159
 20
-133.5608398103598
 30
0.0
 10
98.58106280087557
 20
-133.3661919154432
 30
0.0
 10
98.5621147757067
 20
-133.129169346058
 30
0.0
 10
98.5621147757067
 20
-132.9665608391542
 30
0.0
 10
98.5621147757067
 20
-132.8225558478707
 30
0.0
 10
98.57899574358443
 20
-132.570719367899
 30
0.0
 10
98.68476017498159
 20
-132.3719373584001
 30
0.0
 10
98.79259166366991
 20
-132.1690212343188
 30
0.0
 10
98.95347762283107
 20
-132.1455945850192
 30
0.0
 10
99.08232419397942
 20
-132.1455945850192
 30
0.0
 10
99.24114309584944
 20
-132.1455945850192
 30
0.0
 10
99.38480357758436
 20
-132.1900363167789
 30
0.0
 10
99.48023272252578
 20
-132.3719373584001
 30
0.0
 10
99.57945147250098
 20
-132.5645181960255
 30
0.0
 10
99.60287812180067
 20
-132.7929280266976
 30
0.0
 10
99.60287812180067
 20
-132.9665608391542
 30
0.0
 10
99.60287812180067
 20
-133.1377820847711
 30
0.0
 10
99.58151852979212
 20
-133.3682589727343
 30
0.0
 10
99.48023272252578
 20
-133.5608398103598
 30
0.0
  0
SPLINE
  5
71
330
69
100
AcDbEntity
  8
_U+30EC_U+30A4_U+30E4_U+30FC 1
370
     0
100
AcDbSpline
210
0.0
220
0.0
230
1.0
 70
    11
 71
     3
 72
    17
 73
    13
 74
     0
 42
0.0000000001
 43
0.0000000001
 12
1.0
 22
0.0
 32
0.0
 13
1.0
 23
0.0
 33
0.0
 40
0.0
 40
0.0
 40
0.0
 40
0.0
 40
1.0
 40
1.0
 40
1.0
 40
2.0
 40
2.0
 40
2.0
 40
3.0
 40
3.0
 40
3.0
 40
4.0
 40
4.0
 40
4.0
 40
4.0
 10
99.08232419397942
 20
-132.3381754226446
 30
0.0
 10
98.83289928084733
 20
-132.3381754226446
 30
0.0
 10
98.78604598224794
 20
-132.6217067810807
 30
0.0
 10
98.78604598224794
 20
-132.9665608391542
 30
0.0
 10
98.78604598224794
 20
-133.2859211906369
 30
0.0
 10
98.82221948484306
 20
-133.5946017461152
 30
0.0
 10
99.08232419397942
 20
-133.5946017461152
 30
0.0
 10
99.33002655936889
 20
-133.5946017461152
 30
0.0
 10
99.37860240571091
 20
-133.3134819545189
 30
0.0
 10
99.37860240571091
 20
-132.9665608391542
 30
0.0
 10
99.37860240571091
 20
-132.646855978123
 30
0.0
 10
99.34036184582463
 20
-132.3381754226446
 30
0.0
 10
99.08232419397942
 20
-132.3381754226446
 30
0.0
  0
HATCH
  5
72
330
69
100
AcDbEntity
  8
_U+30EC_U+30A4_U+30E4_U+30FC 1
 62
   179
420
  2234388
100
AcDbHatch
 10
0.0
 20
0.0
 30
0.0
210
0.0
220
0.0
230
1.0
  2
SOLID
 70
     1
 71
     0
 91
        2
 92
        1
 93
        1
 72
     4
 94
        3
 73
     0
 74
     1
 95
       29
 96
       25
 40
0.0
 40
0.0
 40
0.0
 40
0.0
 40
1.0
 40
1.0
 40
1.0
 40
2.0
 40
2.0
 40
2.0
 40
3.0
 40
3.0
 40
3.0
 40
4.0
 40
4.0
 40
4.0
 40
5.0
 40
5.0
 40
5.0
 40
6.0
 40
6.0
 40
6.0
 40
7.0
 40
7.0
 40
7.0
 40
8.0
 40
8.0
 40
8.0
 40
8.0
 10
99.48023272252578
 20
-133.5608398103598
 10
99.37205672428894
 20
-133.770301615863
 10
99.19876842138086
 20
-133.7892496410319
 10
99.08232419397942
 20
-133.7892496410319
 10
98.92143823481825
 20
-133.7892496410319
 10
98.77984481037448
 20
-133.742740851981
 10
98.68476017498159
 20
-133.5608398103598
 10
98.58106280087557
 20
-133.3661919154432
 10
98.5621147757067
 20
-133.129169346058
 10
98.5621147757067
 20
-132.9665608391542
 10
98.5621147757067
 20
-132.8225558478707
 10
98.57899574358443
 20
-132.570719367899
 10
98.68476017498159
 20
-132.3719373584001
 10
98.79259166366991
 20
-132.1690212343188
 10
98.95347762283107
 20
-132.1455945850192
 10
99.08232419397942
 20
-132.1455945850192
 10
99.24114309584944
 20
-132.1455945850192
 10
99.38480357758436
 20
-132.1900363167789
 10
99.48023272252578
 20
-132.3719373584001
 10
99.57945147250098
 20
-132.5645181960255
 10
99.60287812180067
 20
-132.7929280266976
 10
99.60287812180067
 20
-132.9665608391542
 10
99.60287812180067
 20
-133.1377820847711
 10
99.58151852979212
 20
-133.3682589727343
 10
99.48023272252578
 20
-133.5608398103598
 97
        0
 97
        0
 92
        1
 93
        1
 72
     4
 94
        3
 73
     0
 74
     1
 95
       17
 96
       13
 40
0.0
 40
0.0
 40
0.0
 40
0.0
 40
1.0
 40
1.0
 40
1.0
 40
2.0
 40
2.0
 40
2.0
 40
3.0
 40
3.0
 40
3.0
 40
4.0
 40
4.0
 40
4.0
 40
4.0
 10
99.08232419397942
 20
-132.3381754226446
 10
98.83289928084733
 20
-132.3381754226446
 10
98.78604598224794
 20
-132.6217067810807
 10
98.78604598224794
 20
-132.9665608391542
 10
98.78604598224794
 20
-133.2859211906369
 10
98.82221948484306
 20
-133.5946017461152
 10
99.08232419397942
 20
-133.5946017461152
 10
99.33002655936889
 20
-133.5946017461152
 10
99.37860240571091
 20
-133.3134819545189
 10
99.37860240571091
 20
-132.9665608391542
 10
99.37860240571091
 20
-132.646855978123
 10
99.34036184582463
 20
-132.3381754226446
 10
99.08232419397942
 20
-132.3381754226446
 97
        0
 97
        0
 75
     2
 76
     1
 98
        0
  0
SPLINE
  5
73
330
69
100
AcDbEntity
  8
_U+30EC_U+30A4_U+30E4_U+30FC 1
370
     0
100
AcDbSpline
210
0.0
220
0.0
230
1.0
 70
    11
 71
     3
 72
    29
 73
    25
 74
     0
 42
0.0000000001
 43
0.0000000001
 12
1.0
 22
0.0
 32
0.0
 13
1.0
 23
0.0
 33
0.0
 40
0.0
 40
0.0
 40
0.0
 40
0.0
 40
1.0
 40
1.0
 40
1.0
 40
2.0
 40
2.0
 40
2.0
 40
3.0
 40
3.0
 40
3.0
 40
4.0
 40
4.0
 40
4.0
 40
5.0
 40
5.0
 40
5.0
 40
6.0
 40
6.0
 40
6.0
 40
7.0
 40
7.0
 40
7.0
 40
8.0
 40
8.0
 40
8.0
 40
8.0
 10
100.6570773402871
 20
-133.5608398103598
 30
0.0
 10
100.5489013420503
 20
-133.770301615863
 30
0.0
 10
100.3756130391422
 20
-133.7892496410319
 30
0.0
 10
100.2591688117408
 20
-133.7892496410319
 30
0.0
 10
100.0982828525796
 20
-133.7892496410319
 30
0.0
 10
99.95668942813583
 20
-133.742740851981
 30
0.0
 10
99.86160479274294
 20
-133.5608398103598
 30
0.0
 10
99.75790741863692
 20
-133.3661919154432
 30
0.0
 10
99.73895939346804
 20
-133.129169346058
 30
0.0
 10
99.73895939346804
 20
-132.9665608391542
 30
0.0
 10
99.73895939346804
 20
-132.8225558478707
 30
0.0
 10
99.75584036134576
 20
-132.570719367899
 30
0.0
 10
99.86160479274294
 20
-132.3719373584001
 30
0.0
 10
99.96943628143126
 20
-132.1690212343188
 30
0.0
 10
100.1303222405924
 20
-132.1455945850192
 30
0.0
 10
100.2591688117408
 20
-132.1455945850192
 30
0.0
 10
100.4179877136108
 20
-132.1455945850192
 30
0.0
 10
100.5616481953457
 20
-132.1900363167789
 30
0.0
 10
100.6570773402871
 20
-132.3719373584001
 30
0.0
 10
100.7562960902623
 20
-132.5645181960255
 30
0.0
 10
100.779722739562
 20
-132.7929280266976
 30
0.0
 10
100.779722739562
 20
-132.9665608391542
 30
0.0
 10
100.779722739562
 20
-133.1377820847711
 30
0.0
 10
100.7583631475535
 20
-133.3682589727343
 30
0.0
 10
100.6570773402871
 20
-133.5608398103598
 30
0.0
  0
SPLINE
  5
74
330
69
100
AcDbEntity
  8
_U+30EC_U+30A4_U+30E4_U+30FC 1
370
     0
100
AcDbSpline
210
0.0
220
0.0
230
1.0
 70
    11
 71
     3
 72
    17
 73
    13
 74
     0
 42
0.0000000001
 43
0.0000000001
 12
1.0
 22
0.0
 32
0.0
 13
1.0
 23
0.0
 33
0.0
 40
0.0
 40
0.0
 40
0.0
 40
0.0
 40
1.0
 40
1.0
 40
1.0
 40
2.0
 40
2.0
 40
2.0
 40
3.0
 40
3.0
 40
3.0
 40
4.0
 40
4.0
 40
4.0
 40
4.0
 10
100.2591688117408
 20
-132.3381754226446
 30
0.0
 10
100.0097438986087
 20
-132.3381754226446
 30
0.0
 10
99.96289060000929
 20
-132.6217067810807
 30
0.0
 10
99.96289060000929
 20
-132.9665608391542
 30
0.0
 10
99.96289060000929
 20
-133.2859211906369
 30
0.0
 10
99.99906410260441
 20
-133.5946017461152
 30
0.0
 10
100.2591688117408
 20
-133.5946017461152
 30
0.0
 10
100.5068711771302
 20
-133.5946017461152
 30
0.0
 10
100.5554470234723
 20
-133.3134819545189
 30
0.0
 10
100.5554470234723
 20
-132.9665608391542
 30
0.0
 10
100.5554470234723
 20
-132.646855978123
 30
0.0
 10
100.517206463586
 20
-132.3381754226446
 30
0.0
 10
100.2591688117408
 20
-132.3381754226446
 30
0.0
  0
HATCH
  5
75
330
69
100
AcDbEntity
  8
_U+30EC_U+30A4_U+30E4_U+30FC 1
 62
   179
420
  2234388
100
AcDbHatch
 10
0.0
 20
0.0
 30
0.0
210
0.0
220
0.0
230
1.0
  2
SOLID
 70
     1
 71
     0
 91
        2
 92
        1
 93
        1
 72
     4
 94
        3
 73
     0
 74
     1
 95
       29
 96
       25
 40
0.0
 40
0.0
 40
0.0
 40
0.0
 40
1.0
 40
1.0
 40
1.0
 40
2.0
 40
2.0
 40
2.0
 40
3.0
 40
3.0
 40
3.0
 40
4.0
 40
4.0
 40
4.0
 40
5.0
 40
5.0
 40
5.0
 40
6.0
 40
6.0
 40
6.0
 40
7.0
 40
7.0
 40
7.0
 40
8.0
 40
8.0
 40
8.0
 40
8.0
 10
100.6570773402871
 20
-133.5608398103598
 10
100.5489013420503
 20
-133.770301615863
 10
100.3756130391422
 20
-133.7892496410319
 10
100.2591688117408
 20
-133.7892496410319
 10
100.0982828525796
 20
-133.7892496410319
 10
99.95668942813583
 20
-133.742740851981
 10
99.86160479274294
 20
-133.5608398103598
 10
99.75790741863692
 20
-133.3661919154432
 10
99.73895939346804
 20
-133.129169346058
 10
99.73895939346804
 20
-132.9665608391542
 10
99.73895939346804
 20
-132.8225558478707
 10
99.75584036134576
 20
-132.570719367899
 10
99.86160479274294
 20
-132.3719373584001
 10
99.96943628143126
 20
-132.1690212343188
 10
100.1303222405924
 20
-132.1455945850192
 10
100.2591688117408
 20
-132.1455945850192
 10
100.4179877136108
 20
-132.1455945850192
 10
100.5616481953457
 20
-132.1900363167789
 10
100.6570773402871
 20
-132.3719373584001
 10
100.7562960902623
 20
-132.5645181960255
 10
100.779722739562
 20
-132.7929280266976
 10
100.779722739562
 20
-132.9665608391542
 10
100.779722739562
 20
-133.1377820847711
 10
100.7583631475535
 20
-133.3682589727343
 10
100.6570773402871
 20
-133.5608398103598
 97
        0
 97
        0
 92
        1
 93
        1
 72
     4
 94
        3
 73
     0
 74
     1
 95
       17
 96
       13
 40
0.0
 40
0.0
 40
0.0
 40
0.0
 40
1.0
 40
1.0
 40
1.0
 40
2.0
 40
2.0
 40
2.0
 40
3.0
 40
3.0
 40
3.0
 40
4.0
 40
4.0
 40
4.0
 40
4.0
 10
100.2591688117408
 20
-132.3381754226446
 10
100.0097438986087
 20
-132.3381754226446
 10
99.96289060000929
 20
-132.6217067810807
 10
99.96289060000929
 20
-132.9665608391542
 10
99.96289060000929
 20
-133.2859211906369
 10
99.99906410260441
 20
-133.5946017461152
 10
100.2591688117408
 20
-133.5946017461152
 10
100.5068711771302
 20
-133.5946017461152
 10
100.5554470234723
 20
-133.3134819545189
 10
100.5554470234723
 20
-132.9665608391542
 10
100.5554470234723
 20
-132.646855978123
 10
100.517206463586
 20
-132.3381754226446
 10
100.2591688117408
 20
-132.3381754226446
 97
        0
 97
        0
 75
     2
 76
     1
 98
        0
  0
ENDBLK
  5
6C
330
69
100
AcDbEntity
  8
0
100
AcDbBlockEnd
  0
BLOCK
  5
78
330
76
100
AcDbEntity
  8
0
100
AcDbBlockBegin
  2
block 6
 70
     0
 10
0.0
 20
0.0
 30
0.0
  3
block 6
  1

  0
SPLINE
  5
7A
330
76
100
AcDbEntity
  8
_U+30EC_U+30A4_U+30E4_U+30FC 1
370
     0
100
AcDbSpline
210
0.0
220
0.0
230
1.0
 70
    11
 71
     3
 72
    62
 73
    58
 74
     0
 42
0.0000000001
 43
0.0000000001
 12
1.0
 22
0.0
 32
0.0
 13
1.0
 23
0.0
 33
0.0
 40
0.0
 40
0.0
 40
0.0
 40
0.0
 40
1.0
 40
1.0
 40
1.0
 40
2.0
 40
2.0
 40
2.0
 40
3.0
 40
3.0
 40
3.0
 40
4.0
 40
4.0
 40
4.0
 40
5.0
 40
5.0
 40
5.0
 40
6.0
 40
6.0
 40
6.0
 40
7.0
 40
7.0
 40
7.0
 40
8.0
 40
8.0
 40
8.0
 40
9.0
 40
9.0
 40
9.0
 40
10.0
 40
10.0
 40
10.0
 40
11.0
 40
11.0
 40
11.0
 40
12.0
 40
12.0
 40
12.0
 40
13.0
 40
13.0
 40
13.0
 40
14.0
 40
14.0
 40
14.0
 40
15.0
 40
15.0
 40
15.0
 40
16.0
 40
16.0
 40
16.0
 40
17.0
 40
17.0
 40
17.0
 40
18.0
 40
18.0
 40
18.0
 40
19.0
 40
19.0
 40
19.0
 40
19.0
 10
98.42637801358785
 20
-114.7392496457944
 30
0.0
 10
98.33094886864643
 20
-114.7392496457944
 30
0.0
 10
98.11321883397865
 20
-114.7182345633343
 30
0.0
 10
97.98816186786408
 20
-114.5321994071308
 30
0.0
 10
97.91443682447972
 20
-114.4198892943117
 30
0.0
 10
97.90995820034891
 20
-114.3206705443365
 30
0.0
 10
97.90582408576661
 20
-114.2359211953994
 30
0.0
 10
97.90582408576661
 20
-114.2359211953994
 30
0.0
 10
98.12596568727407
 20
-114.2359211953994
 30
0.0
 10
98.12596568727407
 20
-114.2359211953994
 30
0.0
 10
98.12803274456522
 20
-114.3099907483322
 30
0.0
 10
98.13836803102097
 20
-114.5446017508777
 30
0.0
 10
98.42189938945702
 20
-114.5446017508777
 30
0.0
 10
98.5593586993185
 20
-114.5446017508777
 30
0.0
 10
98.71197642931507
 20
-114.4750108220757
 30
0.0
 10
98.71197642931507
 20
-114.2466009914036
 30
0.0
 10
98.71197642931507
 20
-114.1301567640022
 30
0.0
 10
98.6737358694288
 20
-114.0815809176602
 30
0.0
 10
98.64204099096449
 20
-114.0498860391959
 30
0.0
 10
98.56797143803162
 20
-113.975816486263
 30
0.0
 10
98.45152721063018
 20
-113.9630696329676
 30
0.0
 10
98.3967501924147
 20
-113.9630696329676
 30
0.0
 10
98.3774576576973
 20
-113.9630696329676
 30
0.0
 10
98.34162866465071
 20
-113.9651366902587
 30
0.0
 10
98.3140679007687
 20
-113.969270804841
 30
0.0
 10
98.3140679007687
 20
-113.969270804841
 30
0.0
 10
98.3140679007687
 20
-113.7746229099244
 30
0.0
 10
98.3140679007687
 20
-113.7746229099244
 30
0.0
 10
98.35230846065498
 20
-113.7811685913464
 30
0.0
 10
98.39433862557503
 20
-113.7832356486375
 30
0.0
 10
98.400884306997
 20
-113.7832356486375
 30
0.0
 10
98.46634112121676
 20
-113.7832356486375
 30
0.0
 10
98.66512313071567
 20
-113.761876056629
 30
0.0
 10
98.66512313071567
 20
-113.5251979967923
 30
0.0
 10
98.66512313071567
 20
-113.3474310697534
 30
0.0
 10
98.53420950227617
 20
-113.2923095419894
 30
0.0
 10
98.42396644674818
 20
-113.2923095419894
 30
0.0
 10
98.15972762302951
 20
-113.2923095419894
 30
0.0
 10
98.1511148843164
 20
-113.5251979967923
 30
0.0
 10
98.1469807697341
 20
-113.5968559828855
 30
0.0
 10
98.1469807697341
 20
-113.5968559828855
 30
0.0
 10
97.94372013610435
 20
-113.5968559828855
 30
0.0
 10
97.94372013610435
 20
-113.5968559828855
 30
0.0
 10
97.95233287481747
 20
-113.4721435263195
 30
0.0
 10
97.97989363869948
 20
-113.0955945897817
 30
0.0
 10
98.4367133000436
 20
-113.0955945897817
 30
0.0
 10
98.66098901613337
 20
-113.0955945897817
 30
0.0
 10
98.90214570010086
 20
-113.2227186131874
 30
0.0
 10
98.90214570010086
 20
-113.5186523153703
 30
0.0
 10
98.90214570010086
 20
-113.7050319811224
 30
0.0
 10
98.80706106470797
 20
-113.7873697632198
 30
0.0
 10
98.70749780518425
 20
-113.8486924628573
 30
0.0
 10
98.76882050482169
 20
-113.8762532267393
 30
0.0
 10
98.95072154644288
 20
-113.9565239515456
 30
0.0
 10
98.95072154644288
 20
-114.2338541381082
 30
0.0
 10
98.95072154644288
 20
-114.5721625147597
 30
0.0
 10
98.70336369060195
 20
-114.7392496457944
 30
0.0
 10
98.42637801358785
 20
-114.7392496457944
 30
0.0
  0
HATCH
  5
7B
330
76
100
AcDbEntity
  8
_U+30EC_U+30A4_U+30E4_U+30FC 1
 62
   179
420
  2234388
100
AcDbHatch
 10
0.0
 20
0.0
 30
0.0
210
0.0
220
0.0
230
1.0
  2
SOLID
 70
     1
 71
     0
 91
        1
 92
        1
 93
        1
 72
     4
 94
        3
 73
     0
 74
     1
 95
       62
 96
       58
 40
0.0
 40
0.0
 40
0.0
 40
0.0
 40
1.0
 40
1.0
 40
1.0
 40
2.0
 40
2.0
 40
2.0
 40
3.0
 40
3.0
 40
3.0
 40
4.0
 40
4.0
 40
4.0
 40
5.0
 40
5.0
 40
5.0
 40
6.0
 40
6.0
 40
6.0
 40
7.0
 40
7.0
 40
7.0
 40
8.0
 40
8.0
 40
8.0
 40
9.0
 40
9.0
 40
9.0
 40
10.0
 40
10.0
 40
10.0
 40
11.0
 40
11.0
 40
11.0
 40
12.0
 40
12.0
 40
12.0
 40
13.0
 40
13.0
 40
13.0
 40
14.0
 40
14.0
 40
14.0
 40
15.0
 40
15.0
 40
15.0
 40
16.0
 40
16.0
 40
16.0
 40
17.0
 40
17.0
 40
17.0
 40
18.0
 40
18.0
 40
18.0
 40
19.0
 40
19.0
 40
19.0
 40
19.0
 10
98.42637801358785
 20
-114.7392496457944
 10
98.33094886864643
 20
-114.7392496457944
 10
98.11321883397865
 20
-114.7182345633343
 10
97.98816186786408
 20
-114.5321994071308
 10
97.91443682447972
 20
-114.4198892943117
 10
97.90995820034891
 20
-114.3206705443365
 10
97.90582408576661
 20
-114.2359211953994
 10
97.90582408576661
 20
-114.2359211953994
 10
98.12596568727407
 20
-114.2359211953994
 10
98.12596568727407
 20
-114.2359211953994
 10
98.12803274456522
 20
-114.3099907483322
 10
98.13836803102097
 20
-114.5446017508777
 10
98.42189938945702
 20
-114.5446017508777
 10
98.5593586993185
 20
-114.5446017508777
 10
98.71197642931507
 20
-114.4750108220757
 10
98.71197642931507
 20
-114.2466009914036
 10
98.71197642931507
 20
-114.1301567640022
 10
98.6737358694288
 20
-114.0815809176602
 10
98.64204099096449
 20
-114.0498860391959
 10
98.56797143803162
 20
-113.975816486263
 10
98.45152721063018
 20
-113.9630696329676
 10
98.3967501924147
 20
-113.9630696329676
 10
98.3774576576973
 20
-113.9630696329676
 10
98.34162866465071
 20
-113.9651366902587
 10
98.3140679007687
 20
-113.969270804841
 10
98.3140679007687
 20
-113.969270804841
 10
98.3140679007687
 20
-113.7746229099244
 10
98.3140679007687
 20
-113.7746229099244
 10
98.35230846065498
 20
-113.7811685913464
 10
98.39433862557503
 20
-113.7832356486375
 10
98.400884306997
 20
-113.7832356486375
 10
98.46634112121676
 20
-113.7832356486375
 10
98.66512313071567
 20
-113.761876056629
 10
98.66512313071567
 20
-113.5251979967923
 10
98.66512313071567
 20
-113.3474310697534
 10
98.53420950227617
 20
-113.2923095419894
 10
98.42396644674818
 20
-113.2923095419894
 10
98.15972762302951
 20
-113.2923095419894
 10
98.1511148843164
 20
-113.5251979967923
 10
98.1469807697341
 20
-113.5968559828855
 10
98.1469807697341
 20
-113.5968559828855
 10
97.94372013610435
 20
-113.5968559828855
 10
97.94372013610435
 20
-113.5968559828855
 10
97.95233287481747
 20
-113.4721435263195
 10
97.97989363869948
 20
-113.0955945897817
 10
98.4367133000436
 20
-113.0955945897817
 10
98.66098901613337
 20
-113.0955945897817
 10
98.90214570010086
 20
-113.2227186131874
 10
98.90214570010086
 20
-113.5186523153703
 10
98.90214570010086
 20
-113.7050319811224
 10
98.80706106470797
 20
-113.7873697632198
 10
98.70749780518425
 20
-113.8486924628573
 10
98.76882050482169
 20
-113.8762532267393
 10
98.95072154644288
 20
-113.9565239515456
 10
98.95072154644288
 20
-114.2338541381082
 10
98.95072154644288
 20
-114.5721625147597
 10
98.70336369060195
 20
-114.7392496457944
 10
98.42637801358785
 20
-114.7392496457944
 97
        0
 97
        0
 75
     2
 76
     1
 98
        0
  0
SPLINE
  5
7C
330
76
100
AcDbEntity
  8
_U+30EC_U+30A4_U+30E4_U+30FC 1
370
     0
100
AcDbSpline
210
0.0
220
0.0
230
1.0
 70
    11
 71
     3
 72
    29
 73
    25
 74
     0
 42
0.0000000001
 43
0.0000000001
 12
1.0
 22
0.0
 32
0.0
 13
1.0
 23
0.0
 33
0.0
 40
0.0
 40
0.0
 40
0.0
 40
0.0
 40
1.0
 40
1.0
 40
1.0
 40
2.0
 40
2.0
 40
2.0
 40
3.0
 40
3.0
 40
3.0
 40
4.0
 40
4.0
 40
4.0
 40
5.0
 40
5.0
 40
5.0
 40
6.0
 40
6.0
 40
6.0
 40
7.0
 40
7.0
 40
7.0
 40
8.0
 40
8.0
 40
8.0
 40
8.0
 10
100.0093993890601
 20
-114.5108398151223
 30
0.0
 10
99.9012233908233
 20
-114.7203016206255
 30
0.0
 10
99.72793508791524
 20
-114.7392496457944
 30
0.0
 10
99.6114908605138
 20
-114.7392496457944
 30
0.0
 10
99.45060490135263
 20
-114.7392496457944
 30
0.0
 10
99.30901147690886
 20
-114.6927408567435
 30
0.0
 10
99.21392684151597
 20
-114.5108398151223
 30
0.0
 10
99.11022946740995
 20
-114.3161919202057
 30
0.0
 10
99.09128144224107
 20
-114.0791693508205
 30
0.0
 10
99.09128144224107
 20
-113.9165608439167
 30
0.0
 10
99.09128144224107
 20
-113.7725558526333
 30
0.0
 10
99.1081624101188
 20
-113.5207193726615
 30
0.0
 10
99.21392684151597
 20
-113.3219373631626
 30
0.0
 10
99.32175833020429
 20
-113.1190212390814
 30
0.0
 10
99.48264428936545
 20
-113.0955945897817
 30
0.0
 10
99.6114908605138
 20
-113.0955945897817
 30
0.0
 10
99.77030976238382
 20
-113.0955945897817
 30
0.0
 10
99.91397024411873
 20
-113.1400363215414
 30
0.0
 10
100.0093993890601
 20
-113.3219373631626
 30
0.0
 10
100.1086181390353
 20
-113.514518200788
 30
0.0
 10
100.1320447883351
 20
-113.7429280314601
 30
0.0
 10
100.1320447883351
 20
-113.9165608439167
 30
0.0
 10
100.1320447883351
 20
-114.0877820895336
 30
0.0
 10
100.1106851963265
 20
-114.3182589774968
 30
0.0
 10
100.0093993890601
 20
-114.5108398151223
 30
0.0
  0
SPLINE
  5
7D
330
76
100
AcDbEntity
  8
_U+30EC_U+30A4_U+30E4_U+30FC 1
370
     0
100
AcDbSpline
210
0.0
220
0.0
230
1.0
 70
    11
 71
     3
 72
    17
 73
    13
 74
     0
 42
0.0000000001
 43
0.0000000001
 12
1.0
 22
0.0
 32
0.0
 13
1.0
 23
0.0
 33
0.0
 40
0.0
 40
0.0
 40
0.0
 40
0.0
 40
1.0
 40
1.0
 40
1.0
 40
2.0
 40
2.0
 40
2.0
 40
3.0
 40
3.0
 40
3.0
 40
4.0
 40
4.0
 40
4.0
 40
4.0
 10
99.6114908605138
 20
-113.2881754274071
 30
0.0
 10
99.36206594738171
 20
-113.2881754274071
 30
0.0
 10
99.3152126487823
 20
-113.5717067858432
 30
0.0
 10
99.3152126487823
 20
-113.9165608439167
 30
0.0
 10
99.3152126487823
 20
-114.2359211953994
 30
0.0
 10
99.35138615137744
 20
-114.5446017508777
 30
0.0
 10
99.6114908605138
 20
-114.5446017508777
 30
0.0
 10
99.85919322590327
 20
-114.5446017508777
 30
0.0
 10
99.90776907224529
 20
-114.2634819592813
 30
0.0
 10
99.90776907224529
 20
-113.9165608439167
 30
0.0
 10
99.90776907224529
 20
-113.5968559828855
 30
0.0
 10
99.86952851235901
 20
-113.2881754274071
 30
0.0
 10
99.6114908605138
 20
-113.2881754274071
 30
0.0
  0
HATCH
  5
7E
330
76
100
AcDbEntity
  8
_U+30EC_U+30A4_U+30E4_U+30FC 1
 62
   179
420
  2234388
100
AcDbHatch
 10
0.0
 20
0.0
 30
0.0
210
0.0
220
0.0
230
1.0
  2
SOLID
 70
     1
 71
     0
 91
        2
 92
        1
 93
        1
 72
     4
 94
        3
 73
     0
 74
     1
 95
       29
 96
       25
 40
0.0
 40
0.0
 40
0.0
 40
0.0
 40
1.0
 40
1.0
 40
1.0
 40
2.0
 40
2.0
 40
2.0
 40
3.0
 40
3.0
 40
3.0
 40
4.0
 40
4.0
 40
4.0
 40
5.0
 40
5.0
 40
5.0
 40
6.0
 40
6.0
 40
6.0
 40
7.0
 40
7.0
 40
7.0
 40
8.0
 40
8.0
 40
8.0
 40
8.0
 10
100.0093993890601
 20
-114.5108398151223
 10
99.9012233908233
 20
-114.7203016206255
 10
99.72793508791524
 20
-114.7392496457944
 10
99.6114908605138
 20
-114.7392496457944
 10
99.45060490135263
 20
-114.7392496457944
 10
99.30901147690886
 20
-114.6927408567435
 10
99.21392684151597
 20
-114.5108398151223
 10
99.11022946740995
 20
-114.3161919202057
 10
99.09128144224107
 20
-114.0791693508205
 10
99.09128144224107
 20
-113.9165608439167
 10
99.09128144224107
 20
-113.7725558526333
 10
99.1081624101188
 20
-113.5207193726615
 10
99.21392684151597
 20
-113.3219373631626
 10
99.32175833020429
 20
-113.1190212390814
 10
99.48264428936545
 20
-113.0955945897817
 10
99.6114908605138
 20
-113.0955945897817
 10
99.77030976238382
 20
-113.0955945897817
 10
99.91397024411873
 20
-113.1400363215414
 10
100.0093993890601
 20
-113.3219373631626
 10
100.1086181390353
 20
-113.514518200788
 10
100.1320447883351
 20
-113.7429280314601
 10
100.1320447883351
 20
-113.9165608439167
 10
100.1320447883351
 20
-114.0877820895336
 10
100.1106851963265
 20
-114.3182589774968
 10
100.0093993890601
 20
-114.5108398151223
 97
        0
 97
        0
 92
        1
 93
        1
 72
     4
 94
        3
 73
     0
 74
     1
 95
       17
 96
       13
 40
0.0
 40
0.0
 40
0.0
 40
0.0
 40
1.0
 40
1.0
 40
1.0
 40
2.0
 40
2.0
 40
2.0
 40
3.0
 40
3.0
 40
3.0
 40
4.0
 40
4.0
 40
4.0
 40
4.0
 10
99.6114908605138
 20
-113.2881754274071
 10
99.36206594738171
 20
-113.2881754274071
 10
99.3152126487823
 20
-113.5717067858432
 10
99.3152126487823
 20
-113.9165608439167
 10
99.3152126487823
 20
-114.2359211953994
 10
99.35138615137744
 20
-114.5446017508777
 10
99.6114908605138
 20
-114.5446017508777
 10
99.85919322590327
 20
-114.5446017508777
 10
99.90776907224529
 20
-114.2634819592813
 10
99.90776907224529
 20
-113.9165608439167
 10
99.90776907224529
 20
-113.5968559828855
 10
99.86952851235901
 20
-113.2881754274071
 10
99.6114908605138
 20
-113.2881754274071
 97
        0
 97
        0
 75
     2
 76
     1
 98
        0
  0
SPLINE
  5
7F
330
76
100
AcDbEntity
  8
_U+30EC_U+30A4_U+30E4_U+30FC 1
370
     0
100
AcDbSpline
210
0.0
220
0.0
230
1.0
 70
    11
 71
     3
 72
    29
 73
    25
 74
     0
 42
0.0000000001
 43
0.0000000001
 12
1.0
 22
0.0
 32
0.0
 13
1.0
 23
0.0
 33
0.0
 40
0.0
 40
0.0
 40
0.0
 40
0.0
 40
1.0
 40
1.0
 40
1.0
 40
2.0
 40
2.0
 40
2.0
 40
3.0
 40
3.0
 40
3.0
 40
4.0
 40
4.0
 40
4.0
 40
5.0
 40
5.0
 40
5.0
 40
6.0
 40
6.0
 40
6.0
 40
7.0
 40
7.0
 40
7.0
 40
8.0
 40
8.0
 40
8.0
 40
8.0
 10
101.1862440068215
 20
-114.5108398151223
 30
0.0
 10
101.0780680085847
 20
-114.7203016206255
 30
0.0
 10
100.9047797056766
 20
-114.7392496457944
 30
0.0
 10
100.7883354782751
 20
-114.7392496457944
 30
0.0
 10
100.627449519114
 20
-114.7392496457944
 30
0.0
 10
100.4858560946702
 20
-114.6927408567435
 30
0.0
 10
100.3907714592773
 20
-114.5108398151223
 30
0.0
 10
100.2870740851713
 20
-114.3161919202057
 30
0.0
 10
100.2681260600024
 20
-114.0791693508205
 30
0.0
 10
100.2681260600024
 20
-113.9165608439167
 30
0.0
 10
100.2681260600024
 20
-113.7725558526333
 30
0.0
 10
100.2850070278801
 20
-113.5207193726615
 30
0.0
 10
100.3907714592773
 20
-113.3219373631626
 30
0.0
 10
100.4986029479656
 20
-113.1190212390814
 30
0.0
 10
100.6594889071268
 20
-113.0955945897817
 30
0.0
 10
100.7883354782751
 20
-113.0955945897817
 30
0.0
 10
100.9471543801452
 20
-113.0955945897817
 30
0.0
 10
101.0908148618801
 20
-113.1400363215414
 30
0.0
 10
101.1862440068215
 20
-113.3219373631626
 30
0.0
 10
101.2854627567967
 20
-113.514518200788
 30
0.0
 10
101.3088894060964
 20
-113.7429280314601
 30
0.0
 10
101.3088894060964
 20
-113.9165608439167
 30
0.0
 10
101.3088894060964
 20
-114.0877820895336
 30
0.0
 10
101.2875298140878
 20
-114.3182589774968
 30
0.0
 10
101.1862440068215
 20
-114.5108398151223
 30
0.0
  0
SPLINE
  5
80
330
76
100
AcDbEntity
  8
_U+30EC_U+30A4_U+30E4_U+30FC 1
370
     0
100
AcDbSpline
210
0.0
220
0.0
230
1.0
 70
    11
 71
     3
 72
    17
 73
    13
 74
     0
 42
0.0000000001
 43
0.0000000001
 12
1.0
 22
0.0
 32
0.0
 13
1.0
 23
0.0
 33
0.0
 40
0.0
 40
0.0
 40
0.0
 40
0.0
 40
1.0
 40
1.0
 40
1.0
 40
2.0
 40
2.0
 40
2.0
 40
3.0
 40
3.0
 40
3.0
 40
4.0
 40
4.0
 40
4.0
 40
4.0
 10
100.7883354782751
 20
-113.2881754274071
 30
0.0
 10
100.5389105651431
 20
-113.2881754274071
 30
0.0
 10
100.4920572665437
 20
-113.5717067858432
 30
0.0
 10
100.4920572665437
 20
-113.9165608439167
 30
0.0
 10
100.4920572665437
 20
-114.2359211953994
 30
0.0
 10
100.5282307691388
 20
-114.5446017508777
 30
0.0
 10
100.7883354782751
 20
-114.5446017508777
 30
0.0
 10
101.0360378436646
 20
-114.5446017508777
 30
0.0
 10
101.0846136900066
 20
-114.2634819592813
 30
0.0
 10
101.0846136900066
 20
-113.9165608439167
 30
0.0
 10
101.0846136900066
 20
-113.5968559828855
 30
0.0
 10
101.0463731301204
 20
-113.2881754274071
 30
0.0
 10
100.7883354782751
 20
-113.2881754274071
 30
0.0
  0
HATCH
  5
81
330
76
100
AcDbEntity
  8
_U+30EC_U+30A4_U+30E4_U+30FC 1
 62
   179
420
  2234388
100
AcDbHatch
 10
0.0
 20
0.0
 30
0.0
210
0.0
220
0.0
230
1.0
  2
SOLID
 70
     1
 71
     0
 91
        2
 92
        1
 93
        1
 72
     4
 94
        3
 73
     0
 74
     1
 95
       29
 96
       25
 40
0.0
 40
0.0
 40
0.0
 40
0.0
 40
1.0
 40
1.0
 40
1.0
 40
2.0
 40
2.0
 40
2.0
 40
3.0
 40
3.0
 40
3.0
 40
4.0
 40
4.0
 40
4.0
 40
5.0
 40
5.0
 40
5.0
 40
6.0
 40
6.0
 40
6.0
 40
7.0
 40
7.0
 40
7.0
 40
8.0
 40
8.0
 40
8.0
 40
8.0
 10
101.1862440068215
 20
-114.5108398151223
 10
101.0780680085847
 20
-114.7203016206255
 10
100.9047797056766
 20
-114.7392496457944
 10
100.7883354782751
 20
-114.7392496457944
 10
100.627449519114
 20
-114.7392496457944
 10
100.4858560946702
 20
-114.6927408567435
 10
100.3907714592773
 20
-114.5108398151223
 10
100.2870740851713
 20
-114.3161919202057
 10
100.2681260600024
 20
-114.0791693508205
 10
100.2681260600024
 20
-113.9165608439167
 10
100.2681260600024
 20
-113.7725558526333
 10
100.2850070278801
 20
-113.5207193726615
 10
100.3907714592773
 20
-113.3219373631626
 10
100.4986029479656
 20
-113.1190212390814
 10
100.6594889071268
 20
-113.0955945897817
 10
100.7883354782751
 20
-113.0955945897817
 10
100.9471543801452
 20
-113.0955945897817
 10
101.0908148618801
 20
-113.1400363215414
 10
101.1862440068215
 20
-113.3219373631626
 10
101.2854627567967
 20
-113.514518200788
 10
101.3088894060964
 20
-113.7429280314601
 10
101.3088894060964
 20
-113.9165608439167
 10
101.3088894060964
 20
-114.0877820895336
 10
101.2875298140878
 20
-114.3182589774968
 10
101.1862440068215
 20
-114.5108398151223
 97
        0
 97
        0
 92
        1
 93
        1
 72
     4
 94
        3
 73
     0
 74
     1
 95
       17
 96
       13
 40
0.0
 40
0.0
 40
0.0
 40
0.0
 40
1.0
 40
1.0
 40
1.0
 40
2.0
 40
2.0
 40
2.0
 40
3.0
 40
3.0
 40
3.0
 40
4.0
 40
4.0
 40
4.0
 40
4.0
 10
100.7883354782751
 20
-113.2881754274071
 10
100.5389105651431
 20
-113.2881754274071
 10
100.4920572665437
 20
-113.5717067858432
 10
100.4920572665437
 20
-113.9165608439167
 10
100.4920572665437
 20
-114.2359211953994
 10
100.5282307691388
 20
-114.5446017508777
 10
100.7883354782751
 20
-114.5446017508777
 10
101.0360378436646
 20
-114.5446017508777
 10
101.0846136900066
 20
-114.2634819592813
 10
101.0846136900066
 20
-113.9165608439167
 10
101.0846136900066
 20
-113.5968559828855
 10
101.0463731301204
 20
-113.2881754274071
 10
100.7883354782751
 20
-113.2881754274071
 97
        0
 97
        0
 75
     2
 76
     1
 98
        0
  0
ENDBLK
  5
79
330
76
100
AcDbEntity
  8
0
100
AcDbBlockEnd
  0
BLOCK
  5
84
330
82
100
AcDbEntity
  8
0
100
AcDbBlockBegin
  2
block 7
 70
     0
 10
0.0
 20
0.0
 30
0.0
  3
block 7
  1

  0
POLYLINE
  5
86
330
82
100
AcDbEntity
  8
_U+30EC_U+30A4_U+30E4_U+30FC 1
 62
   179
420
  2234388
370
     9
100
AcDb2dPolyline
 66
     1
 10
0.0
 20
0.0
 30
0.0
  0
VERTEX
  5
87
330
86
100
AcDbEntity
  8
_U+30EC_U+30A4_U+30E4_U+30FC 1
 62
   179
420
  2234388
370
     9
100
AcDbVertex
100
AcDb2dVertex
 10
52.50599671601598
 20
-136.2152963548353
 30
0.0
  0
VERTEX
  5
88
330
86
100
AcDbEntity
  8
_U+30EC_U+30A4_U+30E4_U+30FC 1
 62
   179
420
  2234388
370
     9
100
AcDbVertex
100
AcDb2dVertex
 10
115.447547888021
 20
-108.8004060839111
 30
0.0
  0
SEQEND
  5
89
330
86
100
AcDbEntity
  8
_U+30EC_U+30A4_U+30E4_U+30FC 1
 62
   179
420
  2234388
370
     9
  0
POLYLINE
  5
8A
330
82
100
AcDbEntity
  8
_U+30EC_U+30A4_U+30E4_U+30FC 1
 62
   179
420
  2234388
370
     9
100
AcDb2dPolyline
 66
     1
 10
0.0
 20
0.0
 30
0.0
  0
VERTEX
  5
8B
330
8A
100
AcDbEntity
  8
_U+30EC_U+30A4_U+30E4_U+30FC 1
 62
   179
420
  2234388
370
     9
100
AcDbVertex
100
AcDb2dVertex
 10
51.86796284340469
 20
-135.675087743859
 30
0.0
  0
VERTEX
  5
8C
330
8A
100
AcDbEntity
  8
_U+30EC_U+30A4_U+30E4_U+30FC 1
 62
   179
420
  2234388
370
     9
100
AcDbVertex
100
AcDb2dVertex
 10
55.69203857917773
 20
-138.8838485763901
 30
0.0
  0
SEQEND
  5
8D
330
8A
100
AcDbEntity
  8
_U+30EC_U+30A4_U+30E4_U+30FC 1
 62
   179
420
  2234388
370
     9
  0
SPLINE
  5
8E
330
82
100
AcDbEntity
  8
_U+30EC_U+30A4_U+30E4_U+30FC 1
 62
   179
420
  2234388
370
     9
100
AcDbSpline
210
0.0
220
0.0
230
1.0
 70
    11
 71
     3
 72
    17
 73
    13
 74
     0
 42
0.0000000001
 43
0.0000000001
 12
1.0
 22
0.0
 32
0.0
 13
1.0
 23
0.0
 33
0.0
 40
0.0
 40
0.0
 40
0.0
 40
0.0
 40
1.0
 40
1.0
 40
1.0
 40
2.0
 40
2.0
 40
2.0
 40
3.0
 40
3.0
 40
3.0
 40
4.0
 40
4.0
 40
4.0
 40
4.0
 10
52.6121122688643
 20
-136.2149435770575
 30
0.0
 10
52.6121122688643
 20
-136.1598044104044
 30
0.0
 10
52.56734477000641
 20
-136.1157071881932
 30
0.0
 10
52.51171171587018
 20
-136.1157071881932
 30
0.0
 10
52.45674893949462
 20
-136.1157071881932
 30
0.0
 10
52.41194616285986
 20
-136.1598044104044
 30
0.0
 10
52.41194616285986
 20
-136.2149435770575
 30
0.0
 10
52.41194616285986
 20
-136.2714585770435
 30
0.0
 10
52.45674893949462
 20
-136.3155557992546
 30
0.0
 10
52.51171171587018
 20
-136.3155557992546
 30
0.0
 10
52.56734477000641
 20
-136.3155557992546
 30
0.0
 10
52.6121122688643
 20
-136.2714585770435
 30
0.0
 10
52.6121122688643
 20
-136.2149435770575
 30
0.0
  0
HATCH
  5
8F
330
82
100
AcDbEntity
  8
_U+30EC_U+30A4_U+30E4_U+30FC 1
 62
   179
420
  2234388
100
AcDbHatch
 10
0.0
 20
0.0
 30
0.0
210
0.0
220
0.0
230
1.0
  2
SOLID
 70
     1
 71
     0
 91
        1
 92
        1
 93
        1
 72
     4
 94
        3
 73
     0
 74
     1
 95
       17
 96
       13
 40
0.0
 40
0.0
 40
0.0
 40
0.0
 40
1.0
 40
1.0
 40
1.0
 40
2.0
 40
2.0
 40
2.0
 40
3.0
 40
3.0
 40
3.0
 40
4.0
 40
4.0
 40
4.0
 40
4.0
 10
52.6121122688643
 20
-136.2149435770575
 10
52.6121122688643
 20
-136.1598044104044
 10
52.56734477000641
 20
-136.1157071881932
 10
52.51171171587018
 20
-136.1157071881932
 10
52.45674893949462
 20
-136.1157071881932
 10
52.41194616285986
 20
-136.1598044104044
 10
52.41194616285986
 20
-136.2149435770575
 10
52.41194616285986
 20
-136.2714585770435
 10
52.45674893949462
 20
-136.3155557992546
 10
52.51171171587018
 20
-136.3155557992546
 10
52.56734477000641
 20
-136.3155557992546
 10
52.6121122688643
 20
-136.2714585770435
 10
52.6121122688643
 20
-136.2149435770575
 97
        0
 97
        0
 75
     2
 76
     1
 98
        0
  0
POLYLINE
  5
90
330
82
100
AcDbEntity
  8
_U+30EC_U+30A4_U+30E4_U+30FC 1
 62
   179
420
  2234388
370
    25
100
AcDb2dPolyline
 66
     1
 10
0.0
 20
0.0
 30
0.0
  0
VERTEX
  5
91
330
90
100
AcDbEntity
  8
_U+30EC_U+30A4_U+30E4_U+30FC 1
 62
   179
420
  2234388
370
    25
100
AcDbVertex
100
AcDb2dVertex
 10
92.49875430682684
 20
-127.2432402459671
 30
0.0
  0
VERTEX
  5
92
330
90
100
AcDbEntity
  8
_U+30EC_U+30A4_U+30E4_U+30FC 1
 62
   179
420
  2234388
370
    25
100
AcDbVertex
100
AcDb2dVertex
 10
92.49875430682684
 20
-128.5423796900868
 30
0.0
  0
VERTEX
  5
93
330
90
100
AcDbEntity
  8
_U+30EC_U+30A4_U+30E4_U+30FC 1
 62
   179
420
  2234388
370
    25
100
AcDbVertex
100
AcDb2dVertex
 10
119.2509508465437
 20
-115.8334191377083
 30
0.0
  0
VERTEX
  5
94
330
90
100
AcDbEntity
  8
_U+30EC_U+30A4_U+30E4_U+30FC 1
 62
   179
420
  2234388
370
    25
100
AcDbVertex
100
AcDb2dVertex
 10
119.2509508465437
 20
-114.4433335825002
 30
0.0
  0
SEQEND
  5
95
330
90
100
AcDbEntity
  8
_U+30EC_U+30A4_U+30E4_U+30FC 1
 62
   179
420
  2234388
370
    25
  0
POLYLINE
  5
96
330
82
100
AcDbEntity
  8
_U+30EC_U+30A4_U+30E4_U+30FC 1
 62
   179
420
  2234388
370
    25
100
AcDb2dPolyline
 66
     1
 10
0.0
 20
0.0
 30
0.0
  0
VERTEX
  5
97
330
96
100
AcDbEntity
  8
_U+30EC_U+30A4_U+30E4_U+30FC 1
 62
   179
420
  2234388
370
    25
100
AcDbVertex
100
AcDb2dVertex
 10
57.15070554126802
 20
-145.3213727414476
 30
0.0
  0
VERTEX
  5
98
330
96
100
AcDbEntity
  8
_U+30EC_U+30A4_U+30E4_U+30FC 1
 62
   179
420
  2234388
370
    25
100
AcDbVertex
100
AcDb2dVertex
 10
89.79400715360848
 20
-129.8211991342116
 30
0.0
  0
VERTEX
  5
99
330
96
100
AcDbEntity
  8
_U+30EC_U+30A4_U+30E4_U+30FC 1
 62
   179
420
  2234388
370
    25
100
AcDbVertex
100
AcDb2dVertex
 10
89.79400715360848
 20
-128.5220596900919
 30
0.0
  0
SEQEND
  5
9A
330
96
100
AcDbEntity
  8
_U+30EC_U+30A4_U+30E4_U+30FC 1
 62
   179
420
  2234388
370
    25
  0
POLYLINE
  5
9B
330
82
100
AcDbEntity
  8
_U+30EC_U+30A4_U+30E4_U+30FC 1
 62
   179
420
  2234388
370
     9
100
AcDb2dPolyline
 66
     1
 10
0.0
 20
0.0
 30
0.0
  0
VERTEX
  5
9C
330
9B
100
AcDbEntity
  8
_U+30EC_U+30A4_U+30E4_U+30FC 1
 62
   179
420
  2234388
370
     9
100
AcDbVertex
100
AcDb2dVertex
 10
66.09898275811891
 20
-147.3498449631627
 30
0.0
  0
VERTEX
  5
9D
330
9B
100
AcDbEntity
  8
_U+30EC_U+30A4_U+30E4_U+30FC 1
 62
   179
420
  2234388
370
     9
100
AcDbVertex
100
AcDb2dVertex
 10
128.4087089462431
 20
-116.3937713597903
 30
0.0
  0
SEQEND
  5
9E
330
9B
100
AcDbEntity
  8
_U+30EC_U+30A4_U+30E4_U+30FC 1
 62
   179
420
  2234388
370
     9
  0
POLYLINE
  5
9F
330
82
100
AcDbEntity
  8
_U+30EC_U+30A4_U+30E4_U+30FC 1
 62
   179
420
  2234388
370
    25
100
AcDb2dPolyline
 66
     1
 10
0.0
 20
0.0
 30
0.0
  0
VERTEX
  5
A0
330
9F
100
AcDbEntity
  8
_U+30EC_U+30A4_U+30E4_U+30FC 1
 62
   179
420
  2234388
370
    25
100
AcDbVertex
100
AcDb2dVertex
 10
58.0987943511096
 20
-143.3590463530493
 30
0.0
  0
VERTEX
  5
A1
330
9F
100
AcDbEntity
  8
_U+30EC_U+30A4_U+30E4_U+30FC 1
 62
   179
420
  2234388
370
    25
100
AcDbVertex
100
AcDb2dVertex
 10
92.42537653092108
 20
-127.2856088570673
 30
0.0
  0
VERTEX
  5
A2
330
9F
100
AcDbEntity
  8
_U+30EC_U+30A4_U+30E4_U+30FC 1
 62
   179
420
  2234388
370
    25
100
AcDbVertex
100
AcDb2dVertex
 10
120.2445141545291
 20
-113.9255263604076
 30
0.0
  0
VERTEX
  5
A3
330
9F
100
AcDbEntity
  8
_U+30EC_U+30A4_U+30E4_U+30FC 1
 62
   179
420
  2234388
370
    25
100
AcDbVertex
100
AcDb2dVertex
 10
120.2445141545291
 20
-111.5700996943297
 30
0.0
  0
VERTEX
  5
A4
330
9F
100
AcDbEntity
  8
_U+30EC_U+30A4_U+30E4_U+30FC 1
 62
   179
420
  2234388
370
    25
100
AcDbVertex
100
AcDb2dVertex
 10
119.0432000185105
 20
-110.8764327500587
 30
0.0
  0
VERTEX
  5
A5
330
9F
100
AcDbEntity
  8
_U+30EC_U+30A4_U+30E4_U+30FC 1
 62
   179
420
  2234388
370
    25
100
AcDbVertex
100
AcDb2dVertex
 10
92.30063431188131
 20
-123.1442446914363
 30
0.0
  0
VERTEX
  5
A6
330
9F
100
AcDbEntity
  8
_U+30EC_U+30A4_U+30E4_U+30FC 1
 62
   179
420
  2234388
370
    25
100
AcDbVertex
100
AcDb2dVertex
 10
92.30063431188131
 20
-124.7720671910291
 30
0.0
  0
VERTEX
  5
A7
330
9F
100
AcDbEntity
  8
_U+30EC_U+30A4_U+30E4_U+30FC 1
 62
   179
420
  2234388
370
    25
100
AcDbVertex
100
AcDb2dVertex
 10
89.29514411077997
 20
-124.5315785799784
 30
0.0
  0
VERTEX
  5
A8
330
9F
100
AcDbEntity
  8
_U+30EC_U+30A4_U+30E4_U+30FC 1
 62
   179
420
  2234388
370
    25
100
AcDbVertex
100
AcDb2dVertex
 10
56.79446910660793
 20
-139.6183671873174
 30
0.0
  0
SEQEND
  5
A9
330
9F
100
AcDbEntity
  8
_U+30EC_U+30A4_U+30E4_U+30FC 1
 62
   179
420
  2234388
370
    25
  0
POLYLINE
  5
AA
330
82
100
AcDbEntity
  8
_U+30EC_U+30A4_U+30E4_U+30FC 1
 62
   179
420
  2234388
370
     9
100
AcDb2dPolyline
 66
     1
 10
0.0
 20
0.0
 30
0.0
  0
VERTEX
  5
AB
330
AA
100
AcDbEntity
  8
_U+30EC_U+30A4_U+30E4_U+30FC 1
 62
   179
420
  2234388
370
     9
100
AcDbVertex
100
AcDb2dVertex
 10
59.01206543892123
 20
-141.4077266313147
 30
0.0
  0
VERTEX
  5
AC
330
AA
100
AcDbEntity
  8
_U+30EC_U+30A4_U+30E4_U+30FC 1
 62
   179
420
  2234388
370
     9
100
AcDbVertex
100
AcDb2dVertex
 10
67.83701299155584
 20
-148.8126380183522
 30
0.0
  0
SEQEND
  5
AD
330
AA
100
AcDbEntity
  8
_U+30EC_U+30A4_U+30E4_U+30FC 1
 62
   179
420
  2234388
370
     9
  0
POLYLINE
  5
AE
330
82
100
AcDbEntity
  8
_U+30EC_U+30A4_U+30E4_U+30FC 1
 62
   179
420
  2234388
370
     9
100
AcDb2dPolyline
 66
     1
 10
0.0
 20
0.0
 30
0.0
  0
VERTEX
  5
AF
330
AE
100
AcDbEntity
  8
_U+30EC_U+30A4_U+30E4_U+30FC 1
 62
   179
420
  2234388
370
     9
100
AcDbVertex
100
AcDb2dVertex
 10
121.2773416281795
 20
-112.2151891386128
 30
0.0
  0
VERTEX
  5
B0
330
AE
100
AcDbEntity
  8
_U+30EC_U+30A4_U+30E4_U+30FC 1
 62
   179
420
  2234388
370
     9
100
AcDbVertex
100
AcDb2dVertex
 10
130.0403061268399
 20
-117.3639102484367
 30
0.0
  0
SEQEND
  5
B1
330
AE
100
AcDbEntity
  8
_U+30EC_U+30A4_U+30E4_U+30FC 1
 62
   179
420
  2234388
370
     9
  0
POLYLINE
  5
B2
330
82
100
AcDbEntity
  8
_U+30EC_U+30A4_U+30E4_U+30FC 1
 62
   179
420
  2234388
370
     9
100
AcDb2dPolyline
 66
     1
 10
0.0
 20
0.0
 30
0.0
  0
VERTEX
  5
B3
330
B2
100
AcDbEntity
  8
_U+30EC_U+30A4_U+30E4_U+30FC 1
 62
   179
420
  2234388
370
     9
100
AcDbVertex
100
AcDb2dVertex
 10
113.9820032031879
 20
-107.9372646952378
 30
0.0
  0
VERTEX
  5
B4
330
B2
100
AcDbEntity
  8
_U+30EC_U+30A4_U+30E4_U+30FC 1
 62
   179
420
  2234388
370
     9
100
AcDbVertex
100
AcDb2dVertex
 10
118.1530005967769
 20
-110.3624355279648
 30
0.0
  0
SEQEND
  5
B5
330
B2
100
AcDbEntity
  8
_U+30EC_U+30A4_U+30E4_U+30FC 1
 62
   179
420
  2234388
370
     9
  0
POLYLINE
  5
B6
330
82
100
AcDbEntity
  8
_U+30EC_U+30A4_U+30E4_U+30FC 1
 62
   179
420
  2234388
370
     9
100
AcDb2dPolyline
 66
     1
 10
0.0
 20
0.0
 30
0.0
  0
VERTEX
  5
B7
330
B6
100
AcDbEntity
  8
_U+30EC_U+30A4_U+30E4_U+30FC 1
 62
   179
420
  2234388
370
     9
100
AcDbVertex
100
AcDb2dVertex
 10
86.03127947182587
 20
-120.2741505254869
 30
0.0
  0
VERTEX
  5
B8
330
B6
100
AcDbEntity
  8
_U+30EC_U+30A4_U+30E4_U+30FC 1
 62
   179
420
  2234388
370
     9
100
AcDbVertex
100
AcDb2dVertex
 10
90.44100158154671
 20
-123.5373449691155
 30
0.0
  0
SEQEND
  5
B9
330
B6
100
AcDbEntity
  8
_U+30EC_U+30A4_U+30E4_U+30FC 1
 62
   179
420
  2234388
370
     9
  0
SPLINE
  5
BA
330
82
100
AcDbEntity
  8
_U+30EC_U+30A4_U+30E4_U+30FC 1
 62
   179
420
  2234388
370
     9
100
AcDbSpline
210
0.0
220
0.0
230
1.0
 70
    11
 71
     3
 72
    17
 73
    13
 74
     0
 42
0.0000000001
 43
0.0000000001
 12
1.0
 22
0.0
 32
0.0
 13
1.0
 23
0.0
 33
0.0
 40
0.0
 40
0.0
 40
0.0
 40
0.0
 40
1.0
 40
1.0
 40
1.0
 40
2.0
 40
2.0
 40
2.0
 40
3.0
 40
3.0
 40
3.0
 40
4.0
 40
4.0
 40
4.0
 40
4.0
 10
66.2050999834486
 20
-147.349492185385
 30
0.0
 10
66.2050999834486
 20
-147.2943530187319
 30
0.0
 10
66.16029720568221
 20
-147.2502557965207
 30
0.0
 10
66.10466248019623
 20
-147.2502557965207
 30
0.0
 10
66.04969970382066
 20
-147.2502557965207
 30
0.0
 10
66.00493220496278
 20
-147.2943530187319
 30
0.0
 10
66.00493220496278
 20
-147.349492185385
 30
0.0
 10
66.00493220496278
 20
-147.4060071853709
 30
0.0
 10
66.04969970382066
 20
-147.4501044075821
 30
0.0
 10
66.10466248019623
 20
-147.4501044075821
 30
0.0
 10
66.16029720568221
 20
-147.4501044075821
 30
0.0
 10
66.2050999834486
 20
-147.4060071853709
 30
0.0
 10
66.2050999834486
 20
-147.349492185385
 30
0.0
  0
HATCH
  5
BB
330
82
100
AcDbEntity
  8
_U+30EC_U+30A4_U+30E4_U+30FC 1
 62
   179
420
  2234388
100
AcDbHatch
 10
0.0
 20
0.0
 30
0.0
210
0.0
220
0.0
230
1.0
  2
SOLID
 70
     1
 71
     0
 91
        1
 92
        1
 93
        1
 72
     4
 94
        3
 73
     0
 74
     1
 95
       17
 96
       13
 40
0.0
 40
0.0
 40
0.0
 40
0.0
 40
1.0
 40
1.0
 40
1.0
 40
2.0
 40
2.0
 40
2.0
 40
3.0
 40
3.0
 40
3.0
 40
4.0
 40
4.0
 40
4.0
 40
4.0
 10
66.2050999834486
 20
-147.349492185385
 10
66.2050999834486
 20
-147.2943530187319
 10
66.16029720568221
 20
-147.2502557965207
 10
66.10466248019623
 20
-147.2502557965207
 10
66.04969970382066
 20
-147.2502557965207
 10
66.00493220496278
 20
-147.2943530187319
 10
66.00493220496278
 20
-147.349492185385
 10
66.00493220496278
 20
-147.4060071853709
 10
66.04969970382066
 20
-147.4501044075821
 10
66.10466248019623
 20
-147.4501044075821
 10
66.16029720568221
 20
-147.4501044075821
 10
66.2050999834486
 20
-147.4060071853709
 10
66.2050999834486
 20
-147.349492185385
 97
        0
 97
        0
 75
     2
 76
     1
 98
        0
  0
SPLINE
  5
BC
330
82
100
AcDbEntity
  8
_U+30EC_U+30A4_U+30E4_U+30FC 1
 62
   179
420
  2234388
370
     9
100
AcDbSpline
210
0.0
220
0.0
230
1.0
 70
    11
 71
     3
 72
    17
 73
    13
 74
     0
 42
0.0000000001
 43
0.0000000001
 12
1.0
 22
0.0
 32
0.0
 13
1.0
 23
0.0
 33
0.0
 40
0.0
 40
0.0
 40
0.0
 40
0.0
 40
1.0
 40
1.0
 40
1.0
 40
2.0
 40
2.0
 40
2.0
 40
3.0
 40
3.0
 40
3.0
 40
4.0
 40
4.0
 40
4.0
 40
4.0
 10
87.26875553373844
 20
-121.1116449697222
 30
0.0
 10
87.26875553373844
 20
-121.0565058030691
 30
0.0
 10
87.22395275597172
 20
-121.0124085808579
 30
0.0
 10
87.16884666502634
 20
-121.0124085808579
 30
0.0
 10
87.11370749976639
 20
-121.0124085808579
 30
0.0
 10
87.0689400009085
 20
-121.0565058030691
 30
0.0
 10
87.0689400009085
 20
-121.1116449697222
 30
0.0
 10
87.0689400009085
 20
-121.1681599697078
 30
0.0
 10
87.11370749976639
 20
-121.212257191919
 30
0.0
 10
87.16884666502634
 20
-121.212257191919
 30
0.0
 10
87.22395275597172
 20
-121.212257191919
 30
0.0
 10
87.26875553373844
 20
-121.1681599697078
 30
0.0
 10
87.26875553373844
 20
-121.1116449697222
 30
0.0
  0
HATCH
  5
BD
330
82
100
AcDbEntity
  8
_U+30EC_U+30A4_U+30E4_U+30FC 1
 62
   179
420
  2234388
100
AcDbHatch
 10
0.0
 20
0.0
 30
0.0
210
0.0
220
0.0
230
1.0
  2
SOLID
 70
     1
 71
     0
 91
        1
 92
        1
 93
        1
 72
     4
 94
        3
 73
     0
 74
     1
 95
       17
 96
       13
 40
0.0
 40
0.0
 40
0.0
 40
0.0
 40
1.0
 40
1.0
 40
1.0
 40
2.0
 40
2.0
 40
2.0
 40
3.0
 40
3.0
 40
3.0
 40
4.0
 40
4.0
 40
4.0
 40
4.0
 10
87.26875553373844
 20
-121.1116449697222
 10
87.26875553373844
 20
-121.0565058030691
 10
87.22395275597172
 20
-121.0124085808579
 10
87.16884666502634
 20
-121.0124085808579
 10
87.11370749976639
 20
-121.0124085808579
 10
87.0689400009085
 20
-121.0565058030691
 10
87.0689400009085
 20
-121.1116449697222
 10
87.0689400009085
 20
-121.1681599697078
 10
87.11370749976639
 20
-121.212257191919
 10
87.16884666502634
 20
-121.212257191919
 10
87.22395275597172
 20
-121.212257191919
 10
87.26875553373844
 20
-121.1681599697078
 10
87.26875553373844
 20
-121.1116449697222
 97
        0
 97
        0
 75
     2
 76
     1
 98
        0
  0
SPLINE
  5
BE
330
82
100
AcDbEntity
  8
_U+30EC_U+30A4_U+30E4_U+30FC 1
 62
   179
420
  2234388
370
     9
100
AcDbSpline
210
0.0
220
0.0
230
1.0
 70
    11
 71
     3
 72
    17
 73
    13
 74
     0
 42
0.0000000001
 43
0.0000000001
 12
1.0
 22
0.0
 32
0.0
 13
1.0
 23
0.0
 33
0.0
 40
0.0
 40
0.0
 40
0.0
 40
0.0
 40
1.0
 40
1.0
 40
1.0
 40
2.0
 40
2.0
 40
2.0
 40
3.0
 40
3.0
 40
3.0
 40
4.0
 40
4.0
 40
4.0
 40
4.0
 10
115.5584964963016
 20
-108.8031930283547
 30
0.0
 10
115.5584964963016
 20
-108.7480538617019
 30
0.0
 10
115.5136937196668
 20
-108.7031099728242
 30
0.0
 10
115.4585898321837
 20
-108.7031099728242
 30
0.0
 10
115.4034506669238
 20
-108.7031099728242
 30
0.0
 10
115.3586860822715
 20
-108.7480538617019
 30
0.0
 10
115.3586860822715
 20
-108.8031930283547
 30
0.0
 10
115.3586860822715
 20
-108.8590024727851
 30
0.0
 10
115.4034506669238
 20
-108.9032408061077
 30
0.0
 10
115.4585898321837
 20
-108.9032408061077
 30
0.0
 10
115.5136937196668
 20
-108.9032408061077
 30
0.0
 10
115.5584964963016
 20
-108.8590024727851
 30
0.0
 10
115.5584964963016
 20
-108.8031930283547
 30
0.0
  0
HATCH
  5
BF
330
82
100
AcDbEntity
  8
_U+30EC_U+30A4_U+30E4_U+30FC 1
 62
   179
420
  2234388
100
AcDbHatch
 10
0.0
 20
0.0
 30
0.0
210
0.0
220
0.0
230
1.0
  2
SOLID
 70
     1
 71
     0
 91
        1
 92
        1
 93
        1
 72
     4
 94
        3
 73
     0
 74
     1
 95
       17
 96
       13
 40
0.0
 40
0.0
 40
0.0
 40
0.0
 40
1.0
 40
1.0
 40
1.0
 40
2.0
 40
2.0
 40
2.0
 40
3.0
 40
3.0
 40
3.0
 40
4.0
 40
4.0
 40
4.0
 40
4.0
 10
115.5584964963016
 20
-108.8031930283547
 10
115.5584964963016
 20
-108.7480538617019
 10
115.5136937196668
 20
-108.7031099728242
 10
115.4585898321837
 20
-108.7031099728242
 10
115.4034506669238
 20
-108.7031099728242
 10
115.3586860822715
 20
-108.7480538617019
 10
115.3586860822715
 20
-108.8031930283547
 10
115.3586860822715
 20
-108.8590024727851
 10
115.4034506669238
 20
-108.9032408061077
 10
115.4585898321837
 20
-108.9032408061077
 10
115.5136937196668
 20
-108.9032408061077
 10
115.5584964963016
 20
-108.8590024727851
 10
115.5584964963016
 20
-108.8031930283547
 97
        0
 97
        0
 75
     2
 76
     1
 98
        0
  0
SPLINE
  5
C0
330
82
100
AcDbEntity
  8
_U+30EC_U+30A4_U+30E4_U+30FC 1
 62
   179
420
  2234388
370
     9
100
AcDbSpline
210
0.0
220
0.0
230
1.0
 70
    11
 71
     3
 72
    17
 73
    13
 74
     0
 42
0.0000000001
 43
0.0000000001
 12
1.0
 22
0.0
 32
0.0
 13
1.0
 23
0.0
 33
0.0
 40
0.0
 40
0.0
 40
0.0
 40
0.0
 40
1.0
 40
1.0
 40
1.0
 40
2.0
 40
2.0
 40
2.0
 40
3.0
 40
3.0
 40
3.0
 40
4.0
 40
4.0
 40
4.0
 40
4.0
 10
128.4776064444854
 20
-116.401179693122
 30
0.0
 10
128.4776064444854
 20
-116.346040526469
 30
0.0
 10
128.4328036678506
 20
-116.3010966375915
 30
0.0
 10
128.3776997803676
 20
-116.3010966375915
 30
0.0
 10
128.3225638568082
 20
-116.3010966375915
 30
0.0
 10
128.2777931162497
 20
-116.346040526469
 30
0.0
 10
128.2777931162497
 20
-116.401179693122
 30
0.0
 10
128.2777931162497
 20
-116.4569891375525
 30
0.0
 10
128.3225638568082
 20
-116.5010863597637
 30
0.0
 10
128.3776997803676
 20
-116.5010863597637
 30
0.0
 10
128.4328036678506
 20
-116.5010863597637
 30
0.0
 10
128.4776064444854
 20
-116.4569891375525
 30
0.0
 10
128.4776064444854
 20
-116.401179693122
 30
0.0
  0
HATCH
  5
C1
330
82
100
AcDbEntity
  8
_U+30EC_U+30A4_U+30E4_U+30FC 1
 62
   179
420
  2234388
100
AcDbHatch
 10
0.0
 20
0.0
 30
0.0
210
0.0
220
0.0
230
1.0
  2
SOLID
 70
     1
 71
     0
 91
        1
 92
        1
 93
        1
 72
     4
 94
        3
 73
     0
 74
     1
 95
       17
 96
       13
 40
0.0
 40
0.0
 40
0.0
 40
0.0
 40
1.0
 40
1.0
 40
1.0
 40
2.0
 40
2.0
 40
2.0
 40
3.0
 40
3.0
 40
3.0
 40
4.0
 40
4.0
 40
4.0
 40
4.0
 10
128.4776064444854
 20
-116.401179693122
 10
128.4776064444854
 20
-116.346040526469
 10
128.4328036678506
 20
-116.3010966375915
 10
128.3776997803676
 20
-116.3010966375915
 10
128.3225638568082
 20
-116.3010966375915
 10
128.2777931162497
 20
-116.346040526469
 10
128.2777931162497
 20
-116.401179693122
 10
128.2777931162497
 20
-116.4569891375525
 10
128.3225638568082
 20
-116.5010863597637
 10
128.3776997803676
 20
-116.5010863597637
 10
128.4328036678506
 20
-116.5010863597637
 10
128.4776064444854
 20
-116.4569891375525
 10
128.4776064444854
 20
-116.401179693122
 97
        0
 97
        0
 75
     2
 76
     1
 98
        0
  0
POLYLINE
  5
C2
330
82
100
AcDbEntity
  8
_U+30EC_U+30A4_U+30E4_U+30FC 1
 62
   179
420
  2234388
370
    25
100
AcDb2dPolyline
 66
     1
 10
0.0
 20
0.0
 30
0.0
  0
VERTEX
  5
C3
330
C2
100
AcDbEntity
  8
_U+30EC_U+30A4_U+30E4_U+30FC 1
 62
   179
420
  2234388
370
    25
100
AcDbVertex
100
AcDb2dVertex
 10
58.04813546351313
 20
-140.7101085759339
 30
0.0
  0
VERTEX
  5
C4
330
C2
100
AcDbEntity
  8
_U+30EC_U+30A4_U+30E4_U+30FC 1
 62
   179
420
  2234388
370
    25
100
AcDbVertex
100
AcDb2dVertex
 10
92.30063431188131
 20
-124.8723266354485
 30
0.0
  0
SEQEND
  5
C5
330
C2
100
AcDbEntity
  8
_U+30EC_U+30A4_U+30E4_U+30FC 1
 62
   179
420
  2234388
370
    25
  0
POLYLINE
  5
C6
330
82
100
AcDbEntity
  8
_U+30EC_U+30A4_U+30E4_U+30FC 1
 62
   179
420
  2234388
370
    25
100
AcDb2dPolyline
 66
     1
 10
0.0
 20
0.0
 30
0.0
  0
VERTEX
  5
C7
330
C6
100
AcDbEntity
  8
_U+30EC_U+30A4_U+30E4_U+30FC 1
 62
   179
420
  2234388
370
    25
100
AcDbVertex
100
AcDb2dVertex
 10
92.30063431188131
 20
-124.8723266354485
 30
0.0
  0
VERTEX
  5
C8
330
C6
100
AcDbEntity
  8
_U+30EC_U+30A4_U+30E4_U+30FC 1
 62
   179
420
  2234388
370
    25
100
AcDbVertex
100
AcDb2dVertex
 10
120.173535267451
 20
-111.5981808054338
 30
0.0
  0
SEQEND
  5
C9
330
C6
100
AcDbEntity
  8
_U+30EC_U+30A4_U+30E4_U+30FC 1
 62
   179
420
  2234388
370
    25
  0
INSERT
  5
CB
330
82
100
AcDbEntity
  8
_U+30EC_U+30A4_U+30E4_U+30FC 1
100
AcDbBlockReference
  2
block 8
 10
0.0
 20
0.0
 30
0.0
  0
ENDBLK
  5
85
330
82
100
AcDbEntity
  8
0
100
AcDbBlockEnd
  0
BLOCK
  5
CC
330
CA
100
AcDbEntity
  8
0
100
AcDbBlockBegin
  2
block 8
 70
     0
 10
0.0
 20
0.0
 30
0.0
  3
block 8
  1

  0
INSERT
  5
CF
330
CA
100
AcDbEntity
  8
_U+30EC_U+30A4_U+30E4_U+30FC 1
100
AcDbBlockReference
  2
block 9
 10
0.0
 20
0.0
 30
0.0
  0
ENDBLK
  5
CD
330
CA
100
AcDbEntity
  8
0
100
AcDbBlockEnd
  0
BLOCK
  5
D0
330
CE
100
AcDbEntity
  8
0
100
AcDbBlockBegin
  2
block 9
 70
     0
 10
0.0
 20
0.0
 30
0.0
  3
block 9
  1

  0
SPLINE
  5
D2
330
CE
100
AcDbEntity
  8
_U+30EC_U+30A4_U+30E4_U+30FC 1
 62
   179
420
  2234388
370
    25
100
AcDbSpline
210
0.0
220
0.0
230
1.0
 70
    11
 71
     3
 72
    53
 73
    49
 74
     0
 42
0.0000000001
 43
0.0000000001
 12
1.0
 22
0.0
 32
0.0
 13
1.0
 23
0.0
 33
0.0
 40
0.0
 40
0.0
 40
0.0
 40
0.0
 40
1.0
 40
1.0
 40
1.0
 40
2.0
 40
2.0
 40
2.0
 40
3.0
 40
3.0
 40
3.0
 40
4.0
 40
4.0
 40
4.0
 40
5.0
 40
5.0
 40
5.0
 40
6.0
 40
6.0
 40
6.0
 40
7.0
 40
7.0
 40
7.0
 40
8.0
 40
8.0
 40
8.0
 40
9.0
 40
9.0
 40
9.0
 40
10.0
 40
10.0
 40
10.0
 40
11.0
 40
11.0
 40
11.0
 40
12.0
 40
12.0
 40
12.0
 40
13.0
 40
13.0
 40
13.0
 40
14.0
 40
14.0
 40
14.0
 40
15.0
 40
15.0
 40
15.0
 40
16.0
 40
16.0
 40
16.0
 40
16.0
 10
58.0968893511582
 20
-141.0263738536322
 30
0.0
 10
58.09138601796527
 20
-140.8868502425558
 30
0.0
 10
57.93150713315524
 20
-140.627417464843
 30
0.0
 10
57.73479824928481
 20
-140.4420680204448
 30
0.0
 10
57.73479824928481
 20
-140.4420680204448
 30
0.0
 10
57.11570854285688
 20
-139.8591732983684
 30
0.0
 10
57.11570854285688
 20
-139.8591732983684
 30
0.0
 10
56.95258410257409
 20
-139.7055032984072
 30
0.0
 10
56.81874165246187
 20
-139.6483180206432
 30
0.0
 10
56.7729496627125
 20
-139.697601076187
 30
0.0
 10
56.7729496627125
 20
-139.697601076187
 30
0.0
 10
56.75072466327951
 20
-139.6769282984143
 30
0.0
 10
56.75072466327951
 20
-139.6769282984143
 30
0.0
 10
56.75072466327951
 20
-139.6769282984143
 30
0.0
 10
56.75277220803396
 20
-139.7403224650647
 30
0.0
 10
56.75277220803396
 20
-139.7403224650647
 30
0.0
 10
56.75277220803396
 20
-139.7413455206204
 30
0.0
 10
56.75174771880896
 20
-139.7413455206204
 30
0.0
 10
56.75174771880896
 20
-139.7423685761756
 30
0.0
 10
56.75174771880896
 20
-139.7437444095085
 30
0.0
 10
56.75294716322281
 20
-139.7461785761746
 30
0.0
 10
56.75294716322281
 20
-139.7475544095075
 30
0.0
 10
56.75294716322281
 20
-139.7475544095075
 30
0.0
 10
56.92676076989956
 20
-145.1670324637084
 30
0.0
 10
56.92676076989956
 20
-145.1670324637084
 30
0.0
 10
56.92676076989956
 20
-145.1670324637084
 30
0.0
 10
57.15070554126802
 20
-145.3213727414476
 30
0.0
 10
57.15070554126802
 20
-145.3213727414476
 30
0.0
 10
57.15070554126802
 20
-145.3213727414476
 30
0.0
 10
57.15070554126802
 20
-140.3580010760217
 30
0.0
 10
57.15070554126802
 20
-140.3580010760217
 30
0.0
 10
57.15070554126802
 20
-140.3580010760217
 30
0.0
 10
57.74118352689968
 20
-140.9350749647663
 30
0.0
 10
57.74118352689968
 20
-140.9350749647663
 30
0.0
 10
57.76065831889309
 20
-140.9540191314284
 30
0.0
 10
57.77734324819939
 20
-140.9647082980919
 30
0.0
 10
57.79611102549836
 20
-140.9809007980882
 30
0.0
 10
57.79611102549836
 20
-140.9809007980882
 30
0.0
 10
57.87485102348954
 20
-143.2047060753101
 30
0.0
 10
57.87485102348954
 20
-143.2047060753101
 30
0.0
 10
57.87485102348954
 20
-143.2047060753101
 30
0.0
 10
58.0987943511096
 20
-143.3590463530493
 30
0.0
 10
58.0987943511096
 20
-143.3590463530493
 30
0.0
 10
58.0987943511096
 20
-143.3590463530493
 30
0.0
 10
58.0987943511096
 20
-141.0280671869654
 30
0.0
 10
58.0987943511096
 20
-141.0280671869654
 30
0.0
 10
58.0987943511096
 20
-141.0280671869654
 30
0.0
 10
58.0968893511582
 20
-141.0263738536322
 30
0.0
 10
58.0968893511582
 20
-141.0263738536322
 30
0.0
  0
ENDBLK
  5
D1
330
CE
100
AcDbEntity
  8
0
100
AcDbBlockEnd
  0
ENDSEC
  0
SECTION
  2
ENTITIES
  0
INSERT
  5
42
330
1F
100
AcDbEntity
  8
_U+30EC_U+30A4_U+30E4_U+30FC 1
100
AcDbBlockReference
  2
block 2
 10
0.0
 20
0.0
 30
0.0
  0
INSERT
  5
5E
330
1F
100
AcDbEntity
  8
_U+30EC_U+30A4_U+30E4_U+30FC 1
100
AcDbBlockReference
  2
block 4
 10
0.0
 20
0.0
 30
0.0
  0
INSERT
  5
6A
330
1F
100
AcDbEntity
  8
_U+30EC_U+30A4_U+30E4_U+30FC 1
100
AcDbBlockReference
  2
block 5
 10
0.0
 20
0.0
 30
0.0
  0
INSERT
  5
77
330
1F
100
AcDbEntity
  8
_U+30EC_U+30A4_U+30E4_U+30FC 1
100
AcDbBlockReference
  2
block 6
 10
0.0
 20
0.0
 30
0.0
  0
INSERT
  5
83
330
1F
100
AcDbEntity
  8
_U+30EC_U+30A4_U+30E4_U+30FC 1
100
AcDbBlockReference
  2
block 7
 10
0.0
 20
0.0
 30
0.0
  0
ENDSEC
  0
SECTION
  2
OBJECTS
  0
DICTIONARY
  5
C
330
0
100
AcDbDictionary
281
     1
  3
ACAD_GROUP
350
D
  3
ACAD_LAYOUT
350
1A
  3
ACAD_MATERIAL
350
3B
  3
ACAD_MLEADERSTYLE
350
D4
  3
ACAD_MLINESTYLE
350
17
  3
ACAD_PLOTSETTINGS
350
19
  3
ACAD_PLOTSTYLENAME
350
E
  3
ACAD_TABLESTYLE
350
D3
  3
ACAD_VISUALSTYLE
350
2A
  0
SUN
  5
3F
330
29
100
AcDbSun
 90
        1
290
     0
 63
     7
421
 16777215
 40
1.0
291
     1
 91
  2455826
 92
 54000000
292
     0
 70
     2
 71
   256
280
     1
  0
DICTIONARY
  5
D
102
{ACAD_REACTORS
330
C
102
}
330
C
100
AcDbDictionary
281
     1
  0
DICTIONARY
  5
1A
102
{ACAD_REACTORS
330
C
102
}
330
C
100
AcDbDictionary
281
     1
  3
Layout1
350
1E
  3
Layout2
350
26
  3
Model
350
22
  0
DICTIONARY
  5
3B
102
{ACAD_REACTORS
330
C
102
}
330
C
100
AcDbDictionary
281
     1
  3
ByBlock
350
3D
  3
ByLayer
350
3C
  3
Global
350
3E
  0
DICTIONARY
  5
D4
102
{ACAD_REACTORS
330
C
102
}
330
C
100
AcDbDictionary
281
     1
  0
DICTIONARY
  5
17
102
{ACAD_REACTORS
330
C
102
}
330
C
100
AcDbDictionary
281
     1
  3
Standard
350
18
  0
DICTIONARY
  5
19
102
{ACAD_REACTORS
330
C
102
}
330
C
100
AcDbDictionary
281
     1
  0
ACDBDICTIONARYWDFLT
  5
E
102
{ACAD_REACTORS
330
C
102
}
330
C
100
AcDbDictionary
281
     1
  3
Normal
350
F
100
AcDbDictionaryWithDefault
340
F
  0
DICTIONARY
  5
D3
102
{ACAD_REACTORS
330
C
102
}
330
C
100
AcDbDictionary
281
     1
  0
DICTIONARY
  5
2A
102
{ACAD_REACTORS
330
C
102
}
330
C
100
AcDbDictionary
281
     1
  3
2dWireframe
350
2F
  3
3D Hidden
350
31
  3
3dWireframe
350
30
  3
Basic
350
32
  3
Brighten
350
36
  3
ColorChange
350
3A
  3
Conceptual
350
34
  3
Dim
350
35
  3
Facepattern
350
39
  3
Flat
350
2B
  3
FlatWithEdges
350
2C
  3
Gouraud
350
2D
  3
GouraudWithEdges
350
2E
  3
Linepattern
350
38
  3
Realistic
350
33
  3
Thicken
350
37
  0
LAYOUT
  5
1E
102
{ACAD_REACTORS
330
1A
102
}
330
1A
100
AcDbPlotSettings
  1

  2
none_device
  4

  6

 40
0.0
 41
0.0
 42
0.0
 43
0.0
 44
0.0
 45
0.0
 46
0.0
 47
0.0
 48
0.0
 49
0.0
140
0.0
141
0.0
142
1.0
143
1.0
 70
   688
 72
     0
 73
     0
 74
     5
  7

 75
    16
 76
     0
 77
     2
 78
   300
147
1.0
148
0.0
149
0.0
100
AcDbLayout
  1
Layout1
 70
     1
 71
     1
 10
0.0
 20
0.0
 11
12.0
 21
9.0
 12
0.0
 22
0.0
 32
0.0
 14
1.000000000000000E+20
 24
1.000000000000000E+20
 34
1.000000000000000E+20
 15
-1.000000000000000E+20
 25
-1.000000000000000E+20
 35
-1.000000000000000E+20
146
0.0
 13
0.0
 23
0.0
 33
0.0
 16
1.0
 26
0.0
 36
0.0
 17
0.0
 27
1.0
 37
0.0
 76
     0
330
1B
  0
LAYOUT
  5
26
102
{ACAD_REACTORS
330
1A
102
}
330
1A
100
AcDbPlotSettings
  1

  2
none_device
  4

  6

 40
0.0
 41
0.0
 42
0.0
 43
0.0
 44
0.0
 45
0.0
 46
0.0
 47
0.0
 48
0.0
 49
0.0
140
0.0
141
0.0
142
1.0
143
1.0
 70
   688
 72
     0
 73
     0
 74
     5
  7

 75
    16
 76
     0
 77
     2
 78
   300
147
1.0
148
0.0
149
0.0
100
AcDbLayout
  1
Layout2
 70
     1
 71
     2
 10
0.0
 20
0.0
 11
0.0
 21
0.0
 12
0.0
 22
0.0
 32
0.0
 14
0.0
 24
0.0
 34
0.0
 15
0.0
 25
0.0
 35
0.0
146
0.0
 13
0.0
 23
0.0
 33
0.0
 16
1.0
 26
0.0
 36
0.0
 17
0.0
 27
1.0
 37
0.0
 76
     0
330
23
  0
LAYOUT
  5
22
102
{ACAD_REACTORS
330
1A
102
}
330
1A
100
AcDbPlotSettings
  1

  2
none_device
  4

  6

 40
0.0
 41
0.0
 42
0.0
 43
0.0
 44
0.0
 45
0.0
 46
0.0
 47
0.0
 48
0.0
 49
0.0
140
0.0
141
0.0
142
1.0
143
1.0
 70
  1712
 72
     0
 73
     0
 74
     0
  7

 75
     0
 76
     0
 77
     2
 78
   300
147
1.0
148
0.0
149
0.0
100
AcDbLayout
  1
Model
 70
     1
 71
     0
 10
0.0
 20
0.0
 11
12.0
 21
9.0
 12
0.0
 22
0.0
 32
0.0
 14
1.000000000000000E+20
 24
1.000000000000000E+20
 34
1.000000000000000E+20
 15
-1.000000000000000E+20
 25
-1.000000000000000E+20
 35
-1.000000000000000E+20
146
0.0
 13
0.0
 23
0.0
 33
0.0
 16
1.0
 26
0.0
 36
0.0
 17
0.0
 27
1.0
 37
0.0
 76
     0
330
1F
331
29
  0
MATERIAL
  5
3D
102
{ACAD_REACTORS
330
3B
102
}
330
3B
100
AcDbMaterial
  1
ByBlock
 72
     1
 94
      127
  0
MATERIAL
  5
3C
102
{ACAD_REACTORS
330
3B
102
}
330
3B
100
AcDbMaterial
  1
ByLayer
 72
     1
 94
      127
  0
MATERIAL
  5
3E
102
{ACAD_REACTORS
330
3B
102
}
330
3B
100
AcDbMaterial
  1
Global
 72
     1
 94
      127
  0
MLINESTYLE
  5
18
102
{ACAD_REACTORS
330
17
102
}
330
17
100
AcDbMlineStyle
  2
Standard
 70
     0
  3

 62
   256
 51
90.0
 52
90.0
 71
     2
 49
0.5
 62
   256
  6
BYLAYER
 49
-0.5
 62
   256
  6
BYLAYER
  0
ACDBPLACEHOLDER
  5
F
102
{ACAD_REACTORS
330
E
102
}
330
E
  0
VISUALSTYLE
  5
2F
102
{ACAD_REACTORS
330
2A
102
}
330
2A
100
AcDbVisualStyle
  2
2dWireframe
 70
     4
177
     2
291
     0
 71
     0
176
     1
 72
     2
176
     1
 73
     0
176
     1
 90
        0
176
     1
 40
-0.6
176
     1
 41
-30.0
176
     1
 62
     5
 63
     7
421
 16777215
176
     1
 74
     1
176
     1
 91
        4
176
     1
 64
     7
176
     1
 65
   257
176
     1
 75
     1
176
     1
175
     1
176
     1
 42
1.0
176
     1
 92
        0
176
     1
 66
   257
176
     1
 43
1.0
176
     1
 76
     1
176
     1
 77
     6
176
     1
 78
     2
176
     1
 67
     7
176
     1
 79
     5
176
     1
170
     0
176
     1
171
     0
176
     1
290
     0
176
     1
 93
        1
176
     1
 44
0.0
176
     1
173
     0
176
     1
  0
VISUALSTYLE
  5
31
102
{ACAD_REACTORS
330
2A
102
}
330
2A
100
AcDbVisualStyle
  2
3D Hidden
 70
     6
177
     2
291
     0
 71
     1
176
     1
 72
     2
176
     1
 73
     2
176
     1
 90
        0
176
     1
 40
-0.6
176
     1
 41
-30.0
176
     1
 62
     5
 63
     7
421
 16777215
176
     1
 74
     2
176
     1
 91
        2
176
     1
 64
     7
176
     1
 65
   257
176
     1
 75
     2
176
     1
175
     1
176
     1
 42
40.0
176
     1
 92
        0
176
     1
 66
   257
176
     1
 43
1.0
176
     1
 76
     1
176
     1
 77
     6
176
     1
 78
     2
176
     1
 67
     7
176
     1
 79
     3
176
     1
170
     0
176
     1
171
     0
176
     1
290
     0
176
     1
 93
        1
176
     1
 44
0.0
176
     1
173
     0
176
     1
  0
VISUALSTYLE
  5
30
102
{ACAD_REACTORS
330
2A
102
}
330
2A
100
AcDbVisualStyle
  2
3dWireframe
 70
     5
177
     2
291
     0
 71
     0
176
     1
 72
     2
176
     1
 73
     0
176
     1
 90
        0
176
     1
 40
-0.6
176
     1
 41
-30.0
176
     1
 62
     5
 63
     7
421
 16777215
176
     1
 74
     1
176
     1
 91
        4
176
     1
 64
     7
176
     1
 65
   257
176
     1
 75
     1
176
     1
175
     1
176
     1
 42
1.0
176
     1
 92
        0
176
     1
 66
   257
176
     1
 43
1.0
176
     1
 76
     1
176
     1
 77
     6
176
     1
 78
     2
176
     1
 67
     7
176
     1
 79
     5
176
     1
170
     0
176
     1
171
     0
176
     1
290
     0
176
     1
 93
        1
176
     1
 44
0.0
176
     1
173
     0
176
     1
  0
VISUALSTYLE
  5
32
102
{ACAD_REACTORS
330
2A
102
}
330
2A
100
AcDbVisualStyle
  2
Basic
 70
     7
177
     2
291
     1
 71
     1
176
     1
 72
     0
176
     1
 73
     1
176
     1
 90
        0
176
     1
 40
-0.6
176
     1
 41
-30.0
176
     1
 62
     5
 63
     7
421
 16777215
176
     1
 74
     0
176
     1
 91
        4
176
     1
 64
     7
176
     1
 65
   257
176
     1
 75
     1
176
     1
175
     1
176
     1
 42
1.0
176
     1
 92
        8
176
     1
 66
     7
176
     1
 43
1.0
176
     1
 76
     1
176
     1
 77
     6
176
     1
 78
     2
176
     1
 67
     7
176
     1
 79
     5
176
     1
170
     0
176
     1
171
     0
176
     1
290
     0
176
     1
 93
        1
176
     1
 44
0.0
176
     1
173
     0
176
     1
  0
VISUALSTYLE
  5
36
102
{ACAD_REACTORS
330
2A
102
}
330
2A
100
AcDbVisualStyle
  2
Brighten
 70
    12
177
     2
291
     1
 71
     2
176
     1
 72
     2
176
     1
 73
     0
176
     1
 90
        0
176
     1
 40
-0.6
176
     1
 41
-30.0
176
     1
 62
     5
 63
     7
421
 16777215
176
     1
 74
     1
176
     1
 91
        4
176
     1
 64
     7
176
     1
 65
   257
176
     1
 75
     1
176
     1
175
     1
176
     1
 42
1.0
176
     1
 92
        8
176
     1
 66
     7
176
     1
 43
1.0
176
     1
 76
     1
176
     1
 77
     6
176
     1
 78
     2
176
     1
 67
     7
176
     1
 79
     5
176
     1
170
     0
176
     1
171
     0
176
     1
290
     0
176
     1
 93
        1
176
     1
 44
50.0
176
     1
173
     0
176
     1
  0
VISUALSTYLE
  5
3A
102
{ACAD_REACTORS
330
2A
102
}
330
2A
100
AcDbVisualStyle
  2
ColorChange
 70
    16
177
     2
291
     1
 71
     2
176
     1
 72
     2
176
     1
 73
     3
176
     1
 90
        0
176
     1
 40
-0.6
176
     1
 41
-30.0
176
     1
 62
     5
 63
     8
421
  8421504
176
     1
 74
     1
176
     1
 91
        4
176
     1
 64
     7
176
     1
 65
   257
176
     1
 75
     1
176
     1
175
     1
176
     1
 42
1.0
176
     1
 92
        8
176
     1
 66
     8
424
  8421504
176
     1
 43
1.0
176
     1
 76
     1
176
     1
 77
     6
176
     1
 78
     2
176
     1
 67
     7
176
     1
 79
     5
176
     1
170
     0
176
     1
171
     0
176
     1
290
     0
176
     1
 93
        1
176
     1
 44
0.0
176
     1
173
     0
176
     1
  0
VISUALSTYLE
  5
34
102
{ACAD_REACTORS
330
2A
102
}
330
2A
100
AcDbVisualStyle
  2
Conceptual
 70
     9
177
     2
291
     0
 71
     3
176
     1
 72
     2
176
     1
 73
     0
176
     1
 90
        0
176
     1
 40
-0.6
176
     1
 41
-30.0
176
     1
 62
     5
 63
     7
421
 16777215
176
     1
 74
     2
176
     1
 91
        2
176
     1
 64
     7
176
     1
 65
   257
176
     1
 75
     1
176
     1
175
     1
176
     1
 42
40.0
176
     1
 92
        8
176
     1
 66
     7
176
     1
 43
1.0
176
     1
 76
     1
176
     1
 77
     6
176
     1
 78
     2
176
     1
 67
     7
176
     1
 79
     3
176
     1
170
     0
176
     1
171
     0
176
     1
290
     0
176
     1
 93
        1
176
     1
 44
0.0
176
     1
173
     0
176
     1
  0
VISUALSTYLE
  5
35
102
{ACAD_REACTORS
330
2A
102
}
330
2A
100
AcDbVisualStyle
  2
Dim
 70
    11
177
     2
291
     1
 71
     2
176
     1
 72
     2
176
     1
 73
     0
176
     1
 90
        0
176
     1
 40
-0.6
176
     1
 41
-30.0
176
     1
 62
     5
 63
     7
421
 16777215
176
     1
 74
     1
176
     1
 91
        4
176
     1
 64
     7
176
     1
 65
   257
176
     1
 75
     1
176
     1
175
     1
176
     1
 42
1.0
176
     1
 92
        8
176
     1
 66
     7
176
     1
 43
1.0
176
     1
 76
     1
176
     1
 77
     6
176
     1
 78
     2
176
     1
 67
     7
176
     1
 79
     5
176
     1
170
     0
176
     1
171
     0
176
     1
290
     0
176
     1
 93
        1
176
     1
 44
-50.0
176
     1
173
     0
176
     1
  0
VISUALSTYLE
  5
39
102
{ACAD_REACTORS
330
2A
102
}
330
2A
100
AcDbVisualStyle
  2
Facepattern
 70
    15
177
     2
291
     1
 71
     2
176
     1
 72
     2
176
     1
 73
     0
176
     1
 90
        0
176
     1
 40
-0.6
176
     1
 41
-30.0
176
     1
 62
     5
 63
     7
421
 16777215
176
     1
 74
     1
176
     1
 91
        4
176
     1
 64
     7
176
     1
 65
   257
176
     1
 75
     1
176
     1
175
     1
176
     1
 42
1.0
176
     1
 92
        8
176
     1
 66
     7
176
     1
 43
1.0
176
     1
 76
     1
176
     1
 77
     6
176
     1
 78
     2
176
     1
 67
     7
176
     1
 79
     5
176
     1
170
     0
176
     1
171
     0
176
     1
290
     0
176
     1
 93
        1
176
     1
 44
0.0
176
     1
173
     0
176
     1
  0
VISUALSTYLE
  5
2B
102
{ACAD_REACTORS
330
2A
102
}
330
2A
100
AcDbVisualStyle
  2
Flat
 70
     0
177
     2
291
     1
 71
     2
176
     1
 72
     1
176
     1
 73
     1
176
     1
 90
        2
176
     1
 40
-0.6
176
     1
 41
30.0
176
     1
 62
     5
 63
     7
421
 16777215
176
     1
 74
     0
176
     1
 91
        4
176
     1
 64
     7
176
     1
 65
   257
176
     1
 75
     1
176
     1
175
     1
176
     1
 42
1.0
176
     1
 92
        8
176
     1
 66
     7
176
     1
 43
1.0
176
     1
 76
     1
176
     1
 77
     6
176
     1
 78
     2
176
     1
 67
     7
176
     1
 79
     5
176
     1
170
     0
176
     1
171
     0
176
     1
290
     0
176
     1
 93
       13
176
     1
 44
0.0
176
     1
173
     0
176
     1
  0
VISUALSTYLE
  5
2C
102
{ACAD_REACTORS
330
2A
102
}
330
2A
100
AcDbVisualStyle
  2
FlatWithEdges
 70
     1
177
     2
291
     1
 71
     2
176
     1
 72
     1
176
     1
 73
     1
176
     1
 90
        2
176
     1
 40
-0.6
176
     1
 41
30.0
176
     1
 62
     5
 63
     7
421
 16777215
176
     1
 74
     1
176
     1
 91
        4
176
     1
 64
     7
176
     1
 65
   257
176
     1
 75
     1
176
     1
175
     1
176
     1
 42
1.0
176
     1
 92
        0
176
     1
 66
   257
176
     1
 43
1.0
176
     1
 76
     1
176
     1
 77
     6
176
     1
 78
     2
176
     1
 67
     7
176
     1
 79
     5
176
     1
170
     0
176
     1
171
     0
176
     1
290
     0
176
     1
 93
       13
176
     1
 44
0.0
176
     1
173
     0
176
     1
  0
VISUALSTYLE
  5
2D
102
{ACAD_REACTORS
330
2A
102
}
330
2A
100
AcDbVisualStyle
  2
Gouraud
 70
     2
177
     2
291
     1
 71
     2
176
     1
 72
     2
176
     1
 73
     1
176
     1
 90
        2
176
     1
 40
-0.6
176
     1
 41
30.0
176
     1
 62
     5
 63
     7
421
 16777215
176
     1
 74
     0
176
     1
 91
        4
176
     1
 64
     7
176
     1
 65
   257
176
     1
 75
     1
176
     1
175
     1
176
     1
 42
1.0
176
     1
 92
        0
176
     1
 66
     7
176
     1
 43
1.0
176
     1
 76
     1
176
     1
 77
     6
176
     1
 78
     2
176
     1
 67
     7
176
     1
 79
     5
176
     1
170
     0
176
     1
171
     0
176
     1
290
     0
176
     1
 93
       13
176
     1
 44
0.0
176
     1
173
     0
176
     1
  0
VISUALSTYLE
  5
2E
102
{ACAD_REACTORS
330
2A
102
}
330
2A
100
AcDbVisualStyle
  2
GouraudWithEdges
 70
     3
177
     2
291
     1
 71
     2
176
     1
 72
     2
176
     1
 73
     1
176
     1
 90
        2
176
     1
 40
-0.6
176
     1
 41
30.0
176
     1
 62
     5
 63
     7
421
 16777215
176
     1
 74
     1
176
     1
 91
        4
176
     1
 64
     7
176
     1
 65
   257
176
     1
 75
     1
176
     1
175
     1
176
     1
 42
1.0
176
     1
 92
        0
176
     1
 66
   257
176
     1
 43
1.0
176
     1
 76
     1
176
     1
 77
     6
176
     1
 78
     2
176
     1
 67
     7
176
     1
 79
     5
176
     1
170
     0
176
     1
171
     0
176
     1
290
     0
176
     1
 93
       13
176
     1
 44
0.0
176
     1
173
     0
176
     1
  0
VISUALSTYLE
  5
38
102
{ACAD_REACTORS
330
2A
102
}
330
2A
100
AcDbVisualStyle
  2
Linepattern
 70
    14
177
     2
291
     1
 71
     2
176
     1
 72
     2
176
     1
 73
     0
176
     1
 90
        0
176
     1
 40
-0.6
176
     1
 41
-30.0
176
     1
 62
     5
 63
     7
421
 16777215
176
     1
 74
     1
176
     1
 91
        4
176
     1
 64
     7
176
     1
 65
   257
176
     1
 75
     7
176
     1
175
     7
176
     1
 42
1.0
176
     1
 92
        8
176
     1
 66
     7
176
     1
 43
1.0
176
     1
 76
     1
176
     1
 77
     6
176
     1
 78
     2
176
     1
 67
     7
176
     1
 79
     5
176
     1
170
     0
176
     1
171
     0
176
     1
290
     0
176
     1
 93
        1
176
     1
 44
0.0
176
     1
173
     0
176
     1
  0
VISUALSTYLE
  5
33
102
{ACAD_REACTORS
330
2A
102
}
330
2A
100
AcDbVisualStyle
  2
Realistic
 70
     8
177
     2
291
     0
 71
     2
176
     1
 72
     2
176
     1
 73
     0
176
     1
 90
        0
176
     1
 40
-0.6
176
     1
 41
-30.0
176
     1
 62
     5
 63
     7
421
 16777215
176
     1
 74
     1
176
     1
 91
        0
176
     1
 64
     7
176
     1
 65
   257
176
     1
 75
     1
176
     1
175
     1
176
     1
 42
1.0
176
     1
 92
        8
176
     1
 66
     8
424
  7895160
176
     1
 43
1.0
176
     1
 76
     1
176
     1
 77
     6
176
     1
 78
     2
176
     1
 67
     7
176
     1
 79
     5
176
     1
170
     0
176
     1
171
     0
176
     1
290
     0
176
     1
 93
       13
176
     1
 44
0.0
176
     1
173
     0
176
     1
  0
VISUALSTYLE
  5
37
102
{ACAD_REACTORS
330
2A
102
}
330
2A
100
AcDbVisualStyle
  2
Thicken
 70
    13
177
     2
291
     1
 71
     2
176
     1
 72
     2
176
     1
 73
     0
176
     1
 90
        0
176
     1
 40
-0.6
176
     1
 41
-30.0
176
     1
 62
     5
 63
     7
421
 16777215
176
     1
 74
     1
176
     1
 91
        4
176
     1
 64
     7
176
     1
 65
   257
176
     1
 75
     1
176
     1
175
     1
176
     1
 42
1.0
176
     1
 92
       12
176
     1
 66
     7
176
     1
 43
1.0
176
     1
 76
     1
176
     1
 77
     6
176
     1
 78
     2
176
     1
 67
     7
176
     1
 79
     5
176
     1
170
     0
176
     1
171
     0
176
     1
290
     0
176
     1
 93
        1
176
     1
 44
0.0
176
     1
173
     0
176
     1
  0
ENDSEC
  0
EOF
