  0
SECTION
  2
HEADER
  9
$ACADVER
  1
AC1024
  9
$ACADMAINTVER
 70
     6
  9
$DWGCODEPAGE
  3
UNDEFINED
  9
$INSBASE
 10
0.0
 20
0.0
 30
0.0
  9
$EXTMIN
 10
1.000000000000000E+20
 20
1.000000000000000E+20
 30
1.000000000000000E+20
  9
$EXTMAX
 10
-1.000000000000000E+20
 20
-1.000000000000000E+20
 30
-1.000000000000000E+20
  9
$LIMMIN
 10
0.0
 20
0.0
  9
$LIMMAX
 10
12.0
 20
9.0
  9
$ORTHOMODE
 70
     0
  9
$REGENMODE
 70
     1
  9
$FILLMODE
 70
     1
  9
$QTEXTMODE
 70
     0
  9
$MIRRTEXT
 70
     1
  9
$LTSCALE
 40
1.0
  9
$ATTMODE
 70
     1
  9
$TEXTSIZE
 40
0.2
  9
$TRACEWID
 40
0.05
  9
$TEXTSTYLE
  7
Standard
  9
$CLAYER
  8
0
  9
$CELTYPE
  6
ByLayer
  9
$CECOLOR
 62
   256
  9
$CELTSCALE
 40
1.0
  9
$DISPSILH
 70
     0
  9
$DIMSCALE
 40
1.0
  9
$DIMASZ
 40
0.18
  9
$DIMEXO
 40
0.0625
  9
$DIMDLI
 40
0.38
  9
$DIMRND
 40
0.0
  9
$DIMDLE
 40
0.0
  9
$DIMEXE
 40
0.18
  9
$DIMTP
 40
0.0
  9
$DIMTM
 40
0.0
  9
$DIMTXT
 40
0.18
  9
$DIMCEN
 40
0.09
  9
$DIMTSZ
 40
0.0
  9
$DIMTOL
 70
     0
  9
$DIMLIM
 70
     0
  9
$DIMTIH
 70
     1
  9
$DIMTOH
 70
     1
  9
$DIMSE1
 70
     0
  9
$DIMSE2
 70
     0
  9
$DIMTAD
 70
     0
  9
$DIMZIN
 70
     0
  9
$DIMBLK
  1

  9
$DIMASO
 70
     1
  9
$DIMSHO
 70
     1
  9
$DIMPOST
  1

  9
$DIMAPOST
  1

  9
$DIMALT
 70
     0
  9
$DIMALTD
 70
     2
  9
$DIMALTF
 40
25.4
  9
$DIMLFAC
 40
1.0
  9
$DIMTOFL
 70
     0
  9
$DIMTVP
 40
0.0
  9
$DIMTIX
 70
     0
  9
$DIMSOXD
 70
     0
  9
$DIMSAH
 70
     0
  9
$DIMBLK1
  1

  9
$DIMBLK2
  1

  9
$DIMSTYLE
  2
Standard
  9
$DIMCLRD
 70
     0
  9
$DIMCLRE
 70
     0
  9
$DIMCLRT
 70
     0
  9
$DIMTFAC
 40
1.0
  9
$DIMGAP
 40
0.09
  9
$DIMJUST
 70
     0
  9
$DIMSD1
 70
     0
  9
$DIMSD2
 70
     0
  9
$DIMTOLJ
 70
     1
  9
$DIMTZIN
 70
     0
  9
$DIMALTZ
 70
     0
  9
$DIMALTTZ
 70
     0
  9
$DIMUPT
 70
     0
  9
$DIMDEC
 70
     4
  9
$DIMTDEC
 70
     4
  9
$DIMALTU
 70
     2
  9
$DIMALTTD
 70
     2
  9
$DIMTXSTY
  7
Standard
  9
$DIMAUNIT
 70
     0
  9
$DIMADEC
 70
     0
  9
$DIMALTRND
 40
0.0
  9
$DIMAZIN
 70
     0
  9
$DIMDSEP
 70
    46
  9
$DIMATFIT
 70
     3
  9
$DIMFRAC
 70
     0
  9
$DIMLDRBLK
  1

  9
$DIMLUNIT
 70
     2
  9
$DIMLWD
 70
    -2
  9
$DIMLWE
 70
    -2
  9
$DIMTMOVE
 70
     0
  9
$DIMFXL
 40
1.0
  9
$DIMFXLON
 70
     0
  9
$DIMJOGANG
 40
0.7853981633974483
  9
$DIMTFILL
 70
     0
  9
$DIMTFILLCLR
 70
     0
  9
$DIMARCSYM
 70
     0
  9
$DIMLTYPE
  6

  9
$DIMLTEX1
  6

  9
$DIMLTEX2
  6

  9
$DIMTXTDIRECTION
 70
     0
  9
$LUNITS
 70
     2
  9
$LUPREC
 70
     4
  9
$SKETCHINC
 40
0.1
  9
$FILLETRAD
 40
0.5
  9
$AUNITS
 70
     0
  9
$AUPREC
 70
     0
  9
$MENU
  1
.
  9
$ELEVATION
 40
0.0
  9
$PELEVATION
 40
0.0
  9
$THICKNESS
 40
0.0
  9
$LIMCHECK
 70
     0
  9
$CHAMFERA
 40
0.5
  9
$CHAMFERB
 40
0.5
  9
$CHAMFERC
 40
1.0
  9
$CHAMFERD
 40
0.0
  9
$SKPOLY
 70
     0
  9
$TDCREATE
 40
2457917.622002303
  9
$TDUCREATE
 40
2457917.247002315
  9
$TDUPDATE
 40
2457917.622002303
  9
$TDUUPDATE
 40
2457917.247002315
  9
$TDINDWG
 40
0.0000000116
  9
$TDUSRTIMER
 40
0.0000000116
  9
$USRTIMER
 70
     1
  9
$ANGBASE
 50
0.0
  9
$ANGDIR
 70
     0
  9
$PDMODE
 70
     0
  9
$PDSIZE
 40
0.0
  9
$PLINEWID
 40
0.0
  9
$SPLFRAME
 70
     0
  9
$SPLINETYPE
 70
     6
  9
$SPLINESEGS
 70
     8
  9
$HANDSEED
  5
D6
  9
$SURFTAB1
 70
     6
  9
$SURFTAB2
 70
     6
  9
$SURFTYPE
 70
     6
  9
$SURFU
 70
     6
  9
$SURFV
 70
     6
  9
$UCSBASE
  2

  9
$UCSNAME
  2

  9
$UCSORG
 10
0.0
 20
0.0
 30
0.0
  9
$UCSXDIR
 10
1.0
 20
0.0
 30
0.0
  9
$UCSYDIR
 10
0.0
 20
1.0
 30
0.0
  9
$UCSORTHOREF
  2

  9
$UCSORTHOVIEW
 70
     0
  9
$UCSORGTOP
 10
0.0
 20
0.0
 30
0.0
  9
$UCSORGBOTTOM
 10
0.0
 20
0.0
 30
0.0
  9
$UCSORGLEFT
 10
0.0
 20
0.0
 30
0.0
  9
$UCSORGRIGHT
 10
0.0
 20
0.0
 30
0.0
  9
$UCSORGFRONT
 10
0.0
 20
0.0
 30
0.0
  9
$UCSORGBACK
 10
0.0
 20
0.0
 30
0.0
  9
$PUCSBASE
  2

  9
$PUCSNAME
  2

  9
$PUCSORG
 10
0.0
 20
0.0
 30
0.0
  9
$PUCSXDIR
 10
1.0
 20
0.0
 30
0.0
  9
$PUCSYDIR
 10
0.0
 20
1.0
 30
0.0
  9
$PUCSORTHOREF
  2

  9
$PUCSORTHOVIEW
 70
     0
  9
$PUCSORGTOP
 10
0.0
 20
0.0
 30
0.0
  9
$PUCSORGBOTTOM
 10
0.0
 20
0.0
 30
0.0
  9
$PUCSORGLEFT
 10
0.0
 20
0.0
 30
0.0
  9
$PUCSORGRIGHT
 10
0.0
 20
0.0
 30
0.0
  9
$PUCSORGFRONT
 10
0.0
 20
0.0
 30
0.0
  9
$PUCSORGBACK
 10
0.0
 20
0.0
 30
0.0
  9
$USERI1
 70
     0
  9
$USERI2
 70
     0
  9
$USERI3
 70
     0
  9
$USERI4
 70
     0
  9
$USERI5
 70
     0
  9
$USERR1
 40
0.0
  9
$USERR2
 40
0.0
  9
$USERR3
 40
0.0
  9
$USERR4
 40
0.0
  9
$USERR5
 40
0.0
  9
$WORLDVIEW
 70
     1
  9
$SHADEDGE
 70
     3
  9
$SHADEDIF
 70
    70
  9
$TILEMODE
 70
     1
  9
$MAXACTVP
 70
    64
  9
$PINSBASE
 10
0.0
 20
0.0
 30
0.0
  9
$PLIMCHECK
 70
     0
  9
$PEXTMIN
 10
1.000000000000000E+20
 20
1.000000000000000E+20
 30
1.000000000000000E+20
  9
$PEXTMAX
 10
-1.000000000000000E+20
 20
-1.000000000000000E+20
 30
-1.000000000000000E+20
  9
$PLIMMIN
 10
0.0
 20
0.0
  9
$PLIMMAX
 10
12.0
 20
9.0
  9
$UNITMODE
 70
     0
  9
$VISRETAIN
 70
     1
  9
$PLINEGEN
 70
     0
  9
$PSLTSCALE
 70
     1
  9
$TREEDEPTH
 70
  3020
  9
$CMLSTYLE
  2
Standard
  9
$CMLJUST
 70
     0
  9
$CMLSCALE
 40
1.0
  9
$PROXYGRAPHICS
 70
     1
  9
$MEASUREMENT
 70
     0
  9
$CELWEIGHT
370
    -1
  9
$ENDCAPS
280
     0
  9
$JOINSTYLE
280
     0
  9
$LWDISPLAY
290
     1
  9
$INSUNITS
 70
     1
  9
$HYPERLINKBASE
  1

  9
$STYLESHEET
  1

  9
$XEDIT
290
     1
  9
$CEPSNTYPE
380
     0
  9
$PSTYLEMODE
290
     1
  9
$FINGERPRINTGUID
  2
{1DE4DFDF-5D4A-D315-3F83-F0B1385EA34C}
  9
$VERSIONGUID
  2
{FAEB1C32-E019-11D5-929B-00C0DF256EC4}
  9
$EXTNAMES
290
     1
  9
$PSVPSCALE
 40
0.0
  9
$OLESTARTUP
290
     0
  9
$SORTENTS
280
   127
  9
$INDEXCTL
280
     0
  9
$HIDETEXT
280
     1
  9
$XCLIPFRAME
280
     2
  9
$HALOGAP
280
     0
  9
$OBSCOLOR
 70
   257
  9
$OBSLTYPE
280
     0
  9
$INTERSECTIONDISPLAY
280
     0
  9
$INTERSECTIONCOLOR
 70
   257
  9
$DIMASSOC
280
     2
  9
$PROJECTNAME
  1

  9
$CAMERADISPLAY
290
     0
  9
$LENSLENGTH
 40
50.0
  9
$CAMERAHEIGHT
 40
0.0
  9
$STEPSPERSEC
 40
2.0
  9
$STEPSIZE
 40
6.0
  9
$3DDWFPREC
 40
2.0
  9
$PSOLWIDTH
 40
0.25
  9
$PSOLHEIGHT
 40
4.0
  9
$LOFTANG1
 40
1.570796326794897
  9
$LOFTANG2
 40
1.570796326794897
  9
$LOFTMAG1
 40
0.0
  9
$LOFTMAG2
 40
0.0
  9
$LOFTPARAM
 70
     7
  9
$LOFTNORMALS
280
     1
  9
$LATITUDE
 40
37.795
  9
$LONGITUDE
 40
-122.394
  9
$NORTHDIRECTION
 40
0.0
  9
$TIMEZONE
 70
 -8000
  9
$LIGHTGLYPHDISPLAY
280
     1
  9
$TILEMODELIGHTSYNCH
280
     1
  9
$CMATERIAL
347
3C
  9
$SOLIDHIST
280
     1
  9
$SHOWHIST
280
     1
  9
$DWFFRAME
280
     2
  9
$DGNFRAME
280
     2
  9
$REALWORLDSCALE
290
     1
  9
$INTERFERECOLOR
 62
   256
  9
$CSHADOW
280
     0
  9
$SHADOWPLANELOCATION
 40
0.0
  0
ENDSEC
  0
SECTION
  2
CLASSES
  0
CLASS
  1
ACDBDICTIONARYWDFLT
  2
AcDbDictionaryWithDefault
  3
ObjectDBX Classes
 90
        0
 91
        4
280
     0
281
     0
  0
CLASS
  1
VISUALSTYLE
  2
AcDbVisualStyle
  3
ObjectDBX Classes
 90
     4095
 91
        4
280
     0
281
     0
  0
CLASS
  1
MATERIAL
  2
AcDbMaterial
  3
ObjectDBX Classes
 90
     1153
 91
        4
280
     0
281
     0
  0
CLASS
  1
SUN
  2
AcDbSun
  3
SCENEOE
 90
     1024
 91
        4
280
     0
281
     0
  0
ENDSEC
  0
SECTION
  2
TABLES
  0
TABLE
  2
VPORT
  5
8
330
0
100
AcDbSymbolTable
 70
     1
  0
VPORT
  5
29
330
8
100
AcDbSymbolTableRecord
100
AcDbViewportTableRecord
  2
*Active
 70
     0
 10
0.0
 20
0.0
 11
1.0
 21
1.0
 12
0.0
 22
0.0
 13
0.0
 23
0.0
 14
0.5
 24
0.5
 15
0.5
 25
0.5
 16
0.0
 26
0.0
 36
1.0
 17
91.00082462281999
 27
-128.4993055234307
 37
0.0
 40
256.9986110468615
 41
0.7081814508812795
 42
50.0
 43
0.0
 44
0.0
 50
0.0
 51
0.0
 71
     0
 72
   100
 73
     1
 74
     3
 75
     0
 76
     0
 77
     0
 78
     0
281
     0
 65
     1
110
0.0
120
0.0
130
0.0
111
1.0
121
0.0
131
0.0
112
0.0
122
1.0
132
0.0
 79
     0
146
0.0
 60
     3
 61
     5
292
     1
282
     1
141
0.0
142
0.0
 63
   250
361
3F
  0
ENDTAB
  0
TABLE
  2
LTYPE
  5
5
330
0
100
AcDbSymbolTable
 70
     1
  0
LTYPE
  5
14
330
5
100
AcDbSymbolTableRecord
100
AcDbLinetypeTableRecord
  2
ByBlock
 70
     0
  3

 72
    65
 73
     0
 40
0.0
  0
LTYPE
  5
15
330
5
100
AcDbSymbolTableRecord
100
AcDbLinetypeTableRecord
  2
ByLayer
 70
     0
  3

 72
    65
 73
     0
 40
0.0
  0
LTYPE
  5
16
330
5
100
AcDbSymbolTableRecord
100
AcDbLinetypeTableRecord
  2
Continuous
 70
     0
  3
Solid line
 72
    65
 73
     0
 40
0.0
  0
ENDTAB
  0
TABLE
  2
LAYER
  5
2
330
0
100
AcDbSymbolTable
 70
     2
  0
LAYER
  5
10
330
2
100
AcDbSymbolTableRecord
100
AcDbLayerTableRecord
  2
0
 70
     0
 62
     7
  6
Continuous
370
    -3
390
F
347
3E
  0
LAYER
  5
40
330
2
100
AcDbSymbolTableRecord
100
AcDbLayerTableRecord
  2
_U+30EC_U+30A4_U+30E4_U+30FC 1
 70
     0
 62
     7
  6
Continuous
370
    -3
390
F
347
3E
  0
ENDTAB
  0
TABLE
  2
STYLE
  5
3
330
0
100
AcDbSymbolTable
 70
     1
  0
STYLE
  5
11
330
3
100
AcDbSymbolTableRecord
100
AcDbTextStyleTableRecord
  2
Standard
 70
     0
 40
0.0
 41
1.0
 50
0.0
 71
     0
 42
0.2
  3
txt
  4

  0
ENDTAB
  0
TABLE
  2
VIEW
  5
6
330
0
100
AcDbSymbolTable
 70
     0
  0
ENDTAB
  0
TABLE
  2
UCS
  5
7
330
0
100
AcDbSymbolTable
 70
     0
  0
ENDTAB
  0
TABLE
  2
APPID
  5
9
330
0
100
AcDbSymbolTable
 70
     1
  0
APPID
  5
12
330
9
100
AcDbSymbolTableRecord
100
AcDbRegAppTableRecord
  2
ACAD
 70
     0
  0
ENDTAB
  0
TABLE
  2
DIMSTYLE
  5
A
330
0
100
AcDbSymbolTable
 70
     1
100
AcDbDimStyleTable
  0
DIMSTYLE
105
27
330
A
100
AcDbSymbolTableRecord
100
AcDbDimStyleTableRecord
  2
Standard
 70
     0
178
     0
340
11
  0
ENDTAB
  0
TABLE
  2
BLOCK_RECORD
  5
1
330
0
100
AcDbSymbolTable
 70
     6
  0
BLOCK_RECORD
  5
1F
330
1
100
AcDbSymbolTableRecord
100
AcDbBlockTableRecord
  2
*Model_Space
340
22
 70
     0
280
     1
281
     0
  0
BLOCK_RECORD
  5
1B
330
1
100
AcDbSymbolTableRecord
100
AcDbBlockTableRecord
  2
*Paper_Space
340
1E
 70
     0
280
     1
281
     0
  0
BLOCK_RECORD
  5
23
330
1
100
AcDbSymbolTableRecord
100
AcDbBlockTableRecord
  2
*Paper_Space0
340
26
 70
     0
280
     1
281
     0
  0
BLOCK_RECORD
  5
53
330
1
100
AcDbSymbolTableRecord
100
AcDbBlockTableRecord
  2
block 2
340
0
102
{BLKREFS
331
54
102
}
 70
     0
280
     1
281
     0
  0
BLOCK_RECORD
  5
66
330
1
100
AcDbSymbolTableRecord
100
AcDbBlockTableRecord
  2
block 3
340
0
102
{BLKREFS
331
67
102
}
 70
     0
280
     1
281
     0
  0
BLOCK_RECORD
  5
AC
330
1
100
AcDbSymbolTableRecord
100
AcDbBlockTableRecord
  2
block 4
340
0
102
{BLKREFS
331
AD
102
}
 70
     0
280
     1
281
     0
  0
BLOCK_RECORD
  5
C0
330
1
100
AcDbSymbolTableRecord
100
AcDbBlockTableRecord
  2
block 5
340
0
102
{BLKREFS
331
C1
102
}
 70
     0
280
     1
281
     0
  0
BLOCK_RECORD
  5
CA
330
1
100
AcDbSymbolTableRecord
100
AcDbBlockTableRecord
  2
block 6
340
0
102
{BLKREFS
331
CB
102
}
 70
     0
280
     1
281
     0
  0
ENDTAB
  0
ENDSEC
  0
SECTION
  2
BLOCKS
  0
BLOCK
  5
20
330
1F
100
AcDbEntity
  8
0
100
AcDbBlockBegin
  2
*Model_Space
 70
     0
 10
0.0
 20
0.0
 30
0.0
  3
*Model_Space
  1

  0
ENDBLK
  5
21
330
1F
100
AcDbEntity
  8
0
100
AcDbBlockEnd
  0
BLOCK
  5
1C
330
1B
100
AcDbEntity
 67
     1
  8
0
100
AcDbBlockBegin
  2
*Paper_Space
 70
     0
 10
0.0
 20
0.0
 30
0.0
  3
*Paper_Space
  1

  0
ENDBLK
  5
1D
330
1B
100
AcDbEntity
 67
     1
  8
0
100
AcDbBlockEnd
  0
BLOCK
  5
24
330
23
100
AcDbEntity
  8
0
100
AcDbBlockBegin
  2
*Paper_Space0
 70
     0
 10
0.0
 20
0.0
 30
0.0
  3
*Paper_Space0
  1

  0
ENDBLK
  5
25
330
23
100
AcDbEntity
  8
0
100
AcDbBlockEnd
  0
BLOCK
  5
55
330
53
100
AcDbEntity
  8
0
100
AcDbBlockBegin
  2
block 2
 70
     0
 10
0.0
 20
0.0
 30
0.0
  3
block 2
  1

  0
SPLINE
  5
57
330
53
100
AcDbEntity
  8
_U+30EC_U+30A4_U+30E4_U+30FC 1
370
     0
100
AcDbSpline
210
0.0
220
0.0
230
1.0
 70
    11
 71
     3
 72
    62
 73
    58
 74
     0
 42
0.0000000001
 43
0.0000000001
 12
1.0
 22
0.0
 32
0.0
 13
1.0
 23
0.0
 33
0.0
 40
0.0
 40
0.0
 40
0.0
 40
0.0
 40
1.0
 40
1.0
 40
1.0
 40
2.0
 40
2.0
 40
2.0
 40
3.0
 40
3.0
 40
3.0
 40
4.0
 40
4.0
 40
4.0
 40
5.0
 40
5.0
 40
5.0
 40
6.0
 40
6.0
 40
6.0
 40
7.0
 40
7.0
 40
7.0
 40
8.0
 40
8.0
 40
8.0
 40
9.0
 40
9.0
 40
9.0
 40
10.0
 40
10.0
 40
10.0
 40
11.0
 40
11.0
 40
11.0
 40
12.0
 40
12.0
 40
12.0
 40
13.0
 40
13.0
 40
13.0
 40
14.0
 40
14.0
 40
14.0
 40
15.0
 40
15.0
 40
15.0
 40
16.0
 40
16.0
 40
16.0
 40
17.0
 40
17.0
 40
17.0
 40
18.0
 40
18.0
 40
18.0
 40
19.0
 40
19.0
 40
19.0
 40
19.0
 10
101.1321560077031
 20
-124.9391438489736
 30
0.0
 10
101.1321560077031
 20
-125.0407741657884
 30
0.0
 10
101.111140925243
 20
-125.2736626205913
 30
0.0
 10
100.9251057690396
 20
-125.4069878158705
 30
0.0
 10
100.8127956562204
 20
-125.4862250120312
 30
0.0
 10
100.7135769062452
 20
-125.4907036361621
 30
0.0
 10
100.6288275573081
 20
-125.4951822602929
 30
0.0
 10
100.6288275573081
 20
-125.4951822602929
 30
0.0
 10
100.6288275573081
 20
-125.2602267481988
 30
0.0
 10
100.6288275573081
 20
-125.2602267481988
 30
0.0
 10
100.7028971102409
 20
-125.2578151813592
 30
0.0
 10
100.9375081127865
 20
-125.2464463662578
 30
0.0
 10
100.9375081127865
 20
-124.9436224731044
 30
0.0
 10
100.9375081127865
 20
-124.7965168958842
 30
0.0
 10
100.8679171839844
 20
-124.6339083889804
 30
0.0
 10
100.6395073533124
 20
-124.6339083889804
 30
0.0
 10
100.5230631259109
 20
-124.6339083889804
 30
0.0
 10
100.4744872795689
 20
-124.6745605157064
 30
0.0
 10
100.4427924011046
 20
-124.7083224514618
 30
0.0
 10
100.3687228481717
 20
-124.7875596476226
 30
0.0
 10
100.3559759948763
 20
-124.9119275946401
 30
0.0
 10
100.3559759948763
 20
-124.9708387274379
 30
0.0
 10
100.3559759948763
 20
-124.9911647908008
 30
0.0
 10
100.3580430521674
 20
-125.0294053506871
 30
0.0
 10
100.3621771667497
 20
-125.0590331718602
 30
0.0
 10
100.3621771667497
 20
-125.0590331718602
 30
0.0
 10
100.1675292718331
 20
-125.0590331718602
 30
0.0
 10
100.1675292718331
 20
-125.0590331718602
 30
0.0
 10
100.1740749532551
 20
-125.0183810451343
 30
0.0
 10
100.1761420105462
 20
-124.972905784729
 30
0.0
 10
100.1761420105462
 20
-124.966360103307
 30
0.0
 10
100.1761420105462
 20
-124.8960801554079
 30
0.0
 10
100.1547824185377
 20
-124.683517763968
 30
0.0
 10
99.91810435870103
 20
-124.683517763968
 30
0.0
 10
99.74033743166214
 20
-124.683517763968
 30
0.0
 10
99.68521590389814
 20
-124.8237331502177
 30
0.0
 10
99.68521590389814
 20
-124.9412109062647
 30
0.0
 10
99.68521590389814
 20
-125.2240532456037
 30
0.0
 10
99.91810435870103
 20
-125.2330104938654
 30
0.0
 10
99.98976234479423
 20
-125.2374891179962
 30
0.0
 10
99.98976234479423
 20
-125.2374891179962
 30
0.0
 10
99.98976234479423
 20
-125.4545301335669
 30
0.0
 10
99.98976234479423
 20
-125.4545301335669
 30
0.0
 10
99.86504988822819
 20
-125.4455728853053
 30
0.0
 10
99.48850095169038
 20
-125.4162895736807
 30
0.0
 10
99.48850095169038
 20
-124.9277750338722
 30
0.0
 10
99.48850095169038
 20
-124.6879963880988
 30
0.0
 10
99.6156249750961
 20
-124.4303032458022
 30
0.0
 10
99.91155867727906
 20
-124.4303032458022
 30
0.0
 10
100.0979383430311
 20
-124.4303032458022
 30
0.0
 10
100.1802761251285
 20
-124.5322780721656
 30
0.0
 10
100.241598824766
 20
-124.6383870131112
 30
0.0
 10
100.269159588648
 20
-124.5729301988915
 30
0.0
 10
100.3494303134543
 20
-124.3782823039749
 30
0.0
 10
100.6267605000169
 20
-124.3782823039749
 30
0.0
 10
100.9650688766685
 20
-124.3782823039749
 30
0.0
 10
101.1321560077031
 20
-124.6428656372421
 30
0.0
 10
101.1321560077031
 20
-124.9391438489736
 30
0.0
  0
HATCH
  5
58
330
53
100
AcDbEntity
  8
_U+30EC_U+30A4_U+30E4_U+30FC 1
 62
   179
420
  2234388
100
AcDbHatch
 10
0.0
 20
0.0
 30
0.0
210
0.0
220
0.0
230
1.0
  2
SOLID
 70
     1
 71
     0
 91
        1
 92
        1
 93
        1
 72
     4
 94
        3
 73
     0
 74
     1
 95
       62
 96
       58
 40
0.0
 40
0.0
 40
0.0
 40
0.0
 40
1.0
 40
1.0
 40
1.0
 40
2.0
 40
2.0
 40
2.0
 40
3.0
 40
3.0
 40
3.0
 40
4.0
 40
4.0
 40
4.0
 40
5.0
 40
5.0
 40
5.0
 40
6.0
 40
6.0
 40
6.0
 40
7.0
 40
7.0
 40
7.0
 40
8.0
 40
8.0
 40
8.0
 40
9.0
 40
9.0
 40
9.0
 40
10.0
 40
10.0
 40
10.0
 40
11.0
 40
11.0
 40
11.0
 40
12.0
 40
12.0
 40
12.0
 40
13.0
 40
13.0
 40
13.0
 40
14.0
 40
14.0
 40
14.0
 40
15.0
 40
15.0
 40
15.0
 40
16.0
 40
16.0
 40
16.0
 40
17.0
 40
17.0
 40
17.0
 40
18.0
 40
18.0
 40
18.0
 40
19.0
 40
19.0
 40
19.0
 40
19.0
 10
101.1321560077031
 20
-124.9391438489736
 10
101.1321560077031
 20
-125.0407741657884
 10
101.111140925243
 20
-125.2736626205913
 10
100.9251057690396
 20
-125.4069878158705
 10
100.8127956562204
 20
-125.4862250120312
 10
100.7135769062452
 20
-125.4907036361621
 10
100.6288275573081
 20
-125.4951822602929
 10
100.6288275573081
 20
-125.4951822602929
 10
100.6288275573081
 20
-125.2602267481988
 10
100.6288275573081
 20
-125.2602267481988
 10
100.7028971102409
 20
-125.2578151813592
 10
100.9375081127865
 20
-125.2464463662578
 10
100.9375081127865
 20
-124.9436224731044
 10
100.9375081127865
 20
-124.7965168958842
 10
100.8679171839844
 20
-124.6339083889804
 10
100.6395073533124
 20
-124.6339083889804
 10
100.5230631259109
 20
-124.6339083889804
 10
100.4744872795689
 20
-124.6745605157064
 10
100.4427924011046
 20
-124.7083224514618
 10
100.3687228481717
 20
-124.7875596476226
 10
100.3559759948763
 20
-124.9119275946401
 10
100.3559759948763
 20
-124.9708387274379
 10
100.3559759948763
 20
-124.9911647908008
 10
100.3580430521674
 20
-125.0294053506871
 10
100.3621771667497
 20
-125.0590331718602
 10
100.3621771667497
 20
-125.0590331718602
 10
100.1675292718331
 20
-125.0590331718602
 10
100.1675292718331
 20
-125.0590331718602
 10
100.1740749532551
 20
-125.0183810451343
 10
100.1761420105462
 20
-124.972905784729
 10
100.1761420105462
 20
-124.966360103307
 10
100.1761420105462
 20
-124.8960801554079
 10
100.1547824185377
 20
-124.683517763968
 10
99.91810435870103
 20
-124.683517763968
 10
99.74033743166214
 20
-124.683517763968
 10
99.68521590389814
 20
-124.8237331502177
 10
99.68521590389814
 20
-124.9412109062647
 10
99.68521590389814
 20
-125.2240532456037
 10
99.91810435870103
 20
-125.2330104938654
 10
99.98976234479423
 20
-125.2374891179962
 10
99.98976234479423
 20
-125.2374891179962
 10
99.98976234479423
 20
-125.4545301335669
 10
99.98976234479423
 20
-125.4545301335669
 10
99.86504988822819
 20
-125.4455728853053
 10
99.48850095169038
 20
-125.4162895736807
 10
99.48850095169038
 20
-124.9277750338722
 10
99.48850095169038
 20
-124.6879963880988
 10
99.6156249750961
 20
-124.4303032458022
 10
99.91155867727906
 20
-124.4303032458022
 10
100.0979383430311
 20
-124.4303032458022
 10
100.1802761251285
 20
-124.5322780721656
 10
100.241598824766
 20
-124.6383870131112
 10
100.269159588648
 20
-124.5729301988915
 10
100.3494303134543
 20
-124.3782823039749
 10
100.6267605000169
 20
-124.3782823039749
 10
100.9650688766685
 20
-124.3782823039749
 10
101.1321560077031
 20
-124.6428656372421
 10
101.1321560077031
 20
-124.9391438489736
 97
        0
 97
        0
 75
     2
 76
     1
 98
        0
  0
ENDBLK
  5
56
330
53
100
AcDbEntity
  8
0
100
AcDbBlockEnd
  0
BLOCK
  5
68
330
66
100
AcDbEntity
  8
0
100
AcDbBlockBegin
  2
block 3
 70
     0
 10
0.0
 20
0.0
 30
0.0
  3
block 3
  1

  0
SPLINE
  5
6A
330
66
100
AcDbEntity
  8
_U+30EC_U+30A4_U+30E4_U+30FC 1
370
     0
100
AcDbSpline
210
0.0
220
0.0
230
1.0
 70
    11
 71
     3
 72
    26
 73
    22
 74
     0
 42
0.0000000001
 43
0.0000000001
 12
1.0
 22
0.0
 32
0.0
 13
1.0
 23
0.0
 33
0.0
 40
0.0
 40
0.0
 40
0.0
 40
0.0
 40
1.0
 40
1.0
 40
1.0
 40
2.0
 40
2.0
 40
2.0
 40
3.0
 40
3.0
 40
3.0
 40
4.0
 40
4.0
 40
4.0
 40
5.0
 40
5.0
 40
5.0
 40
6.0
 40
6.0
 40
6.0
 40
7.0
 40
7.0
 40
7.0
 40
7.0
 10
101.0815131040699
 20
-131.1771782441154
 30
0.0
 10
101.0815131040699
 20
-131.1771782441154
 30
0.0
 10
99.97736000104733
 20
-131.1771782441154
 30
0.0
 10
99.97736000104733
 20
-131.1771782441154
 30
0.0
 10
99.97736000104733
 20
-131.1771782441154
 30
0.0
 10
99.97736000104733
 20
-131.5296115122565
 30
0.0
 10
99.97736000104733
 20
-131.5296115122565
 30
0.0
 10
99.97736000104733
 20
-131.5296115122565
 30
0.0
 10
99.82922089518159
 20
-131.5296115122565
 30
0.0
 10
99.82922089518159
 20
-131.5296115122565
 30
0.0
 10
99.81440698459501
 20
-131.1747666772758
 30
0.0
 10
99.65145396814269
 20
-131.1251573022882
 30
0.0
 10
99.5370767980324
 20
-131.0934624238239
 30
0.0
 10
99.5370767980324
 20
-131.0934624238239
 30
0.0
 10
99.5370767980324
 20
-130.937399598342
 30
0.0
 10
99.5370767980324
 20
-130.937399598342
 30
0.0
 10
99.5370767980324
 20
-130.937399598342
 30
0.0
 10
101.0815131040699
 20
-130.937399598342
 30
0.0
 10
101.0815131040699
 20
-130.937399598342
 30
0.0
 10
101.0815131040699
 20
-130.937399598342
 30
0.0
 10
101.0815131040699
 20
-131.1771782441154
 30
0.0
 10
101.0815131040699
 20
-131.1771782441154
 30
0.0
  0
HATCH
  5
6B
330
66
100
AcDbEntity
  8
_U+30EC_U+30A4_U+30E4_U+30FC 1
 62
   179
420
  2234388
100
AcDbHatch
 10
0.0
 20
0.0
 30
0.0
210
0.0
220
0.0
230
1.0
  2
SOLID
 70
     1
 71
     0
 91
        1
 92
        1
 93
        1
 72
     4
 94
        3
 73
     0
 74
     1
 95
       26
 96
       22
 40
0.0
 40
0.0
 40
0.0
 40
0.0
 40
1.0
 40
1.0
 40
1.0
 40
2.0
 40
2.0
 40
2.0
 40
3.0
 40
3.0
 40
3.0
 40
4.0
 40
4.0
 40
4.0
 40
5.0
 40
5.0
 40
5.0
 40
6.0
 40
6.0
 40
6.0
 40
7.0
 40
7.0
 40
7.0
 40
7.0
 10
101.0815131040699
 20
-131.1771782441154
 10
101.0815131040699
 20
-131.1771782441154
 10
99.97736000104733
 20
-131.1771782441154
 10
99.97736000104733
 20
-131.1771782441154
 10
99.97736000104733
 20
-131.1771782441154
 10
99.97736000104733
 20
-131.5296115122565
 10
99.97736000104733
 20
-131.5296115122565
 10
99.97736000104733
 20
-131.5296115122565
 10
99.82922089518159
 20
-131.5296115122565
 10
99.82922089518159
 20
-131.5296115122565
 10
99.81440698459501
 20
-131.1747666772758
 10
99.65145396814269
 20
-131.1251573022882
 10
99.5370767980324
 20
-131.0934624238239
 10
99.5370767980324
 20
-131.0934624238239
 10
99.5370767980324
 20
-130.937399598342
 10
99.5370767980324
 20
-130.937399598342
 10
99.5370767980324
 20
-130.937399598342
 10
101.0815131040699
 20
-130.937399598342
 10
101.0815131040699
 20
-130.937399598342
 10
101.0815131040699
 20
-130.937399598342
 10
101.0815131040699
 20
-131.1771782441154
 10
101.0815131040699
 20
-131.1771782441154
 97
        0
 97
        0
 75
     2
 76
     1
 98
        0
  0
ENDBLK
  5
69
330
66
100
AcDbEntity
  8
0
100
AcDbBlockEnd
  0
BLOCK
  5
AE
330
AC
100
AcDbEntity
  8
0
100
AcDbBlockBegin
  2
block 4
 70
     0
 10
0.0
 20
0.0
 30
0.0
  3
block 4
  1

  0
SPLINE
  5
B0
330
AC
100
AcDbEntity
  8
_U+30EC_U+30A4_U+30E4_U+30FC 1
370
     0
100
AcDbSpline
210
0.0
220
0.0
230
1.0
 70
    11
 71
     3
 72
    29
 73
    25
 74
     0
 42
0.0000000001
 43
0.0000000001
 12
1.0
 22
0.0
 32
0.0
 13
1.0
 23
0.0
 33
0.0
 40
0.0
 40
0.0
 40
0.0
 40
0.0
 40
1.0
 40
1.0
 40
1.0
 40
2.0
 40
2.0
 40
2.0
 40
3.0
 40
3.0
 40
3.0
 40
4.0
 40
4.0
 40
4.0
 40
5.0
 40
5.0
 40
5.0
 40
6.0
 40
6.0
 40
6.0
 40
7.0
 40
7.0
 40
7.0
 40
8.0
 40
8.0
 40
8.0
 40
8.0
 10
84.39743243332772
 20
-122.7682169289434
 30
0.0
 10
84.11252303669757
 20
-122.7682169289434
 30
0.0
 10
83.84122176723415
 20
-122.6305853643076
 30
0.0
 10
83.84122176723415
 20
-122.2815971916518
 30
0.0
 10
83.84122176723415
 20
-122.0256265970978
 30
0.0
 10
83.99263371381087
 20
-121.9303697069306
 30
0.0
 10
84.10580510050133
 20
-121.8690470072932
 30
0.0
 10
83.9723076504479
 20
-121.8097913649469
 30
0.0
 10
83.891003396996
 20
-121.6955864496108
 30
0.0
 10
83.891003396996
 20
-121.5348727452239
 30
0.0
 10
83.891003396996
 20
-121.2597818707267
 30
0.0
 10
84.10339353366166
 20
-121.1243896181564
 30
0.0
 10
84.39743243332772
 20
-121.1243896181564
 30
0.0
 10
84.70042858125545
 20
-121.1243896181564
 30
0.0
 10
84.90386146965946
 20
-121.2682223546656
 30
0.0
 10
84.90386146965946
 20
-121.5348727452239
 30
0.0
 10
84.90386146965946
 20
-121.6955864496108
 30
0.0
 10
84.82014564936789
 20
-121.8097913649469
 30
0.0
 10
84.68682045408872
 20
-121.8690470072932
 30
0.0
 10
84.78173283470734
 20
-121.9198621657006
 30
0.0
 10
84.95123153258164
 20
-122.0151190558678
 30
0.0
 10
84.95123153258164
 20
-122.2774630770695
 30
0.0
 10
84.95123153258164
 20
-122.6517727015419
 30
0.0
 10
84.65288626355901
 20
-122.7682169289434
 30
0.0
 10
84.39743243332772
 20
-122.7682169289434
 30
0.0
  0
SPLINE
  5
B1
330
AC
100
AcDbEntity
  8
_U+30EC_U+30A4_U+30E4_U+30FC 1
370
     0
100
AcDbSpline
210
0.0
220
0.0
230
1.0
 70
    11
 71
     3
 72
    17
 73
    13
 74
     0
 42
0.0000000001
 43
0.0000000001
 12
1.0
 22
0.0
 32
0.0
 13
1.0
 23
0.0
 33
0.0
 40
0.0
 40
0.0
 40
0.0
 40
0.0
 40
1.0
 40
1.0
 40
1.0
 40
2.0
 40
2.0
 40
2.0
 40
3.0
 40
3.0
 40
3.0
 40
4.0
 40
4.0
 40
4.0
 40
4.0
 10
84.39743243332772
 20
-121.9770507507557
 30
0.0
 10
84.24360891991132
 20
-121.9770507507557
 30
0.0
 10
84.08082815823327
 20
-122.0636949022098
 30
0.0
 10
84.08082815823327
 20
-122.2667832810653
 30
0.0
 10
84.08082815823327
 20
-122.4719387172119
 30
0.0
 10
84.21656492035211
 20
-122.5735690340267
 30
0.0
 10
84.39743243332772
 20
-122.5735690340267
 30
0.0
 10
84.5963866976009
 20
-122.5735690340267
 30
0.0
 10
84.71386445364793
 20
-122.4509236347519
 30
0.0
 10
84.71386445364793
 20
-122.273156707713
 30
0.0
 10
84.71386445364793
 20
-122.0509480489143
 30
0.0
 10
84.53988713164281
 20
-121.9770507507557
 30
0.0
 10
84.39743243332772
 20
-121.9770507507557
 30
0.0
  0
SPLINE
  5
B2
330
AC
100
AcDbEntity
  8
_U+30EC_U+30A4_U+30E4_U+30FC 1
370
     0
100
AcDbSpline
210
0.0
220
0.0
230
1.0
 70
    11
 71
     3
 72
    17
 73
    13
 74
     0
 42
0.0000000001
 43
0.0000000001
 12
1.0
 22
0.0
 32
0.0
 13
1.0
 23
0.0
 33
0.0
 40
0.0
 40
0.0
 40
0.0
 40
0.0
 40
1.0
 40
1.0
 40
1.0
 40
2.0
 40
2.0
 40
2.0
 40
3.0
 40
3.0
 40
3.0
 40
4.0
 40
4.0
 40
4.0
 40
4.0
 10
84.39743243332772
 20
-121.3169704557819
 30
0.0
 10
84.22104354448294
 20
-121.3169704557819
 30
0.0
 10
84.13060978799513
 20
-121.4120550911748
 30
0.0
 10
84.13060978799513
 20
-121.5474473437451
 30
0.0
 10
84.13060978799513
 20
-121.6702649977942
 30
0.0
 10
84.2074354173162
 20
-121.7887762824868
 30
0.0
 10
84.39743243332772
 20
-121.7887762824868
 30
0.0
 10
84.587257194565
 20
-121.7887762824868
 30
0.0
 10
84.66425507866033
 20
-121.6702649977942
 30
0.0
 10
84.66425507866033
 20
-121.5474473437451
 30
0.0
 10
84.66425507866033
 20
-121.4120550911748
 30
0.0
 10
84.57140975533285
 20
-121.3169704557819
 30
0.0
 10
84.39743243332772
 20
-121.3169704557819
 30
0.0
  0
HATCH
  5
B3
330
AC
100
AcDbEntity
  8
_U+30EC_U+30A4_U+30E4_U+30FC 1
 62
     7
420
 16777215
100
AcDbHatch
 10
0.0
 20
0.0
 30
0.0
210
0.0
220
0.0
230
1.0
  2
SOLID
 70
     1
 71
     0
 91
        3
 92
        1
 93
        1
 72
     4
 94
        3
 73
     0
 74
     1
 95
       29
 96
       25
 40
0.0
 40
0.0
 40
0.0
 40
0.0
 40
1.0
 40
1.0
 40
1.0
 40
2.0
 40
2.0
 40
2.0
 40
3.0
 40
3.0
 40
3.0
 40
4.0
 40
4.0
 40
4.0
 40
5.0
 40
5.0
 40
5.0
 40
6.0
 40
6.0
 40
6.0
 40
7.0
 40
7.0
 40
7.0
 40
8.0
 40
8.0
 40
8.0
 40
8.0
 10
84.39743243332772
 20
-122.7682169289434
 10
84.11252303669757
 20
-122.7682169289434
 10
83.84122176723415
 20
-122.6305853643076
 10
83.84122176723415
 20
-122.2815971916518
 10
83.84122176723415
 20
-122.0256265970978
 10
83.99263371381087
 20
-121.9303697069306
 10
84.10580510050133
 20
-121.8690470072932
 10
83.9723076504479
 20
-121.8097913649469
 10
83.891003396996
 20
-121.6955864496108
 10
83.891003396996
 20
-121.5348727452239
 10
83.891003396996
 20
-121.2597818707267
 10
84.10339353366166
 20
-121.1243896181564
 10
84.39743243332772
 20
-121.1243896181564
 10
84.70042858125545
 20
-121.1243896181564
 10
84.90386146965946
 20
-121.2682223546656
 10
84.90386146965946
 20
-121.5348727452239
 10
84.90386146965946
 20
-121.6955864496108
 10
84.82014564936789
 20
-121.8097913649469
 10
84.68682045408872
 20
-121.8690470072932
 10
84.78173283470734
 20
-121.9198621657006
 10
84.95123153258164
 20
-122.0151190558678
 10
84.95123153258164
 20
-122.2774630770695
 10
84.95123153258164
 20
-122.6517727015419
 10
84.65288626355901
 20
-122.7682169289434
 10
84.39743243332772
 20
-122.7682169289434
 97
        0
 97
        0
 92
        1
 93
        1
 72
     4
 94
        3
 73
     0
 74
     1
 95
       17
 96
       13
 40
0.0
 40
0.0
 40
0.0
 40
0.0
 40
1.0
 40
1.0
 40
1.0
 40
2.0
 40
2.0
 40
2.0
 40
3.0
 40
3.0
 40
3.0
 40
4.0
 40
4.0
 40
4.0
 40
4.0
 10
84.39743243332772
 20
-121.9770507507557
 10
84.24360891991132
 20
-121.9770507507557
 10
84.08082815823327
 20
-122.0636949022098
 10
84.08082815823327
 20
-122.2667832810653
 10
84.08082815823327
 20
-122.4719387172119
 10
84.21656492035211
 20
-122.5735690340267
 10
84.39743243332772
 20
-122.5735690340267
 10
84.5963866976009
 20
-122.5735690340267
 10
84.71386445364793
 20
-122.4509236347519
 10
84.71386445364793
 20
-122.273156707713
 10
84.71386445364793
 20
-122.0509480489143
 10
84.53988713164281
 20
-121.9770507507557
 10
84.39743243332772
 20
-121.9770507507557
 97
        0
 97
        0
 92
        1
 93
        1
 72
     4
 94
        3
 73
     0
 74
     1
 95
       17
 96
       13
 40
0.0
 40
0.0
 40
0.0
 40
0.0
 40
1.0
 40
1.0
 40
1.0
 40
2.0
 40
2.0
 40
2.0
 40
3.0
 40
3.0
 40
3.0
 40
4.0
 40
4.0
 40
4.0
 40
4.0
 10
84.39743243332772
 20
-121.3169704557819
 10
84.22104354448294
 20
-121.3169704557819
 10
84.13060978799513
 20
-121.4120550911748
 10
84.13060978799513
 20
-121.5474473437451
 10
84.13060978799513
 20
-121.6702649977942
 10
84.2074354173162
 20
-121.7887762824868
 10
84.39743243332772
 20
-121.7887762824868
 10
84.587257194565
 20
-121.7887762824868
 10
84.66425507866033
 20
-121.6702649977942
 10
84.66425507866033
 20
-121.5474473437451
 10
84.66425507866033
 20
-121.4120550911748
 10
84.57140975533285
 20
-121.3169704557819
 10
84.39743243332772
 20
-121.3169704557819
 97
        0
 97
        0
 75
     2
 76
     1
 98
        0
  0
ENDBLK
  5
AF
330
AC
100
AcDbEntity
  8
0
100
AcDbBlockEnd
  0
BLOCK
  5
C2
330
C0
100
AcDbEntity
  8
0
100
AcDbBlockBegin
  2
block 5
 70
     0
 10
0.0
 20
0.0
 30
0.0
  3
block 5
  1

  0
SPLINE
  5
C4
330
C0
100
AcDbEntity
  8
_U+30EC_U+30A4_U+30E4_U+30FC 1
370
     0
100
AcDbSpline
210
0.0
220
0.0
230
1.0
 70
    11
 71
     3
 72
    26
 73
    22
 74
     0
 42
0.0000000001
 43
0.0000000001
 12
1.0
 22
0.0
 32
0.0
 13
1.0
 23
0.0
 33
0.0
 40
0.0
 40
0.0
 40
0.0
 40
0.0
 40
1.0
 40
1.0
 40
1.0
 40
2.0
 40
2.0
 40
2.0
 40
3.0
 40
3.0
 40
3.0
 40
4.0
 40
4.0
 40
4.0
 40
5.0
 40
5.0
 40
5.0
 40
6.0
 40
6.0
 40
6.0
 40
7.0
 40
7.0
 40
7.0
 40
7.0
 10
88.67848033807344
 20
-135.0122585382956
 30
0.0
 10
88.67848033807344
 20
-135.0122585382956
 30
0.0
 10
88.67848033807344
 20
-133.908105435273
 30
0.0
 10
88.67848033807344
 20
-133.908105435273
 30
0.0
 10
88.67848033807344
 20
-133.908105435273
 30
0.0
 10
88.32604706993239
 20
-133.908105435273
 30
0.0
 10
88.32604706993239
 20
-133.908105435273
 30
0.0
 10
88.32604706993239
 20
-133.908105435273
 30
0.0
 10
88.32604706993239
 20
-133.7599663294072
 30
0.0
 10
88.32604706993239
 20
-133.7599663294072
 30
0.0
 10
88.68089190491311
 20
-133.7451524188207
 30
0.0
 10
88.73050127990071
 20
-133.5821994023683
 30
0.0
 10
88.76219615836501
 20
-133.467822232258
 30
0.0
 10
88.76219615836501
 20
-133.467822232258
 30
0.0
 10
88.91825898384683
 20
-133.467822232258
 30
0.0
 10
88.91825898384683
 20
-133.467822232258
 30
0.0
 10
88.91825898384683
 20
-133.467822232258
 30
0.0
 10
88.91825898384683
 20
-135.0122585382956
 30
0.0
 10
88.91825898384683
 20
-135.0122585382956
 30
0.0
 10
88.91825898384683
 20
-135.0122585382956
 30
0.0
 10
88.67848033807344
 20
-135.0122585382956
 30
0.0
 10
88.67848033807344
 20
-135.0122585382956
 30
0.0
  0
HATCH
  5
C5
330
C0
100
AcDbEntity
  8
_U+30EC_U+30A4_U+30E4_U+30FC 1
 62
     7
420
 16777215
100
AcDbHatch
 10
0.0
 20
0.0
 30
0.0
210
0.0
220
0.0
230
1.0
  2
SOLID
 70
     1
 71
     0
 91
        1
 92
        1
 93
        1
 72
     4
 94
        3
 73
     0
 74
     1
 95
       26
 96
       22
 40
0.0
 40
0.0
 40
0.0
 40
0.0
 40
1.0
 40
1.0
 40
1.0
 40
2.0
 40
2.0
 40
2.0
 40
3.0
 40
3.0
 40
3.0
 40
4.0
 40
4.0
 40
4.0
 40
5.0
 40
5.0
 40
5.0
 40
6.0
 40
6.0
 40
6.0
 40
7.0
 40
7.0
 40
7.0
 40
7.0
 10
88.67848033807344
 20
-135.0122585382956
 10
88.67848033807344
 20
-135.0122585382956
 10
88.67848033807344
 20
-133.908105435273
 10
88.67848033807344
 20
-133.908105435273
 10
88.67848033807344
 20
-133.908105435273
 10
88.32604706993239
 20
-133.908105435273
 10
88.32604706993239
 20
-133.908105435273
 10
88.32604706993239
 20
-133.908105435273
 10
88.32604706993239
 20
-133.7599663294072
 10
88.32604706993239
 20
-133.7599663294072
 10
88.68089190491311
 20
-133.7451524188207
 10
88.73050127990071
 20
-133.5821994023683
 10
88.76219615836501
 20
-133.467822232258
 10
88.76219615836501
 20
-133.467822232258
 10
88.91825898384683
 20
-133.467822232258
 10
88.91825898384683
 20
-133.467822232258
 10
88.91825898384683
 20
-133.467822232258
 10
88.91825898384683
 20
-135.0122585382956
 10
88.91825898384683
 20
-135.0122585382956
 10
88.91825898384683
 20
-135.0122585382956
 10
88.67848033807344
 20
-135.0122585382956
 10
88.67848033807344
 20
-135.0122585382956
 97
        0
 97
        0
 75
     2
 76
     1
 98
        0
  0
SPLINE
  5
C6
330
C0
100
AcDbEntity
  8
_U+30EC_U+30A4_U+30E4_U+30FC 1
370
     0
100
AcDbSpline
210
0.0
220
0.0
230
1.0
 70
    11
 71
     3
 72
    29
 73
    25
 74
     0
 42
0.0000000001
 43
0.0000000001
 12
1.0
 22
0.0
 32
0.0
 13
1.0
 23
0.0
 33
0.0
 40
0.0
 40
0.0
 40
0.0
 40
0.0
 40
1.0
 40
1.0
 40
1.0
 40
2.0
 40
2.0
 40
2.0
 40
3.0
 40
3.0
 40
3.0
 40
4.0
 40
4.0
 40
4.0
 40
5.0
 40
5.0
 40
5.0
 40
6.0
 40
6.0
 40
6.0
 40
7.0
 40
7.0
 40
7.0
 40
8.0
 40
8.0
 40
8.0
 40
8.0
 10
89.98830564156543
 20
-135.0629014419287
 30
0.0
 10
89.70339624493526
 20
-135.0629014419287
 30
0.0
 10
89.4322672302461
 20
-134.9254421320672
 30
0.0
 10
89.4322672302461
 20
-134.5764539594115
 30
0.0
 10
89.4322672302461
 20
-134.3204833648574
 30
0.0
 10
89.5838514315971
 20
-134.2253987294645
 30
0.0
 10
89.6968505635133
 20
-134.164076029827
 30
0.0
 10
89.56352536823412
 20
-134.1048203874807
 30
0.0
 10
89.48187660523371
 20
-133.9904432173705
 30
0.0
 10
89.48187660523371
 20
-133.8295572582093
 30
0.0
 10
89.48187660523371
 20
-133.5546386384864
 30
0.0
 10
89.69443899667361
 20
-133.419246385916
 30
0.0
 10
89.98830564156543
 20
-133.419246385916
 30
0.0
 10
90.29147404426742
 20
-133.419246385916
 30
0.0
 10
90.49473467789716
 20
-133.5632513771995
 30
0.0
 10
90.49473467789716
 20
-133.8295572582093
 30
0.0
 10
90.49473467789716
 20
-133.9904432173705
 30
0.0
 10
90.41136336715411
 20
-134.1048203874807
 30
0.0
 10
90.27769366232641
 20
-134.164076029827
 30
0.0
 10
90.37277829771931
 20
-134.2147189334602
 30
0.0
 10
90.5422769955936
 20
-134.3098035688531
 30
0.0
 10
90.5422769955936
 20
-134.5723198448291
 30
0.0
 10
90.5422769955936
 20
-134.9468017240758
 30
0.0
 10
90.24393172657096
 20
-135.0629014419287
 30
0.0
 10
89.98830564156543
 20
-135.0629014419287
 30
0.0
  0
SPLINE
  5
C7
330
C0
100
AcDbEntity
  8
_U+30EC_U+30A4_U+30E4_U+30FC 1
370
     0
100
AcDbSpline
210
0.0
220
0.0
230
1.0
 70
    11
 71
     3
 72
    17
 73
    13
 74
     0
 42
0.0000000001
 43
0.0000000001
 12
1.0
 22
0.0
 32
0.0
 13
1.0
 23
0.0
 33
0.0
 40
0.0
 40
0.0
 40
0.0
 40
0.0
 40
1.0
 40
1.0
 40
1.0
 40
2.0
 40
2.0
 40
2.0
 40
3.0
 40
3.0
 40
3.0
 40
4.0
 40
4.0
 40
4.0
 40
4.0
 10
89.98830564156543
 20
-134.2719075185153
 30
0.0
 10
89.83465438292329
 20
-134.2719075185153
 30
0.0
 10
89.6720458760195
 20
-134.3587239247437
 30
0.0
 10
89.6720458760195
 20
-134.5616400488249
 30
0.0
 10
89.6720458760195
 20
-134.7669677397458
 30
0.0
 10
89.80743812858981
 20
-134.8682535470121
 30
0.0
 10
89.98830564156543
 20
-134.8682535470121
 30
0.0
 10
90.18743216061287
 20
-134.8682535470121
 30
0.0
 10
90.30490991665988
 20
-134.7456081477372
 30
0.0
 10
90.30490991665988
 20
-134.5678412206983
 30
0.0
 10
90.30490991665988
 20
-134.3459770714482
 30
0.0
 10
90.13093259465477
 20
-134.2719075185153
 30
0.0
 10
89.98830564156543
 20
-134.2719075185153
 30
0.0
  0
SPLINE
  5
C8
330
C0
100
AcDbEntity
  8
_U+30EC_U+30A4_U+30E4_U+30FC 1
370
     0
100
AcDbSpline
210
0.0
220
0.0
230
1.0
 70
    11
 71
     3
 72
    17
 73
    13
 74
     0
 42
0.0000000001
 43
0.0000000001
 12
1.0
 22
0.0
 32
0.0
 13
1.0
 23
0.0
 33
0.0
 40
0.0
 40
0.0
 40
0.0
 40
0.0
 40
1.0
 40
1.0
 40
1.0
 40
2.0
 40
2.0
 40
2.0
 40
3.0
 40
3.0
 40
3.0
 40
4.0
 40
4.0
 40
4.0
 40
4.0
 10
89.98830564156543
 20
-133.6118272235415
 30
0.0
 10
89.81226126226916
 20
-133.6118272235415
 30
0.0
 10
89.72165525100709
 20
-133.7069118589344
 30
0.0
 10
89.72165525100709
 20
-133.8423041115047
 30
0.0
 10
89.72165525100709
 20
-133.9649495107796
 30
0.0
 10
89.79848088032816
 20
-134.0834607954722
 30
0.0
 10
89.98830564156543
 20
-134.0834607954722
 30
0.0
 10
90.17847491235122
 20
-134.0834607954722
 30
0.0
 10
90.25530054167228
 20
-133.9649495107796
 30
0.0
 10
90.25530054167228
 20
-133.8423041115047
 30
0.0
 10
90.25530054167228
 20
-133.7069118589344
 30
0.0
 10
90.16262747311907
 20
-133.6118272235415
 30
0.0
 10
89.98830564156543
 20
-133.6118272235415
 30
0.0
  0
HATCH
  5
C9
330
C0
100
AcDbEntity
  8
_U+30EC_U+30A4_U+30E4_U+30FC 1
 62
     7
420
 16777215
100
AcDbHatch
 10
0.0
 20
0.0
 30
0.0
210
0.0
220
0.0
230
1.0
  2
SOLID
 70
     1
 71
     0
 91
        3
 92
        1
 93
        1
 72
     4
 94
        3
 73
     0
 74
     1
 95
       29
 96
       25
 40
0.0
 40
0.0
 40
0.0
 40
0.0
 40
1.0
 40
1.0
 40
1.0
 40
2.0
 40
2.0
 40
2.0
 40
3.0
 40
3.0
 40
3.0
 40
4.0
 40
4.0
 40
4.0
 40
5.0
 40
5.0
 40
5.0
 40
6.0
 40
6.0
 40
6.0
 40
7.0
 40
7.0
 40
7.0
 40
8.0
 40
8.0
 40
8.0
 40
8.0
 10
89.98830564156543
 20
-135.0629014419287
 10
89.70339624493526
 20
-135.0629014419287
 10
89.4322672302461
 20
-134.9254421320672
 10
89.4322672302461
 20
-134.5764539594115
 10
89.4322672302461
 20
-134.3204833648574
 10
89.5838514315971
 20
-134.2253987294645
 10
89.6968505635133
 20
-134.164076029827
 10
89.56352536823412
 20
-134.1048203874807
 10
89.48187660523371
 20
-133.9904432173705
 10
89.48187660523371
 20
-133.8295572582093
 10
89.48187660523371
 20
-133.5546386384864
 10
89.69443899667361
 20
-133.419246385916
 10
89.98830564156543
 20
-133.419246385916
 10
90.29147404426742
 20
-133.419246385916
 10
90.49473467789716
 20
-133.5632513771995
 10
90.49473467789716
 20
-133.8295572582093
 10
90.49473467789716
 20
-133.9904432173705
 10
90.41136336715411
 20
-134.1048203874807
 10
90.27769366232641
 20
-134.164076029827
 10
90.37277829771931
 20
-134.2147189334602
 10
90.5422769955936
 20
-134.3098035688531
 10
90.5422769955936
 20
-134.5723198448291
 10
90.5422769955936
 20
-134.9468017240758
 10
90.24393172657096
 20
-135.0629014419287
 10
89.98830564156543
 20
-135.0629014419287
 97
        0
 97
        0
 92
        1
 93
        1
 72
     4
 94
        3
 73
     0
 74
     1
 95
       17
 96
       13
 40
0.0
 40
0.0
 40
0.0
 40
0.0
 40
1.0
 40
1.0
 40
1.0
 40
2.0
 40
2.0
 40
2.0
 40
3.0
 40
3.0
 40
3.0
 40
4.0
 40
4.0
 40
4.0
 40
4.0
 10
89.98830564156543
 20
-134.2719075185153
 10
89.83465438292329
 20
-134.2719075185153
 10
89.6720458760195
 20
-134.3587239247437
 10
89.6720458760195
 20
-134.5616400488249
 10
89.6720458760195
 20
-134.7669677397458
 10
89.80743812858981
 20
-134.8682535470121
 10
89.98830564156543
 20
-134.8682535470121
 10
90.18743216061287
 20
-134.8682535470121
 10
90.30490991665988
 20
-134.7456081477372
 10
90.30490991665988
 20
-134.5678412206983
 10
90.30490991665988
 20
-134.3459770714482
 10
90.13093259465477
 20
-134.2719075185153
 10
89.98830564156543
 20
-134.2719075185153
 97
        0
 97
        0
 92
        1
 93
        1
 72
     4
 94
        3
 73
     0
 74
     1
 95
       17
 96
       13
 40
0.0
 40
0.0
 40
0.0
 40
0.0
 40
1.0
 40
1.0
 40
1.0
 40
2.0
 40
2.0
 40
2.0
 40
3.0
 40
3.0
 40
3.0
 40
4.0
 40
4.0
 40
4.0
 40
4.0
 10
89.98830564156543
 20
-133.6118272235415
 10
89.81226126226916
 20
-133.6118272235415
 10
89.72165525100709
 20
-133.7069118589344
 10
89.72165525100709
 20
-133.8423041115047
 10
89.72165525100709
 20
-133.9649495107796
 10
89.79848088032816
 20
-134.0834607954722
 10
89.98830564156543
 20
-134.0834607954722
 10
90.17847491235122
 20
-134.0834607954722
 10
90.25530054167228
 20
-133.9649495107796
 10
90.25530054167228
 20
-133.8423041115047
 10
90.25530054167228
 20
-133.7069118589344
 10
90.16262747311907
 20
-133.6118272235415
 10
89.98830564156543
 20
-133.6118272235415
 97
        0
 97
        0
 75
     2
 76
     1
 98
        0
  0
ENDBLK
  5
C3
330
C0
100
AcDbEntity
  8
0
100
AcDbBlockEnd
  0
BLOCK
  5
CC
330
CA
100
AcDbEntity
  8
0
100
AcDbBlockBegin
  2
block 6
 70
     0
 10
0.0
 20
0.0
 30
0.0
  3
block 6
  1

  0
SPLINE
  5
CE
330
CA
100
AcDbEntity
  8
_U+30EC_U+30A4_U+30E4_U+30FC 1
370
     0
100
AcDbSpline
210
0.0
220
0.0
230
1.0
 70
    11
 71
     3
 72
    26
 73
    22
 74
     0
 42
0.0000000001
 43
0.0000000001
 12
1.0
 22
0.0
 32
0.0
 13
1.0
 23
0.0
 33
0.0
 40
0.0
 40
0.0
 40
0.0
 40
0.0
 40
1.0
 40
1.0
 40
1.0
 40
2.0
 40
2.0
 40
2.0
 40
3.0
 40
3.0
 40
3.0
 40
4.0
 40
4.0
 40
4.0
 40
5.0
 40
5.0
 40
5.0
 40
6.0
 40
6.0
 40
6.0
 40
7.0
 40
7.0
 40
7.0
 40
7.0
 10
79.16054278619946
 20
-128.7616495446325
 30
0.0
 10
79.16054278619946
 20
-128.7616495446325
 30
0.0
 10
79.16054278619946
 20
-127.6573241868357
 30
0.0
 10
79.16054278619946
 20
-127.6573241868357
 30
0.0
 10
79.16054278619946
 20
-127.6573241868357
 30
0.0
 10
78.83050263871252
 20
-127.6573241868357
 30
0.0
 10
78.83050263871252
 20
-127.6573241868357
 30
0.0
 10
78.83050263871252
 20
-127.6573241868357
 30
0.0
 10
78.83050263871252
 20
-127.5091850809699
 30
0.0
 10
78.83050263871252
 20
-127.5091850809699
 30
0.0
 10
79.1626098434906
 20
-127.4945434251576
 30
0.0
 10
79.20911863254148
 20
-127.3315904087053
 30
0.0
 10
79.23874645371463
 20
-127.2173854933693
 30
0.0
 10
79.23874645371463
 20
-127.2173854933693
 30
0.0
 10
79.38481850228922
 20
-127.2173854933693
 30
0.0
 10
79.38481850228922
 20
-127.2173854933693
 30
0.0
 10
79.38481850228922
 20
-127.2173854933693
 30
0.0
 10
79.38481850228922
 20
-128.7616495446325
 30
0.0
 10
79.38481850228922
 20
-128.7616495446325
 30
0.0
 10
79.38481850228922
 20
-128.7616495446325
 30
0.0
 10
79.16054278619946
 20
-128.7616495446325
 30
0.0
 10
79.16054278619946
 20
-128.7616495446325
 30
0.0
  0
HATCH
  5
CF
330
CA
100
AcDbEntity
  8
_U+30EC_U+30A4_U+30E4_U+30FC 1
 62
   179
420
  2234388
100
AcDbHatch
 10
0.0
 20
0.0
 30
0.0
210
0.0
220
0.0
230
1.0
  2
SOLID
 70
     1
 71
     0
 91
        1
 92
        1
 93
        1
 72
     4
 94
        3
 73
     0
 74
     1
 95
       26
 96
       22
 40
0.0
 40
0.0
 40
0.0
 40
0.0
 40
1.0
 40
1.0
 40
1.0
 40
2.0
 40
2.0
 40
2.0
 40
3.0
 40
3.0
 40
3.0
 40
4.0
 40
4.0
 40
4.0
 40
5.0
 40
5.0
 40
5.0
 40
6.0
 40
6.0
 40
6.0
 40
7.0
 40
7.0
 40
7.0
 40
7.0
 10
79.16054278619946
 20
-128.7616495446325
 10
79.16054278619946
 20
-128.7616495446325
 10
79.16054278619946
 20
-127.6573241868357
 10
79.16054278619946
 20
-127.6573241868357
 10
79.16054278619946
 20
-127.6573241868357
 10
78.83050263871252
 20
-127.6573241868357
 10
78.83050263871252
 20
-127.6573241868357
 10
78.83050263871252
 20
-127.6573241868357
 10
78.83050263871252
 20
-127.5091850809699
 10
78.83050263871252
 20
-127.5091850809699
 10
79.1626098434906
 20
-127.4945434251576
 10
79.20911863254148
 20
-127.3315904087053
 10
79.23874645371463
 20
-127.2173854933693
 10
79.23874645371463
 20
-127.2173854933693
 10
79.38481850228922
 20
-127.2173854933693
 10
79.38481850228922
 20
-127.2173854933693
 10
79.38481850228922
 20
-127.2173854933693
 10
79.38481850228922
 20
-128.7616495446325
 10
79.38481850228922
 20
-128.7616495446325
 10
79.38481850228922
 20
-128.7616495446325
 10
79.16054278619946
 20
-128.7616495446325
 10
79.16054278619946
 20
-128.7616495446325
 97
        0
 97
        0
 75
     2
 76
     1
 98
        0
  0
ENDBLK
  5
CD
330
CA
100
AcDbEntity
  8
0
100
AcDbBlockEnd
  0
ENDSEC
  0
SECTION
  2
ENTITIES
  0
SPLINE
  5
41
330
1F
100
AcDbEntity
  8
_U+30EC_U+30A4_U+30E4_U+30FC 1
 62
   179
420
  2234388
370
     9
100
AcDbSpline
210
0.0
220
0.0
230
1.0
 70
    11
 71
     3
 72
    17
 73
    13
 74
     0
 42
0.0000000001
 43
0.0000000001
 12
1.0
 22
0.0
 32
0.0
 13
1.0
 23
0.0
 33
0.0
 40
0.0
 40
0.0
 40
0.0
 40
0.0
 40
1.0
 40
1.0
 40
1.0
 40
2.0
 40
2.0
 40
2.0
 40
3.0
 40
3.0
 40
3.0
 40
4.0
 40
4.0
 40
4.0
 40
4.0
 10
102.3276015560721
 20
-127.1110896904446
 30
0.0
 10
102.3276015560721
 20
-127.0559858015693
 30
0.0
 10
102.2827987794373
 20
-127.0111830238026
 30
0.0
 10
102.2276948919542
 20
-127.0111830238026
 30
0.0
 10
102.1725583077901
 20
-127.0111830238026
 30
0.0
 10
102.1277882278364
 20
-127.0559858015693
 30
0.0
 10
102.1277882278364
 20
-127.1110896904446
 30
0.0
 10
102.1277882278364
 20
-127.1662288570973
 30
0.0
 10
102.1725583077901
 20
-127.2109963570862
 30
0.0
 10
102.2276948919542
 20
-127.2109963570862
 30
0.0
 10
102.2827987794373
 20
-127.2109963570862
 30
0.0
 10
102.3276015560721
 20
-127.1662288570973
 30
0.0
 10
102.3276015560721
 20
-127.1110896904446
 30
0.0
  0
SPLINE
  5
42
330
1F
100
AcDbEntity
  8
_U+30EC_U+30A4_U+30E4_U+30FC 1
 62
   179
420
  2234388
370
     9
100
AcDbSpline
210
0.0
220
0.0
230
1.0
 70
    11
 71
     3
 72
    17
 73
    13
 74
     0
 42
0.0000000001
 43
0.0000000001
 12
1.0
 22
0.0
 32
0.0
 13
1.0
 23
0.0
 33
0.0
 40
0.0
 40
0.0
 40
0.0
 40
0.0
 40
1.0
 40
1.0
 40
1.0
 40
2.0
 40
2.0
 40
2.0
 40
3.0
 40
3.0
 40
3.0
 40
4.0
 40
4.0
 40
4.0
 40
4.0
 10
102.3276015560721
 20
-130.6114919117918
 30
0.0
 10
102.3276015560721
 20
-130.5560352451385
 30
0.0
 10
102.2827987794373
 20
-130.5112324673724
 30
0.0
 10
102.2276948919542
 20
-130.5112324673724
 30
0.0
 10
102.1725583077901
 20
-130.5112324673724
 30
0.0
 10
102.1277882278364
 20
-130.5560352451385
 30
0.0
 10
102.1277882278364
 20
-130.6114919117918
 30
0.0
 10
102.1277882278364
 20
-130.6666310784443
 30
0.0
 10
102.1725583077901
 20
-130.7113985784335
 30
0.0
 10
102.2276948919542
 20
-130.7113985784335
 30
0.0
 10
102.2827987794373
 20
-130.7113985784335
 30
0.0
 10
102.3276015560721
 20
-130.6666310784443
 30
0.0
 10
102.3276015560721
 20
-130.6114919117918
 30
0.0
  0
POLYLINE
  5
43
330
1F
100
AcDbEntity
  8
_U+30EC_U+30A4_U+30E4_U+30FC 1
 62
   179
420
  2234388
370
     9
100
AcDb2dPolyline
 66
     1
 10
0.0
 20
0.0
 30
0.0
  0
VERTEX
  5
44
330
43
100
AcDbEntity
  8
_U+30EC_U+30A4_U+30E4_U+30FC 1
 62
   179
420
  2234388
370
     9
100
AcDbVertex
100
AcDb2dVertex
 10
102.2276948919542
 20
-127.1110896904446
 30
0.0
  0
VERTEX
  5
45
330
43
100
AcDbEntity
  8
_U+30EC_U+30A4_U+30E4_U+30FC 1
 62
   179
420
  2234388
370
     9
100
AcDbVertex
100
AcDb2dVertex
 10
102.2276948919542
 20
-123.4351805246969
 30
0.0
  0
SEQEND
  5
46
330
43
100
AcDbEntity
  8
_U+30EC_U+30A4_U+30E4_U+30FC 1
 62
   179
420
  2234388
370
     9
  0
POLYLINE
  5
47
330
1F
100
AcDbEntity
  8
_U+30EC_U+30A4_U+30E4_U+30FC 1
 62
   179
420
  2234388
370
     9
100
AcDb2dPolyline
 66
     1
 10
0.0
 20
0.0
 30
0.0
  0
VERTEX
  5
48
330
47
100
AcDbEntity
  8
_U+30EC_U+30A4_U+30E4_U+30FC 1
 62
   179
420
  2234388
370
     9
100
AcDbVertex
100
AcDb2dVertex
 10
102.2276948919542
 20
-130.6114919117918
 30
0.0
  0
VERTEX
  5
49
330
47
100
AcDbEntity
  8
_U+30EC_U+30A4_U+30E4_U+30FC 1
 62
   179
420
  2234388
370
     9
100
AcDbVertex
100
AcDb2dVertex
 10
102.2276948919542
 20
-127.1110896904446
 30
0.0
  0
SEQEND
  5
4A
330
47
100
AcDbEntity
  8
_U+30EC_U+30A4_U+30E4_U+30FC 1
 62
   179
420
  2234388
370
     9
  0
POLYLINE
  5
4B
330
1F
100
AcDbEntity
  8
_U+30EC_U+30A4_U+30E4_U+30FC 1
 62
   179
420
  2234388
370
     9
100
AcDb2dPolyline
 66
     1
 10
0.0
 20
0.0
 30
0.0
  0
VERTEX
  5
4C
330
4B
100
AcDbEntity
  8
_U+30EC_U+30A4_U+30E4_U+30FC 1
 62
   179
420
  2234388
370
     9
100
AcDbVertex
100
AcDb2dVertex
 10
101.0997610858363
 20
-130.6111391340141
 30
0.0
  0
VERTEX
  5
4D
330
4B
100
AcDbEntity
  8
_U+30EC_U+30A4_U+30E4_U+30FC 1
 62
   179
420
  2234388
370
     9
100
AcDbVertex
100
AcDb2dVertex
 10
103.2281373664308
 20
-130.6114919117918
 30
0.0
  0
SEQEND
  5
4E
330
4B
100
AcDbEntity
  8
_U+30EC_U+30A4_U+30E4_U+30FC 1
 62
   179
420
  2234388
370
     9
  0
POLYLINE
  5
4F
330
1F
100
AcDbEntity
  8
_U+30EC_U+30A4_U+30E4_U+30FC 1
 62
   179
420
  2234388
370
     9
100
AcDb2dPolyline
 66
     1
 10
0.0
 20
0.0
 30
0.0
  0
VERTEX
  5
50
330
4F
100
AcDbEntity
  8
_U+30EC_U+30A4_U+30E4_U+30FC 1
 62
   179
420
  2234388
370
     9
100
AcDbVertex
100
AcDb2dVertex
 10
101.1204313090918
 20
-127.1110896904446
 30
0.0
  0
VERTEX
  5
51
330
4F
100
AcDbEntity
  8
_U+30EC_U+30A4_U+30E4_U+30FC 1
 62
   179
420
  2234388
370
     9
100
AcDbVertex
100
AcDb2dVertex
 10
103.2281373664308
 20
-127.1110896904446
 30
0.0
  0
SEQEND
  5
52
330
4F
100
AcDbEntity
  8
_U+30EC_U+30A4_U+30E4_U+30FC 1
 62
   179
420
  2234388
370
     9
  0
INSERT
  5
54
330
1F
100
AcDbEntity
  8
_U+30EC_U+30A4_U+30E4_U+30FC 1
100
AcDbBlockReference
  2
block 2
 10
0.0
 20
0.0
 30
0.0
  0
POLYLINE
  5
59
330
1F
100
AcDbEntity
  8
_U+30EC_U+30A4_U+30E4_U+30FC 1
 62
   179
420
  2234388
370
     9
100
AcDb2dPolyline
 66
     1
 10
0.0
 20
0.0
 30
0.0
  0
VERTEX
  5
5A
330
59
100
AcDbEntity
  8
_U+30EC_U+30A4_U+30E4_U+30FC 1
 62
   179
420
  2234388
370
     9
100
AcDbVertex
100
AcDb2dVertex
 10
102.2276948919542
 20
-130.6111391340141
 30
0.0
  0
VERTEX
  5
5B
330
59
100
AcDbEntity
  8
_U+30EC_U+30A4_U+30E4_U+30FC 1
 62
   179
420
  2234388
370
     9
100
AcDbVertex
100
AcDb2dVertex
 10
102.2276948919542
 20
-128.1106855235279
 30
0.0
  0
SEQEND
  5
5C
330
59
100
AcDbEntity
  8
_U+30EC_U+30A4_U+30E4_U+30FC 1
 62
   179
420
  2234388
370
     9
  0
SPLINE
  5
5D
330
1F
100
AcDbEntity
  8
_U+30EC_U+30A4_U+30E4_U+30FC 1
 62
   179
420
  2234388
370
     9
100
AcDbSpline
210
0.0
220
0.0
230
1.0
 70
    11
 71
     3
 72
    17
 73
    13
 74
     0
 42
0.0000000001
 43
0.0000000001
 12
1.0
 22
0.0
 32
0.0
 13
1.0
 23
0.0
 33
0.0
 40
0.0
 40
0.0
 40
0.0
 40
0.0
 40
1.0
 40
1.0
 40
1.0
 40
2.0
 40
2.0
 40
2.0
 40
3.0
 40
3.0
 40
3.0
 40
4.0
 40
4.0
 40
4.0
 40
4.0
 10
102.3276015560721
 20
-131.6095355226531
 30
0.0
 10
102.3276015560721
 20
-131.5537260782226
 30
0.0
 10
102.2827987794373
 20
-131.5089585782341
 30
0.0
 10
102.2276948919542
 20
-131.5089585782341
 30
0.0
 10
102.1725583077901
 20
-131.5089585782341
 30
0.0
 10
102.1277882278364
 20
-131.5537260782226
 30
0.0
 10
102.1277882278364
 20
-131.6095355226531
 30
0.0
 10
102.1277882278364
 20
-131.6646746893061
 30
0.0
 10
102.1725583077901
 20
-131.7094421892947
 30
0.0
 10
102.2276948919542
 20
-131.7094421892947
 30
0.0
 10
102.2827987794373
 20
-131.7094421892947
 30
0.0
 10
102.3276015560721
 20
-131.6646746893061
 30
0.0
 10
102.3276015560721
 20
-131.6095355226531
 30
0.0
  0
POLYLINE
  5
5E
330
1F
100
AcDbEntity
  8
_U+30EC_U+30A4_U+30E4_U+30FC 1
 62
   179
420
  2234388
370
     9
100
AcDb2dPolyline
 66
     1
 10
0.0
 20
0.0
 30
0.0
  0
VERTEX
  5
5F
330
5E
100
AcDbEntity
  8
_U+30EC_U+30A4_U+30E4_U+30FC 1
 62
   179
420
  2234388
370
     9
100
AcDbVertex
100
AcDb2dVertex
 10
102.2276948919542
 20
-131.6095355226531
 30
0.0
  0
VERTEX
  5
60
330
5E
100
AcDbEntity
  8
_U+30EC_U+30A4_U+30E4_U+30FC 1
 62
   179
420
  2234388
370
     9
100
AcDbVertex
100
AcDb2dVertex
 10
102.2276948919542
 20
-127.6692194125271
 30
0.0
  0
SEQEND
  5
61
330
5E
100
AcDbEntity
  8
_U+30EC_U+30A4_U+30E4_U+30FC 1
 62
   179
420
  2234388
370
     9
  0
POLYLINE
  5
62
330
1F
100
AcDbEntity
  8
_U+30EC_U+30A4_U+30E4_U+30FC 1
 62
   179
420
  2234388
370
     9
100
AcDb2dPolyline
 66
     1
 10
0.0
 20
0.0
 30
0.0
  0
VERTEX
  5
63
330
62
100
AcDbEntity
  8
_U+30EC_U+30A4_U+30E4_U+30FC 1
 62
   179
420
  2234388
370
     9
100
AcDbVertex
100
AcDb2dVertex
 10
101.0997610858363
 20
-131.6095355226531
 30
0.0
  0
VERTEX
  5
64
330
62
100
AcDbEntity
  8
_U+30EC_U+30A4_U+30E4_U+30FC 1
 62
   179
420
  2234388
370
     9
100
AcDbVertex
100
AcDb2dVertex
 10
103.2281373664308
 20
-131.6095355226531
 30
0.0
  0
SEQEND
  5
65
330
62
100
AcDbEntity
  8
_U+30EC_U+30A4_U+30E4_U+30FC 1
 62
   179
420
  2234388
370
     9
  0
INSERT
  5
67
330
1F
100
AcDbEntity
  8
_U+30EC_U+30A4_U+30E4_U+30FC 1
100
AcDbBlockReference
  2
block 3
 10
0.0
 20
0.0
 30
0.0
  0
SPLINE
  5
6C
330
1F
100
AcDbEntity
  8
_U+30EC_U+30A4_U+30E4_U+30FC 1
370
     0
100
AcDbSpline
210
0.0
220
0.0
230
1.0
 70
    11
 71
     3
 72
    62
 73
    58
 74
     0
 42
0.0000000001
 43
0.0000000001
 12
1.0
 22
0.0
 32
0.0
 13
1.0
 23
0.0
 33
0.0
 40
0.0
 40
0.0
 40
0.0
 40
0.0
 40
1.0
 40
1.0
 40
1.0
 40
2.0
 40
2.0
 40
2.0
 40
3.0
 40
3.0
 40
3.0
 40
4.0
 40
4.0
 40
4.0
 40
5.0
 40
5.0
 40
5.0
 40
6.0
 40
6.0
 40
6.0
 40
7.0
 40
7.0
 40
7.0
 40
8.0
 40
8.0
 40
8.0
 40
9.0
 40
9.0
 40
9.0
 40
10.0
 40
10.0
 40
10.0
 40
11.0
 40
11.0
 40
11.0
 40
12.0
 40
12.0
 40
12.0
 40
13.0
 40
13.0
 40
13.0
 40
14.0
 40
14.0
 40
14.0
 40
15.0
 40
15.0
 40
15.0
 40
16.0
 40
16.0
 40
16.0
 40
17.0
 40
17.0
 40
17.0
 40
18.0
 40
18.0
 40
18.0
 40
19.0
 40
19.0
 40
19.0
 40
19.0
 10
97.85519083683943
 20
-131.1082735783342
 30
0.0
 10
97.85519083683943
 20
-131.1082735783342
 30
0.0
 10
94.26885203944566
 20
-131.1082735783342
 30
0.0
 10
94.26885203944566
 20
-131.1082735783342
 30
0.0
 10
94.26885203944566
 20
-131.1082735783342
 30
0.0
 10
93.85543177221511
 20
-131.4083463560369
 30
0.0
 10
93.85543177221511
 20
-131.4083463560369
 30
0.0
 10
93.85543177221511
 20
-131.4083463560369
 30
0.0
 10
93.4678348376591
 20
-131.1082735783342
 30
0.0
 10
93.4678348376591
 20
-131.1082735783342
 30
0.0
 10
93.4678348376591
 20
-131.1082735783342
 30
0.0
 10
91.21732433951884
 20
-131.1082735783342
 30
0.0
 10
91.21732433951884
 20
-131.1082735783342
 30
0.0
 10
91.21732433951884
 20
-131.1082735783342
 30
0.0
 10
90.85544719950825
 20
-131.4083463560369
 30
0.0
 10
90.85544719950825
 20
-131.4083463560369
 30
0.0
 10
90.85544719950825
 20
-131.4083463560369
 30
0.0
 10
90.43683880387513
 20
-131.1082735783342
 30
0.0
 10
90.43683880387513
 20
-131.1082735783342
 30
0.0
 10
90.43683880387513
 20
-131.1082735783342
 30
0.0
 10
88.35499135698748
 20
-131.1082735783342
 30
0.0
 10
88.35499135698748
 20
-131.1082735783342
 30
0.0
 10
88.17652108376286
 20
-130.7989227450778
 30
0.0
 10
87.84649748107135
 20
-130.6087402451254
 30
0.0
 10
87.48888886701667
 20
-130.6087402451254
 30
0.0
 10
87.48888886701667
 20
-130.6087402451254
 30
0.0
 10
81.35453986891721
 20
-130.6087402451254
 30
0.0
 10
81.35453986891721
 20
-130.6087402451254
 30
0.0
 10
81.35453986891721
 20
-130.6087402451254
 30
0.0
 10
81.35453986891721
 20
-127.6082241347647
 30
0.0
 10
81.35453986891721
 20
-127.6082241347647
 30
0.0
 10
81.35453986891721
 20
-127.6082241347647
 30
0.0
 10
88.35499135698748
 20
-127.6082241347647
 30
0.0
 10
88.35499135698748
 20
-127.6082241347647
 30
0.0
 10
88.35499135698748
 20
-127.6082241347647
 30
0.0
 10
88.35499135698748
 20
-127.0080785793591
 30
0.0
 10
88.35499135698748
 20
-127.0080785793591
 30
0.0
 10
88.35499135698748
 20
-127.0080785793591
 30
0.0
 10
86.34511057493049
 20
-126.8068894127426
 30
0.0
 10
86.34511057493049
 20
-126.8068894127426
 30
0.0
 10
85.01873886763407
 20
-126.674597746109
 30
0.0
 10
83.68756508717456
 20
-126.6084519127922
 30
0.0
 10
82.35501762117069
 20
-126.6084519127922
 30
0.0
 10
82.35501762117069
 20
-126.6084519127922
 30
0.0
 10
80.3547676722013
 20
-126.6084519127922
 30
0.0
 10
80.3547676722013
 20
-126.6084519127922
 30
0.0
 10
80.3547676722013
 20
-126.6084519127922
 30
0.0
 10
80.3547676722013
 20
-130.8085535784087
 30
0.0
 10
80.3547676722013
 20
-130.8085535784087
 30
0.0
 10
80.3547676722013
 20
-131.2502313560762
 30
0.0
 10
80.71308609093272
 20
-131.6085124670979
 30
0.0
 10
81.15472654068155
 20
-131.6085124670979
 30
0.0
 10
81.15472654068155
 20
-131.6085124670979
 30
0.0
 10
98.3547241574286
 20
-131.6085124670979
 30
0.0
 10
98.3547241574286
 20
-131.6085124670979
 30
0.0
 10
98.3547241574286
 20
-131.3322169116115
 30
0.0
 10
98.13078330880037
 20
-131.1082735783342
 30
0.0
 10
97.85519083683943
 20
-131.1082735783342
 30
0.0
  0
HATCH
  5
6D
330
1F
100
AcDbEntity
  8
_U+30EC_U+30A4_U+30E4_U+30FC 1
 62
   253
420
 11711154
100
AcDbHatch
 10
0.0
 20
0.0
 30
0.0
210
0.0
220
0.0
230
1.0
  2
SOLID
 70
     1
 71
     0
 91
        1
 92
        1
 93
        1
 72
     4
 94
        3
 73
     0
 74
     1
 95
       62
 96
       58
 40
0.0
 40
0.0
 40
0.0
 40
0.0
 40
1.0
 40
1.0
 40
1.0
 40
2.0
 40
2.0
 40
2.0
 40
3.0
 40
3.0
 40
3.0
 40
4.0
 40
4.0
 40
4.0
 40
5.0
 40
5.0
 40
5.0
 40
6.0
 40
6.0
 40
6.0
 40
7.0
 40
7.0
 40
7.0
 40
8.0
 40
8.0
 40
8.0
 40
9.0
 40
9.0
 40
9.0
 40
10.0
 40
10.0
 40
10.0
 40
11.0
 40
11.0
 40
11.0
 40
12.0
 40
12.0
 40
12.0
 40
13.0
 40
13.0
 40
13.0
 40
14.0
 40
14.0
 40
14.0
 40
15.0
 40
15.0
 40
15.0
 40
16.0
 40
16.0
 40
16.0
 40
17.0
 40
17.0
 40
17.0
 40
18.0
 40
18.0
 40
18.0
 40
19.0
 40
19.0
 40
19.0
 40
19.0
 10
97.85519083683943
 20
-131.1082735783342
 10
97.85519083683943
 20
-131.1082735783342
 10
94.26885203944566
 20
-131.1082735783342
 10
94.26885203944566
 20
-131.1082735783342
 10
94.26885203944566
 20
-131.1082735783342
 10
93.85543177221511
 20
-131.4083463560369
 10
93.85543177221511
 20
-131.4083463560369
 10
93.85543177221511
 20
-131.4083463560369
 10
93.4678348376591
 20
-131.1082735783342
 10
93.4678348376591
 20
-131.1082735783342
 10
93.4678348376591
 20
-131.1082735783342
 10
91.21732433951884
 20
-131.1082735783342
 10
91.21732433951884
 20
-131.1082735783342
 10
91.21732433951884
 20
-131.1082735783342
 10
90.85544719950825
 20
-131.4083463560369
 10
90.85544719950825
 20
-131.4083463560369
 10
90.85544719950825
 20
-131.4083463560369
 10
90.43683880387513
 20
-131.1082735783342
 10
90.43683880387513
 20
-131.1082735783342
 10
90.43683880387513
 20
-131.1082735783342
 10
88.35499135698748
 20
-131.1082735783342
 10
88.35499135698748
 20
-131.1082735783342
 10
88.17652108376286
 20
-130.7989227450778
 10
87.84649748107135
 20
-130.6087402451254
 10
87.48888886701667
 20
-130.6087402451254
 10
87.48888886701667
 20
-130.6087402451254
 10
81.35453986891721
 20
-130.6087402451254
 10
81.35453986891721
 20
-130.6087402451254
 10
81.35453986891721
 20
-130.6087402451254
 10
81.35453986891721
 20
-127.6082241347647
 10
81.35453986891721
 20
-127.6082241347647
 10
81.35453986891721
 20
-127.6082241347647
 10
88.35499135698748
 20
-127.6082241347647
 10
88.35499135698748
 20
-127.6082241347647
 10
88.35499135698748
 20
-127.6082241347647
 10
88.35499135698748
 20
-127.0080785793591
 10
88.35499135698748
 20
-127.0080785793591
 10
88.35499135698748
 20
-127.0080785793591
 10
86.34511057493049
 20
-126.8068894127426
 10
86.34511057493049
 20
-126.8068894127426
 10
85.01873886763407
 20
-126.674597746109
 10
83.68756508717456
 20
-126.6084519127922
 10
82.35501762117069
 20
-126.6084519127922
 10
82.35501762117069
 20
-126.6084519127922
 10
80.3547676722013
 20
-126.6084519127922
 10
80.3547676722013
 20
-126.6084519127922
 10
80.3547676722013
 20
-126.6084519127922
 10
80.3547676722013
 20
-130.8085535784087
 10
80.3547676722013
 20
-130.8085535784087
 10
80.3547676722013
 20
-131.2502313560762
 10
80.71308609093272
 20
-131.6085124670979
 10
81.15472654068155
 20
-131.6085124670979
 10
81.15472654068155
 20
-131.6085124670979
 10
98.3547241574286
 20
-131.6085124670979
 10
98.3547241574286
 20
-131.6085124670979
 10
98.3547241574286
 20
-131.3322169116115
 10
98.13078330880037
 20
-131.1082735783342
 10
97.85519083683943
 20
-131.1082735783342
 97
        0
 97
        0
 75
     2
 76
     1
 98
        0
  0
POLYLINE
  5
6E
330
1F
100
AcDbEntity
  8
_U+30EC_U+30A4_U+30E4_U+30FC 1
 62
     7
420
 16777215
370
    25
100
AcDb2dPolyline
 66
     1
 10
0.0
 20
0.0
 30
0.0
  0
VERTEX
  5
6F
330
6E
100
AcDbEntity
  8
_U+30EC_U+30A4_U+30E4_U+30FC 1
 62
     7
420
 16777215
370
    25
100
AcDbVertex
100
AcDb2dVertex
 10
81.35453986891721
 20
-127.6082241347647
 30
0.0
  0
VERTEX
  5
70
330
6E
100
AcDbEntity
  8
_U+30EC_U+30A4_U+30E4_U+30FC 1
 62
     7
420
 16777215
370
    25
100
AcDbVertex
100
AcDb2dVertex
 10
88.35499135698748
 20
-127.6082241347647
 30
0.0
  0
SEQEND
  5
71
330
6E
100
AcDbEntity
  8
_U+30EC_U+30A4_U+30E4_U+30FC 1
 62
     7
420
 16777215
370
    25
  0
POLYLINE
  5
72
330
1F
100
AcDbEntity
  8
_U+30EC_U+30A4_U+30E4_U+30FC 1
 62
     7
420
 16777215
370
    25
100
AcDb2dPolyline
 66
     1
 10
0.0
 20
0.0
 30
0.0
  0
VERTEX
  5
73
330
72
100
AcDbEntity
  8
_U+30EC_U+30A4_U+30E4_U+30FC 1
 62
     7
420
 16777215
370
    25
100
AcDbVertex
100
AcDb2dVertex
 10
80.3547676722013
 20
-126.6084519127922
 30
0.0
  0
VERTEX
  5
74
330
72
100
AcDbEntity
  8
_U+30EC_U+30A4_U+30E4_U+30FC 1
 62
     7
420
 16777215
370
    25
100
AcDbVertex
100
AcDb2dVertex
 10
82.35501762117069
 20
-126.6084519127922
 30
0.0
  0
SEQEND
  5
75
330
72
100
AcDbEntity
  8
_U+30EC_U+30A4_U+30E4_U+30FC 1
 62
     7
420
 16777215
370
    25
  0
POLYLINE
  5
76
330
1F
100
AcDbEntity
  8
_U+30EC_U+30A4_U+30E4_U+30FC 1
 62
     7
420
 16777215
370
    25
100
AcDb2dPolyline
 66
     1
 10
0.0
 20
0.0
 30
0.0
  0
VERTEX
  5
77
330
76
100
AcDbEntity
  8
_U+30EC_U+30A4_U+30E4_U+30FC 1
 62
     7
420
 16777215
370
    25
100
AcDbVertex
100
AcDb2dVertex
 10
81.35453986891721
 20
-130.6087402451254
 30
0.0
  0
VERTEX
  5
78
330
76
100
AcDbEntity
  8
_U+30EC_U+30A4_U+30E4_U+30FC 1
 62
     7
420
 16777215
370
    25
100
AcDbVertex
100
AcDb2dVertex
 10
87.48888886701667
 20
-130.6087402451254
 30
0.0
  0
SEQEND
  5
79
330
76
100
AcDbEntity
  8
_U+30EC_U+30A4_U+30E4_U+30FC 1
 62
     7
420
 16777215
370
    25
  0
POLYLINE
  5
7A
330
1F
100
AcDbEntity
  8
_U+30EC_U+30A4_U+30E4_U+30FC 1
 62
     7
420
 16777215
370
    25
100
AcDb2dPolyline
 66
     1
 10
0.0
 20
0.0
 30
0.0
  0
VERTEX
  5
7B
330
7A
100
AcDbEntity
  8
_U+30EC_U+30A4_U+30E4_U+30FC 1
 62
     7
420
 16777215
370
    25
100
AcDbVertex
100
AcDb2dVertex
 10
81.15472654068155
 20
-131.6085124670979
 30
0.0
  0
VERTEX
  5
7C
330
7A
100
AcDbEntity
  8
_U+30EC_U+30A4_U+30E4_U+30FC 1
 62
     7
420
 16777215
370
    25
100
AcDbVertex
100
AcDb2dVertex
 10
98.3547241574286
 20
-131.6085124670979
 30
0.0
  0
SEQEND
  5
7D
330
7A
100
AcDbEntity
  8
_U+30EC_U+30A4_U+30E4_U+30FC 1
 62
     7
420
 16777215
370
    25
  0
POLYLINE
  5
7E
330
1F
100
AcDbEntity
  8
_U+30EC_U+30A4_U+30E4_U+30FC 1
 62
     7
420
 16777215
370
    25
100
AcDb2dPolyline
 66
     1
 10
0.0
 20
0.0
 30
0.0
  0
VERTEX
  5
7F
330
7E
100
AcDbEntity
  8
_U+30EC_U+30A4_U+30E4_U+30FC 1
 62
     7
420
 16777215
370
    25
100
AcDbVertex
100
AcDb2dVertex
 10
88.35499135698748
 20
-127.0080785793591
 30
0.0
  0
VERTEX
  5
80
330
7E
100
AcDbEntity
  8
_U+30EC_U+30A4_U+30E4_U+30FC 1
 62
     7
420
 16777215
370
    25
100
AcDbVertex
100
AcDb2dVertex
 10
88.35499135698748
 20
-127.6082241347647
 30
0.0
  0
SEQEND
  5
81
330
7E
100
AcDbEntity
  8
_U+30EC_U+30A4_U+30E4_U+30FC 1
 62
     7
420
 16777215
370
    25
  0
POLYLINE
  5
82
330
1F
100
AcDbEntity
  8
_U+30EC_U+30A4_U+30E4_U+30FC 1
 62
     7
420
 16777215
370
    25
100
AcDb2dPolyline
 66
     1
 10
0.0
 20
0.0
 30
0.0
  0
VERTEX
  5
83
330
82
100
AcDbEntity
  8
_U+30EC_U+30A4_U+30E4_U+30FC 1
 62
     7
420
 16777215
370
    25
100
AcDbVertex
100
AcDb2dVertex
 10
80.3547676722013
 20
-126.6084519127922
 30
0.0
  0
VERTEX
  5
84
330
82
100
AcDbEntity
  8
_U+30EC_U+30A4_U+30E4_U+30FC 1
 62
     7
420
 16777215
370
    25
100
AcDbVertex
100
AcDb2dVertex
 10
80.3547676722013
 20
-130.8085535784087
 30
0.0
  0
SEQEND
  5
85
330
82
100
AcDbEntity
  8
_U+30EC_U+30A4_U+30E4_U+30FC 1
 62
     7
420
 16777215
370
    25
  0
POLYLINE
  5
86
330
1F
100
AcDbEntity
  8
_U+30EC_U+30A4_U+30E4_U+30FC 1
 62
     7
420
 16777215
370
    25
100
AcDb2dPolyline
 66
     1
 10
0.0
 20
0.0
 30
0.0
  0
VERTEX
  5
87
330
86
100
AcDbEntity
  8
_U+30EC_U+30A4_U+30E4_U+30FC 1
 62
     7
420
 16777215
370
    25
100
AcDbVertex
100
AcDb2dVertex
 10
81.35453986891721
 20
-127.6082241347647
 30
0.0
  0
VERTEX
  5
88
330
86
100
AcDbEntity
  8
_U+30EC_U+30A4_U+30E4_U+30FC 1
 62
     7
420
 16777215
370
    25
100
AcDbVertex
100
AcDb2dVertex
 10
81.35453986891721
 20
-130.6087402451254
 30
0.0
  0
SEQEND
  5
89
330
86
100
AcDbEntity
  8
_U+30EC_U+30A4_U+30E4_U+30FC 1
 62
     7
420
 16777215
370
    25
  0
POLYLINE
  5
8A
330
1F
100
AcDbEntity
  8
_U+30EC_U+30A4_U+30E4_U+30FC 1
 62
     7
420
 16777215
370
    25
100
AcDb2dPolyline
 66
     1
 10
0.0
 20
0.0
 30
0.0
  0
VERTEX
  5
8B
330
8A
100
AcDbEntity
  8
_U+30EC_U+30A4_U+30E4_U+30FC 1
 62
     7
420
 16777215
370
    25
100
AcDbVertex
100
AcDb2dVertex
 10
86.34511057493049
 20
-126.8068894127426
 30
0.0
  0
VERTEX
  5
8C
330
8A
100
AcDbEntity
  8
_U+30EC_U+30A4_U+30E4_U+30FC 1
 62
     7
420
 16777215
370
    25
100
AcDbVertex
100
AcDb2dVertex
 10
88.35499135698748
 20
-127.0080785793591
 30
0.0
  0
SEQEND
  5
8D
330
8A
100
AcDbEntity
  8
_U+30EC_U+30A4_U+30E4_U+30FC 1
 62
     7
420
 16777215
370
    25
  0
POLYLINE
  5
8E
330
1F
100
AcDbEntity
  8
_U+30EC_U+30A4_U+30E4_U+30FC 1
 62
     7
420
 16777215
370
    25
100
AcDb2dPolyline
 66
     1
 10
0.0
 20
0.0
 30
0.0
  0
VERTEX
  5
8F
330
8E
100
AcDbEntity
  8
_U+30EC_U+30A4_U+30E4_U+30FC 1
 62
     7
420
 16777215
370
    25
100
AcDbVertex
100
AcDb2dVertex
 10
88.35499135698748
 20
-131.1082735783342
 30
0.0
  0
VERTEX
  5
90
330
8E
100
AcDbEntity
  8
_U+30EC_U+30A4_U+30E4_U+30FC 1
 62
     7
420
 16777215
370
    25
100
AcDbVertex
100
AcDb2dVertex
 10
90.45475991452903
 20
-131.1082735783342
 30
0.0
  0
VERTEX
  5
91
330
8E
100
AcDbEntity
  8
_U+30EC_U+30A4_U+30E4_U+30FC 1
 62
     7
420
 16777215
370
    25
100
AcDbVertex
100
AcDb2dVertex
 10
90.85544719950825
 20
-131.2832866338461
 30
0.0
  0
VERTEX
  5
92
330
8E
100
AcDbEntity
  8
_U+30EC_U+30A4_U+30E4_U+30FC 1
 62
     7
420
 16777215
370
    25
100
AcDbVertex
100
AcDb2dVertex
 10
91.25471878300928
 20
-131.1082735783342
 30
0.0
  0
VERTEX
  5
93
330
8E
100
AcDbEntity
  8
_U+30EC_U+30A4_U+30E4_U+30FC 1
 62
     7
420
 16777215
370
    25
100
AcDbVertex
100
AcDb2dVertex
 10
93.45337094913921
 20
-131.1082735783342
 30
0.0
  0
VERTEX
  5
94
330
8E
100
AcDbEntity
  8
_U+30EC_U+30A4_U+30E4_U+30FC 1
 62
     7
420
 16777215
370
    25
100
AcDbVertex
100
AcDb2dVertex
 10
93.85543177221511
 20
-131.2832866338461
 30
0.0
  0
VERTEX
  5
95
330
8E
100
AcDbEntity
  8
_U+30EC_U+30A4_U+30E4_U+30FC 1
 62
     7
420
 16777215
370
    25
100
AcDbVertex
100
AcDb2dVertex
 10
94.25332981761944
 20
-131.1082735783342
 30
0.0
  0
VERTEX
  5
96
330
8E
100
AcDbEntity
  8
_U+30EC_U+30A4_U+30E4_U+30FC 1
 62
     7
420
 16777215
370
    25
100
AcDbVertex
100
AcDb2dVertex
 10
97.85519083683943
 20
-131.1082735783342
 30
0.0
  0
SEQEND
  5
97
330
8E
100
AcDbEntity
  8
_U+30EC_U+30A4_U+30E4_U+30FC 1
 62
     7
420
 16777215
370
    25
  0
SPLINE
  5
98
330
1F
100
AcDbEntity
  8
_U+30EC_U+30A4_U+30E4_U+30FC 1
 62
     7
420
 16777215
370
    25
100
AcDbSpline
210
0.0
220
0.0
230
1.0
 70
     8
 71
     3
 72
     8
 73
     4
 74
     0
 42
0.0000000001
 43
0.0000000001
 12
1.0
 22
0.0
 32
0.0
 13
1.0
 23
0.0
 33
0.0
 40
0.0
 40
0.0
 40
0.0
 40
0.0
 40
1.0
 40
1.0
 40
1.0
 40
1.0
 10
80.3547676722013
 20
-130.8085535784087
 30
0.0
 10
80.3547676722013
 20
-131.2502313560762
 30
0.0
 10
80.71308609093272
 20
-131.6085124670979
 30
0.0
 10
81.15472654068155
 20
-131.6085124670979
 30
0.0
  0
SPLINE
  5
99
330
1F
100
AcDbEntity
  8
_U+30EC_U+30A4_U+30E4_U+30FC 1
 62
     7
420
 16777215
370
    25
100
AcDbSpline
210
0.0
220
0.0
230
1.0
 70
     8
 71
     3
 72
     8
 73
     4
 74
     0
 42
0.0000000001
 43
0.0000000001
 12
1.0
 22
0.0
 32
0.0
 13
1.0
 23
0.0
 33
0.0
 40
0.0
 40
0.0
 40
0.0
 40
0.0
 40
1.0
 40
1.0
 40
1.0
 40
1.0
 10
98.3547241574286
 20
-131.6085124670979
 30
0.0
 10
98.3547241574286
 20
-131.3322169116115
 30
0.0
 10
98.13078330880037
 20
-131.1082735783342
 30
0.0
 10
97.85519083683943
 20
-131.1082735783342
 30
0.0
  0
SPLINE
  5
9A
330
1F
100
AcDbEntity
  8
_U+30EC_U+30A4_U+30E4_U+30FC 1
 62
     7
420
 16777215
370
    25
100
AcDbSpline
210
0.0
220
0.0
230
1.0
 70
     8
 71
     3
 72
     8
 73
     4
 74
     0
 42
0.0000000001
 43
0.0000000001
 12
1.0
 22
0.0
 32
0.0
 13
1.0
 23
0.0
 33
0.0
 40
0.0
 40
0.0
 40
0.0
 40
0.0
 40
1.0
 40
1.0
 40
1.0
 40
1.0
 10
88.35499135698748
 20
-131.1082735783342
 30
0.0
 10
88.17652108376286
 20
-130.7989227450778
 30
0.0
 10
87.84649748107135
 20
-130.6087402451254
 30
0.0
 10
87.48888886701667
 20
-130.6087402451254
 30
0.0
  0
SPLINE
  5
9B
330
1F
100
AcDbEntity
  8
_U+30EC_U+30A4_U+30E4_U+30FC 1
 62
     7
420
 16777215
370
    25
100
AcDbSpline
210
0.0
220
0.0
230
1.0
 70
     8
 71
     3
 72
     8
 73
     4
 74
     0
 42
0.0000000001
 43
0.0000000001
 12
1.0
 22
0.0
 32
0.0
 13
1.0
 23
0.0
 33
0.0
 40
0.0
 40
0.0
 40
0.0
 40
0.0
 40
1.0
 40
1.0
 40
1.0
 40
1.0
 10
86.34511057493049
 20
-126.8068894127426
 30
0.0
 10
85.01873886763407
 20
-126.674597746109
 30
0.0
 10
83.68756508717456
 20
-126.6084519127922
 30
0.0
 10
82.35501762117069
 20
-126.6084519127922
 30
0.0
  0
SPLINE
  5
9C
330
1F
100
AcDbEntity
  8
_U+30EC_U+30A4_U+30E4_U+30FC 1
 62
     7
420
 16777215
370
     9
100
AcDbSpline
210
0.0
220
0.0
230
1.0
 70
    11
 71
     3
 72
    17
 73
    13
 74
     0
 42
0.0000000001
 43
0.0000000001
 12
1.0
 22
0.0
 32
0.0
 13
1.0
 23
0.0
 33
0.0
 40
0.0
 40
0.0
 40
0.0
 40
0.0
 40
1.0
 40
1.0
 40
1.0
 40
2.0
 40
2.0
 40
2.0
 40
3.0
 40
3.0
 40
3.0
 40
4.0
 40
4.0
 40
4.0
 40
4.0
 10
80.45467433631914
 20
-123.3135780247271
 30
0.0
 10
80.45467433631914
 20
-123.2584388580744
 30
0.0
 10
80.40990683746126
 20
-123.2136713580855
 30
0.0
 10
80.3547676722013
 20
-123.2136713580855
 30
0.0
 10
80.29966378471823
 20
-123.2136713580855
 30
0.0
 10
80.25486100808348
 20
-123.2584388580744
 30
0.0
 10
80.25486100808348
 20
-123.3135780247271
 30
0.0
 10
80.25486100808348
 20
-123.3686819136024
 30
0.0
 10
80.29966378471823
 20
-123.4134846913688
 30
0.0
 10
80.3547676722013
 20
-123.4134846913688
 30
0.0
 10
80.40990683746126
 20
-123.4134846913688
 30
0.0
 10
80.45467433631914
 20
-123.3686819136024
 30
0.0
 10
80.45467433631914
 20
-123.3135780247271
 30
0.0
  0
SPLINE
  5
9D
330
1F
100
AcDbEntity
  8
_U+30EC_U+30A4_U+30E4_U+30FC 1
 62
     7
420
 16777215
370
     9
100
AcDbSpline
210
0.0
220
0.0
230
1.0
 70
    11
 71
     3
 72
    17
 73
    13
 74
     0
 42
0.0000000001
 43
0.0000000001
 12
1.0
 22
0.0
 32
0.0
 13
1.0
 23
0.0
 33
0.0
 40
0.0
 40
0.0
 40
0.0
 40
0.0
 40
1.0
 40
1.0
 40
1.0
 40
2.0
 40
2.0
 40
2.0
 40
3.0
 40
3.0
 40
3.0
 40
4.0
 40
4.0
 40
4.0
 40
4.0
 10
88.45489802110532
 20
-123.3135780247271
 30
0.0
 10
88.45489802110532
 20
-123.2584388580744
 30
0.0
 10
88.41009524447055
 20
-123.2136713580855
 30
0.0
 10
88.35499135698748
 20
-123.2136713580855
 30
0.0
 10
88.29985219172754
 20
-123.2136713580855
 30
0.0
 10
88.25508469286966
 20
-123.2584388580744
 30
0.0
 10
88.25508469286966
 20
-123.3135780247271
 30
0.0
 10
88.25508469286966
 20
-123.3686819136024
 30
0.0
 10
88.29985219172754
 20
-123.4134846913688
 30
0.0
 10
88.35499135698748
 20
-123.4134846913688
 30
0.0
 10
88.41009524447055
 20
-123.4134846913688
 30
0.0
 10
88.45489802110532
 20
-123.3686819136024
 30
0.0
 10
88.45489802110532
 20
-123.3135780247271
 30
0.0
  0
SPLINE
  5
9E
330
1F
100
AcDbEntity
  8
_U+30EC_U+30A4_U+30E4_U+30FC 1
 62
     7
420
 16777215
370
     9
100
AcDbSpline
210
0.0
220
0.0
230
1.0
 70
    11
 71
     3
 72
    17
 73
    13
 74
     0
 42
0.0000000001
 43
0.0000000001
 12
1.0
 22
0.0
 32
0.0
 13
1.0
 23
0.0
 33
0.0
 40
0.0
 40
0.0
 40
0.0
 40
0.0
 40
1.0
 40
1.0
 40
1.0
 40
2.0
 40
2.0
 40
2.0
 40
3.0
 40
3.0
 40
3.0
 40
4.0
 40
4.0
 40
4.0
 40
4.0
 10
80.45467433631914
 20
-135.6082716327648
 30
0.0
 10
80.45467433631914
 20
-135.5531324661117
 30
0.0
 10
80.40990683746126
 20
-135.5083649661232
 30
0.0
 10
80.3547676722013
 20
-135.5083649661232
 30
0.0
 10
80.29966378471823
 20
-135.5083649661232
 30
0.0
 10
80.25486100808348
 20
-135.5531324661117
 30
0.0
 10
80.25486100808348
 20
-135.6082716327648
 30
0.0
 10
80.25486100808348
 20
-135.6633755216398
 30
0.0
 10
80.29966378471823
 20
-135.7081782994065
 30
0.0
 10
80.3547676722013
 20
-135.7081782994065
 30
0.0
 10
80.40990683746126
 20
-135.7081782994065
 30
0.0
 10
80.45467433631914
 20
-135.6633755216398
 30
0.0
 10
80.45467433631914
 20
-135.6082716327648
 30
0.0
  0
SPLINE
  5
9F
330
1F
100
AcDbEntity
  8
_U+30EC_U+30A4_U+30E4_U+30FC 1
 62
     7
420
 16777215
370
     9
100
AcDbSpline
210
0.0
220
0.0
230
1.0
 70
    11
 71
     3
 72
    17
 73
    13
 74
     0
 42
0.0000000001
 43
0.0000000001
 12
1.0
 22
0.0
 32
0.0
 13
1.0
 23
0.0
 33
0.0
 40
0.0
 40
0.0
 40
0.0
 40
0.0
 40
1.0
 40
1.0
 40
1.0
 40
2.0
 40
2.0
 40
2.0
 40
3.0
 40
3.0
 40
3.0
 40
4.0
 40
4.0
 40
4.0
 40
4.0
 10
98.45463330871993
 20
-135.6082716327648
 30
0.0
 10
98.45463330871993
 20
-135.5531324661117
 30
0.0
 10
98.40983053095322
 20
-135.5083649661232
 30
0.0
 10
98.3547241574286
 20
-135.5083649661232
 30
0.0
 10
98.29958499216866
 20
-135.5083649661232
 30
0.0
 10
98.25481749331077
 20
-135.5531324661117
 30
0.0
 10
98.25481749331077
 20
-135.6082716327648
 30
0.0
 10
98.25481749331077
 20
-135.6633755216398
 30
0.0
 10
98.29958499216866
 20
-135.7081782994065
 30
0.0
 10
98.3547241574286
 20
-135.7081782994065
 30
0.0
 10
98.40983053095322
 20
-135.7081782994065
 30
0.0
 10
98.45463330871993
 20
-135.6633755216398
 30
0.0
 10
98.45463330871993
 20
-135.6082716327648
 30
0.0
  0
POLYLINE
  5
A0
330
1F
100
AcDbEntity
  8
_U+30EC_U+30A4_U+30E4_U+30FC 1
 62
     7
420
 16777215
370
     9
100
AcDb2dPolyline
 66
     1
 10
0.0
 20
0.0
 30
0.0
  0
VERTEX
  5
A1
330
A0
100
AcDbEntity
  8
_U+30EC_U+30A4_U+30E4_U+30FC 1
 62
     7
420
 16777215
370
     9
100
AcDbVertex
100
AcDb2dVertex
 10
80.3547676722013
 20
-123.3135780247271
 30
0.0
  0
VERTEX
  5
A2
330
A0
100
AcDbEntity
  8
_U+30EC_U+30A4_U+30E4_U+30FC 1
 62
     7
420
 16777215
370
     9
100
AcDbVertex
100
AcDb2dVertex
 10
88.35499135698748
 20
-123.3135780247271
 30
0.0
  0
SEQEND
  5
A3
330
A0
100
AcDbEntity
  8
_U+30EC_U+30A4_U+30E4_U+30FC 1
 62
     7
420
 16777215
370
     9
  0
POLYLINE
  5
A4
330
1F
100
AcDbEntity
  8
_U+30EC_U+30A4_U+30E4_U+30FC 1
 62
     7
420
 16777215
370
     9
100
AcDb2dPolyline
 66
     1
 10
0.0
 20
0.0
 30
0.0
  0
VERTEX
  5
A5
330
A4
100
AcDbEntity
  8
_U+30EC_U+30A4_U+30E4_U+30FC 1
 62
     7
420
 16777215
370
     9
100
AcDbVertex
100
AcDb2dVertex
 10
80.3547676722013
 20
-124.7736194132512
 30
0.0
  0
VERTEX
  5
A6
330
A4
100
AcDbEntity
  8
_U+30EC_U+30A4_U+30E4_U+30FC 1
 62
     7
420
 16777215
370
     9
100
AcDbVertex
100
AcDb2dVertex
 10
80.3547676722013
 20
-122.3134530249771
 30
0.0
  0
SEQEND
  5
A7
330
A4
100
AcDbEntity
  8
_U+30EC_U+30A4_U+30E4_U+30FC 1
 62
     7
420
 16777215
370
     9
  0
POLYLINE
  5
A8
330
1F
100
AcDbEntity
  8
_U+30EC_U+30A4_U+30E4_U+30FC 1
 62
     7
420
 16777215
370
     9
100
AcDb2dPolyline
 66
     1
 10
0.0
 20
0.0
 30
0.0
  0
VERTEX
  5
A9
330
A8
100
AcDbEntity
  8
_U+30EC_U+30A4_U+30E4_U+30FC 1
 62
     7
420
 16777215
370
     9
100
AcDbVertex
100
AcDb2dVertex
 10
88.35499135698748
 20
-125.1739163575954
 30
0.0
  0
VERTEX
  5
AA
330
A8
100
AcDbEntity
  8
_U+30EC_U+30A4_U+30E4_U+30FC 1
 62
     7
420
 16777215
370
     9
100
AcDbVertex
100
AcDb2dVertex
 10
88.35499135698748
 20
-122.3134530249771
 30
0.0
  0
SEQEND
  5
AB
330
A8
100
AcDbEntity
  8
_U+30EC_U+30A4_U+30E4_U+30FC 1
 62
     7
420
 16777215
370
     9
  0
INSERT
  5
AD
330
1F
100
AcDbEntity
  8
_U+30EC_U+30A4_U+30E4_U+30FC 1
100
AcDbBlockReference
  2
block 4
 10
0.0
 20
0.0
 30
0.0
  0
POLYLINE
  5
B4
330
1F
100
AcDbEntity
  8
_U+30EC_U+30A4_U+30E4_U+30FC 1
 62
     7
420
 16777215
370
     9
100
AcDb2dPolyline
 66
     1
 10
0.0
 20
0.0
 30
0.0
  0
VERTEX
  5
B5
330
B4
100
AcDbEntity
  8
_U+30EC_U+30A4_U+30E4_U+30FC 1
 62
     7
420
 16777215
370
     9
100
AcDbVertex
100
AcDb2dVertex
 10
80.3547676722013
 20
-135.6082716327648
 30
0.0
  0
VERTEX
  5
B6
330
B4
100
AcDbEntity
  8
_U+30EC_U+30A4_U+30E4_U+30FC 1
 62
     7
420
 16777215
370
     9
100
AcDbVertex
100
AcDb2dVertex
 10
98.3547241574286
 20
-135.6082716327648
 30
0.0
  0
SEQEND
  5
B7
330
B4
100
AcDbEntity
  8
_U+30EC_U+30A4_U+30E4_U+30FC 1
 62
     7
420
 16777215
370
     9
  0
POLYLINE
  5
B8
330
1F
100
AcDbEntity
  8
_U+30EC_U+30A4_U+30E4_U+30FC 1
 62
     7
420
 16777215
370
     9
100
AcDb2dPolyline
 66
     1
 10
0.0
 20
0.0
 30
0.0
  0
VERTEX
  5
B9
330
B8
100
AcDbEntity
  8
_U+30EC_U+30A4_U+30E4_U+30FC 1
 62
     7
420
 16777215
370
     9
100
AcDbVertex
100
AcDb2dVertex
 10
80.3547676722013
 20
-133.3482713555519
 30
0.0
  0
VERTEX
  5
BA
330
B8
100
AcDbEntity
  8
_U+30EC_U+30A4_U+30E4_U+30FC 1
 62
     7
420
 16777215
370
     9
100
AcDbVertex
100
AcDb2dVertex
 10
80.3547676722013
 20
-136.6080438547367
 30
0.0
  0
SEQEND
  5
BB
330
B8
100
AcDbEntity
  8
_U+30EC_U+30A4_U+30E4_U+30FC 1
 62
     7
420
 16777215
370
     9
  0
POLYLINE
  5
BC
330
1F
100
AcDbEntity
  8
_U+30EC_U+30A4_U+30E4_U+30FC 1
 62
     7
420
 16777215
370
     9
100
AcDb2dPolyline
 66
     1
 10
0.0
 20
0.0
 30
0.0
  0
VERTEX
  5
BD
330
BC
100
AcDbEntity
  8
_U+30EC_U+30A4_U+30E4_U+30FC 1
 62
     7
420
 16777215
370
     9
100
AcDbVertex
100
AcDb2dVertex
 10
98.3547241574286
 20
-134.1482302442405
 30
0.0
  0
VERTEX
  5
BE
330
BC
100
AcDbEntity
  8
_U+30EC_U+30A4_U+30E4_U+30FC 1
 62
     7
420
 16777215
370
     9
100
AcDbVertex
100
AcDb2dVertex
 10
98.3547241574286
 20
-136.6080438547367
 30
0.0
  0
SEQEND
  5
BF
330
BC
100
AcDbEntity
  8
_U+30EC_U+30A4_U+30E4_U+30FC 1
 62
     7
420
 16777215
370
     9
  0
INSERT
  5
C1
330
1F
100
AcDbEntity
  8
_U+30EC_U+30A4_U+30E4_U+30FC 1
100
AcDbBlockReference
  2
block 5
 10
0.0
 20
0.0
 30
0.0
  0
INSERT
  5
CB
330
1F
100
AcDbEntity
  8
_U+30EC_U+30A4_U+30E4_U+30FC 1
100
AcDbBlockReference
  2
block 6
 10
0.0
 20
0.0
 30
0.0
  0
POLYLINE
  5
D0
330
1F
100
AcDbEntity
  8
_U+30EC_U+30A4_U+30E4_U+30FC 1
 62
   179
420
  2234388
370
     9
100
AcDb2dPolyline
 66
     1
 10
0.0
 20
0.0
 30
0.0
  0
VERTEX
  5
D1
330
D0
100
AcDbEntity
  8
_U+30EC_U+30A4_U+30E4_U+30FC 1
 62
   179
420
  2234388
370
     9
100
AcDbVertex
100
AcDb2dVertex
 10
82.19704373631204
 20
-129.3502408009956
 30
0.0
  0
VERTEX
  5
D2
330
D0
100
AcDbEntity
  8
_U+30EC_U+30A4_U+30E4_U+30FC 1
 62
   179
420
  2234388
370
     9
100
AcDbVertex
100
AcDb2dVertex
 10
78.35801022314284
 20
-129.3502408009956
 30
0.0
  0
SEQEND
  5
D3
330
D0
100
AcDbEntity
  8
_U+30EC_U+30A4_U+30E4_U+30FC 1
 62
   179
420
  2234388
370
     9
  0
ENDSEC
  0
SECTION
  2
OBJECTS
  0
DICTIONARY
  5
C
330
0
100
AcDbDictionary
281
     1
  3
ACAD_GROUP
350
D
  3
ACAD_LAYOUT
350
1A
  3
ACAD_MATERIAL
350
3B
  3
ACAD_MLEADERSTYLE
350
D5
  3
ACAD_MLINESTYLE
350
17
  3
ACAD_PLOTSETTINGS
350
19
  3
ACAD_PLOTSTYLENAME
350
E
  3
ACAD_TABLESTYLE
350
D4
  3
ACAD_VISUALSTYLE
350
2A
  0
SUN
  5
3F
330
29
100
AcDbSun
 90
        1
290
     0
 63
     7
421
 16777215
 40
1.0
291
     1
 91
  2455826
 92
 54000000
292
     0
 70
     2
 71
   256
280
     1
  0
DICTIONARY
  5
D
102
{ACAD_REACTORS
330
C
102
}
330
C
100
AcDbDictionary
281
     1
  0
DICTIONARY
  5
1A
102
{ACAD_REACTORS
330
C
102
}
330
C
100
AcDbDictionary
281
     1
  3
Layout1
350
1E
  3
Layout2
350
26
  3
Model
350
22
  0
DICTIONARY
  5
3B
102
{ACAD_REACTORS
330
C
102
}
330
C
100
AcDbDictionary
281
     1
  3
ByBlock
350
3D
  3
ByLayer
350
3C
  3
Global
350
3E
  0
DICTIONARY
  5
D5
102
{ACAD_REACTORS
330
C
102
}
330
C
100
AcDbDictionary
281
     1
  0
DICTIONARY
  5
17
102
{ACAD_REACTORS
330
C
102
}
330
C
100
AcDbDictionary
281
     1
  3
Standard
350
18
  0
DICTIONARY
  5
19
102
{ACAD_REACTORS
330
C
102
}
330
C
100
AcDbDictionary
281
     1
  0
ACDBDICTIONARYWDFLT
  5
E
102
{ACAD_REACTORS
330
C
102
}
330
C
100
AcDbDictionary
281
     1
  3
Normal
350
F
100
AcDbDictionaryWithDefault
340
F
  0
DICTIONARY
  5
D4
102
{ACAD_REACTORS
330
C
102
}
330
C
100
AcDbDictionary
281
     1
  0
DICTIONARY
  5
2A
102
{ACAD_REACTORS
330
C
102
}
330
C
100
AcDbDictionary
281
     1
  3
2dWireframe
350
2F
  3
3D Hidden
350
31
  3
3dWireframe
350
30
  3
Basic
350
32
  3
Brighten
350
36
  3
ColorChange
350
3A
  3
Conceptual
350
34
  3
Dim
350
35
  3
Facepattern
350
39
  3
Flat
350
2B
  3
FlatWithEdges
350
2C
  3
Gouraud
350
2D
  3
GouraudWithEdges
350
2E
  3
Linepattern
350
38
  3
Realistic
350
33
  3
Thicken
350
37
  0
LAYOUT
  5
1E
102
{ACAD_REACTORS
330
1A
102
}
330
1A
100
AcDbPlotSettings
  1

  2
none_device
  4

  6

 40
0.0
 41
0.0
 42
0.0
 43
0.0
 44
0.0
 45
0.0
 46
0.0
 47
0.0
 48
0.0
 49
0.0
140
0.0
141
0.0
142
1.0
143
1.0
 70
   688
 72
     0
 73
     0
 74
     5
  7

 75
    16
 76
     0
 77
     2
 78
   300
147
1.0
148
0.0
149
0.0
100
AcDbLayout
  1
Layout1
 70
     1
 71
     1
 10
0.0
 20
0.0
 11
12.0
 21
9.0
 12
0.0
 22
0.0
 32
0.0
 14
1.000000000000000E+20
 24
1.000000000000000E+20
 34
1.000000000000000E+20
 15
-1.000000000000000E+20
 25
-1.000000000000000E+20
 35
-1.000000000000000E+20
146
0.0
 13
0.0
 23
0.0
 33
0.0
 16
1.0
 26
0.0
 36
0.0
 17
0.0
 27
1.0
 37
0.0
 76
     0
330
1B
  0
LAYOUT
  5
26
102
{ACAD_REACTORS
330
1A
102
}
330
1A
100
AcDbPlotSettings
  1

  2
none_device
  4

  6

 40
0.0
 41
0.0
 42
0.0
 43
0.0
 44
0.0
 45
0.0
 46
0.0
 47
0.0
 48
0.0
 49
0.0
140
0.0
141
0.0
142
1.0
143
1.0
 70
   688
 72
     0
 73
     0
 74
     5
  7

 75
    16
 76
     0
 77
     2
 78
   300
147
1.0
148
0.0
149
0.0
100
AcDbLayout
  1
Layout2
 70
     1
 71
     2
 10
0.0
 20
0.0
 11
0.0
 21
0.0
 12
0.0
 22
0.0
 32
0.0
 14
0.0
 24
0.0
 34
0.0
 15
0.0
 25
0.0
 35
0.0
146
0.0
 13
0.0
 23
0.0
 33
0.0
 16
1.0
 26
0.0
 36
0.0
 17
0.0
 27
1.0
 37
0.0
 76
     0
330
23
  0
LAYOUT
  5
22
102
{ACAD_REACTORS
330
1A
102
}
330
1A
100
AcDbPlotSettings
  1

  2
none_device
  4

  6

 40
0.0
 41
0.0
 42
0.0
 43
0.0
 44
0.0
 45
0.0
 46
0.0
 47
0.0
 48
0.0
 49
0.0
140
0.0
141
0.0
142
1.0
143
1.0
 70
  1712
 72
     0
 73
     0
 74
     0
  7

 75
     0
 76
     0
 77
     2
 78
   300
147
1.0
148
0.0
149
0.0
100
AcDbLayout
  1
Model
 70
     1
 71
     0
 10
0.0
 20
0.0
 11
12.0
 21
9.0
 12
0.0
 22
0.0
 32
0.0
 14
1.000000000000000E+20
 24
1.000000000000000E+20
 34
1.000000000000000E+20
 15
-1.000000000000000E+20
 25
-1.000000000000000E+20
 35
-1.000000000000000E+20
146
0.0
 13
0.0
 23
0.0
 33
0.0
 16
1.0
 26
0.0
 36
0.0
 17
0.0
 27
1.0
 37
0.0
 76
     0
330
1F
331
29
  0
MATERIAL
  5
3D
102
{ACAD_REACTORS
330
3B
102
}
330
3B
100
AcDbMaterial
  1
ByBlock
 72
     1
 94
      127
  0
MATERIAL
  5
3C
102
{ACAD_REACTORS
330
3B
102
}
330
3B
100
AcDbMaterial
  1
ByLayer
 72
     1
 94
      127
  0
MATERIAL
  5
3E
102
{ACAD_REACTORS
330
3B
102
}
330
3B
100
AcDbMaterial
  1
Global
 72
     1
 94
      127
  0
MLINESTYLE
  5
18
102
{ACAD_REACTORS
330
17
102
}
330
17
100
AcDbMlineStyle
  2
Standard
 70
     0
  3

 62
   256
 51
90.0
 52
90.0
 71
     2
 49
0.5
 62
   256
  6
BYLAYER
 49
-0.5
 62
   256
  6
BYLAYER
  0
ACDBPLACEHOLDER
  5
F
102
{ACAD_REACTORS
330
E
102
}
330
E
  0
VISUALSTYLE
  5
2F
102
{ACAD_REACTORS
330
2A
102
}
330
2A
100
AcDbVisualStyle
  2
2dWireframe
 70
     4
177
     2
291
     0
 71
     0
176
     1
 72
     2
176
     1
 73
     0
176
     1
 90
        0
176
     1
 40
-0.6
176
     1
 41
-30.0
176
     1
 62
     5
 63
     7
421
 16777215
176
     1
 74
     1
176
     1
 91
        4
176
     1
 64
     7
176
     1
 65
   257
176
     1
 75
     1
176
     1
175
     1
176
     1
 42
1.0
176
     1
 92
        0
176
     1
 66
   257
176
     1
 43
1.0
176
     1
 76
     1
176
     1
 77
     6
176
     1
 78
     2
176
     1
 67
     7
176
     1
 79
     5
176
     1
170
     0
176
     1
171
     0
176
     1
290
     0
176
     1
 93
        1
176
     1
 44
0.0
176
     1
173
     0
176
     1
  0
VISUALSTYLE
  5
31
102
{ACAD_REACTORS
330
2A
102
}
330
2A
100
AcDbVisualStyle
  2
3D Hidden
 70
     6
177
     2
291
     0
 71
     1
176
     1
 72
     2
176
     1
 73
     2
176
     1
 90
        0
176
     1
 40
-0.6
176
     1
 41
-30.0
176
     1
 62
     5
 63
     7
421
 16777215
176
     1
 74
     2
176
     1
 91
        2
176
     1
 64
     7
176
     1
 65
   257
176
     1
 75
     2
176
     1
175
     1
176
     1
 42
40.0
176
     1
 92
        0
176
     1
 66
   257
176
     1
 43
1.0
176
     1
 76
     1
176
     1
 77
     6
176
     1
 78
     2
176
     1
 67
     7
176
     1
 79
     3
176
     1
170
     0
176
     1
171
     0
176
     1
290
     0
176
     1
 93
        1
176
     1
 44
0.0
176
     1
173
     0
176
     1
  0
VISUALSTYLE
  5
30
102
{ACAD_REACTORS
330
2A
102
}
330
2A
100
AcDbVisualStyle
  2
3dWireframe
 70
     5
177
     2
291
     0
 71
     0
176
     1
 72
     2
176
     1
 73
     0
176
     1
 90
        0
176
     1
 40
-0.6
176
     1
 41
-30.0
176
     1
 62
     5
 63
     7
421
 16777215
176
     1
 74
     1
176
     1
 91
        4
176
     1
 64
     7
176
     1
 65
   257
176
     1
 75
     1
176
     1
175
     1
176
     1
 42
1.0
176
     1
 92
        0
176
     1
 66
   257
176
     1
 43
1.0
176
     1
 76
     1
176
     1
 77
     6
176
     1
 78
     2
176
     1
 67
     7
176
     1
 79
     5
176
     1
170
     0
176
     1
171
     0
176
     1
290
     0
176
     1
 93
        1
176
     1
 44
0.0
176
     1
173
     0
176
     1
  0
VISUALSTYLE
  5
32
102
{ACAD_REACTORS
330
2A
102
}
330
2A
100
AcDbVisualStyle
  2
Basic
 70
     7
177
     2
291
     1
 71
     1
176
     1
 72
     0
176
     1
 73
     1
176
     1
 90
        0
176
     1
 40
-0.6
176
     1
 41
-30.0
176
     1
 62
     5
 63
     7
421
 16777215
176
     1
 74
     0
176
     1
 91
        4
176
     1
 64
     7
176
     1
 65
   257
176
     1
 75
     1
176
     1
175
     1
176
     1
 42
1.0
176
     1
 92
        8
176
     1
 66
     7
176
     1
 43
1.0
176
     1
 76
     1
176
     1
 77
     6
176
     1
 78
     2
176
     1
 67
     7
176
     1
 79
     5
176
     1
170
     0
176
     1
171
     0
176
     1
290
     0
176
     1
 93
        1
176
     1
 44
0.0
176
     1
173
     0
176
     1
  0
VISUALSTYLE
  5
36
102
{ACAD_REACTORS
330
2A
102
}
330
2A
100
AcDbVisualStyle
  2
Brighten
 70
    12
177
     2
291
     1
 71
     2
176
     1
 72
     2
176
     1
 73
     0
176
     1
 90
        0
176
     1
 40
-0.6
176
     1
 41
-30.0
176
     1
 62
     5
 63
     7
421
 16777215
176
     1
 74
     1
176
     1
 91
        4
176
     1
 64
     7
176
     1
 65
   257
176
     1
 75
     1
176
     1
175
     1
176
     1
 42
1.0
176
     1
 92
        8
176
     1
 66
     7
176
     1
 43
1.0
176
     1
 76
     1
176
     1
 77
     6
176
     1
 78
     2
176
     1
 67
     7
176
     1
 79
     5
176
     1
170
     0
176
     1
171
     0
176
     1
290
     0
176
     1
 93
        1
176
     1
 44
50.0
176
     1
173
     0
176
     1
  0
VISUALSTYLE
  5
3A
102
{ACAD_REACTORS
330
2A
102
}
330
2A
100
AcDbVisualStyle
  2
ColorChange
 70
    16
177
     2
291
     1
 71
     2
176
     1
 72
     2
176
     1
 73
     3
176
     1
 90
        0
176
     1
 40
-0.6
176
     1
 41
-30.0
176
     1
 62
     5
 63
     8
421
  8421504
176
     1
 74
     1
176
     1
 91
        4
176
     1
 64
     7
176
     1
 65
   257
176
     1
 75
     1
176
     1
175
     1
176
     1
 42
1.0
176
     1
 92
        8
176
     1
 66
     8
424
  8421504
176
     1
 43
1.0
176
     1
 76
     1
176
     1
 77
     6
176
     1
 78
     2
176
     1
 67
     7
176
     1
 79
     5
176
     1
170
     0
176
     1
171
     0
176
     1
290
     0
176
     1
 93
        1
176
     1
 44
0.0
176
     1
173
     0
176
     1
  0
VISUALSTYLE
  5
34
102
{ACAD_REACTORS
330
2A
102
}
330
2A
100
AcDbVisualStyle
  2
Conceptual
 70
     9
177
     2
291
     0
 71
     3
176
     1
 72
     2
176
     1
 73
     0
176
     1
 90
        0
176
     1
 40
-0.6
176
     1
 41
-30.0
176
     1
 62
     5
 63
     7
421
 16777215
176
     1
 74
     2
176
     1
 91
        2
176
     1
 64
     7
176
     1
 65
   257
176
     1
 75
     1
176
     1
175
     1
176
     1
 42
40.0
176
     1
 92
        8
176
     1
 66
     7
176
     1
 43
1.0
176
     1
 76
     1
176
     1
 77
     6
176
     1
 78
     2
176
     1
 67
     7
176
     1
 79
     3
176
     1
170
     0
176
     1
171
     0
176
     1
290
     0
176
     1
 93
        1
176
     1
 44
0.0
176
     1
173
     0
176
     1
  0
VISUALSTYLE
  5
35
102
{ACAD_REACTORS
330
2A
102
}
330
2A
100
AcDbVisualStyle
  2
Dim
 70
    11
177
     2
291
     1
 71
     2
176
     1
 72
     2
176
     1
 73
     0
176
     1
 90
        0
176
     1
 40
-0.6
176
     1
 41
-30.0
176
     1
 62
     5
 63
     7
421
 16777215
176
     1
 74
     1
176
     1
 91
        4
176
     1
 64
     7
176
     1
 65
   257
176
     1
 75
     1
176
     1
175
     1
176
     1
 42
1.0
176
     1
 92
        8
176
     1
 66
     7
176
     1
 43
1.0
176
     1
 76
     1
176
     1
 77
     6
176
     1
 78
     2
176
     1
 67
     7
176
     1
 79
     5
176
     1
170
     0
176
     1
171
     0
176
     1
290
     0
176
     1
 93
        1
176
     1
 44
-50.0
176
     1
173
     0
176
     1
  0
VISUALSTYLE
  5
39
102
{ACAD_REACTORS
330
2A
102
}
330
2A
100
AcDbVisualStyle
  2
Facepattern
 70
    15
177
     2
291
     1
 71
     2
176
     1
 72
     2
176
     1
 73
     0
176
     1
 90
        0
176
     1
 40
-0.6
176
     1
 41
-30.0
176
     1
 62
     5
 63
     7
421
 16777215
176
     1
 74
     1
176
     1
 91
        4
176
     1
 64
     7
176
     1
 65
   257
176
     1
 75
     1
176
     1
175
     1
176
     1
 42
1.0
176
     1
 92
        8
176
     1
 66
     7
176
     1
 43
1.0
176
     1
 76
     1
176
     1
 77
     6
176
     1
 78
     2
176
     1
 67
     7
176
     1
 79
     5
176
     1
170
     0
176
     1
171
     0
176
     1
290
     0
176
     1
 93
        1
176
     1
 44
0.0
176
     1
173
     0
176
     1
  0
VISUALSTYLE
  5
2B
102
{ACAD_REACTORS
330
2A
102
}
330
2A
100
AcDbVisualStyle
  2
Flat
 70
     0
177
     2
291
     1
 71
     2
176
     1
 72
     1
176
     1
 73
     1
176
     1
 90
        2
176
     1
 40
-0.6
176
     1
 41
30.0
176
     1
 62
     5
 63
     7
421
 16777215
176
     1
 74
     0
176
     1
 91
        4
176
     1
 64
     7
176
     1
 65
   257
176
     1
 75
     1
176
     1
175
     1
176
     1
 42
1.0
176
     1
 92
        8
176
     1
 66
     7
176
     1
 43
1.0
176
     1
 76
     1
176
     1
 77
     6
176
     1
 78
     2
176
     1
 67
     7
176
     1
 79
     5
176
     1
170
     0
176
     1
171
     0
176
     1
290
     0
176
     1
 93
       13
176
     1
 44
0.0
176
     1
173
     0
176
     1
  0
VISUALSTYLE
  5
2C
102
{ACAD_REACTORS
330
2A
102
}
330
2A
100
AcDbVisualStyle
  2
FlatWithEdges
 70
     1
177
     2
291
     1
 71
     2
176
     1
 72
     1
176
     1
 73
     1
176
     1
 90
        2
176
     1
 40
-0.6
176
     1
 41
30.0
176
     1
 62
     5
 63
     7
421
 16777215
176
     1
 74
     1
176
     1
 91
        4
176
     1
 64
     7
176
     1
 65
   257
176
     1
 75
     1
176
     1
175
     1
176
     1
 42
1.0
176
     1
 92
        0
176
     1
 66
   257
176
     1
 43
1.0
176
     1
 76
     1
176
     1
 77
     6
176
     1
 78
     2
176
     1
 67
     7
176
     1
 79
     5
176
     1
170
     0
176
     1
171
     0
176
     1
290
     0
176
     1
 93
       13
176
     1
 44
0.0
176
     1
173
     0
176
     1
  0
VISUALSTYLE
  5
2D
102
{ACAD_REACTORS
330
2A
102
}
330
2A
100
AcDbVisualStyle
  2
Gouraud
 70
     2
177
     2
291
     1
 71
     2
176
     1
 72
     2
176
     1
 73
     1
176
     1
 90
        2
176
     1
 40
-0.6
176
     1
 41
30.0
176
     1
 62
     5
 63
     7
421
 16777215
176
     1
 74
     0
176
     1
 91
        4
176
     1
 64
     7
176
     1
 65
   257
176
     1
 75
     1
176
     1
175
     1
176
     1
 42
1.0
176
     1
 92
        0
176
     1
 66
     7
176
     1
 43
1.0
176
     1
 76
     1
176
     1
 77
     6
176
     1
 78
     2
176
     1
 67
     7
176
     1
 79
     5
176
     1
170
     0
176
     1
171
     0
176
     1
290
     0
176
     1
 93
       13
176
     1
 44
0.0
176
     1
173
     0
176
     1
  0
VISUALSTYLE
  5
2E
102
{ACAD_REACTORS
330
2A
102
}
330
2A
100
AcDbVisualStyle
  2
GouraudWithEdges
 70
     3
177
     2
291
     1
 71
     2
176
     1
 72
     2
176
     1
 73
     1
176
     1
 90
        2
176
     1
 40
-0.6
176
     1
 41
30.0
176
     1
 62
     5
 63
     7
421
 16777215
176
     1
 74
     1
176
     1
 91
        4
176
     1
 64
     7
176
     1
 65
   257
176
     1
 75
     1
176
     1
175
     1
176
     1
 42
1.0
176
     1
 92
        0
176
     1
 66
   257
176
     1
 43
1.0
176
     1
 76
     1
176
     1
 77
     6
176
     1
 78
     2
176
     1
 67
     7
176
     1
 79
     5
176
     1
170
     0
176
     1
171
     0
176
     1
290
     0
176
     1
 93
       13
176
     1
 44
0.0
176
     1
173
     0
176
     1
  0
VISUALSTYLE
  5
38
102
{ACAD_REACTORS
330
2A
102
}
330
2A
100
AcDbVisualStyle
  2
Linepattern
 70
    14
177
     2
291
     1
 71
     2
176
     1
 72
     2
176
     1
 73
     0
176
     1
 90
        0
176
     1
 40
-0.6
176
     1
 41
-30.0
176
     1
 62
     5
 63
     7
421
 16777215
176
     1
 74
     1
176
     1
 91
        4
176
     1
 64
     7
176
     1
 65
   257
176
     1
 75
     7
176
     1
175
     7
176
     1
 42
1.0
176
     1
 92
        8
176
     1
 66
     7
176
     1
 43
1.0
176
     1
 76
     1
176
     1
 77
     6
176
     1
 78
     2
176
     1
 67
     7
176
     1
 79
     5
176
     1
170
     0
176
     1
171
     0
176
     1
290
     0
176
     1
 93
        1
176
     1
 44
0.0
176
     1
173
     0
176
     1
  0
VISUALSTYLE
  5
33
102
{ACAD_REACTORS
330
2A
102
}
330
2A
100
AcDbVisualStyle
  2
Realistic
 70
     8
177
     2
291
     0
 71
     2
176
     1
 72
     2
176
     1
 73
     0
176
     1
 90
        0
176
     1
 40
-0.6
176
     1
 41
-30.0
176
     1
 62
     5
 63
     7
421
 16777215
176
     1
 74
     1
176
     1
 91
        0
176
     1
 64
     7
176
     1
 65
   257
176
     1
 75
     1
176
     1
175
     1
176
     1
 42
1.0
176
     1
 92
        8
176
     1
 66
     8
424
  7895160
176
     1
 43
1.0
176
     1
 76
     1
176
     1
 77
     6
176
     1
 78
     2
176
     1
 67
     7
176
     1
 79
     5
176
     1
170
     0
176
     1
171
     0
176
     1
290
     0
176
     1
 93
       13
176
     1
 44
0.0
176
     1
173
     0
176
     1
  0
VISUALSTYLE
  5
37
102
{ACAD_REACTORS
330
2A
102
}
330
2A
100
AcDbVisualStyle
  2
Thicken
 70
    13
177
     2
291
     1
 71
     2
176
     1
 72
     2
176
     1
 73
     0
176
     1
 90
        0
176
     1
 40
-0.6
176
     1
 41
-30.0
176
     1
 62
     5
 63
     7
421
 16777215
176
     1
 74
     1
176
     1
 91
        4
176
     1
 64
     7
176
     1
 65
   257
176
     1
 75
     1
176
     1
175
     1
176
     1
 42
1.0
176
     1
 92
       12
176
     1
 66
     7
176
     1
 43
1.0
176
     1
 76
     1
176
     1
 77
     6
176
     1
 78
     2
176
     1
 67
     7
176
     1
 79
     5
176
     1
170
     0
176
     1
171
     0
176
     1
290
     0
176
     1
 93
        1
176
     1
 44
0.0
176
     1
173
     0
176
     1
  0
ENDSEC
  0
EOF
