  0
SECTION
  2
HEADER
  9
$ACADVER
  1
AC1024
  9
$ACADMAINTVER
 70
     6
  9
$DWGCODEPAGE
  3
UNDEFINED
  9
$INSBASE
 10
0.0
 20
0.0
 30
0.0
  9
$EXTMIN
 10
1.000000000000000E+20
 20
1.000000000000000E+20
 30
1.000000000000000E+20
  9
$EXTMAX
 10
-1.000000000000000E+20
 20
-1.000000000000000E+20
 30
-1.000000000000000E+20
  9
$LIMMIN
 10
0.0
 20
0.0
  9
$LIMMAX
 10
12.0
 20
9.0
  9
$ORTHOMODE
 70
     0
  9
$REGENMODE
 70
     1
  9
$FILLMODE
 70
     1
  9
$QTEXTMODE
 70
     0
  9
$MIRRTEXT
 70
     1
  9
$LTSCALE
 40
1.0
  9
$ATTMODE
 70
     1
  9
$TEXTSIZE
 40
0.2
  9
$TRACEWID
 40
0.05
  9
$TEXTSTYLE
  7
Standard
  9
$CLAYER
  8
0
  9
$CELTYPE
  6
ByLayer
  9
$CECOLOR
 62
   256
  9
$CELTSCALE
 40
1.0
  9
$DISPSILH
 70
     0
  9
$DIMSCALE
 40
1.0
  9
$DIMASZ
 40
0.18
  9
$DIMEXO
 40
0.0625
  9
$DIMDLI
 40
0.38
  9
$DIMRND
 40
0.0
  9
$DIMDLE
 40
0.0
  9
$DIMEXE
 40
0.18
  9
$DIMTP
 40
0.0
  9
$DIMTM
 40
0.0
  9
$DIMTXT
 40
0.18
  9
$DIMCEN
 40
0.09
  9
$DIMTSZ
 40
0.0
  9
$DIMTOL
 70
     0
  9
$DIMLIM
 70
     0
  9
$DIMTIH
 70
     1
  9
$DIMTOH
 70
     1
  9
$DIMSE1
 70
     0
  9
$DIMSE2
 70
     0
  9
$DIMTAD
 70
     0
  9
$DIMZIN
 70
     0
  9
$DIMBLK
  1

  9
$DIMASO
 70
     1
  9
$DIMSHO
 70
     1
  9
$DIMPOST
  1

  9
$DIMAPOST
  1

  9
$DIMALT
 70
     0
  9
$DIMALTD
 70
     2
  9
$DIMALTF
 40
25.4
  9
$DIMLFAC
 40
1.0
  9
$DIMTOFL
 70
     0
  9
$DIMTVP
 40
0.0
  9
$DIMTIX
 70
     0
  9
$DIMSOXD
 70
     0
  9
$DIMSAH
 70
     0
  9
$DIMBLK1
  1

  9
$DIMBLK2
  1

  9
$DIMSTYLE
  2
Standard
  9
$DIMCLRD
 70
     0
  9
$DIMCLRE
 70
     0
  9
$DIMCLRT
 70
     0
  9
$DIMTFAC
 40
1.0
  9
$DIMGAP
 40
0.09
  9
$DIMJUST
 70
     0
  9
$DIMSD1
 70
     0
  9
$DIMSD2
 70
     0
  9
$DIMTOLJ
 70
     1
  9
$DIMTZIN
 70
     0
  9
$DIMALTZ
 70
     0
  9
$DIMALTTZ
 70
     0
  9
$DIMUPT
 70
     0
  9
$DIMDEC
 70
     4
  9
$DIMTDEC
 70
     4
  9
$DIMALTU
 70
     2
  9
$DIMALTTD
 70
     2
  9
$DIMTXSTY
  7
Standard
  9
$DIMAUNIT
 70
     0
  9
$DIMADEC
 70
     0
  9
$DIMALTRND
 40
0.0
  9
$DIMAZIN
 70
     0
  9
$DIMDSEP
 70
    46
  9
$DIMATFIT
 70
     3
  9
$DIMFRAC
 70
     0
  9
$DIMLDRBLK
  1

  9
$DIMLUNIT
 70
     2
  9
$DIMLWD
 70
    -2
  9
$DIMLWE
 70
    -2
  9
$DIMTMOVE
 70
     0
  9
$DIMFXL
 40
1.0
  9
$DIMFXLON
 70
     0
  9
$DIMJOGANG
 40
0.7853981633974483
  9
$DIMTFILL
 70
     0
  9
$DIMTFILLCLR
 70
     0
  9
$DIMARCSYM
 70
     0
  9
$DIMLTYPE
  6

  9
$DIMLTEX1
  6

  9
$DIMLTEX2
  6

  9
$DIMTXTDIRECTION
 70
     0
  9
$LUNITS
 70
     2
  9
$LUPREC
 70
     4
  9
$SKETCHINC
 40
0.1
  9
$FILLETRAD
 40
0.5
  9
$AUNITS
 70
     0
  9
$AUPREC
 70
     0
  9
$MENU
  1
.
  9
$ELEVATION
 40
0.0
  9
$PELEVATION
 40
0.0
  9
$THICKNESS
 40
0.0
  9
$LIMCHECK
 70
     0
  9
$CHAMFERA
 40
0.5
  9
$CHAMFERB
 40
0.5
  9
$CHAMFERC
 40
1.0
  9
$CHAMFERD
 40
0.0
  9
$SKPOLY
 70
     0
  9
$TDCREATE
 40
2457917.621932859
  9
$TDUCREATE
 40
2457917.24693287
  9
$TDUPDATE
 40
2457917.621932859
  9
$TDUUPDATE
 40
2457917.24693287
  9
$TDINDWG
 40
0.0000000116
  9
$TDUSRTIMER
 40
0.0000000116
  9
$USRTIMER
 70
     1
  9
$ANGBASE
 50
0.0
  9
$ANGDIR
 70
     0
  9
$PDMODE
 70
     0
  9
$PDSIZE
 40
0.0
  9
$PLINEWID
 40
0.0
  9
$SPLFRAME
 70
     0
  9
$SPLINETYPE
 70
     6
  9
$SPLINESEGS
 70
     8
  9
$HANDSEED
  5
BD
  9
$SURFTAB1
 70
     6
  9
$SURFTAB2
 70
     6
  9
$SURFTYPE
 70
     6
  9
$SURFU
 70
     6
  9
$SURFV
 70
     6
  9
$UCSBASE
  2

  9
$UCSNAME
  2

  9
$UCSORG
 10
0.0
 20
0.0
 30
0.0
  9
$UCSXDIR
 10
1.0
 20
0.0
 30
0.0
  9
$UCSYDIR
 10
0.0
 20
1.0
 30
0.0
  9
$UCSORTHOREF
  2

  9
$UCSORTHOVIEW
 70
     0
  9
$UCSORGTOP
 10
0.0
 20
0.0
 30
0.0
  9
$UCSORGBOTTOM
 10
0.0
 20
0.0
 30
0.0
  9
$UCSORGLEFT
 10
0.0
 20
0.0
 30
0.0
  9
$UCSORGRIGHT
 10
0.0
 20
0.0
 30
0.0
  9
$UCSORGFRONT
 10
0.0
 20
0.0
 30
0.0
  9
$UCSORGBACK
 10
0.0
 20
0.0
 30
0.0
  9
$PUCSBASE
  2

  9
$PUCSNAME
  2

  9
$PUCSORG
 10
0.0
 20
0.0
 30
0.0
  9
$PUCSXDIR
 10
1.0
 20
0.0
 30
0.0
  9
$PUCSYDIR
 10
0.0
 20
1.0
 30
0.0
  9
$PUCSORTHOREF
  2

  9
$PUCSORTHOVIEW
 70
     0
  9
$PUCSORGTOP
 10
0.0
 20
0.0
 30
0.0
  9
$PUCSORGBOTTOM
 10
0.0
 20
0.0
 30
0.0
  9
$PUCSORGLEFT
 10
0.0
 20
0.0
 30
0.0
  9
$PUCSORGRIGHT
 10
0.0
 20
0.0
 30
0.0
  9
$PUCSORGFRONT
 10
0.0
 20
0.0
 30
0.0
  9
$PUCSORGBACK
 10
0.0
 20
0.0
 30
0.0
  9
$USERI1
 70
     0
  9
$USERI2
 70
     0
  9
$USERI3
 70
     0
  9
$USERI4
 70
     0
  9
$USERI5
 70
     0
  9
$USERR1
 40
0.0
  9
$USERR2
 40
0.0
  9
$USERR3
 40
0.0
  9
$USERR4
 40
0.0
  9
$USERR5
 40
0.0
  9
$WORLDVIEW
 70
     1
  9
$SHADEDGE
 70
     3
  9
$SHADEDIF
 70
    70
  9
$TILEMODE
 70
     1
  9
$MAXACTVP
 70
    64
  9
$PINSBASE
 10
0.0
 20
0.0
 30
0.0
  9
$PLIMCHECK
 70
     0
  9
$PEXTMIN
 10
1.000000000000000E+20
 20
1.000000000000000E+20
 30
1.000000000000000E+20
  9
$PEXTMAX
 10
-1.000000000000000E+20
 20
-1.000000000000000E+20
 30
-1.000000000000000E+20
  9
$PLIMMIN
 10
0.0
 20
0.0
  9
$PLIMMAX
 10
12.0
 20
9.0
  9
$UNITMODE
 70
     0
  9
$VISRETAIN
 70
     1
  9
$PLINEGEN
 70
     0
  9
$PSLTSCALE
 70
     1
  9
$TREEDEPTH
 70
  3020
  9
$CMLSTYLE
  2
Standard
  9
$CMLJUST
 70
     0
  9
$CMLSCALE
 40
1.0
  9
$PROXYGRAPHICS
 70
     1
  9
$MEASUREMENT
 70
     0
  9
$CELWEIGHT
370
    -1
  9
$ENDCAPS
280
     0
  9
$JOINSTYLE
280
     0
  9
$LWDISPLAY
290
     1
  9
$INSUNITS
 70
     1
  9
$HYPERLINKBASE
  1

  9
$STYLESHEET
  1

  9
$XEDIT
290
     1
  9
$CEPSNTYPE
380
     0
  9
$PSTYLEMODE
290
     1
  9
$FINGERPRINTGUID
  2
{3CFC977F-0A90-9AB8-E7F8-BFFD69DE9C53}
  9
$VERSIONGUID
  2
{FAEB1C32-E019-11D5-929B-00C0DF256EC4}
  9
$EXTNAMES
290
     1
  9
$PSVPSCALE
 40
0.0
  9
$OLESTARTUP
290
     0
  9
$SORTENTS
280
   127
  9
$INDEXCTL
280
     0
  9
$HIDETEXT
280
     1
  9
$XCLIPFRAME
280
     2
  9
$HALOGAP
280
     0
  9
$OBSCOLOR
 70
   257
  9
$OBSLTYPE
280
     0
  9
$INTERSECTIONDISPLAY
280
     0
  9
$INTERSECTIONCOLOR
 70
   257
  9
$DIMASSOC
280
     2
  9
$PROJECTNAME
  1

  9
$CAMERADISPLAY
290
     0
  9
$LENSLENGTH
 40
50.0
  9
$CAMERAHEIGHT
 40
0.0
  9
$STEPSPERSEC
 40
2.0
  9
$STEPSIZE
 40
6.0
  9
$3DDWFPREC
 40
2.0
  9
$PSOLWIDTH
 40
0.25
  9
$PSOLHEIGHT
 40
4.0
  9
$LOFTANG1
 40
1.570796326794897
  9
$LOFTANG2
 40
1.570796326794897
  9
$LOFTMAG1
 40
0.0
  9
$LOFTMAG2
 40
0.0
  9
$LOFTPARAM
 70
     7
  9
$LOFTNORMALS
280
     1
  9
$LATITUDE
 40
37.795
  9
$LONGITUDE
 40
-122.394
  9
$NORTHDIRECTION
 40
0.0
  9
$TIMEZONE
 70
 -8000
  9
$LIGHTGLYPHDISPLAY
280
     1
  9
$TILEMODELIGHTSYNCH
280
     1
  9
$CMATERIAL
347
3C
  9
$SOLIDHIST
280
     1
  9
$SHOWHIST
280
     1
  9
$DWFFRAME
280
     2
  9
$DGNFRAME
280
     2
  9
$REALWORLDSCALE
290
     1
  9
$INTERFERECOLOR
 62
   256
  9
$CSHADOW
280
     0
  9
$SHADOWPLANELOCATION
 40
0.0
  0
ENDSEC
  0
SECTION
  2
CLASSES
  0
CLASS
  1
ACDBDICTIONARYWDFLT
  2
AcDbDictionaryWithDefault
  3
ObjectDBX Classes
 90
        0
 91
        4
280
     0
281
     0
  0
CLASS
  1
VISUALSTYLE
  2
AcDbVisualStyle
  3
ObjectDBX Classes
 90
     4095
 91
        4
280
     0
281
     0
  0
CLASS
  1
MATERIAL
  2
AcDbMaterial
  3
ObjectDBX Classes
 90
     1153
 91
        4
280
     0
281
     0
  0
CLASS
  1
SUN
  2
AcDbSun
  3
SCENEOE
 90
     1024
 91
        4
280
     0
281
     0
  0
ENDSEC
  0
SECTION
  2
TABLES
  0
TABLE
  2
VPORT
  5
8
330
0
100
AcDbSymbolTable
 70
     1
  0
VPORT
  5
29
330
8
100
AcDbSymbolTableRecord
100
AcDbViewportTableRecord
  2
*Active
 70
     0
 10
0.0
 20
0.0
 11
1.0
 21
1.0
 12
0.0
 22
0.0
 13
0.0
 23
0.0
 14
0.5
 24
0.5
 15
0.5
 25
0.5
 16
0.0
 26
0.0
 36
1.0
 17
91.00082462281999
 27
-128.4993055234307
 37
0.0
 40
256.9986110468615
 41
0.7081814508812795
 42
50.0
 43
0.0
 44
0.0
 50
0.0
 51
0.0
 71
     0
 72
   100
 73
     1
 74
     3
 75
     0
 76
     0
 77
     0
 78
     0
281
     0
 65
     1
110
0.0
120
0.0
130
0.0
111
1.0
121
0.0
131
0.0
112
0.0
122
1.0
132
0.0
 79
     0
146
0.0
 60
     3
 61
     5
292
     1
282
     1
141
0.0
142
0.0
 63
   250
361
3F
  0
ENDTAB
  0
TABLE
  2
LTYPE
  5
5
330
0
100
AcDbSymbolTable
 70
     1
  0
LTYPE
  5
14
330
5
100
AcDbSymbolTableRecord
100
AcDbLinetypeTableRecord
  2
ByBlock
 70
     0
  3

 72
    65
 73
     0
 40
0.0
  0
LTYPE
  5
15
330
5
100
AcDbSymbolTableRecord
100
AcDbLinetypeTableRecord
  2
ByLayer
 70
     0
  3

 72
    65
 73
     0
 40
0.0
  0
LTYPE
  5
16
330
5
100
AcDbSymbolTableRecord
100
AcDbLinetypeTableRecord
  2
Continuous
 70
     0
  3
Solid line
 72
    65
 73
     0
 40
0.0
  0
ENDTAB
  0
TABLE
  2
LAYER
  5
2
330
0
100
AcDbSymbolTable
 70
     2
  0
LAYER
  5
10
330
2
100
AcDbSymbolTableRecord
100
AcDbLayerTableRecord
  2
0
 70
     0
 62
     7
  6
Continuous
370
    -3
390
F
347
3E
  0
LAYER
  5
40
330
2
100
AcDbSymbolTableRecord
100
AcDbLayerTableRecord
  2
_U+30EC_U+30A4_U+30E4_U+30FC 1
 70
     0
 62
     7
  6
Continuous
370
    -3
390
F
347
3E
  0
ENDTAB
  0
TABLE
  2
STYLE
  5
3
330
0
100
AcDbSymbolTable
 70
     1
  0
STYLE
  5
11
330
3
100
AcDbSymbolTableRecord
100
AcDbTextStyleTableRecord
  2
Standard
 70
     0
 40
0.0
 41
1.0
 50
0.0
 71
     0
 42
0.2
  3
txt
  4

  0
ENDTAB
  0
TABLE
  2
VIEW
  5
6
330
0
100
AcDbSymbolTable
 70
     0
  0
ENDTAB
  0
TABLE
  2
UCS
  5
7
330
0
100
AcDbSymbolTable
 70
     0
  0
ENDTAB
  0
TABLE
  2
APPID
  5
9
330
0
100
AcDbSymbolTable
 70
     1
  0
APPID
  5
12
330
9
100
AcDbSymbolTableRecord
100
AcDbRegAppTableRecord
  2
ACAD
 70
     0
  0
ENDTAB
  0
TABLE
  2
DIMSTYLE
  5
A
330
0
100
AcDbSymbolTable
 70
     1
100
AcDbDimStyleTable
  0
DIMSTYLE
105
27
330
A
100
AcDbSymbolTableRecord
100
AcDbDimStyleTableRecord
  2
Standard
 70
     0
178
     0
340
11
  0
ENDTAB
  0
TABLE
  2
BLOCK_RECORD
  5
1
330
0
100
AcDbSymbolTable
 70
     6
  0
BLOCK_RECORD
  5
1F
330
1
100
AcDbSymbolTableRecord
100
AcDbBlockTableRecord
  2
*Model_Space
340
22
 70
     0
280
     1
281
     0
  0
BLOCK_RECORD
  5
1B
330
1
100
AcDbSymbolTableRecord
100
AcDbBlockTableRecord
  2
*Paper_Space
340
1E
 70
     0
280
     1
281
     0
  0
BLOCK_RECORD
  5
23
330
1
100
AcDbSymbolTableRecord
100
AcDbBlockTableRecord
  2
*Paper_Space0
340
26
 70
     0
280
     1
281
     0
  0
BLOCK_RECORD
  5
51
330
1
100
AcDbSymbolTableRecord
100
AcDbBlockTableRecord
  2
block 2
340
0
102
{BLKREFS
331
52
102
}
 70
     0
280
     1
281
     0
  0
BLOCK_RECORD
  5
79
330
1
100
AcDbSymbolTableRecord
100
AcDbBlockTableRecord
  2
block 3
340
0
102
{BLKREFS
331
7A
102
}
 70
     0
280
     1
281
     0
  0
BLOCK_RECORD
  5
9C
330
1
100
AcDbSymbolTableRecord
100
AcDbBlockTableRecord
  2
block 4
340
0
102
{BLKREFS
331
9D
102
}
 70
     0
280
     1
281
     0
  0
BLOCK_RECORD
  5
AC
330
1
100
AcDbSymbolTableRecord
100
AcDbBlockTableRecord
  2
block 5
340
0
102
{BLKREFS
331
AD
102
}
 70
     0
280
     1
281
     0
  0
BLOCK_RECORD
  5
B5
330
1
100
AcDbSymbolTableRecord
100
AcDbBlockTableRecord
  2
block 6
340
0
102
{BLKREFS
331
B6
102
}
 70
     0
280
     1
281
     0
  0
ENDTAB
  0
ENDSEC
  0
SECTION
  2
BLOCKS
  0
BLOCK
  5
20
330
1F
100
AcDbEntity
  8
0
100
AcDbBlockBegin
  2
*Model_Space
 70
     0
 10
0.0
 20
0.0
 30
0.0
  3
*Model_Space
  1

  0
ENDBLK
  5
21
330
1F
100
AcDbEntity
  8
0
100
AcDbBlockEnd
  0
BLOCK
  5
1C
330
1B
100
AcDbEntity
 67
     1
  8
0
100
AcDbBlockBegin
  2
*Paper_Space
 70
     0
 10
0.0
 20
0.0
 30
0.0
  3
*Paper_Space
  1

  0
ENDBLK
  5
1D
330
1B
100
AcDbEntity
 67
     1
  8
0
100
AcDbBlockEnd
  0
BLOCK
  5
24
330
23
100
AcDbEntity
  8
0
100
AcDbBlockBegin
  2
*Paper_Space0
 70
     0
 10
0.0
 20
0.0
 30
0.0
  3
*Paper_Space0
  1

  0
ENDBLK
  5
25
330
23
100
AcDbEntity
  8
0
100
AcDbBlockEnd
  0
BLOCK
  5
53
330
51
100
AcDbEntity
  8
0
100
AcDbBlockBegin
  2
block 2
 70
     0
 10
0.0
 20
0.0
 30
0.0
  3
block 2
  1

  0
POLYLINE
  5
55
330
51
100
AcDbEntity
  8
_U+30EC_U+30A4_U+30E4_U+30FC 1
370
     0
100
AcDb2dPolyline
 66
     1
 10
0.0
 20
0.0
 30
0.0
  0
VERTEX
  5
56
330
55
100
AcDbEntity
  8
_U+30EC_U+30A4_U+30E4_U+30FC 1
370
     0
100
AcDbVertex
100
AcDb2dVertex
 10
87.23188474381703
 20
-138.6702609245338
 30
0.0
  0
VERTEX
  5
57
330
55
100
AcDbEntity
  8
_U+30EC_U+30A4_U+30E4_U+30FC 1
370
     0
100
AcDbVertex
100
AcDb2dVertex
 10
87.23188474381703
 20
-139.0171820398985
 30
0.0
  0
VERTEX
  5
58
330
55
100
AcDbEntity
  8
_U+30EC_U+30A4_U+30E4_U+30FC 1
370
     0
100
AcDbVertex
100
AcDb2dVertex
 10
87.01415470914924
 20
-139.0171820398985
 30
0.0
  0
VERTEX
  5
59
330
55
100
AcDbEntity
  8
_U+30EC_U+30A4_U+30E4_U+30FC 1
370
     0
100
AcDbVertex
100
AcDb2dVertex
 10
87.01415470914924
 20
-138.6702609245338
 30
0.0
  0
VERTEX
  5
5A
330
55
100
AcDbEntity
  8
_U+30EC_U+30A4_U+30E4_U+30FC 1
370
     0
100
AcDbVertex
100
AcDb2dVertex
 10
86.35820852875767
 20
-138.6702609245338
 30
0.0
  0
VERTEX
  5
5B
330
55
100
AcDbEntity
  8
_U+30EC_U+30A4_U+30E4_U+30FC 1
370
     0
100
AcDbVertex
100
AcDb2dVertex
 10
86.35820852875767
 20
-138.4459852084441
 30
0.0
  0
VERTEX
  5
5C
330
55
100
AcDbEntity
  8
_U+30EC_U+30A4_U+30E4_U+30FC 1
370
     0
100
AcDbVertex
100
AcDb2dVertex
 10
87.03723684890042
 20
-137.472745733861
 30
0.0
  0
VERTEX
  5
5D
330
55
100
AcDbEntity
  8
_U+30EC_U+30A4_U+30E4_U+30FC 1
370
     0
100
AcDbVertex
100
AcDb2dVertex
 10
87.23188474381703
 20
-137.472745733861
 30
0.0
  0
VERTEX
  5
5E
330
55
100
AcDbEntity
  8
_U+30EC_U+30A4_U+30E4_U+30FC 1
370
     0
100
AcDbVertex
100
AcDb2dVertex
 10
87.23188474381703
 20
-138.4714789150349
 30
0.0
  0
VERTEX
  5
5F
330
55
100
AcDbEntity
  8
_U+30EC_U+30A4_U+30E4_U+30FC 1
370
     0
100
AcDbVertex
100
AcDb2dVertex
 10
87.43927949202907
 20
-138.4714789150349
 30
0.0
  0
VERTEX
  5
60
330
55
100
AcDbEntity
  8
_U+30EC_U+30A4_U+30E4_U+30FC 1
370
     0
100
AcDbVertex
100
AcDb2dVertex
 10
87.43927949202907
 20
-138.6702609245338
 30
0.0
  0
VERTEX
  5
61
330
55
100
AcDbEntity
  8
_U+30EC_U+30A4_U+30E4_U+30FC 1
370
     0
100
AcDbVertex
100
AcDb2dVertex
 10
87.23188474381703
 20
-138.6702609245338
 30
0.0
  0
SEQEND
  5
62
330
55
100
AcDbEntity
  8
_U+30EC_U+30A4_U+30E4_U+30FC 1
370
     0
  0
POLYLINE
  5
63
330
51
100
AcDbEntity
  8
_U+30EC_U+30A4_U+30E4_U+30FC 1
370
     0
100
AcDb2dPolyline
 66
     1
 10
0.0
 20
0.0
 30
0.0
  0
VERTEX
  5
64
330
63
100
AcDbEntity
  8
_U+30EC_U+30A4_U+30E4_U+30FC 1
370
     0
100
AcDbVertex
100
AcDb2dVertex
 10
87.01415470914924
 20
-137.8155327346433
 30
0.0
  0
VERTEX
  5
65
330
63
100
AcDbEntity
  8
_U+30EC_U+30A4_U+30E4_U+30FC 1
370
     0
100
AcDbVertex
100
AcDb2dVertex
 10
86.55699053825658
 20
-138.4714789150349
 30
0.0
  0
VERTEX
  5
66
330
63
100
AcDbEntity
  8
_U+30EC_U+30A4_U+30E4_U+30FC 1
370
     0
100
AcDbVertex
100
AcDb2dVertex
 10
87.01415470914924
 20
-138.4714789150349
 30
0.0
  0
VERTEX
  5
67
330
63
100
AcDbEntity
  8
_U+30EC_U+30A4_U+30E4_U+30FC 1
370
     0
100
AcDbVertex
100
AcDb2dVertex
 10
87.01415470914924
 20
-137.8155327346433
 30
0.0
  0
SEQEND
  5
68
330
63
100
AcDbEntity
  8
_U+30EC_U+30A4_U+30E4_U+30FC 1
370
     0
  0
HATCH
  5
69
330
51
100
AcDbEntity
  8
_U+30EC_U+30A4_U+30E4_U+30FC 1
 62
   179
420
  2234388
100
AcDbHatch
 10
0.0
 20
0.0
 30
0.0
210
0.0
220
0.0
230
1.0
  2
SOLID
 70
     1
 71
     0
 91
        2
 92
        1
 93
       11
 72
     1
 10
87.23188474381703
 20
-138.6702609245338
 11
87.23188474381703
 21
-139.0171820398985
 72
     1
 10
87.23188474381703
 20
-139.0171820398985
 11
87.01415470914924
 21
-139.0171820398985
 72
     1
 10
87.01415470914924
 20
-139.0171820398985
 11
87.01415470914924
 21
-138.6702609245338
 72
     1
 10
87.01415470914924
 20
-138.6702609245338
 11
86.35820852875767
 21
-138.6702609245338
 72
     1
 10
86.35820852875767
 20
-138.6702609245338
 11
86.35820852875767
 21
-138.4459852084441
 72
     1
 10
86.35820852875767
 20
-138.4459852084441
 11
87.03723684890042
 21
-137.472745733861
 72
     1
 10
87.03723684890042
 20
-137.472745733861
 11
87.23188474381703
 21
-137.472745733861
 72
     1
 10
87.23188474381703
 20
-137.472745733861
 11
87.23188474381703
 21
-138.4714789150349
 72
     1
 10
87.23188474381703
 20
-138.4714789150349
 11
87.43927949202907
 21
-138.4714789150349
 72
     1
 10
87.43927949202907
 20
-138.4714789150349
 11
87.43927949202907
 21
-138.6702609245338
 72
     1
 10
87.43927949202907
 20
-138.6702609245338
 11
87.23188474381703
 21
-138.6702609245338
 97
        0
 92
        1
 93
        3
 72
     1
 10
87.01415470914924
 20
-137.8155327346433
 11
86.55699053825658
 21
-138.4714789150349
 72
     1
 10
86.55699053825658
 20
-138.4714789150349
 11
87.01415470914924
 21
-138.4714789150349
 72
     1
 10
87.01415470914924
 20
-138.4714789150349
 11
87.01415470914924
 21
-137.8155327346433
 97
        0
 75
     2
 76
     1
 98
        0
  0
SPLINE
  5
6A
330
51
100
AcDbEntity
  8
_U+30EC_U+30A4_U+30E4_U+30FC 1
370
     0
100
AcDbSpline
210
0.0
220
0.0
230
1.0
 70
    11
 71
     3
 72
    29
 73
    25
 74
     0
 42
0.0000000001
 43
0.0000000001
 12
1.0
 22
0.0
 32
0.0
 13
1.0
 23
0.0
 33
0.0
 40
0.0
 40
0.0
 40
0.0
 40
0.0
 40
1.0
 40
1.0
 40
1.0
 40
2.0
 40
2.0
 40
2.0
 40
3.0
 40
3.0
 40
3.0
 40
4.0
 40
4.0
 40
4.0
 40
5.0
 40
5.0
 40
5.0
 40
6.0
 40
6.0
 40
6.0
 40
7.0
 40
7.0
 40
7.0
 40
8.0
 40
8.0
 40
8.0
 40
8.0
 10
88.47453068534665
 20
-138.8394151128596
 30
0.0
 10
88.3663546871098
 20
-139.0488769183628
 30
0.0
 10
88.19306638420174
 20
-139.0678249435317
 30
0.0
 10
88.0766221568003
 20
-139.0678249435317
 30
0.0
 10
87.91573619763912
 20
-139.0678249435317
 30
0.0
 10
87.77414277319535
 20
-139.0213161544808
 30
0.0
 10
87.67905813780246
 20
-138.8394151128596
 30
0.0
 10
87.57536076369644
 20
-138.644767217943
 30
0.0
 10
87.55641273852757
 20
-138.4077446485578
 30
0.0
 10
87.55641273852757
 20
-138.245136141654
 30
0.0
 10
87.55641273852757
 20
-138.1011311503705
 30
0.0
 10
87.5732937064053
 20
-137.8492946703988
 30
0.0
 10
87.67905813780246
 20
-137.6505126608999
 30
0.0
 10
87.78688962649078
 20
-137.4475965368187
 30
0.0
 10
87.94777558565195
 20
-137.424169887519
 30
0.0
 10
88.0766221568003
 20
-137.424169887519
 30
0.0
 10
88.2354410586703
 20
-137.424169887519
 30
0.0
 10
88.37910154040523
 20
-137.4686116192787
 30
0.0
 10
88.47453068534665
 20
-137.6505126608999
 30
0.0
 10
88.57374943532184
 20
-137.8430934985253
 30
0.0
 10
88.59717608462154
 20
-138.0715033291974
 30
0.0
 10
88.59717608462154
 20
-138.245136141654
 30
0.0
 10
88.59717608462154
 20
-138.4163573872709
 30
0.0
 10
88.575816492613
 20
-138.6468342752341
 30
0.0
 10
88.47453068534665
 20
-138.8394151128596
 30
0.0
  0
SPLINE
  5
6B
330
51
100
AcDbEntity
  8
_U+30EC_U+30A4_U+30E4_U+30FC 1
370
     0
100
AcDbSpline
210
0.0
220
0.0
230
1.0
 70
    11
 71
     3
 72
    17
 73
    13
 74
     0
 42
0.0000000001
 43
0.0000000001
 12
1.0
 22
0.0
 32
0.0
 13
1.0
 23
0.0
 33
0.0
 40
0.0
 40
0.0
 40
0.0
 40
0.0
 40
1.0
 40
1.0
 40
1.0
 40
2.0
 40
2.0
 40
2.0
 40
3.0
 40
3.0
 40
3.0
 40
4.0
 40
4.0
 40
4.0
 40
4.0
 10
88.0766221568003
 20
-137.6167507251444
 30
0.0
 10
87.82719724366821
 20
-137.6167507251444
 30
0.0
 10
87.78034394506881
 20
-137.9002820835805
 30
0.0
 10
87.78034394506881
 20
-138.245136141654
 30
0.0
 10
87.78034394506881
 20
-138.5644964931367
 30
0.0
 10
87.81651744766393
 20
-138.873177048615
 30
0.0
 10
88.0766221568003
 20
-138.873177048615
 30
0.0
 10
88.32432452218976
 20
-138.873177048615
 30
0.0
 10
88.37290036853177
 20
-138.5920572570187
 30
0.0
 10
88.37290036853177
 20
-138.245136141654
 30
0.0
 10
88.37290036853177
 20
-137.9254312806228
 30
0.0
 10
88.33465980864551
 20
-137.6167507251444
 30
0.0
 10
88.0766221568003
 20
-137.6167507251444
 30
0.0
  0
HATCH
  5
6C
330
51
100
AcDbEntity
  8
_U+30EC_U+30A4_U+30E4_U+30FC 1
 62
   179
420
  2234388
100
AcDbHatch
 10
0.0
 20
0.0
 30
0.0
210
0.0
220
0.0
230
1.0
  2
SOLID
 70
     1
 71
     0
 91
        2
 92
        1
 93
        1
 72
     4
 94
        3
 73
     0
 74
     1
 95
       29
 96
       25
 40
0.0
 40
0.0
 40
0.0
 40
0.0
 40
1.0
 40
1.0
 40
1.0
 40
2.0
 40
2.0
 40
2.0
 40
3.0
 40
3.0
 40
3.0
 40
4.0
 40
4.0
 40
4.0
 40
5.0
 40
5.0
 40
5.0
 40
6.0
 40
6.0
 40
6.0
 40
7.0
 40
7.0
 40
7.0
 40
8.0
 40
8.0
 40
8.0
 40
8.0
 10
88.47453068534665
 20
-138.8394151128596
 10
88.3663546871098
 20
-139.0488769183628
 10
88.19306638420174
 20
-139.0678249435317
 10
88.0766221568003
 20
-139.0678249435317
 10
87.91573619763912
 20
-139.0678249435317
 10
87.77414277319535
 20
-139.0213161544808
 10
87.67905813780246
 20
-138.8394151128596
 10
87.57536076369644
 20
-138.644767217943
 10
87.55641273852757
 20
-138.4077446485578
 10
87.55641273852757
 20
-138.245136141654
 10
87.55641273852757
 20
-138.1011311503705
 10
87.5732937064053
 20
-137.8492946703988
 10
87.67905813780246
 20
-137.6505126608999
 10
87.78688962649078
 20
-137.4475965368187
 10
87.94777558565195
 20
-137.424169887519
 10
88.0766221568003
 20
-137.424169887519
 10
88.2354410586703
 20
-137.424169887519
 10
88.37910154040523
 20
-137.4686116192787
 10
88.47453068534665
 20
-137.6505126608999
 10
88.57374943532184
 20
-137.8430934985253
 10
88.59717608462154
 20
-138.0715033291974
 10
88.59717608462154
 20
-138.245136141654
 10
88.59717608462154
 20
-138.4163573872709
 10
88.575816492613
 20
-138.6468342752341
 10
88.47453068534665
 20
-138.8394151128596
 97
        0
 97
        0
 92
        1
 93
        1
 72
     4
 94
        3
 73
     0
 74
     1
 95
       17
 96
       13
 40
0.0
 40
0.0
 40
0.0
 40
0.0
 40
1.0
 40
1.0
 40
1.0
 40
2.0
 40
2.0
 40
2.0
 40
3.0
 40
3.0
 40
3.0
 40
4.0
 40
4.0
 40
4.0
 40
4.0
 10
88.0766221568003
 20
-137.6167507251444
 10
87.82719724366821
 20
-137.6167507251444
 10
87.78034394506881
 20
-137.9002820835805
 10
87.78034394506881
 20
-138.245136141654
 10
87.78034394506881
 20
-138.5644964931367
 10
87.81651744766393
 20
-138.873177048615
 10
88.0766221568003
 20
-138.873177048615
 10
88.32432452218976
 20
-138.873177048615
 10
88.37290036853177
 20
-138.5920572570187
 10
88.37290036853177
 20
-138.245136141654
 10
88.37290036853177
 20
-137.9254312806228
 10
88.33465980864551
 20
-137.6167507251444
 10
88.0766221568003
 20
-137.6167507251444
 97
        0
 97
        0
 75
     2
 76
     1
 98
        0
  0
ENDBLK
  5
54
330
51
100
AcDbEntity
  8
0
100
AcDbBlockEnd
  0
BLOCK
  5
7B
330
79
100
AcDbEntity
  8
0
100
AcDbBlockBegin
  2
block 3
 70
     0
 10
0.0
 20
0.0
 30
0.0
  3
block 3
  1

  0
SPLINE
  5
7D
330
79
100
AcDbEntity
  8
_U+30EC_U+30A4_U+30E4_U+30FC 1
370
     0
100
AcDbSpline
210
0.0
220
0.0
230
1.0
 70
    11
 71
     3
 72
    44
 73
    40
 74
     0
 42
0.0000000001
 43
0.0000000001
 12
1.0
 22
0.0
 32
0.0
 13
1.0
 23
0.0
 33
0.0
 40
0.0
 40
0.0
 40
0.0
 40
0.0
 40
1.0
 40
1.0
 40
1.0
 40
2.0
 40
2.0
 40
2.0
 40
3.0
 40
3.0
 40
3.0
 40
4.0
 40
4.0
 40
4.0
 40
5.0
 40
5.0
 40
5.0
 40
6.0
 40
6.0
 40
6.0
 40
7.0
 40
7.0
 40
7.0
 40
8.0
 40
8.0
 40
8.0
 40
9.0
 40
9.0
 40
9.0
 40
10.0
 40
10.0
 40
10.0
 40
11.0
 40
11.0
 40
11.0
 40
12.0
 40
12.0
 40
12.0
 40
13.0
 40
13.0
 40
13.0
 40
13.0
 10
87.0432657659996
 20
-117.8749755564688
 30
0.0
 10
86.82553573133181
 20
-118.0337944583388
 30
0.0
 10
86.73251815323007
 20
-118.1078640112716
 30
0.0
 10
86.68359779733952
 20
-118.2515244930066
 30
0.0
 10
86.68359779733952
 20
-118.2515244930066
 30
0.0
 10
87.46218937700598
 20
-118.2515244930066
 30
0.0
 10
87.46218937700598
 20
-118.2515244930066
 30
0.0
 10
87.46218937700598
 20
-118.2515244930066
 30
0.0
 10
87.46218937700598
 20
-118.4568521839275
 30
0.0
 10
87.46218937700598
 20
-118.4568521839275
 30
0.0
 10
87.46218937700598
 20
-118.4568521839275
 30
0.0
 10
86.43417288420743
 20
-118.4568521839275
 30
0.0
 10
86.43417288420743
 20
-118.4568521839275
 30
0.0
 10
86.46586776267173
 20
-118.0992512725585
 30
0.0
 10
86.53132457689148
 20
-118.0210476050433
 30
0.0
 10
86.9164862521424
 20
-117.7227023360207
 30
0.0
 10
87.17245684669648
 20
-117.5239203265218
 30
0.0
 10
87.23791366091622
 20
-117.4560519454624
 30
0.0
 10
87.23791366091622
 20
-117.3185926356009
 30
0.0
 10
87.23791366091622
 20
-117.2000813509083
 30
0.0
 10
87.1659111652745
 20
-117.0691677224688
 30
0.0
 10
86.96919621306674
 20
-117.0691677224688
 30
0.0
 10
86.70909150393037
 20
-117.0691677224688
 30
0.0
 10
86.70082327476577
 20
-117.299644610432
 30
0.0
 10
86.69634465063494
 20
-117.4160888378335
 30
0.0
 10
86.69634465063494
 20
-117.4160888378335
 30
0.0
 10
86.47206893454518
 20
-117.4160888378335
 30
0.0
 10
86.47206893454518
 20
-117.4160888378335
 30
0.0
 10
86.4806816732583
 20
-117.2889648144278
 30
0.0
 10
86.49136146926259
 20
-117.1769992111571
 30
0.0
 10
86.5716321940689
 20
-117.0584879264646
 30
0.0
 10
86.68153074004837
 20
-116.8976019673034
 30
0.0
 10
86.86791040580039
 20
-116.8638400315479
 30
0.0
 10
86.9840101236533
 20
-116.8638400315479
 30
0.0
 10
87.26134031021591
 20
-116.8638400315479
 30
0.0
 10
87.46873505842795
 20
-117.0478081304603
 30
0.0
 10
87.46873505842795
 20
-117.3206596928921
 30
0.0
 10
87.46873505842795
 20
-117.5494140331127
 30
0.0
 10
87.35229083102651
 20
-117.6486327830878
 30
0.0
 10
87.0432657659996
 20
-117.8749755564688
 30
0.0
  0
HATCH
  5
7E
330
79
100
AcDbEntity
  8
_U+30EC_U+30A4_U+30E4_U+30FC 1
 62
   179
420
  2234388
100
AcDbHatch
 10
0.0
 20
0.0
 30
0.0
210
0.0
220
0.0
230
1.0
  2
SOLID
 70
     1
 71
     0
 91
        1
 92
        1
 93
        1
 72
     4
 94
        3
 73
     0
 74
     1
 95
       44
 96
       40
 40
0.0
 40
0.0
 40
0.0
 40
0.0
 40
1.0
 40
1.0
 40
1.0
 40
2.0
 40
2.0
 40
2.0
 40
3.0
 40
3.0
 40
3.0
 40
4.0
 40
4.0
 40
4.0
 40
5.0
 40
5.0
 40
5.0
 40
6.0
 40
6.0
 40
6.0
 40
7.0
 40
7.0
 40
7.0
 40
8.0
 40
8.0
 40
8.0
 40
9.0
 40
9.0
 40
9.0
 40
10.0
 40
10.0
 40
10.0
 40
11.0
 40
11.0
 40
11.0
 40
12.0
 40
12.0
 40
12.0
 40
13.0
 40
13.0
 40
13.0
 40
13.0
 10
87.0432657659996
 20
-117.8749755564688
 10
86.82553573133181
 20
-118.0337944583388
 10
86.73251815323007
 20
-118.1078640112716
 10
86.68359779733952
 20
-118.2515244930066
 10
86.68359779733952
 20
-118.2515244930066
 10
87.46218937700598
 20
-118.2515244930066
 10
87.46218937700598
 20
-118.2515244930066
 10
87.46218937700598
 20
-118.2515244930066
 10
87.46218937700598
 20
-118.4568521839275
 10
87.46218937700598
 20
-118.4568521839275
 10
87.46218937700598
 20
-118.4568521839275
 10
86.43417288420743
 20
-118.4568521839275
 10
86.43417288420743
 20
-118.4568521839275
 10
86.46586776267173
 20
-118.0992512725585
 10
86.53132457689148
 20
-118.0210476050433
 10
86.9164862521424
 20
-117.7227023360207
 10
87.17245684669648
 20
-117.5239203265218
 10
87.23791366091622
 20
-117.4560519454624
 10
87.23791366091622
 20
-117.3185926356009
 10
87.23791366091622
 20
-117.2000813509083
 10
87.1659111652745
 20
-117.0691677224688
 10
86.96919621306674
 20
-117.0691677224688
 10
86.70909150393037
 20
-117.0691677224688
 10
86.70082327476577
 20
-117.299644610432
 10
86.69634465063494
 20
-117.4160888378335
 10
86.69634465063494
 20
-117.4160888378335
 10
86.47206893454518
 20
-117.4160888378335
 10
86.47206893454518
 20
-117.4160888378335
 10
86.4806816732583
 20
-117.2889648144278
 10
86.49136146926259
 20
-117.1769992111571
 10
86.5716321940689
 20
-117.0584879264646
 10
86.68153074004837
 20
-116.8976019673034
 10
86.86791040580039
 20
-116.8638400315479
 10
86.9840101236533
 20
-116.8638400315479
 10
87.26134031021591
 20
-116.8638400315479
 10
87.46873505842795
 20
-117.0478081304603
 10
87.46873505842795
 20
-117.3206596928921
 10
87.46873505842795
 20
-117.5494140331127
 10
87.35229083102651
 20
-117.6486327830878
 10
87.0432657659996
 20
-117.8749755564688
 97
        0
 97
        0
 75
     2
 76
     1
 98
        0
  0
SPLINE
  5
7F
330
79
100
AcDbEntity
  8
_U+30EC_U+30A4_U+30E4_U+30FC 1
370
     0
100
AcDbSpline
210
0.0
220
0.0
230
1.0
 70
    11
 71
     3
 72
    29
 73
    25
 74
     0
 42
0.0000000001
 43
0.0000000001
 12
1.0
 22
0.0
 32
0.0
 13
1.0
 23
0.0
 33
0.0
 40
0.0
 40
0.0
 40
0.0
 40
0.0
 40
1.0
 40
1.0
 40
1.0
 40
2.0
 40
2.0
 40
2.0
 40
3.0
 40
3.0
 40
3.0
 40
4.0
 40
4.0
 40
4.0
 40
5.0
 40
5.0
 40
5.0
 40
6.0
 40
6.0
 40
6.0
 40
7.0
 40
7.0
 40
7.0
 40
8.0
 40
8.0
 40
8.0
 40
8.0
 10
88.52500133420556
 20
-118.2790852568886
 30
0.0
 10
88.41682533596871
 20
-118.4885470623918
 30
0.0
 10
88.24353703306065
 20
-118.5074950875606
 30
0.0
 10
88.1270928056592
 20
-118.5074950875606
 30
0.0
 10
87.96620684649804
 20
-118.5074950875606
 30
0.0
 10
87.82461342205427
 20
-118.4609862985098
 30
0.0
 10
87.72952878666138
 20
-118.2790852568886
 30
0.0
 10
87.62583141255536
 20
-118.084437361972
 30
0.0
 10
87.60688338738647
 20
-117.8477593021353
 30
0.0
 10
87.60688338738647
 20
-117.684806285683
 30
0.0
 10
87.60688338738647
 20
-117.5408012943995
 30
0.0
 10
87.6237643552642
 20
-117.2889648144278
 30
0.0
 10
87.72952878666138
 20
-117.0901828049288
 30
0.0
 10
87.8373602753497
 20
-116.8872666808476
 30
0.0
 10
87.99824623451086
 20
-116.8638400315479
 30
0.0
 10
88.1270928056592
 20
-116.8638400315479
 30
0.0
 10
88.28591170752922
 20
-116.8638400315479
 30
0.0
 10
88.42957218926414
 20
-116.9082817633077
 30
0.0
 10
88.52500133420556
 20
-117.0901828049288
 30
0.0
 10
88.62422008418075
 20
-117.2827636425543
 30
0.0
 10
88.64764673348046
 20
-117.5111734732264
 30
0.0
 10
88.64764673348046
 20
-117.684806285683
 30
0.0
 10
88.64764673348046
 20
-117.8560275312999
 30
0.0
 10
88.6262871414719
 20
-118.0865044192631
 30
0.0
 10
88.52500133420556
 20
-118.2790852568886
 30
0.0
  0
SPLINE
  5
80
330
79
100
AcDbEntity
  8
_U+30EC_U+30A4_U+30E4_U+30FC 1
370
     0
100
AcDbSpline
210
0.0
220
0.0
230
1.0
 70
    11
 71
     3
 72
    17
 73
    13
 74
     0
 42
0.0000000001
 43
0.0000000001
 12
1.0
 22
0.0
 32
0.0
 13
1.0
 23
0.0
 33
0.0
 40
0.0
 40
0.0
 40
0.0
 40
0.0
 40
1.0
 40
1.0
 40
1.0
 40
2.0
 40
2.0
 40
2.0
 40
3.0
 40
3.0
 40
3.0
 40
4.0
 40
4.0
 40
4.0
 40
4.0
 10
88.1270928056592
 20
-117.0564208691734
 30
0.0
 10
87.87766789252711
 20
-117.0564208691734
 30
0.0
 10
87.83081459392771
 20
-117.3399522276095
 30
0.0
 10
87.83081459392771
 20
-117.684806285683
 30
0.0
 10
87.83081459392771
 20
-118.0041666371656
 30
0.0
 10
87.86698809652285
 20
-118.312847192644
 30
0.0
 10
88.1270928056592
 20
-118.312847192644
 30
0.0
 10
88.37479517104866
 20
-118.312847192644
 30
0.0
 10
88.42337101739069
 20
-118.0317274010476
 30
0.0
 10
88.42337101739069
 20
-117.684806285683
 30
0.0
 10
88.42337101739069
 20
-117.3651014246518
 30
0.0
 10
88.38513045750442
 20
-117.0564208691734
 30
0.0
 10
88.1270928056592
 20
-117.0564208691734
 30
0.0
  0
HATCH
  5
81
330
79
100
AcDbEntity
  8
_U+30EC_U+30A4_U+30E4_U+30FC 1
 62
   179
420
  2234388
100
AcDbHatch
 10
0.0
 20
0.0
 30
0.0
210
0.0
220
0.0
230
1.0
  2
SOLID
 70
     1
 71
     0
 91
        2
 92
        1
 93
        1
 72
     4
 94
        3
 73
     0
 74
     1
 95
       29
 96
       25
 40
0.0
 40
0.0
 40
0.0
 40
0.0
 40
1.0
 40
1.0
 40
1.0
 40
2.0
 40
2.0
 40
2.0
 40
3.0
 40
3.0
 40
3.0
 40
4.0
 40
4.0
 40
4.0
 40
5.0
 40
5.0
 40
5.0
 40
6.0
 40
6.0
 40
6.0
 40
7.0
 40
7.0
 40
7.0
 40
8.0
 40
8.0
 40
8.0
 40
8.0
 10
88.52500133420556
 20
-118.2790852568886
 10
88.41682533596871
 20
-118.4885470623918
 10
88.24353703306065
 20
-118.5074950875606
 10
88.1270928056592
 20
-118.5074950875606
 10
87.96620684649804
 20
-118.5074950875606
 10
87.82461342205427
 20
-118.4609862985098
 10
87.72952878666138
 20
-118.2790852568886
 10
87.62583141255536
 20
-118.084437361972
 10
87.60688338738647
 20
-117.8477593021353
 10
87.60688338738647
 20
-117.684806285683
 10
87.60688338738647
 20
-117.5408012943995
 10
87.6237643552642
 20
-117.2889648144278
 10
87.72952878666138
 20
-117.0901828049288
 10
87.8373602753497
 20
-116.8872666808476
 10
87.99824623451086
 20
-116.8638400315479
 10
88.1270928056592
 20
-116.8638400315479
 10
88.28591170752922
 20
-116.8638400315479
 10
88.42957218926414
 20
-116.9082817633077
 10
88.52500133420556
 20
-117.0901828049288
 10
88.62422008418075
 20
-117.2827636425543
 10
88.64764673348046
 20
-117.5111734732264
 10
88.64764673348046
 20
-117.684806285683
 10
88.64764673348046
 20
-117.8560275312999
 10
88.6262871414719
 20
-118.0865044192631
 10
88.52500133420556
 20
-118.2790852568886
 97
        0
 97
        0
 92
        1
 93
        1
 72
     4
 94
        3
 73
     0
 74
     1
 95
       17
 96
       13
 40
0.0
 40
0.0
 40
0.0
 40
0.0
 40
1.0
 40
1.0
 40
1.0
 40
2.0
 40
2.0
 40
2.0
 40
3.0
 40
3.0
 40
3.0
 40
4.0
 40
4.0
 40
4.0
 40
4.0
 10
88.1270928056592
 20
-117.0564208691734
 10
87.87766789252711
 20
-117.0564208691734
 10
87.83081459392771
 20
-117.3399522276095
 10
87.83081459392771
 20
-117.684806285683
 10
87.83081459392771
 20
-118.0041666371656
 10
87.86698809652285
 20
-118.312847192644
 10
88.1270928056592
 20
-118.312847192644
 10
88.37479517104866
 20
-118.312847192644
 10
88.42337101739069
 20
-118.0317274010476
 10
88.42337101739069
 20
-117.684806285683
 10
88.42337101739069
 20
-117.3651014246518
 10
88.38513045750442
 20
-117.0564208691734
 10
88.1270928056592
 20
-117.0564208691734
 97
        0
 97
        0
 75
     2
 76
     1
 98
        0
  0
ENDBLK
  5
7C
330
79
100
AcDbEntity
  8
0
100
AcDbBlockEnd
  0
BLOCK
  5
9E
330
9C
100
AcDbEntity
  8
0
100
AcDbBlockBegin
  2
block 4
 70
     0
 10
0.0
 20
0.0
 30
0.0
  3
block 4
  1

  0
SPLINE
  5
A0
330
9C
100
AcDbEntity
  8
_U+30EC_U+30A4_U+30E4_U+30FC 1
370
     0
100
AcDbSpline
210
0.0
220
0.0
230
1.0
 70
    11
 71
     3
 72
    26
 73
    22
 74
     0
 42
0.0000000001
 43
0.0000000001
 12
1.0
 22
0.0
 32
0.0
 13
1.0
 23
0.0
 33
0.0
 40
0.0
 40
0.0
 40
0.0
 40
0.0
 40
1.0
 40
1.0
 40
1.0
 40
2.0
 40
2.0
 40
2.0
 40
3.0
 40
3.0
 40
3.0
 40
4.0
 40
4.0
 40
4.0
 40
5.0
 40
5.0
 40
5.0
 40
6.0
 40
6.0
 40
6.0
 40
7.0
 40
7.0
 40
7.0
 40
7.0
 10
113.3439859742682
 20
-136.2555934989222
 30
0.0
 10
113.3439859742682
 20
-136.2555934989222
 30
0.0
 10
112.2398328712456
 20
-136.2555934989222
 30
0.0
 10
112.2398328712456
 20
-136.2555934989222
 30
0.0
 10
112.2398328712456
 20
-136.2555934989222
 30
0.0
 10
112.2398328712456
 20
-136.5856336464091
 30
0.0
 10
112.2398328712456
 20
-136.5856336464091
 30
0.0
 10
112.2398328712456
 20
-136.5856336464091
 30
0.0
 10
112.0916937653799
 20
-136.5856336464091
 30
0.0
 10
112.0916937653799
 20
-136.5856336464091
 30
0.0
 10
112.0768798547933
 20
-136.2535264416311
 30
0.0
 10
111.913926838341
 20
-136.2070176525802
 30
0.0
 10
111.7995496682307
 20
-136.1773898314071
 30
0.0
 10
111.7995496682307
 20
-136.1773898314071
 30
0.0
 10
111.7995496682307
 20
-136.0313177828324
 30
0.0
 10
111.7995496682307
 20
-136.0313177828324
 30
0.0
 10
111.7995496682307
 20
-136.0313177828324
 30
0.0
 10
113.3439859742682
 20
-136.0313177828324
 30
0.0
 10
113.3439859742682
 20
-136.0313177828324
 30
0.0
 10
113.3439859742682
 20
-136.0313177828324
 30
0.0
 10
113.3439859742682
 20
-136.2555934989222
 30
0.0
 10
113.3439859742682
 20
-136.2555934989222
 30
0.0
  0
HATCH
  5
A1
330
9C
100
AcDbEntity
  8
_U+30EC_U+30A4_U+30E4_U+30FC 1
 62
   179
420
  2234388
100
AcDbHatch
 10
0.0
 20
0.0
 30
0.0
210
0.0
220
0.0
230
1.0
  2
SOLID
 70
     1
 71
     0
 91
        1
 92
        1
 93
        1
 72
     4
 94
        3
 73
     0
 74
     1
 95
       26
 96
       22
 40
0.0
 40
0.0
 40
0.0
 40
0.0
 40
1.0
 40
1.0
 40
1.0
 40
2.0
 40
2.0
 40
2.0
 40
3.0
 40
3.0
 40
3.0
 40
4.0
 40
4.0
 40
4.0
 40
5.0
 40
5.0
 40
5.0
 40
6.0
 40
6.0
 40
6.0
 40
7.0
 40
7.0
 40
7.0
 40
7.0
 10
113.3439859742682
 20
-136.2555934989222
 10
113.3439859742682
 20
-136.2555934989222
 10
112.2398328712456
 20
-136.2555934989222
 10
112.2398328712456
 20
-136.2555934989222
 10
112.2398328712456
 20
-136.2555934989222
 10
112.2398328712456
 20
-136.5856336464091
 10
112.2398328712456
 20
-136.5856336464091
 10
112.2398328712456
 20
-136.5856336464091
 10
112.0916937653799
 20
-136.5856336464091
 10
112.0916937653799
 20
-136.5856336464091
 10
112.0768798547933
 20
-136.2535264416311
 10
111.913926838341
 20
-136.2070176525802
 10
111.7995496682307
 20
-136.1773898314071
 10
111.7995496682307
 20
-136.1773898314071
 10
111.7995496682307
 20
-136.0313177828324
 10
111.7995496682307
 20
-136.0313177828324
 10
111.7995496682307
 20
-136.0313177828324
 10
113.3439859742682
 20
-136.0313177828324
 10
113.3439859742682
 20
-136.0313177828324
 10
113.3439859742682
 20
-136.0313177828324
 10
113.3439859742682
 20
-136.2555934989222
 10
113.3439859742682
 20
-136.2555934989222
 97
        0
 97
        0
 75
     2
 76
     1
 98
        0
  0
POLYLINE
  5
A2
330
9C
100
AcDbEntity
  8
_U+30EC_U+30A4_U+30E4_U+30FC 1
370
     0
100
AcDb2dPolyline
 66
     1
 10
0.0
 20
0.0
 30
0.0
  0
VERTEX
  5
A3
330
A2
100
AcDbEntity
  8
_U+30EC_U+30A4_U+30E4_U+30FC 1
370
     0
100
AcDbVertex
100
AcDb2dVertex
 10
113.3439859742682
 20
-135.4701117282852
 30
0.0
  0
VERTEX
  5
A4
330
A2
100
AcDbEntity
  8
_U+30EC_U+30A4_U+30E4_U+30FC 1
370
     0
100
AcDbVertex
100
AcDb2dVertex
 10
113.0921494942964
 20
-135.4701117282852
 30
0.0
  0
VERTEX
  5
A5
330
A2
100
AcDbEntity
  8
_U+30EC_U+30A4_U+30E4_U+30FC 1
370
     0
100
AcDbVertex
100
AcDb2dVertex
 10
113.0921494942964
 20
-135.2182752483135
 30
0.0
  0
VERTEX
  5
A6
330
A2
100
AcDbEntity
  8
_U+30EC_U+30A4_U+30E4_U+30FC 1
370
     0
100
AcDbVertex
100
AcDb2dVertex
 10
113.3439859742682
 20
-135.2182752483135
 30
0.0
  0
VERTEX
  5
A7
330
A2
100
AcDbEntity
  8
_U+30EC_U+30A4_U+30E4_U+30FC 1
370
     0
100
AcDbVertex
100
AcDb2dVertex
 10
113.3439859742682
 20
-135.4701117282852
 30
0.0
  0
SEQEND
  5
A8
330
A2
100
AcDbEntity
  8
_U+30EC_U+30A4_U+30E4_U+30FC 1
370
     0
  0
HATCH
  5
A9
330
9C
100
AcDbEntity
  8
_U+30EC_U+30A4_U+30E4_U+30FC 1
 62
   179
420
  2234388
100
AcDbHatch
 10
0.0
 20
0.0
 30
0.0
210
0.0
220
0.0
230
1.0
  2
SOLID
 70
     1
 71
     0
 91
        1
 92
        1
 93
        4
 72
     1
 10
113.3439859742682
 20
-135.4701117282852
 11
113.0921494942964
 21
-135.4701117282852
 72
     1
 10
113.0921494942964
 20
-135.4701117282852
 11
113.0921494942964
 21
-135.2182752483135
 72
     1
 10
113.0921494942964
 20
-135.2182752483135
 11
113.3439859742682
 21
-135.2182752483135
 72
     1
 10
113.3439859742682
 20
-135.2182752483135
 11
113.3439859742682
 21
-135.4701117282852
 97
        0
 75
     2
 76
     1
 98
        0
  0
SPLINE
  5
AA
330
9C
100
AcDbEntity
  8
_U+30EC_U+30A4_U+30E4_U+30FC 1
370
     0
100
AcDbSpline
210
0.0
220
0.0
230
1.0
 70
    11
 71
     3
 72
    26
 73
    22
 74
     0
 42
0.0000000001
 43
0.0000000001
 12
1.0
 22
0.0
 32
0.0
 13
1.0
 23
0.0
 33
0.0
 40
0.0
 40
0.0
 40
0.0
 40
0.0
 40
1.0
 40
1.0
 40
1.0
 40
2.0
 40
2.0
 40
2.0
 40
3.0
 40
3.0
 40
3.0
 40
4.0
 40
4.0
 40
4.0
 40
5.0
 40
5.0
 40
5.0
 40
6.0
 40
6.0
 40
6.0
 40
7.0
 40
7.0
 40
7.0
 40
7.0
 10
113.3439859742682
 20
-134.5306341894576
 30
0.0
 10
113.3439859742682
 20
-134.5306341894576
 30
0.0
 10
112.2398328712456
 20
-134.5306341894576
 30
0.0
 10
112.2398328712456
 20
-134.5306341894576
 30
0.0
 10
112.2398328712456
 20
-134.5306341894576
 30
0.0
 10
112.2398328712456
 20
-134.8606743369446
 30
0.0
 10
112.2398328712456
 20
-134.8606743369446
 30
0.0
 10
112.2398328712456
 20
-134.8606743369446
 30
0.0
 10
112.0916937653799
 20
-134.8606743369446
 30
0.0
 10
112.0916937653799
 20
-134.8606743369446
 30
0.0
 10
112.0768798547933
 20
-134.5285671321665
 30
0.0
 10
111.913926838341
 20
-134.4820583431156
 30
0.0
 10
111.7995496682307
 20
-134.4524305219425
 30
0.0
 10
111.7995496682307
 20
-134.4524305219425
 30
0.0
 10
111.7995496682307
 20
-134.3063584733679
 30
0.0
 10
111.7995496682307
 20
-134.3063584733679
 30
0.0
 10
111.7995496682307
 20
-134.3063584733679
 30
0.0
 10
113.3439859742682
 20
-134.3063584733679
 30
0.0
 10
113.3439859742682
 20
-134.3063584733679
 30
0.0
 10
113.3439859742682
 20
-134.3063584733679
 30
0.0
 10
113.3439859742682
 20
-134.5306341894576
 30
0.0
 10
113.3439859742682
 20
-134.5306341894576
 30
0.0
  0
HATCH
  5
AB
330
9C
100
AcDbEntity
  8
_U+30EC_U+30A4_U+30E4_U+30FC 1
 62
   179
420
  2234388
100
AcDbHatch
 10
0.0
 20
0.0
 30
0.0
210
0.0
220
0.0
230
1.0
  2
SOLID
 70
     1
 71
     0
 91
        1
 92
        1
 93
        1
 72
     4
 94
        3
 73
     0
 74
     1
 95
       26
 96
       22
 40
0.0
 40
0.0
 40
0.0
 40
0.0
 40
1.0
 40
1.0
 40
1.0
 40
2.0
 40
2.0
 40
2.0
 40
3.0
 40
3.0
 40
3.0
 40
4.0
 40
4.0
 40
4.0
 40
5.0
 40
5.0
 40
5.0
 40
6.0
 40
6.0
 40
6.0
 40
7.0
 40
7.0
 40
7.0
 40
7.0
 10
113.3439859742682
 20
-134.5306341894576
 10
113.3439859742682
 20
-134.5306341894576
 10
112.2398328712456
 20
-134.5306341894576
 10
112.2398328712456
 20
-134.5306341894576
 10
112.2398328712456
 20
-134.5306341894576
 10
112.2398328712456
 20
-134.8606743369446
 10
112.2398328712456
 20
-134.8606743369446
 10
112.2398328712456
 20
-134.8606743369446
 10
112.0916937653799
 20
-134.8606743369446
 10
112.0916937653799
 20
-134.8606743369446
 10
112.0768798547933
 20
-134.5285671321665
 10
111.913926838341
 20
-134.4820583431156
 10
111.7995496682307
 20
-134.4524305219425
 10
111.7995496682307
 20
-134.4524305219425
 10
111.7995496682307
 20
-134.3063584733679
 10
111.7995496682307
 20
-134.3063584733679
 10
111.7995496682307
 20
-134.3063584733679
 10
113.3439859742682
 20
-134.3063584733679
 10
113.3439859742682
 20
-134.3063584733679
 10
113.3439859742682
 20
-134.3063584733679
 10
113.3439859742682
 20
-134.5306341894576
 10
113.3439859742682
 20
-134.5306341894576
 97
        0
 97
        0
 75
     2
 76
     1
 98
        0
  0
ENDBLK
  5
9F
330
9C
100
AcDbEntity
  8
0
100
AcDbBlockEnd
  0
BLOCK
  5
AE
330
AC
100
AcDbEntity
  8
0
100
AcDbBlockBegin
  2
block 5
 70
     0
 10
0.0
 20
0.0
 30
0.0
  3
block 5
  1

  0
SPLINE
  5
B0
330
AC
100
AcDbEntity
  8
_U+30EC_U+30A4_U+30E4_U+30FC 1
370
     0
100
AcDbSpline
210
0.0
220
0.0
230
1.0
 70
    11
 71
     3
 72
    26
 73
    22
 74
     0
 42
0.0000000001
 43
0.0000000001
 12
1.0
 22
0.0
 32
0.0
 13
1.0
 23
0.0
 33
0.0
 40
0.0
 40
0.0
 40
0.0
 40
0.0
 40
1.0
 40
1.0
 40
1.0
 40
2.0
 40
2.0
 40
2.0
 40
3.0
 40
3.0
 40
3.0
 40
4.0
 40
4.0
 40
4.0
 40
5.0
 40
5.0
 40
5.0
 40
6.0
 40
6.0
 40
6.0
 40
7.0
 40
7.0
 40
7.0
 40
7.0
 10
113.3439859742682
 20
-130.1743109483592
 30
0.0
 10
113.3439859742682
 20
-130.1743109483592
 30
0.0
 10
112.2398328712456
 20
-130.1743109483592
 30
0.0
 10
112.2398328712456
 20
-130.1743109483592
 30
0.0
 10
112.2398328712456
 20
-130.1743109483592
 30
0.0
 10
112.2398328712456
 20
-130.5043510958461
 30
0.0
 10
112.2398328712456
 20
-130.5043510958461
 30
0.0
 10
112.2398328712456
 20
-130.5043510958461
 30
0.0
 10
112.0916937653799
 20
-130.5043510958461
 30
0.0
 10
112.0916937653799
 20
-130.5043510958461
 30
0.0
 10
112.0768798547933
 20
-130.1722438910681
 30
0.0
 10
111.913926838341
 20
-130.1257351020172
 30
0.0
 10
111.7995496682307
 20
-130.096107280844
 30
0.0
 10
111.7995496682307
 20
-130.096107280844
 30
0.0
 10
111.7995496682307
 20
-129.9500352322694
 30
0.0
 10
111.7995496682307
 20
-129.9500352322694
 30
0.0
 10
111.7995496682307
 20
-129.9500352322694
 30
0.0
 10
113.3439859742682
 20
-129.9500352322694
 30
0.0
 10
113.3439859742682
 20
-129.9500352322694
 30
0.0
 10
113.3439859742682
 20
-129.9500352322694
 30
0.0
 10
113.3439859742682
 20
-130.1743109483592
 30
0.0
 10
113.3439859742682
 20
-130.1743109483592
 30
0.0
  0
HATCH
  5
B1
330
AC
100
AcDbEntity
  8
_U+30EC_U+30A4_U+30E4_U+30FC 1
 62
   179
420
  2234388
100
AcDbHatch
 10
0.0
 20
0.0
 30
0.0
210
0.0
220
0.0
230
1.0
  2
SOLID
 70
     1
 71
     0
 91
        1
 92
        1
 93
        1
 72
     4
 94
        3
 73
     0
 74
     1
 95
       26
 96
       22
 40
0.0
 40
0.0
 40
0.0
 40
0.0
 40
1.0
 40
1.0
 40
1.0
 40
2.0
 40
2.0
 40
2.0
 40
3.0
 40
3.0
 40
3.0
 40
4.0
 40
4.0
 40
4.0
 40
5.0
 40
5.0
 40
5.0
 40
6.0
 40
6.0
 40
6.0
 40
7.0
 40
7.0
 40
7.0
 40
7.0
 10
113.3439859742682
 20
-130.1743109483592
 10
113.3439859742682
 20
-130.1743109483592
 10
112.2398328712456
 20
-130.1743109483592
 10
112.2398328712456
 20
-130.1743109483592
 10
112.2398328712456
 20
-130.1743109483592
 10
112.2398328712456
 20
-130.5043510958461
 10
112.2398328712456
 20
-130.5043510958461
 10
112.2398328712456
 20
-130.5043510958461
 10
112.0916937653799
 20
-130.5043510958461
 10
112.0916937653799
 20
-130.5043510958461
 10
112.0768798547933
 20
-130.1722438910681
 10
111.913926838341
 20
-130.1257351020172
 10
111.7995496682307
 20
-130.096107280844
 10
111.7995496682307
 20
-130.096107280844
 10
111.7995496682307
 20
-129.9500352322694
 10
111.7995496682307
 20
-129.9500352322694
 10
111.7995496682307
 20
-129.9500352322694
 10
113.3439859742682
 20
-129.9500352322694
 10
113.3439859742682
 20
-129.9500352322694
 10
113.3439859742682
 20
-129.9500352322694
 10
113.3439859742682
 20
-130.1743109483592
 10
113.3439859742682
 20
-130.1743109483592
 97
        0
 97
        0
 75
     2
 76
     1
 98
        0
  0
SPLINE
  5
B2
330
AC
100
AcDbEntity
  8
_U+30EC_U+30A4_U+30E4_U+30FC 1
370
     0
100
AcDbSpline
210
0.0
220
0.0
230
1.0
 70
    11
 71
     3
 72
    29
 73
    25
 74
     0
 42
0.0000000001
 43
0.0000000001
 12
1.0
 22
0.0
 32
0.0
 13
1.0
 23
0.0
 33
0.0
 40
0.0
 40
0.0
 40
0.0
 40
0.0
 40
1.0
 40
1.0
 40
1.0
 40
2.0
 40
2.0
 40
2.0
 40
3.0
 40
3.0
 40
3.0
 40
4.0
 40
4.0
 40
4.0
 40
5.0
 40
5.0
 40
5.0
 40
6.0
 40
6.0
 40
6.0
 40
7.0
 40
7.0
 40
7.0
 40
8.0
 40
8.0
 40
8.0
 40
8.0
 10
113.1662190472293
 20
-128.5509819557095
 30
0.0
 10
113.3756808527325
 20
-128.6591579539463
 30
0.0
 10
113.3946288779014
 20
-128.8324462568544
 30
0.0
 10
113.3946288779014
 20
-128.9488904842558
 30
0.0
 10
113.3946288779014
 20
-129.109776443417
 30
0.0
 10
113.3481200888505
 20
-129.2513698678608
 30
0.0
 10
113.1662190472293
 20
-129.3464545032537
 30
0.0
 10
112.9715711523127
 20
-129.4501518773597
 30
0.0
 10
112.734893092476
 20
-129.4694444120771
 30
0.0
 10
112.5719400760237
 20
-129.4694444120771
 30
0.0
 10
112.4279350847402
 20
-129.4694444120771
 30
0.0
 10
112.1760986047685
 20
-129.4522189346508
 30
0.0
 10
111.9773165952696
 20
-129.3464545032537
 30
0.0
 10
111.7744004711883
 20
-129.2386230145653
 30
0.0
 10
111.7509738218886
 20
-129.0777370554042
 30
0.0
 10
111.7509738218886
 20
-128.9488904842558
 30
0.0
 10
111.7509738218886
 20
-128.7900715823858
 30
0.0
 10
111.7954155536484
 20
-128.6464111006509
 30
0.0
 10
111.9773165952696
 20
-128.5509819557095
 30
0.0
 10
112.169897432895
 20
-128.4517632057343
 30
0.0
 10
112.3983072635671
 20
-128.4283365564346
 30
0.0
 10
112.5719400760237
 20
-128.4283365564346
 30
0.0
 10
112.7431613216406
 20
-128.4283365564346
 30
0.0
 10
112.9736382096038
 20
-128.4496961484431
 30
0.0
 10
113.1662190472293
 20
-128.5509819557095
 30
0.0
  0
SPLINE
  5
B3
330
AC
100
AcDbEntity
  8
_U+30EC_U+30A4_U+30E4_U+30FC 1
370
     0
100
AcDbSpline
210
0.0
220
0.0
230
1.0
 70
    11
 71
     3
 72
    17
 73
    13
 74
     0
 42
0.0000000001
 43
0.0000000001
 12
1.0
 22
0.0
 32
0.0
 13
1.0
 23
0.0
 33
0.0
 40
0.0
 40
0.0
 40
0.0
 40
0.0
 40
1.0
 40
1.0
 40
1.0
 40
2.0
 40
2.0
 40
2.0
 40
3.0
 40
3.0
 40
3.0
 40
4.0
 40
4.0
 40
4.0
 40
4.0
 10
111.9435546595141
 20
-128.9488904842558
 30
0.0
 10
111.9435546595141
 20
-129.1986599069365
 30
0.0
 10
112.2270860179502
 20
-129.2451686959873
 30
0.0
 10
112.5719400760237
 20
-129.2451686959873
 30
0.0
 10
112.8913004275064
 20
-129.2451686959873
 30
0.0
 10
113.1999809829847
 20
-129.2089951933922
 30
0.0
 10
113.1999809829847
 20
-128.9488904842558
 30
0.0
 10
113.1999809829847
 20
-128.7011881188664
 30
0.0
 10
112.9188611913883
 20
-128.6526122725244
 30
0.0
 10
112.5719400760237
 20
-128.6526122725244
 30
0.0
 10
112.2522352149925
 20
-128.6526122725244
 30
0.0
 10
111.9435546595141
 20
-128.6908528324106
 30
0.0
 10
111.9435546595141
 20
-128.9488904842558
 30
0.0
  0
HATCH
  5
B4
330
AC
100
AcDbEntity
  8
_U+30EC_U+30A4_U+30E4_U+30FC 1
 62
   179
420
  2234388
100
AcDbHatch
 10
0.0
 20
0.0
 30
0.0
210
0.0
220
0.0
230
1.0
  2
SOLID
 70
     1
 71
     0
 91
        2
 92
        1
 93
        1
 72
     4
 94
        3
 73
     0
 74
     1
 95
       29
 96
       25
 40
0.0
 40
0.0
 40
0.0
 40
0.0
 40
1.0
 40
1.0
 40
1.0
 40
2.0
 40
2.0
 40
2.0
 40
3.0
 40
3.0
 40
3.0
 40
4.0
 40
4.0
 40
4.0
 40
5.0
 40
5.0
 40
5.0
 40
6.0
 40
6.0
 40
6.0
 40
7.0
 40
7.0
 40
7.0
 40
8.0
 40
8.0
 40
8.0
 40
8.0
 10
113.1662190472293
 20
-128.5509819557095
 10
113.3756808527325
 20
-128.6591579539463
 10
113.3946288779014
 20
-128.8324462568544
 10
113.3946288779014
 20
-128.9488904842558
 10
113.3946288779014
 20
-129.109776443417
 10
113.3481200888505
 20
-129.2513698678608
 10
113.1662190472293
 20
-129.3464545032537
 10
112.9715711523127
 20
-129.4501518773597
 10
112.734893092476
 20
-129.4694444120771
 10
112.5719400760237
 20
-129.4694444120771
 10
112.4279350847402
 20
-129.4694444120771
 10
112.1760986047685
 20
-129.4522189346508
 10
111.9773165952696
 20
-129.3464545032537
 10
111.7744004711883
 20
-129.2386230145653
 10
111.7509738218886
 20
-129.0777370554042
 10
111.7509738218886
 20
-128.9488904842558
 10
111.7509738218886
 20
-128.7900715823858
 10
111.7954155536484
 20
-128.6464111006509
 10
111.9773165952696
 20
-128.5509819557095
 10
112.169897432895
 20
-128.4517632057343
 10
112.3983072635671
 20
-128.4283365564346
 10
112.5719400760237
 20
-128.4283365564346
 10
112.7431613216406
 20
-128.4283365564346
 10
112.9736382096038
 20
-128.4496961484431
 10
113.1662190472293
 20
-128.5509819557095
 97
        0
 97
        0
 92
        1
 93
        1
 72
     4
 94
        3
 73
     0
 74
     1
 95
       17
 96
       13
 40
0.0
 40
0.0
 40
0.0
 40
0.0
 40
1.0
 40
1.0
 40
1.0
 40
2.0
 40
2.0
 40
2.0
 40
3.0
 40
3.0
 40
3.0
 40
4.0
 40
4.0
 40
4.0
 40
4.0
 10
111.9435546595141
 20
-128.9488904842558
 10
111.9435546595141
 20
-129.1986599069365
 10
112.2270860179502
 20
-129.2451686959873
 10
112.5719400760237
 20
-129.2451686959873
 10
112.8913004275064
 20
-129.2451686959873
 10
113.1999809829847
 20
-129.2089951933922
 10
113.1999809829847
 20
-128.9488904842558
 10
113.1999809829847
 20
-128.7011881188664
 10
112.9188611913883
 20
-128.6526122725244
 10
112.5719400760237
 20
-128.6526122725244
 10
112.2522352149925
 20
-128.6526122725244
 10
111.9435546595141
 20
-128.6908528324106
 10
111.9435546595141
 20
-128.9488904842558
 97
        0
 97
        0
 75
     2
 76
     1
 98
        0
  0
ENDBLK
  5
AF
330
AC
100
AcDbEntity
  8
0
100
AcDbBlockEnd
  0
BLOCK
  5
B7
330
B5
100
AcDbEntity
  8
0
100
AcDbBlockBegin
  2
block 6
 70
     0
 10
0.0
 20
0.0
 30
0.0
  3
block 6
  1

  0
SPLINE
  5
B9
330
B5
100
AcDbEntity
  8
_U+30EC_U+30A4_U+30E4_U+30FC 1
370
     0
100
AcDbSpline
210
0.0
220
0.0
230
1.0
 70
    11
 71
     3
 72
    62
 73
    58
 74
     0
 42
0.0000000001
 43
0.0000000001
 12
1.0
 22
0.0
 32
0.0
 13
1.0
 23
0.0
 33
0.0
 40
0.0
 40
0.0
 40
0.0
 40
0.0
 40
1.0
 40
1.0
 40
1.0
 40
2.0
 40
2.0
 40
2.0
 40
3.0
 40
3.0
 40
3.0
 40
4.0
 40
4.0
 40
4.0
 40
5.0
 40
5.0
 40
5.0
 40
6.0
 40
6.0
 40
6.0
 40
7.0
 40
7.0
 40
7.0
 40
8.0
 40
8.0
 40
8.0
 40
9.0
 40
9.0
 40
9.0
 40
10.0
 40
10.0
 40
10.0
 40
11.0
 40
11.0
 40
11.0
 40
12.0
 40
12.0
 40
12.0
 40
13.0
 40
13.0
 40
13.0
 40
14.0
 40
14.0
 40
14.0
 40
15.0
 40
15.0
 40
15.0
 40
16.0
 40
16.0
 40
16.0
 40
17.0
 40
17.0
 40
17.0
 40
18.0
 40
18.0
 40
18.0
 40
19.0
 40
19.0
 40
19.0
 40
19.0
 10
113.3946288779014
 20
-123.2155625777031
 30
0.0
 10
113.3946288779014
 20
-123.3109917226445
 30
0.0
 10
113.3736137954413
 20
-123.5287217573123
 30
0.0
 10
113.1875786392378
 20
-123.6537787234268
 30
0.0
 10
113.0752685264187
 20
-123.7278482763597
 30
0.0
 10
112.9760497764435
 20
-123.731982390942
 30
0.0
 10
112.8913004275064
 20
-123.7361165055243
 30
0.0
 10
112.8913004275064
 20
-123.7361165055243
 30
0.0
 10
112.8913004275064
 20
-123.5159749040168
 30
0.0
 10
112.8913004275064
 20
-123.5159749040168
 30
0.0
 10
112.9653699804392
 20
-123.5139078467257
 30
0.0
 10
113.1999809829847
 20
-123.5035725602699
 30
0.0
 10
113.1999809829847
 20
-123.2200412018339
 30
0.0
 10
113.1999809829847
 20
-123.0825818919724
 30
0.0
 10
113.1303900541827
 20
-122.9299641619758
 30
0.0
 10
112.9019802235106
 20
-122.9299641619758
 30
0.0
 10
112.7855359961092
 20
-122.9299641619758
 30
0.0
 10
112.7369601497672
 20
-122.9682047218621
 30
0.0
 10
112.7052652713028
 20
-122.9998996003264
 30
0.0
 10
112.63119571837
 20
-123.0739691532593
 30
0.0
 10
112.6184488650746
 20
-123.1904133806607
 30
0.0
 10
112.6184488650746
 20
-123.2451903988762
 30
0.0
 10
112.6184488650746
 20
-123.2644829335936
 30
0.0
 10
112.6205159223657
 20
-123.3003119266402
 30
0.0
 10
112.624650036948
 20
-123.3278726905222
 30
0.0
 10
112.624650036948
 20
-123.3278726905222
 30
0.0
 10
112.4300021420314
 20
-123.3278726905222
 30
0.0
 10
112.4300021420314
 20
-123.3278726905222
 30
0.0
 10
112.4365478234534
 20
-123.2896321306359
 30
0.0
 10
112.4386148807445
 20
-123.2476019657159
 30
0.0
 10
112.4386148807445
 20
-123.2410562842939
 30
0.0
 10
112.4386148807445
 20
-123.1755994700742
 30
0.0
 10
112.417255288736
 20
-122.9768174605752
 30
0.0
 10
112.1805772288993
 20
-122.9768174605752
 30
0.0
 10
112.0028103018604
 20
-122.9768174605752
 30
0.0
 10
111.9476887740964
 20
-123.1077310890147
 30
0.0
 10
111.9476887740964
 20
-123.2179741445427
 30
0.0
 10
111.9476887740964
 20
-123.4822129682614
 30
0.0
 10
112.1805772288993
 20
-123.4908257069745
 30
0.0
 10
112.2522352149925
 20
-123.4949598215568
 30
0.0
 10
112.2522352149925
 20
-123.4949598215568
 30
0.0
 10
112.2522352149925
 20
-123.6982204551866
 30
0.0
 10
112.2522352149925
 20
-123.6982204551866
 30
0.0
 10
112.1275227584265
 20
-123.6896077164734
 30
0.0
 10
111.7509738218886
 20
-123.6620469525914
 30
0.0
 10
111.7509738218886
 20
-123.2052272912473
 30
0.0
 10
111.7509738218886
 20
-122.9809515751575
 30
0.0
 10
111.8780978452944
 20
-122.7397948911901
 30
0.0
 10
112.1740315474773
 20
-122.7397948911901
 30
0.0
 10
112.3604112132293
 20
-122.7397948911901
 30
0.0
 10
112.4427489953268
 20
-122.834879526583
 30
0.0
 10
112.5040716949643
 20
-122.9344427861067
 30
0.0
 10
112.5316324588463
 20
-122.8731200864692
 30
0.0
 10
112.6119031836526
 20
-122.691219044848
 30
0.0
 10
112.8892333702152
 20
-122.691219044848
 30
0.0
 10
113.2275417468667
 20
-122.691219044848
 30
0.0
 10
113.3946288779014
 20
-122.938576900689
 30
0.0
 10
113.3946288779014
 20
-123.2155625777031
 30
0.0
  0
HATCH
  5
BA
330
B5
100
AcDbEntity
  8
_U+30EC_U+30A4_U+30E4_U+30FC 1
 62
   179
420
  2234388
100
AcDbHatch
 10
0.0
 20
0.0
 30
0.0
210
0.0
220
0.0
230
1.0
  2
SOLID
 70
     1
 71
     0
 91
        1
 92
        1
 93
        1
 72
     4
 94
        3
 73
     0
 74
     1
 95
       62
 96
       58
 40
0.0
 40
0.0
 40
0.0
 40
0.0
 40
1.0
 40
1.0
 40
1.0
 40
2.0
 40
2.0
 40
2.0
 40
3.0
 40
3.0
 40
3.0
 40
4.0
 40
4.0
 40
4.0
 40
5.0
 40
5.0
 40
5.0
 40
6.0
 40
6.0
 40
6.0
 40
7.0
 40
7.0
 40
7.0
 40
8.0
 40
8.0
 40
8.0
 40
9.0
 40
9.0
 40
9.0
 40
10.0
 40
10.0
 40
10.0
 40
11.0
 40
11.0
 40
11.0
 40
12.0
 40
12.0
 40
12.0
 40
13.0
 40
13.0
 40
13.0
 40
14.0
 40
14.0
 40
14.0
 40
15.0
 40
15.0
 40
15.0
 40
16.0
 40
16.0
 40
16.0
 40
17.0
 40
17.0
 40
17.0
 40
18.0
 40
18.0
 40
18.0
 40
19.0
 40
19.0
 40
19.0
 40
19.0
 10
113.3946288779014
 20
-123.2155625777031
 10
113.3946288779014
 20
-123.3109917226445
 10
113.3736137954413
 20
-123.5287217573123
 10
113.1875786392378
 20
-123.6537787234268
 10
113.0752685264187
 20
-123.7278482763597
 10
112.9760497764435
 20
-123.731982390942
 10
112.8913004275064
 20
-123.7361165055243
 10
112.8913004275064
 20
-123.7361165055243
 10
112.8913004275064
 20
-123.5159749040168
 10
112.8913004275064
 20
-123.5159749040168
 10
112.9653699804392
 20
-123.5139078467257
 10
113.1999809829847
 20
-123.5035725602699
 10
113.1999809829847
 20
-123.2200412018339
 10
113.1999809829847
 20
-123.0825818919724
 10
113.1303900541827
 20
-122.9299641619758
 10
112.9019802235106
 20
-122.9299641619758
 10
112.7855359961092
 20
-122.9299641619758
 10
112.7369601497672
 20
-122.9682047218621
 10
112.7052652713028
 20
-122.9998996003264
 10
112.63119571837
 20
-123.0739691532593
 10
112.6184488650746
 20
-123.1904133806607
 10
112.6184488650746
 20
-123.2451903988762
 10
112.6184488650746
 20
-123.2644829335936
 10
112.6205159223657
 20
-123.3003119266402
 10
112.624650036948
 20
-123.3278726905222
 10
112.624650036948
 20
-123.3278726905222
 10
112.4300021420314
 20
-123.3278726905222
 10
112.4300021420314
 20
-123.3278726905222
 10
112.4365478234534
 20
-123.2896321306359
 10
112.4386148807445
 20
-123.2476019657159
 10
112.4386148807445
 20
-123.2410562842939
 10
112.4386148807445
 20
-123.1755994700742
 10
112.417255288736
 20
-122.9768174605752
 10
112.1805772288993
 20
-122.9768174605752
 10
112.0028103018604
 20
-122.9768174605752
 10
111.9476887740964
 20
-123.1077310890147
 10
111.9476887740964
 20
-123.2179741445427
 10
111.9476887740964
 20
-123.4822129682614
 10
112.1805772288993
 20
-123.4908257069745
 10
112.2522352149925
 20
-123.4949598215568
 10
112.2522352149925
 20
-123.4949598215568
 10
112.2522352149925
 20
-123.6982204551866
 10
112.2522352149925
 20
-123.6982204551866
 10
112.1275227584265
 20
-123.6896077164734
 10
111.7509738218886
 20
-123.6620469525914
 10
111.7509738218886
 20
-123.2052272912473
 10
111.7509738218886
 20
-122.9809515751575
 10
111.8780978452944
 20
-122.7397948911901
 10
112.1740315474773
 20
-122.7397948911901
 10
112.3604112132293
 20
-122.7397948911901
 10
112.4427489953268
 20
-122.834879526583
 10
112.5040716949643
 20
-122.9344427861067
 10
112.5316324588463
 20
-122.8731200864692
 10
112.6119031836526
 20
-122.691219044848
 10
112.8892333702152
 20
-122.691219044848
 10
113.2275417468667
 20
-122.691219044848
 10
113.3946288779014
 20
-122.938576900689
 10
113.3946288779014
 20
-123.2155625777031
 97
        0
 97
        0
 75
     2
 76
     1
 98
        0
  0
ENDBLK
  5
B8
330
B5
100
AcDbEntity
  8
0
100
AcDbBlockEnd
  0
ENDSEC
  0
SECTION
  2
ENTITIES
  0
SPLINE
  5
41
330
1F
100
AcDbEntity
  8
_U+30EC_U+30A4_U+30E4_U+30FC 1
 62
   179
420
  2234388
370
     9
100
AcDbSpline
210
0.0
220
0.0
230
1.0
 70
    11
 71
     3
 72
    17
 73
    13
 74
     0
 42
0.0000000001
 43
0.0000000001
 12
1.0
 22
0.0
 32
0.0
 13
1.0
 23
0.0
 33
0.0
 40
0.0
 40
0.0
 40
0.0
 40
0.0
 40
1.0
 40
1.0
 40
1.0
 40
2.0
 40
2.0
 40
2.0
 40
3.0
 40
3.0
 40
3.0
 40
4.0
 40
4.0
 40
4.0
 40
4.0
 10
107.6647411421325
 20
-139.6145571873184
 30
0.0
 10
107.6647411421325
 20
-139.5594532984435
 30
0.0
 10
107.6199736432746
 20
-139.5146505206768
 30
0.0
 10
107.5648344780147
 20
-139.5146505206768
 30
0.0
 10
107.509733306456
 20
-139.5146505206768
 30
0.0
 10
107.4649305286893
 20
-139.5594532984435
 30
0.0
 10
107.4649305286893
 20
-139.6145571873184
 30
0.0
 10
107.4649305286893
 20
-139.6696963539715
 30
0.0
 10
107.509733306456
 20
-139.71446385396
 30
0.0
 10
107.5648344780147
 20
-139.71446385396
 30
0.0
 10
107.6199736432746
 20
-139.71446385396
 30
0.0
 10
107.6647411421325
 20
-139.6696963539715
 30
0.0
 10
107.6647411421325
 20
-139.6145571873184
 30
0.0
  0
SPLINE
  5
42
330
1F
100
AcDbEntity
  8
_U+30EC_U+30A4_U+30E4_U+30FC 1
 62
   179
420
  2234388
370
     9
100
AcDbSpline
210
0.0
220
0.0
230
1.0
 70
    11
 71
     3
 72
    17
 73
    13
 74
     0
 42
0.0000000001
 43
0.0000000001
 12
1.0
 22
0.0
 32
0.0
 13
1.0
 23
0.0
 33
0.0
 40
0.0
 40
0.0
 40
0.0
 40
0.0
 40
1.0
 40
1.0
 40
1.0
 40
2.0
 40
2.0
 40
2.0
 40
3.0
 40
3.0
 40
3.0
 40
4.0
 40
4.0
 40
4.0
 40
4.0
 10
67.66443410706981
 20
-139.6145571873184
 30
0.0
 10
67.66443410706981
 20
-139.5594532984435
 30
0.0
 10
67.61963133043504
 20
-139.5146505206768
 30
0.0
 10
67.56452744295197
 20
-139.5146505206768
 30
0.0
 10
67.50938827769201
 20
-139.5146505206768
 30
0.0
 10
67.46462077883413
 20
-139.5594532984435
 30
0.0
 10
67.46462077883413
 20
-139.6145571873184
 30
0.0
 10
67.46462077883413
 20
-139.6696963539715
 30
0.0
 10
67.50938827769201
 20
-139.71446385396
 30
0.0
 10
67.56452744295197
 20
-139.71446385396
 30
0.0
 10
67.61963133043504
 20
-139.71446385396
 30
0.0
 10
67.66443410706981
 20
-139.6696963539715
 30
0.0
 10
67.66443410706981
 20
-139.6145571873184
 30
0.0
  0
SPLINE
  5
43
330
1F
100
AcDbEntity
  8
_U+30EC_U+30A4_U+30E4_U+30FC 1
 62
   179
420
  2234388
370
     9
100
AcDbSpline
210
0.0
220
0.0
230
1.0
 70
    11
 71
     3
 72
    17
 73
    13
 74
     0
 42
0.0000000001
 43
0.0000000001
 12
1.0
 22
0.0
 32
0.0
 13
1.0
 23
0.0
 33
0.0
 40
0.0
 40
0.0
 40
0.0
 40
0.0
 40
1.0
 40
1.0
 40
1.0
 40
2.0
 40
2.0
 40
2.0
 40
3.0
 40
3.0
 40
3.0
 40
4.0
 40
4.0
 40
4.0
 40
4.0
 10
97.66433806393071
 20
-119.0533630257924
 30
0.0
 10
97.66433806393071
 20
-118.9982591369171
 30
0.0
 10
97.61953528729595
 20
-118.9534563591504
 30
0.0
 10
97.564396122036
 20
-118.9534563591504
 30
0.0
 10
97.50929223455293
 20
-118.9534563591504
 30
0.0
 10
97.46448945791816
 20
-118.9982591369171
 30
0.0
 10
97.46448945791816
 20
-119.0533630257924
 30
0.0
 10
97.46448945791816
 20
-119.1091724702228
 30
0.0
 10
97.50929223455293
 20
-119.1539752479892
 30
0.0
 10
97.564396122036
 20
-119.1539752479892
 30
0.0
 10
97.61953528729595
 20
-119.1539752479892
 30
0.0
 10
97.66433806393071
 20
-119.1091724702228
 30
0.0
 10
97.66433806393071
 20
-119.0533630257924
 30
0.0
  0
SPLINE
  5
44
330
1F
100
AcDbEntity
  8
_U+30EC_U+30A4_U+30E4_U+30FC 1
 62
   179
420
  2234388
370
     9
100
AcDbSpline
210
0.0
220
0.0
230
1.0
 70
    11
 71
     3
 72
    17
 73
    13
 74
     0
 42
0.0000000001
 43
0.0000000001
 12
1.0
 22
0.0
 32
0.0
 13
1.0
 23
0.0
 33
0.0
 40
0.0
 40
0.0
 40
0.0
 40
0.0
 40
1.0
 40
1.0
 40
1.0
 40
2.0
 40
2.0
 40
2.0
 40
3.0
 40
3.0
 40
3.0
 40
4.0
 40
4.0
 40
4.0
 40
4.0
 10
77.66416690751092
 20
-119.0533630257924
 30
0.0
 10
77.66416690751092
 20
-118.9982591369171
 30
0.0
 10
77.61936413087616
 20
-118.9534563591504
 30
0.0
 10
77.56426024339308
 20
-118.9534563591504
 30
0.0
 10
77.50912107813313
 20
-118.9534563591504
 30
0.0
 10
77.46435553618942
 20
-118.9982591369171
 30
0.0
 10
77.46435553618942
 20
-119.0533630257924
 30
0.0
 10
77.46435553618942
 20
-119.1091724702228
 30
0.0
 10
77.50912107813313
 20
-119.1539752479892
 30
0.0
 10
77.56426024339308
 20
-119.1539752479892
 30
0.0
 10
77.61936413087616
 20
-119.1539752479892
 30
0.0
 10
77.66416690751092
 20
-119.1091724702228
 30
0.0
 10
77.66416690751092
 20
-119.0533630257924
 30
0.0
  0
POLYLINE
  5
45
330
1F
100
AcDbEntity
  8
_U+30EC_U+30A4_U+30E4_U+30FC 1
 62
   179
420
  2234388
370
     9
100
AcDb2dPolyline
 66
     1
 10
0.0
 20
0.0
 30
0.0
  0
VERTEX
  5
46
330
45
100
AcDbEntity
  8
_U+30EC_U+30A4_U+30E4_U+30FC 1
 62
   179
420
  2234388
370
     9
100
AcDbVertex
100
AcDb2dVertex
 10
67.56452744295197
 20
-139.6145571873184
 30
0.0
  0
VERTEX
  5
47
330
45
100
AcDbEntity
  8
_U+30EC_U+30A4_U+30E4_U+30FC 1
 62
   179
420
  2234388
370
     9
100
AcDbVertex
100
AcDb2dVertex
 10
107.5648344780147
 20
-139.6145571873184
 30
0.0
  0
SEQEND
  5
48
330
45
100
AcDbEntity
  8
_U+30EC_U+30A4_U+30E4_U+30FC 1
 62
   179
420
  2234388
370
     9
  0
POLYLINE
  5
49
330
1F
100
AcDbEntity
  8
_U+30EC_U+30A4_U+30E4_U+30FC 1
 62
   179
420
  2234388
370
     9
100
AcDb2dPolyline
 66
     1
 10
0.0
 20
0.0
 30
0.0
  0
VERTEX
  5
4A
330
49
100
AcDbEntity
  8
_U+30EC_U+30A4_U+30E4_U+30FC 1
 62
   179
420
  2234388
370
     9
100
AcDbVertex
100
AcDb2dVertex
 10
67.56452744295197
 20
-138.1545157987947
 30
0.0
  0
VERTEX
  5
4B
330
49
100
AcDbEntity
  8
_U+30EC_U+30A4_U+30E4_U+30FC 1
 62
   179
420
  2234388
370
     9
100
AcDbVertex
100
AcDb2dVertex
 10
67.56452744295197
 20
-140.6143294092909
 30
0.0
  0
SEQEND
  5
4C
330
49
100
AcDbEntity
  8
_U+30EC_U+30A4_U+30E4_U+30FC 1
 62
   179
420
  2234388
370
     9
  0
POLYLINE
  5
4D
330
1F
100
AcDbEntity
  8
_U+30EC_U+30A4_U+30E4_U+30FC 1
 62
   179
420
  2234388
370
     9
100
AcDb2dPolyline
 66
     1
 10
0.0
 20
0.0
 30
0.0
  0
VERTEX
  5
4E
330
4D
100
AcDbEntity
  8
_U+30EC_U+30A4_U+30E4_U+30FC 1
 62
   179
420
  2234388
370
     9
100
AcDbVertex
100
AcDb2dVertex
 10
107.5648344780147
 20
-138.1545157987947
 30
0.0
  0
VERTEX
  5
4F
330
4D
100
AcDbEntity
  8
_U+30EC_U+30A4_U+30E4_U+30FC 1
 62
   179
420
  2234388
370
     9
100
AcDbVertex
100
AcDb2dVertex
 10
107.5648344780147
 20
-140.6143294092909
 30
0.0
  0
SEQEND
  5
50
330
4D
100
AcDbEntity
  8
_U+30EC_U+30A4_U+30E4_U+30FC 1
 62
   179
420
  2234388
370
     9
  0
INSERT
  5
52
330
1F
100
AcDbEntity
  8
_U+30EC_U+30A4_U+30E4_U+30FC 1
100
AcDbBlockReference
  2
block 2
 10
0.0
 20
0.0
 30
0.0
  0
POLYLINE
  5
6D
330
1F
100
AcDbEntity
  8
_U+30EC_U+30A4_U+30E4_U+30FC 1
 62
   179
420
  2234388
370
     9
100
AcDb2dPolyline
 66
     1
 10
0.0
 20
0.0
 30
0.0
  0
VERTEX
  5
6E
330
6D
100
AcDbEntity
  8
_U+30EC_U+30A4_U+30E4_U+30FC 1
 62
   179
420
  2234388
370
     9
100
AcDbVertex
100
AcDb2dVertex
 10
97.564396122036
 20
-119.0533630257924
 30
0.0
  0
VERTEX
  5
6F
330
6D
100
AcDbEntity
  8
_U+30EC_U+30A4_U+30E4_U+30FC 1
 62
   179
420
  2234388
370
     9
100
AcDbVertex
100
AcDb2dVertex
 10
77.56426024339308
 20
-119.0533630257924
 30
0.0
  0
SEQEND
  5
70
330
6D
100
AcDbEntity
  8
_U+30EC_U+30A4_U+30E4_U+30FC 1
 62
   179
420
  2234388
370
     9
  0
POLYLINE
  5
71
330
1F
100
AcDbEntity
  8
_U+30EC_U+30A4_U+30E4_U+30FC 1
 62
   179
420
  2234388
370
     9
100
AcDb2dPolyline
 66
     1
 10
0.0
 20
0.0
 30
0.0
  0
VERTEX
  5
72
330
71
100
AcDbEntity
  8
_U+30EC_U+30A4_U+30E4_U+30FC 1
 62
   179
420
  2234388
370
     9
100
AcDbVertex
100
AcDb2dVertex
 10
97.564396122036
 20
-120.5135808032049
 30
0.0
  0
VERTEX
  5
73
330
71
100
AcDbEntity
  8
_U+30EC_U+30A4_U+30E4_U+30FC 1
 62
   179
420
  2234388
370
     9
100
AcDbVertex
100
AcDb2dVertex
 10
97.564396122036
 20
-118.0535908038198
 30
0.0
  0
SEQEND
  5
74
330
71
100
AcDbEntity
  8
_U+30EC_U+30A4_U+30E4_U+30FC 1
 62
   179
420
  2234388
370
     9
  0
POLYLINE
  5
75
330
1F
100
AcDbEntity
  8
_U+30EC_U+30A4_U+30E4_U+30FC 1
 62
   179
420
  2234388
370
     9
100
AcDb2dPolyline
 66
     1
 10
0.0
 20
0.0
 30
0.0
  0
VERTEX
  5
76
330
75
100
AcDbEntity
  8
_U+30EC_U+30A4_U+30E4_U+30FC 1
 62
   179
420
  2234388
370
     9
100
AcDbVertex
100
AcDb2dVertex
 10
77.56426024339308
 20
-120.5135808032049
 30
0.0
  0
VERTEX
  5
77
330
75
100
AcDbEntity
  8
_U+30EC_U+30A4_U+30E4_U+30FC 1
 62
   179
420
  2234388
370
     9
100
AcDbVertex
100
AcDb2dVertex
 10
77.56426024339308
 20
-118.0535908038198
 30
0.0
  0
SEQEND
  5
78
330
75
100
AcDbEntity
  8
_U+30EC_U+30A4_U+30E4_U+30FC 1
 62
   179
420
  2234388
370
     9
  0
INSERT
  5
7A
330
1F
100
AcDbEntity
  8
_U+30EC_U+30A4_U+30E4_U+30FC 1
100
AcDbBlockReference
  2
block 3
 10
0.0
 20
0.0
 30
0.0
  0
SPLINE
  5
82
330
1F
100
AcDbEntity
  8
_U+30EC_U+30A4_U+30E4_U+30FC 1
 62
   179
420
  2234388
370
    25
100
AcDbSpline
210
0.0
220
0.0
230
1.0
 70
    11
 71
     3
 72
    59
 73
    55
 74
     0
 42
0.0000000001
 43
0.0000000001
 12
1.0
 22
0.0
 32
0.0
 13
1.0
 23
0.0
 33
0.0
 40
0.0
 40
0.0
 40
0.0
 40
0.0
 40
1.0
 40
1.0
 40
1.0
 40
2.0
 40
2.0
 40
2.0
 40
3.0
 40
3.0
 40
3.0
 40
4.0
 40
4.0
 40
4.0
 40
5.0
 40
5.0
 40
5.0
 40
6.0
 40
6.0
 40
6.0
 40
7.0
 40
7.0
 40
7.0
 40
8.0
 40
8.0
 40
8.0
 40
9.0
 40
9.0
 40
9.0
 40
10.0
 40
10.0
 40
10.0
 40
11.0
 40
11.0
 40
11.0
 40
12.0
 40
12.0
 40
12.0
 40
13.0
 40
13.0
 40
13.0
 40
14.0
 40
14.0
 40
14.0
 40
15.0
 40
15.0
 40
15.0
 40
16.0
 40
16.0
 40
16.0
 40
17.0
 40
17.0
 40
17.0
 40
18.0
 40
18.0
 40
18.0
 40
18.0
 10
68.2259857594101
 20
-135.6141277438741
 30
0.0
 10
67.40260244708301
 20
-135.6141277438741
 30
0.0
 10
67.57486383157715
 20
-134.891321355166
 30
0.0
 10
67.57486383157715
 20
-134.891321355166
 30
0.0
 10
67.60791910851162
 20
-134.4889430219331
 30
0.0
 10
68.2259857594101
 20
-134.5137432997051
 30
0.0
 10
68.2259857594101
 20
-134.5137432997051
 30
0.0
 10
68.2259857594101
 20
-134.5137432997051
 30
0.0
 10
87.06445972324502
 20
-134.5137432997051
 30
0.0
 10
87.06445972324502
 20
-134.5137432997051
 30
0.0
 10
87.06445972324502
 20
-134.5137432997051
 30
0.0
 10
87.06445972324502
 20
-122.5139719138159
 30
0.0
 10
87.06445972324502
 20
-122.5139719138159
 30
0.0
 10
87.06445972324502
 20
-122.5139719138159
 30
0.0
 10
78.56470271786966
 20
-122.5139719138159
 30
0.0
 10
78.56470271786966
 20
-122.5139719138159
 30
0.0
 10
78.56470271786966
 20
-122.5139719138159
 30
0.0
 10
78.56470271786966
 20
-124.5138338577603
 30
0.0
 10
78.56470271786966
 20
-124.5138338577603
 30
0.0
 10
78.56470271786966
 20
-124.5138338577603
 30
0.0
 10
77.56426024339308
 20
-124.5138338577603
 30
0.0
 10
77.56426024339308
 20
-124.5138338577603
 30
0.0
 10
77.56426024339308
 20
-124.5138338577603
 30
0.0
 10
77.56426024339308
 20
-121.513846914066
 30
0.0
 10
77.56426024339308
 20
-121.513846914066
 30
0.0
 10
77.56426024339308
 20
-121.513846914066
 30
0.0
 10
97.564396122036
 20
-121.513846914066
 30
0.0
 10
97.564396122036
 20
-121.513846914066
 30
0.0
 10
97.564396122036
 20
-121.513846914066
 30
0.0
 10
97.564396122036
 20
-124.5138338577603
 30
0.0
 10
97.564396122036
 20
-124.5138338577603
 30
0.0
 10
97.564396122036
 20
-124.5138338577603
 30
0.0
 10
96.56465920309697
 20
-124.5138338577603
 30
0.0
 10
96.56465920309697
 20
-124.5138338577603
 30
0.0
 10
96.56465920309697
 20
-124.5138338577603
 30
0.0
 10
96.56465920309697
 20
-122.5139719138159
 30
0.0
 10
96.56465920309697
 20
-122.5139719138159
 30
0.0
 10
96.56465920309697
 20
-122.5139719138159
 30
0.0
 10
88.06423191996093
 20
-122.5139719138159
 30
0.0
 10
88.06423191996093
 20
-122.5139719138159
 30
0.0
 10
88.06423191996093
 20
-122.5139719138159
 30
0.0
 10
88.06423191996093
 20
-134.5137432997051
 30
0.0
 10
88.06423191996093
 20
-134.5137432997051
 30
0.0
 10
88.06423191996093
 20
-134.5137432997051
 30
0.0
 10
106.9027058837959
 20
-134.5137432997051
 30
0.0
 10
106.9027058837959
 20
-134.5137432997051
 30
0.0
 10
106.9027058837959
 20
-134.5137432997051
 30
0.0
 10
107.5207372569175
 20
-134.4889430219331
 30
0.0
 10
107.5538305286672
 20
-134.891321355166
 30
0.0
 10
107.5538305286672
 20
-134.891321355166
 30
0.0
 10
107.7260539183461
 20
-135.6141277438741
 30
0.0
 10
106.9027058837959
 20
-135.6141277438741
 30
0.0
 10
106.9027058837959
 20
-135.6141277438741
 30
0.0
 10
68.2259857594101
 20
-135.6141277438741
 30
0.0
 10
68.2259857594101
 20
-135.6141277438741
 30
0.0
  0
HATCH
  5
83
330
1F
100
AcDbEntity
  8
_U+30EC_U+30A4_U+30E4_U+30FC 1
 62
     9
420
 13224394
100
AcDbHatch
 10
0.0
 20
0.0
 30
0.0
210
0.0
220
0.0
230
1.0
  2
SOLID
 70
     1
 71
     0
 91
        1
 92
        1
 93
        1
 72
     4
 94
        3
 73
     0
 74
     1
 95
       59
 96
       55
 40
0.0
 40
0.0
 40
0.0
 40
0.0
 40
1.0
 40
1.0
 40
1.0
 40
2.0
 40
2.0
 40
2.0
 40
3.0
 40
3.0
 40
3.0
 40
4.0
 40
4.0
 40
4.0
 40
5.0
 40
5.0
 40
5.0
 40
6.0
 40
6.0
 40
6.0
 40
7.0
 40
7.0
 40
7.0
 40
8.0
 40
8.0
 40
8.0
 40
9.0
 40
9.0
 40
9.0
 40
10.0
 40
10.0
 40
10.0
 40
11.0
 40
11.0
 40
11.0
 40
12.0
 40
12.0
 40
12.0
 40
13.0
 40
13.0
 40
13.0
 40
14.0
 40
14.0
 40
14.0
 40
15.0
 40
15.0
 40
15.0
 40
16.0
 40
16.0
 40
16.0
 40
17.0
 40
17.0
 40
17.0
 40
18.0
 40
18.0
 40
18.0
 40
18.0
 10
68.2259857594101
 20
-135.6141277438741
 10
67.40260244708301
 20
-135.6141277438741
 10
67.57486383157715
 20
-134.891321355166
 10
67.57486383157715
 20
-134.891321355166
 10
67.60791910851162
 20
-134.4889430219331
 10
68.2259857594101
 20
-134.5137432997051
 10
68.2259857594101
 20
-134.5137432997051
 10
68.2259857594101
 20
-134.5137432997051
 10
87.06445972324502
 20
-134.5137432997051
 10
87.06445972324502
 20
-134.5137432997051
 10
87.06445972324502
 20
-134.5137432997051
 10
87.06445972324502
 20
-122.5139719138159
 10
87.06445972324502
 20
-122.5139719138159
 10
87.06445972324502
 20
-122.5139719138159
 10
78.56470271786966
 20
-122.5139719138159
 10
78.56470271786966
 20
-122.5139719138159
 10
78.56470271786966
 20
-122.5139719138159
 10
78.56470271786966
 20
-124.5138338577603
 10
78.56470271786966
 20
-124.5138338577603
 10
78.56470271786966
 20
-124.5138338577603
 10
77.56426024339308
 20
-124.5138338577603
 10
77.56426024339308
 20
-124.5138338577603
 10
77.56426024339308
 20
-124.5138338577603
 10
77.56426024339308
 20
-121.513846914066
 10
77.56426024339308
 20
-121.513846914066
 10
77.56426024339308
 20
-121.513846914066
 10
97.564396122036
 20
-121.513846914066
 10
97.564396122036
 20
-121.513846914066
 10
97.564396122036
 20
-121.513846914066
 10
97.564396122036
 20
-124.5138338577603
 10
97.564396122036
 20
-124.5138338577603
 10
97.564396122036
 20
-124.5138338577603
 10
96.56465920309697
 20
-124.5138338577603
 10
96.56465920309697
 20
-124.5138338577603
 10
96.56465920309697
 20
-124.5138338577603
 10
96.56465920309697
 20
-122.5139719138159
 10
96.56465920309697
 20
-122.5139719138159
 10
96.56465920309697
 20
-122.5139719138159
 10
88.06423191996093
 20
-122.5139719138159
 10
88.06423191996093
 20
-122.5139719138159
 10
88.06423191996093
 20
-122.5139719138159
 10
88.06423191996093
 20
-134.5137432997051
 10
88.06423191996093
 20
-134.5137432997051
 10
88.06423191996093
 20
-134.5137432997051
 10
106.9027058837959
 20
-134.5137432997051
 10
106.9027058837959
 20
-134.5137432997051
 10
106.9027058837959
 20
-134.5137432997051
 10
107.5207372569175
 20
-134.4889430219331
 10
107.5538305286672
 20
-134.891321355166
 10
107.5538305286672
 20
-134.891321355166
 10
107.7260539183461
 20
-135.6141277438741
 10
106.9027058837959
 20
-135.6141277438741
 10
106.9027058837959
 20
-135.6141277438741
 10
68.2259857594101
 20
-135.6141277438741
 10
68.2259857594101
 20
-135.6141277438741
 97
        0
 97
        0
 75
     2
 76
     1
 98
        0
  0
SPLINE
  5
84
330
1F
100
AcDbEntity
  8
_U+30EC_U+30A4_U+30E4_U+30FC 1
 62
   179
420
  2234388
370
     9
100
AcDbSpline
210
0.0
220
0.0
230
1.0
 70
    11
 71
     3
 72
    17
 73
    13
 74
     0
 42
0.0000000001
 43
0.0000000001
 12
1.0
 22
0.0
 32
0.0
 13
1.0
 23
0.0
 33
0.0
 40
0.0
 40
0.0
 40
0.0
 40
0.0
 40
1.0
 40
1.0
 40
1.0
 40
2.0
 40
2.0
 40
2.0
 40
3.0
 40
3.0
 40
3.0
 40
4.0
 40
4.0
 40
4.0
 40
4.0
 10
110.1372899679414
 20
-135.6141277438741
 30
0.0
 10
110.1372899679414
 20
-135.558988577221
 30
0.0
 10
110.0924871913067
 20
-135.5142210772325
 30
0.0
 10
110.0373860836016
 20
-135.5142210772325
 30
0.0
 10
109.9822441385636
 20
-135.5142210772325
 30
0.0
 10
109.9374766397057
 20
-135.558988577221
 30
0.0
 10
109.9374766397057
 20
-135.6141277438741
 30
0.0
 10
109.9374766397057
 20
-135.669231632749
 30
0.0
 10
109.9822441385636
 20
-135.7140344105158
 30
0.0
 10
110.0373860836016
 20
-135.7140344105158
 30
0.0
 10
110.0924871913067
 20
-135.7140344105158
 30
0.0
 10
110.1372899679414
 20
-135.669231632749
 30
0.0
 10
110.1372899679414
 20
-135.6141277438741
 30
0.0
  0
SPLINE
  5
85
330
1F
100
AcDbEntity
  8
_U+30EC_U+30A4_U+30E4_U+30FC 1
 62
   179
420
  2234388
370
     9
100
AcDbSpline
210
0.0
220
0.0
230
1.0
 70
    11
 71
     3
 72
    17
 73
    13
 74
     0
 42
0.0000000001
 43
0.0000000001
 12
1.0
 22
0.0
 32
0.0
 13
1.0
 23
0.0
 33
0.0
 40
0.0
 40
0.0
 40
0.0
 40
0.0
 40
1.0
 40
1.0
 40
1.0
 40
2.0
 40
2.0
 40
2.0
 40
3.0
 40
3.0
 40
3.0
 40
4.0
 40
4.0
 40
4.0
 40
4.0
 10
110.1372899679414
 20
-134.5137432997051
 30
0.0
 10
110.1372899679414
 20
-134.4586394108295
 30
0.0
 10
110.0924871913067
 20
-134.4141894108412
 30
0.0
 10
110.0373860836016
 20
-134.4141894108412
 30
0.0
 10
109.9822441385636
 20
-134.4141894108412
 30
0.0
 10
109.9374766397057
 20
-134.4586394108295
 30
0.0
 10
109.9374766397057
 20
-134.5137432997051
 30
0.0
 10
109.9374766397057
 20
-134.5688824663575
 30
0.0
 10
109.9822441385636
 20
-134.6136499663467
 30
0.0
 10
110.0373860836016
 20
-134.6136499663467
 30
0.0
 10
110.0924871913067
 20
-134.6136499663467
 30
0.0
 10
110.1372899679414
 20
-134.5688824663575
 30
0.0
 10
110.1372899679414
 20
-134.5137432997051
 30
0.0
  0
SPLINE
  5
86
330
1F
100
AcDbEntity
  8
_U+30EC_U+30A4_U+30E4_U+30FC 1
 62
   179
420
  2234388
370
     9
100
AcDbSpline
210
0.0
220
0.0
230
1.0
 70
    11
 71
     3
 72
    17
 73
    13
 74
     0
 42
0.0000000001
 43
0.0000000001
 12
1.0
 22
0.0
 32
0.0
 13
1.0
 23
0.0
 33
0.0
 40
0.0
 40
0.0
 40
0.0
 40
0.0
 40
1.0
 40
1.0
 40
1.0
 40
2.0
 40
2.0
 40
2.0
 40
3.0
 40
3.0
 40
3.0
 40
4.0
 40
4.0
 40
4.0
 40
4.0
 10
110.1372899679414
 20
-124.5138338577603
 30
0.0
 10
110.1372899679414
 20
-124.4587299688854
 30
0.0
 10
110.0924871913067
 20
-124.4141035800075
 30
0.0
 10
110.0373860836016
 20
-124.4141035800075
 30
0.0
 10
109.9822441385636
 20
-124.4141035800075
 30
0.0
 10
109.9374766397057
 20
-124.4587299688854
 30
0.0
 10
109.9374766397057
 20
-124.5138338577603
 30
0.0
 10
109.9374766397057
 20
-124.5689730244134
 30
0.0
 10
109.9822441385636
 20
-124.6137405244023
 30
0.0
 10
110.0373860836016
 20
-124.6137405244023
 30
0.0
 10
110.0924871913067
 20
-124.6137405244023
 30
0.0
 10
110.1372899679414
 20
-124.5689730244134
 30
0.0
 10
110.1372899679414
 20
-124.5138338577603
 30
0.0
  0
SPLINE
  5
87
330
1F
100
AcDbEntity
  8
_U+30EC_U+30A4_U+30E4_U+30FC 1
 62
   179
420
  2234388
370
     9
100
AcDbSpline
210
0.0
220
0.0
230
1.0
 70
    11
 71
     3
 72
    17
 73
    13
 74
     0
 42
0.0000000001
 43
0.0000000001
 12
1.0
 22
0.0
 32
0.0
 13
1.0
 23
0.0
 33
0.0
 40
0.0
 40
0.0
 40
0.0
 40
0.0
 40
1.0
 40
1.0
 40
1.0
 40
2.0
 40
2.0
 40
2.0
 40
3.0
 40
3.0
 40
3.0
 40
4.0
 40
4.0
 40
4.0
 40
4.0
 10
110.1372899679414
 20
-121.513846914066
 30
0.0
 10
110.1372899679414
 20
-121.4587430251907
 30
0.0
 10
110.0924871913067
 20
-121.4141166363132
 30
0.0
 10
110.0373860836016
 20
-121.4141166363132
 30
0.0
 10
109.9822441385636
 20
-121.4141166363132
 30
0.0
 10
109.9374766397057
 20
-121.4587430251907
 30
0.0
 10
109.9374766397057
 20
-121.513846914066
 30
0.0
 10
109.9374766397057
 20
-121.5689860807187
 30
0.0
 10
109.9822441385636
 20
-121.6137535807076
 30
0.0
 10
110.0373860836016
 20
-121.6137535807076
 30
0.0
 10
110.0924871913067
 20
-121.6137535807076
 30
0.0
 10
110.1372899679414
 20
-121.5689860807187
 30
0.0
 10
110.1372899679414
 20
-121.513846914066
 30
0.0
  0
POLYLINE
  5
88
330
1F
100
AcDbEntity
  8
_U+30EC_U+30A4_U+30E4_U+30FC 1
 62
   179
420
  2234388
370
     9
100
AcDb2dPolyline
 66
     1
 10
0.0
 20
0.0
 30
0.0
  0
VERTEX
  5
89
330
88
100
AcDbEntity
  8
_U+30EC_U+30A4_U+30E4_U+30FC 1
 62
   179
420
  2234388
370
     9
100
AcDbVertex
100
AcDb2dVertex
 10
110.0373860836016
 20
-135.615503577207
 30
0.0
  0
VERTEX
  5
8A
330
88
100
AcDbEntity
  8
_U+30EC_U+30A4_U+30E4_U+30FC 1
 62
   179
420
  2234388
370
     9
100
AcDbVertex
100
AcDb2dVertex
 10
110.0373860836016
 20
-121.5153991362877
 30
0.0
  0
SEQEND
  5
8B
330
88
100
AcDbEntity
  8
_U+30EC_U+30A4_U+30E4_U+30FC 1
 62
   179
420
  2234388
370
     9
  0
POLYLINE
  5
8C
330
1F
100
AcDbEntity
  8
_U+30EC_U+30A4_U+30E4_U+30FC 1
 62
   179
420
  2234388
370
     9
100
AcDb2dPolyline
 66
     1
 10
0.0
 20
0.0
 30
0.0
  0
VERTEX
  5
8D
330
8C
100
AcDbEntity
  8
_U+30EC_U+30A4_U+30E4_U+30FC 1
 62
   179
420
  2234388
370
     9
100
AcDbVertex
100
AcDb2dVertex
 10
108.5773419521835
 20
-135.6141277438741
 30
0.0
  0
VERTEX
  5
8E
330
8C
100
AcDbEntity
  8
_U+30EC_U+30A4_U+30E4_U+30FC 1
 62
   179
420
  2234388
370
     9
100
AcDbVertex
100
AcDb2dVertex
 10
111.0378257783002
 20
-135.6141277438741
 30
0.0
  0
SEQEND
  5
8F
330
8C
100
AcDbEntity
  8
_U+30EC_U+30A4_U+30E4_U+30FC 1
 62
   179
420
  2234388
370
     9
  0
POLYLINE
  5
90
330
1F
100
AcDbEntity
  8
_U+30EC_U+30A4_U+30E4_U+30FC 1
 62
   179
420
  2234388
370
     9
100
AcDb2dPolyline
 66
     1
 10
0.0
 20
0.0
 30
0.0
  0
VERTEX
  5
91
330
90
100
AcDbEntity
  8
_U+30EC_U+30A4_U+30E4_U+30FC 1
 62
   179
420
  2234388
370
     9
100
AcDbVertex
100
AcDb2dVertex
 10
108.5773419521835
 20
-134.5137432997051
 30
0.0
  0
VERTEX
  5
92
330
90
100
AcDbEntity
  8
_U+30EC_U+30A4_U+30E4_U+30FC 1
 62
   179
420
  2234388
370
     9
100
AcDbVertex
100
AcDb2dVertex
 10
111.0378257783002
 20
-134.5137432997051
 30
0.0
  0
SEQEND
  5
93
330
90
100
AcDbEntity
  8
_U+30EC_U+30A4_U+30E4_U+30FC 1
 62
   179
420
  2234388
370
     9
  0
POLYLINE
  5
94
330
1F
100
AcDbEntity
  8
_U+30EC_U+30A4_U+30E4_U+30FC 1
 62
   179
420
  2234388
370
     9
100
AcDb2dPolyline
 66
     1
 10
0.0
 20
0.0
 30
0.0
  0
VERTEX
  5
95
330
94
100
AcDbEntity
  8
_U+30EC_U+30A4_U+30E4_U+30FC 1
 62
   179
420
  2234388
370
     9
100
AcDbVertex
100
AcDb2dVertex
 10
104.5772653875672
 20
-124.5138338577603
 30
0.0
  0
VERTEX
  5
96
330
94
100
AcDbEntity
  8
_U+30EC_U+30A4_U+30E4_U+30FC 1
 62
   179
420
  2234388
370
     9
100
AcDbVertex
100
AcDb2dVertex
 10
111.0378257783002
 20
-124.5138338577603
 30
0.0
  0
SEQEND
  5
97
330
94
100
AcDbEntity
  8
_U+30EC_U+30A4_U+30E4_U+30FC 1
 62
   179
420
  2234388
370
     9
  0
POLYLINE
  5
98
330
1F
100
AcDbEntity
  8
_U+30EC_U+30A4_U+30E4_U+30FC 1
 62
   179
420
  2234388
370
     9
100
AcDb2dPolyline
 66
     1
 10
0.0
 20
0.0
 30
0.0
  0
VERTEX
  5
99
330
98
100
AcDbEntity
  8
_U+30EC_U+30A4_U+30E4_U+30FC 1
 62
   179
420
  2234388
370
     9
100
AcDbVertex
100
AcDb2dVertex
 10
104.5772653875672
 20
-121.513846914066
 30
0.0
  0
VERTEX
  5
9A
330
98
100
AcDbEntity
  8
_U+30EC_U+30A4_U+30E4_U+30FC 1
 62
   179
420
  2234388
370
     9
100
AcDbVertex
100
AcDb2dVertex
 10
111.0378257783002
 20
-121.513846914066
 30
0.0
  0
SEQEND
  5
9B
330
98
100
AcDbEntity
  8
_U+30EC_U+30A4_U+30E4_U+30FC 1
 62
   179
420
  2234388
370
     9
  0
INSERT
  5
9D
330
1F
100
AcDbEntity
  8
_U+30EC_U+30A4_U+30E4_U+30FC 1
100
AcDbBlockReference
  2
block 4
 10
0.0
 20
0.0
 30
0.0
  0
INSERT
  5
AD
330
1F
100
AcDbEntity
  8
_U+30EC_U+30A4_U+30E4_U+30FC 1
100
AcDbBlockReference
  2
block 5
 10
0.0
 20
0.0
 30
0.0
  0
INSERT
  5
B6
330
1F
100
AcDbEntity
  8
_U+30EC_U+30A4_U+30E4_U+30FC 1
100
AcDbBlockReference
  2
block 6
 10
0.0
 20
0.0
 30
0.0
  0
ENDSEC
  0
SECTION
  2
OBJECTS
  0
DICTIONARY
  5
C
330
0
100
AcDbDictionary
281
     1
  3
ACAD_GROUP
350
D
  3
ACAD_LAYOUT
350
1A
  3
ACAD_MATERIAL
350
3B
  3
ACAD_MLEADERSTYLE
350
BC
  3
ACAD_MLINESTYLE
350
17
  3
ACAD_PLOTSETTINGS
350
19
  3
ACAD_PLOTSTYLENAME
350
E
  3
ACAD_TABLESTYLE
350
BB
  3
ACAD_VISUALSTYLE
350
2A
  0
SUN
  5
3F
330
29
100
AcDbSun
 90
        1
290
     0
 63
     7
421
 16777215
 40
1.0
291
     1
 91
  2455826
 92
 54000000
292
     0
 70
     2
 71
   256
280
     1
  0
DICTIONARY
  5
D
102
{ACAD_REACTORS
330
C
102
}
330
C
100
AcDbDictionary
281
     1
  0
DICTIONARY
  5
1A
102
{ACAD_REACTORS
330
C
102
}
330
C
100
AcDbDictionary
281
     1
  3
Layout1
350
1E
  3
Layout2
350
26
  3
Model
350
22
  0
DICTIONARY
  5
3B
102
{ACAD_REACTORS
330
C
102
}
330
C
100
AcDbDictionary
281
     1
  3
ByBlock
350
3D
  3
ByLayer
350
3C
  3
Global
350
3E
  0
DICTIONARY
  5
BC
102
{ACAD_REACTORS
330
C
102
}
330
C
100
AcDbDictionary
281
     1
  0
DICTIONARY
  5
17
102
{ACAD_REACTORS
330
C
102
}
330
C
100
AcDbDictionary
281
     1
  3
Standard
350
18
  0
DICTIONARY
  5
19
102
{ACAD_REACTORS
330
C
102
}
330
C
100
AcDbDictionary
281
     1
  0
ACDBDICTIONARYWDFLT
  5
E
102
{ACAD_REACTORS
330
C
102
}
330
C
100
AcDbDictionary
281
     1
  3
Normal
350
F
100
AcDbDictionaryWithDefault
340
F
  0
DICTIONARY
  5
BB
102
{ACAD_REACTORS
330
C
102
}
330
C
100
AcDbDictionary
281
     1
  0
DICTIONARY
  5
2A
102
{ACAD_REACTORS
330
C
102
}
330
C
100
AcDbDictionary
281
     1
  3
2dWireframe
350
2F
  3
3D Hidden
350
31
  3
3dWireframe
350
30
  3
Basic
350
32
  3
Brighten
350
36
  3
ColorChange
350
3A
  3
Conceptual
350
34
  3
Dim
350
35
  3
Facepattern
350
39
  3
Flat
350
2B
  3
FlatWithEdges
350
2C
  3
Gouraud
350
2D
  3
GouraudWithEdges
350
2E
  3
Linepattern
350
38
  3
Realistic
350
33
  3
Thicken
350
37
  0
LAYOUT
  5
1E
102
{ACAD_REACTORS
330
1A
102
}
330
1A
100
AcDbPlotSettings
  1

  2
none_device
  4

  6

 40
0.0
 41
0.0
 42
0.0
 43
0.0
 44
0.0
 45
0.0
 46
0.0
 47
0.0
 48
0.0
 49
0.0
140
0.0
141
0.0
142
1.0
143
1.0
 70
   688
 72
     0
 73
     0
 74
     5
  7

 75
    16
 76
     0
 77
     2
 78
   300
147
1.0
148
0.0
149
0.0
100
AcDbLayout
  1
Layout1
 70
     1
 71
     1
 10
0.0
 20
0.0
 11
12.0
 21
9.0
 12
0.0
 22
0.0
 32
0.0
 14
1.000000000000000E+20
 24
1.000000000000000E+20
 34
1.000000000000000E+20
 15
-1.000000000000000E+20
 25
-1.000000000000000E+20
 35
-1.000000000000000E+20
146
0.0
 13
0.0
 23
0.0
 33
0.0
 16
1.0
 26
0.0
 36
0.0
 17
0.0
 27
1.0
 37
0.0
 76
     0
330
1B
  0
LAYOUT
  5
26
102
{ACAD_REACTORS
330
1A
102
}
330
1A
100
AcDbPlotSettings
  1

  2
none_device
  4

  6

 40
0.0
 41
0.0
 42
0.0
 43
0.0
 44
0.0
 45
0.0
 46
0.0
 47
0.0
 48
0.0
 49
0.0
140
0.0
141
0.0
142
1.0
143
1.0
 70
   688
 72
     0
 73
     0
 74
     5
  7

 75
    16
 76
     0
 77
     2
 78
   300
147
1.0
148
0.0
149
0.0
100
AcDbLayout
  1
Layout2
 70
     1
 71
     2
 10
0.0
 20
0.0
 11
0.0
 21
0.0
 12
0.0
 22
0.0
 32
0.0
 14
0.0
 24
0.0
 34
0.0
 15
0.0
 25
0.0
 35
0.0
146
0.0
 13
0.0
 23
0.0
 33
0.0
 16
1.0
 26
0.0
 36
0.0
 17
0.0
 27
1.0
 37
0.0
 76
     0
330
23
  0
LAYOUT
  5
22
102
{ACAD_REACTORS
330
1A
102
}
330
1A
100
AcDbPlotSettings
  1

  2
none_device
  4

  6

 40
0.0
 41
0.0
 42
0.0
 43
0.0
 44
0.0
 45
0.0
 46
0.0
 47
0.0
 48
0.0
 49
0.0
140
0.0
141
0.0
142
1.0
143
1.0
 70
  1712
 72
     0
 73
     0
 74
     0
  7

 75
     0
 76
     0
 77
     2
 78
   300
147
1.0
148
0.0
149
0.0
100
AcDbLayout
  1
Model
 70
     1
 71
     0
 10
0.0
 20
0.0
 11
12.0
 21
9.0
 12
0.0
 22
0.0
 32
0.0
 14
1.000000000000000E+20
 24
1.000000000000000E+20
 34
1.000000000000000E+20
 15
-1.000000000000000E+20
 25
-1.000000000000000E+20
 35
-1.000000000000000E+20
146
0.0
 13
0.0
 23
0.0
 33
0.0
 16
1.0
 26
0.0
 36
0.0
 17
0.0
 27
1.0
 37
0.0
 76
     0
330
1F
331
29
  0
MATERIAL
  5
3D
102
{ACAD_REACTORS
330
3B
102
}
330
3B
100
AcDbMaterial
  1
ByBlock
 72
     1
 94
      127
  0
MATERIAL
  5
3C
102
{ACAD_REACTORS
330
3B
102
}
330
3B
100
AcDbMaterial
  1
ByLayer
 72
     1
 94
      127
  0
MATERIAL
  5
3E
102
{ACAD_REACTORS
330
3B
102
}
330
3B
100
AcDbMaterial
  1
Global
 72
     1
 94
      127
  0
MLINESTYLE
  5
18
102
{ACAD_REACTORS
330
17
102
}
330
17
100
AcDbMlineStyle
  2
Standard
 70
     0
  3

 62
   256
 51
90.0
 52
90.0
 71
     2
 49
0.5
 62
   256
  6
BYLAYER
 49
-0.5
 62
   256
  6
BYLAYER
  0
ACDBPLACEHOLDER
  5
F
102
{ACAD_REACTORS
330
E
102
}
330
E
  0
VISUALSTYLE
  5
2F
102
{ACAD_REACTORS
330
2A
102
}
330
2A
100
AcDbVisualStyle
  2
2dWireframe
 70
     4
177
     2
291
     0
 71
     0
176
     1
 72
     2
176
     1
 73
     0
176
     1
 90
        0
176
     1
 40
-0.6
176
     1
 41
-30.0
176
     1
 62
     5
 63
     7
421
 16777215
176
     1
 74
     1
176
     1
 91
        4
176
     1
 64
     7
176
     1
 65
   257
176
     1
 75
     1
176
     1
175
     1
176
     1
 42
1.0
176
     1
 92
        0
176
     1
 66
   257
176
     1
 43
1.0
176
     1
 76
     1
176
     1
 77
     6
176
     1
 78
     2
176
     1
 67
     7
176
     1
 79
     5
176
     1
170
     0
176
     1
171
     0
176
     1
290
     0
176
     1
 93
        1
176
     1
 44
0.0
176
     1
173
     0
176
     1
  0
VISUALSTYLE
  5
31
102
{ACAD_REACTORS
330
2A
102
}
330
2A
100
AcDbVisualStyle
  2
3D Hidden
 70
     6
177
     2
291
     0
 71
     1
176
     1
 72
     2
176
     1
 73
     2
176
     1
 90
        0
176
     1
 40
-0.6
176
     1
 41
-30.0
176
     1
 62
     5
 63
     7
421
 16777215
176
     1
 74
     2
176
     1
 91
        2
176
     1
 64
     7
176
     1
 65
   257
176
     1
 75
     2
176
     1
175
     1
176
     1
 42
40.0
176
     1
 92
        0
176
     1
 66
   257
176
     1
 43
1.0
176
     1
 76
     1
176
     1
 77
     6
176
     1
 78
     2
176
     1
 67
     7
176
     1
 79
     3
176
     1
170
     0
176
     1
171
     0
176
     1
290
     0
176
     1
 93
        1
176
     1
 44
0.0
176
     1
173
     0
176
     1
  0
VISUALSTYLE
  5
30
102
{ACAD_REACTORS
330
2A
102
}
330
2A
100
AcDbVisualStyle
  2
3dWireframe
 70
     5
177
     2
291
     0
 71
     0
176
     1
 72
     2
176
     1
 73
     0
176
     1
 90
        0
176
     1
 40
-0.6
176
     1
 41
-30.0
176
     1
 62
     5
 63
     7
421
 16777215
176
     1
 74
     1
176
     1
 91
        4
176
     1
 64
     7
176
     1
 65
   257
176
     1
 75
     1
176
     1
175
     1
176
     1
 42
1.0
176
     1
 92
        0
176
     1
 66
   257
176
     1
 43
1.0
176
     1
 76
     1
176
     1
 77
     6
176
     1
 78
     2
176
     1
 67
     7
176
     1
 79
     5
176
     1
170
     0
176
     1
171
     0
176
     1
290
     0
176
     1
 93
        1
176
     1
 44
0.0
176
     1
173
     0
176
     1
  0
VISUALSTYLE
  5
32
102
{ACAD_REACTORS
330
2A
102
}
330
2A
100
AcDbVisualStyle
  2
Basic
 70
     7
177
     2
291
     1
 71
     1
176
     1
 72
     0
176
     1
 73
     1
176
     1
 90
        0
176
     1
 40
-0.6
176
     1
 41
-30.0
176
     1
 62
     5
 63
     7
421
 16777215
176
     1
 74
     0
176
     1
 91
        4
176
     1
 64
     7
176
     1
 65
   257
176
     1
 75
     1
176
     1
175
     1
176
     1
 42
1.0
176
     1
 92
        8
176
     1
 66
     7
176
     1
 43
1.0
176
     1
 76
     1
176
     1
 77
     6
176
     1
 78
     2
176
     1
 67
     7
176
     1
 79
     5
176
     1
170
     0
176
     1
171
     0
176
     1
290
     0
176
     1
 93
        1
176
     1
 44
0.0
176
     1
173
     0
176
     1
  0
VISUALSTYLE
  5
36
102
{ACAD_REACTORS
330
2A
102
}
330
2A
100
AcDbVisualStyle
  2
Brighten
 70
    12
177
     2
291
     1
 71
     2
176
     1
 72
     2
176
     1
 73
     0
176
     1
 90
        0
176
     1
 40
-0.6
176
     1
 41
-30.0
176
     1
 62
     5
 63
     7
421
 16777215
176
     1
 74
     1
176
     1
 91
        4
176
     1
 64
     7
176
     1
 65
   257
176
     1
 75
     1
176
     1
175
     1
176
     1
 42
1.0
176
     1
 92
        8
176
     1
 66
     7
176
     1
 43
1.0
176
     1
 76
     1
176
     1
 77
     6
176
     1
 78
     2
176
     1
 67
     7
176
     1
 79
     5
176
     1
170
     0
176
     1
171
     0
176
     1
290
     0
176
     1
 93
        1
176
     1
 44
50.0
176
     1
173
     0
176
     1
  0
VISUALSTYLE
  5
3A
102
{ACAD_REACTORS
330
2A
102
}
330
2A
100
AcDbVisualStyle
  2
ColorChange
 70
    16
177
     2
291
     1
 71
     2
176
     1
 72
     2
176
     1
 73
     3
176
     1
 90
        0
176
     1
 40
-0.6
176
     1
 41
-30.0
176
     1
 62
     5
 63
     8
421
  8421504
176
     1
 74
     1
176
     1
 91
        4
176
     1
 64
     7
176
     1
 65
   257
176
     1
 75
     1
176
     1
175
     1
176
     1
 42
1.0
176
     1
 92
        8
176
     1
 66
     8
424
  8421504
176
     1
 43
1.0
176
     1
 76
     1
176
     1
 77
     6
176
     1
 78
     2
176
     1
 67
     7
176
     1
 79
     5
176
     1
170
     0
176
     1
171
     0
176
     1
290
     0
176
     1
 93
        1
176
     1
 44
0.0
176
     1
173
     0
176
     1
  0
VISUALSTYLE
  5
34
102
{ACAD_REACTORS
330
2A
102
}
330
2A
100
AcDbVisualStyle
  2
Conceptual
 70
     9
177
     2
291
     0
 71
     3
176
     1
 72
     2
176
     1
 73
     0
176
     1
 90
        0
176
     1
 40
-0.6
176
     1
 41
-30.0
176
     1
 62
     5
 63
     7
421
 16777215
176
     1
 74
     2
176
     1
 91
        2
176
     1
 64
     7
176
     1
 65
   257
176
     1
 75
     1
176
     1
175
     1
176
     1
 42
40.0
176
     1
 92
        8
176
     1
 66
     7
176
     1
 43
1.0
176
     1
 76
     1
176
     1
 77
     6
176
     1
 78
     2
176
     1
 67
     7
176
     1
 79
     3
176
     1
170
     0
176
     1
171
     0
176
     1
290
     0
176
     1
 93
        1
176
     1
 44
0.0
176
     1
173
     0
176
     1
  0
VISUALSTYLE
  5
35
102
{ACAD_REACTORS
330
2A
102
}
330
2A
100
AcDbVisualStyle
  2
Dim
 70
    11
177
     2
291
     1
 71
     2
176
     1
 72
     2
176
     1
 73
     0
176
     1
 90
        0
176
     1
 40
-0.6
176
     1
 41
-30.0
176
     1
 62
     5
 63
     7
421
 16777215
176
     1
 74
     1
176
     1
 91
        4
176
     1
 64
     7
176
     1
 65
   257
176
     1
 75
     1
176
     1
175
     1
176
     1
 42
1.0
176
     1
 92
        8
176
     1
 66
     7
176
     1
 43
1.0
176
     1
 76
     1
176
     1
 77
     6
176
     1
 78
     2
176
     1
 67
     7
176
     1
 79
     5
176
     1
170
     0
176
     1
171
     0
176
     1
290
     0
176
     1
 93
        1
176
     1
 44
-50.0
176
     1
173
     0
176
     1
  0
VISUALSTYLE
  5
39
102
{ACAD_REACTORS
330
2A
102
}
330
2A
100
AcDbVisualStyle
  2
Facepattern
 70
    15
177
     2
291
     1
 71
     2
176
     1
 72
     2
176
     1
 73
     0
176
     1
 90
        0
176
     1
 40
-0.6
176
     1
 41
-30.0
176
     1
 62
     5
 63
     7
421
 16777215
176
     1
 74
     1
176
     1
 91
        4
176
     1
 64
     7
176
     1
 65
   257
176
     1
 75
     1
176
     1
175
     1
176
     1
 42
1.0
176
     1
 92
        8
176
     1
 66
     7
176
     1
 43
1.0
176
     1
 76
     1
176
     1
 77
     6
176
     1
 78
     2
176
     1
 67
     7
176
     1
 79
     5
176
     1
170
     0
176
     1
171
     0
176
     1
290
     0
176
     1
 93
        1
176
     1
 44
0.0
176
     1
173
     0
176
     1
  0
VISUALSTYLE
  5
2B
102
{ACAD_REACTORS
330
2A
102
}
330
2A
100
AcDbVisualStyle
  2
Flat
 70
     0
177
     2
291
     1
 71
     2
176
     1
 72
     1
176
     1
 73
     1
176
     1
 90
        2
176
     1
 40
-0.6
176
     1
 41
30.0
176
     1
 62
     5
 63
     7
421
 16777215
176
     1
 74
     0
176
     1
 91
        4
176
     1
 64
     7
176
     1
 65
   257
176
     1
 75
     1
176
     1
175
     1
176
     1
 42
1.0
176
     1
 92
        8
176
     1
 66
     7
176
     1
 43
1.0
176
     1
 76
     1
176
     1
 77
     6
176
     1
 78
     2
176
     1
 67
     7
176
     1
 79
     5
176
     1
170
     0
176
     1
171
     0
176
     1
290
     0
176
     1
 93
       13
176
     1
 44
0.0
176
     1
173
     0
176
     1
  0
VISUALSTYLE
  5
2C
102
{ACAD_REACTORS
330
2A
102
}
330
2A
100
AcDbVisualStyle
  2
FlatWithEdges
 70
     1
177
     2
291
     1
 71
     2
176
     1
 72
     1
176
     1
 73
     1
176
     1
 90
        2
176
     1
 40
-0.6
176
     1
 41
30.0
176
     1
 62
     5
 63
     7
421
 16777215
176
     1
 74
     1
176
     1
 91
        4
176
     1
 64
     7
176
     1
 65
   257
176
     1
 75
     1
176
     1
175
     1
176
     1
 42
1.0
176
     1
 92
        0
176
     1
 66
   257
176
     1
 43
1.0
176
     1
 76
     1
176
     1
 77
     6
176
     1
 78
     2
176
     1
 67
     7
176
     1
 79
     5
176
     1
170
     0
176
     1
171
     0
176
     1
290
     0
176
     1
 93
       13
176
     1
 44
0.0
176
     1
173
     0
176
     1
  0
VISUALSTYLE
  5
2D
102
{ACAD_REACTORS
330
2A
102
}
330
2A
100
AcDbVisualStyle
  2
Gouraud
 70
     2
177
     2
291
     1
 71
     2
176
     1
 72
     2
176
     1
 73
     1
176
     1
 90
        2
176
     1
 40
-0.6
176
     1
 41
30.0
176
     1
 62
     5
 63
     7
421
 16777215
176
     1
 74
     0
176
     1
 91
        4
176
     1
 64
     7
176
     1
 65
   257
176
     1
 75
     1
176
     1
175
     1
176
     1
 42
1.0
176
     1
 92
        0
176
     1
 66
     7
176
     1
 43
1.0
176
     1
 76
     1
176
     1
 77
     6
176
     1
 78
     2
176
     1
 67
     7
176
     1
 79
     5
176
     1
170
     0
176
     1
171
     0
176
     1
290
     0
176
     1
 93
       13
176
     1
 44
0.0
176
     1
173
     0
176
     1
  0
VISUALSTYLE
  5
2E
102
{ACAD_REACTORS
330
2A
102
}
330
2A
100
AcDbVisualStyle
  2
GouraudWithEdges
 70
     3
177
     2
291
     1
 71
     2
176
     1
 72
     2
176
     1
 73
     1
176
     1
 90
        2
176
     1
 40
-0.6
176
     1
 41
30.0
176
     1
 62
     5
 63
     7
421
 16777215
176
     1
 74
     1
176
     1
 91
        4
176
     1
 64
     7
176
     1
 65
   257
176
     1
 75
     1
176
     1
175
     1
176
     1
 42
1.0
176
     1
 92
        0
176
     1
 66
   257
176
     1
 43
1.0
176
     1
 76
     1
176
     1
 77
     6
176
     1
 78
     2
176
     1
 67
     7
176
     1
 79
     5
176
     1
170
     0
176
     1
171
     0
176
     1
290
     0
176
     1
 93
       13
176
     1
 44
0.0
176
     1
173
     0
176
     1
  0
VISUALSTYLE
  5
38
102
{ACAD_REACTORS
330
2A
102
}
330
2A
100
AcDbVisualStyle
  2
Linepattern
 70
    14
177
     2
291
     1
 71
     2
176
     1
 72
     2
176
     1
 73
     0
176
     1
 90
        0
176
     1
 40
-0.6
176
     1
 41
-30.0
176
     1
 62
     5
 63
     7
421
 16777215
176
     1
 74
     1
176
     1
 91
        4
176
     1
 64
     7
176
     1
 65
   257
176
     1
 75
     7
176
     1
175
     7
176
     1
 42
1.0
176
     1
 92
        8
176
     1
 66
     7
176
     1
 43
1.0
176
     1
 76
     1
176
     1
 77
     6
176
     1
 78
     2
176
     1
 67
     7
176
     1
 79
     5
176
     1
170
     0
176
     1
171
     0
176
     1
290
     0
176
     1
 93
        1
176
     1
 44
0.0
176
     1
173
     0
176
     1
  0
VISUALSTYLE
  5
33
102
{ACAD_REACTORS
330
2A
102
}
330
2A
100
AcDbVisualStyle
  2
Realistic
 70
     8
177
     2
291
     0
 71
     2
176
     1
 72
     2
176
     1
 73
     0
176
     1
 90
        0
176
     1
 40
-0.6
176
     1
 41
-30.0
176
     1
 62
     5
 63
     7
421
 16777215
176
     1
 74
     1
176
     1
 91
        0
176
     1
 64
     7
176
     1
 65
   257
176
     1
 75
     1
176
     1
175
     1
176
     1
 42
1.0
176
     1
 92
        8
176
     1
 66
     8
424
  7895160
176
     1
 43
1.0
176
     1
 76
     1
176
     1
 77
     6
176
     1
 78
     2
176
     1
 67
     7
176
     1
 79
     5
176
     1
170
     0
176
     1
171
     0
176
     1
290
     0
176
     1
 93
       13
176
     1
 44
0.0
176
     1
173
     0
176
     1
  0
VISUALSTYLE
  5
37
102
{ACAD_REACTORS
330
2A
102
}
330
2A
100
AcDbVisualStyle
  2
Thicken
 70
    13
177
     2
291
     1
 71
     2
176
     1
 72
     2
176
     1
 73
     0
176
     1
 90
        0
176
     1
 40
-0.6
176
     1
 41
-30.0
176
     1
 62
     5
 63
     7
421
 16777215
176
     1
 74
     1
176
     1
 91
        4
176
     1
 64
     7
176
     1
 65
   257
176
     1
 75
     1
176
     1
175
     1
176
     1
 42
1.0
176
     1
 92
       12
176
     1
 66
     7
176
     1
 43
1.0
176
     1
 76
     1
176
     1
 77
     6
176
     1
 78
     2
176
     1
 67
     7
176
     1
 79
     5
176
     1
170
     0
176
     1
171
     0
176
     1
290
     0
176
     1
 93
        1
176
     1
 44
0.0
176
     1
173
     0
176
     1
  0
ENDSEC
  0
EOF
