  0
SECTION
  2
HEADER
  9
$ACADVER
  1
AC1024
  9
$ACADMAINTVER
 70
     6
  9
$DWGCODEPAGE
  3
UNDEFINED
  9
$INSBASE
 10
0.0
 20
0.0
 30
0.0
  9
$EXTMIN
 10
1.000000000000000E+20
 20
1.000000000000000E+20
 30
1.000000000000000E+20
  9
$EXTMAX
 10
-1.000000000000000E+20
 20
-1.000000000000000E+20
 30
-1.000000000000000E+20
  9
$LIMMIN
 10
0.0
 20
0.0
  9
$LIMMAX
 10
12.0
 20
9.0
  9
$ORTHOMODE
 70
     0
  9
$REGENMODE
 70
     1
  9
$FILLMODE
 70
     1
  9
$QTEXTMODE
 70
     0
  9
$MIRRTEXT
 70
     1
  9
$LTSCALE
 40
1.0
  9
$ATTMODE
 70
     1
  9
$TEXTSIZE
 40
0.2
  9
$TRACEWID
 40
0.05
  9
$TEXTSTYLE
  7
Standard
  9
$CLAYER
  8
0
  9
$CELTYPE
  6
ByLayer
  9
$CECOLOR
 62
   256
  9
$CELTSCALE
 40
1.0
  9
$DISPSILH
 70
     0
  9
$DIMSCALE
 40
1.0
  9
$DIMASZ
 40
0.18
  9
$DIMEXO
 40
0.0625
  9
$DIMDLI
 40
0.38
  9
$DIMRND
 40
0.0
  9
$DIMDLE
 40
0.0
  9
$DIMEXE
 40
0.18
  9
$DIMTP
 40
0.0
  9
$DIMTM
 40
0.0
  9
$DIMTXT
 40
0.18
  9
$DIMCEN
 40
0.09
  9
$DIMTSZ
 40
0.0
  9
$DIMTOL
 70
     0
  9
$DIMLIM
 70
     0
  9
$DIMTIH
 70
     1
  9
$DIMTOH
 70
     1
  9
$DIMSE1
 70
     0
  9
$DIMSE2
 70
     0
  9
$DIMTAD
 70
     0
  9
$DIMZIN
 70
     0
  9
$DIMBLK
  1

  9
$DIMASO
 70
     1
  9
$DIMSHO
 70
     1
  9
$DIMPOST
  1

  9
$DIMAPOST
  1

  9
$DIMALT
 70
     0
  9
$DIMALTD
 70
     2
  9
$DIMALTF
 40
25.4
  9
$DIMLFAC
 40
1.0
  9
$DIMTOFL
 70
     0
  9
$DIMTVP
 40
0.0
  9
$DIMTIX
 70
     0
  9
$DIMSOXD
 70
     0
  9
$DIMSAH
 70
     0
  9
$DIMBLK1
  1

  9
$DIMBLK2
  1

  9
$DIMSTYLE
  2
Standard
  9
$DIMCLRD
 70
     0
  9
$DIMCLRE
 70
     0
  9
$DIMCLRT
 70
     0
  9
$DIMTFAC
 40
1.0
  9
$DIMGAP
 40
0.09
  9
$DIMJUST
 70
     0
  9
$DIMSD1
 70
     0
  9
$DIMSD2
 70
     0
  9
$DIMTOLJ
 70
     1
  9
$DIMTZIN
 70
     0
  9
$DIMALTZ
 70
     0
  9
$DIMALTTZ
 70
     0
  9
$DIMUPT
 70
     0
  9
$DIMDEC
 70
     4
  9
$DIMTDEC
 70
     4
  9
$DIMALTU
 70
     2
  9
$DIMALTTD
 70
     2
  9
$DIMTXSTY
  7
Standard
  9
$DIMAUNIT
 70
     0
  9
$DIMADEC
 70
     0
  9
$DIMALTRND
 40
0.0
  9
$DIMAZIN
 70
     0
  9
$DIMDSEP
 70
    46
  9
$DIMATFIT
 70
     3
  9
$DIMFRAC
 70
     0
  9
$DIMLDRBLK
  1

  9
$DIMLUNIT
 70
     2
  9
$DIMLWD
 70
    -2
  9
$DIMLWE
 70
    -2
  9
$DIMTMOVE
 70
     0
  9
$DIMFXL
 40
1.0
  9
$DIMFXLON
 70
     0
  9
$DIMJOGANG
 40
0.7853981633974483
  9
$DIMTFILL
 70
     0
  9
$DIMTFILLCLR
 70
     0
  9
$DIMARCSYM
 70
     0
  9
$DIMLTYPE
  6

  9
$DIMLTEX1
  6

  9
$DIMLTEX2
  6

  9
$DIMTXTDIRECTION
 70
     0
  9
$LUNITS
 70
     2
  9
$LUPREC
 70
     4
  9
$SKETCHINC
 40
0.1
  9
$FILLETRAD
 40
0.5
  9
$AUNITS
 70
     0
  9
$AUPREC
 70
     0
  9
$MENU
  1
.
  9
$ELEVATION
 40
0.0
  9
$PELEVATION
 40
0.0
  9
$THICKNESS
 40
0.0
  9
$LIMCHECK
 70
     0
  9
$CHAMFERA
 40
0.5
  9
$CHAMFERB
 40
0.5
  9
$CHAMFERC
 40
1.0
  9
$CHAMFERD
 40
0.0
  9
$SKPOLY
 70
     0
  9
$TDCREATE
 40
2457917.621863415
  9
$TDUCREATE
 40
2457917.246863426
  9
$TDUPDATE
 40
2457917.621863415
  9
$TDUUPDATE
 40
2457917.246863426
  9
$TDINDWG
 40
0.0000000116
  9
$TDUSRTIMER
 40
0.0000000116
  9
$USRTIMER
 70
     1
  9
$ANGBASE
 50
0.0
  9
$ANGDIR
 70
     0
  9
$PDMODE
 70
     0
  9
$PDSIZE
 40
0.0
  9
$PLINEWID
 40
0.0
  9
$SPLFRAME
 70
     0
  9
$SPLINETYPE
 70
     6
  9
$SPLINESEGS
 70
     8
  9
$HANDSEED
  5
B8
  9
$SURFTAB1
 70
     6
  9
$SURFTAB2
 70
     6
  9
$SURFTYPE
 70
     6
  9
$SURFU
 70
     6
  9
$SURFV
 70
     6
  9
$UCSBASE
  2

  9
$UCSNAME
  2

  9
$UCSORG
 10
0.0
 20
0.0
 30
0.0
  9
$UCSXDIR
 10
1.0
 20
0.0
 30
0.0
  9
$UCSYDIR
 10
0.0
 20
1.0
 30
0.0
  9
$UCSORTHOREF
  2

  9
$UCSORTHOVIEW
 70
     0
  9
$UCSORGTOP
 10
0.0
 20
0.0
 30
0.0
  9
$UCSORGBOTTOM
 10
0.0
 20
0.0
 30
0.0
  9
$UCSORGLEFT
 10
0.0
 20
0.0
 30
0.0
  9
$UCSORGRIGHT
 10
0.0
 20
0.0
 30
0.0
  9
$UCSORGFRONT
 10
0.0
 20
0.0
 30
0.0
  9
$UCSORGBACK
 10
0.0
 20
0.0
 30
0.0
  9
$PUCSBASE
  2

  9
$PUCSNAME
  2

  9
$PUCSORG
 10
0.0
 20
0.0
 30
0.0
  9
$PUCSXDIR
 10
1.0
 20
0.0
 30
0.0
  9
$PUCSYDIR
 10
0.0
 20
1.0
 30
0.0
  9
$PUCSORTHOREF
  2

  9
$PUCSORTHOVIEW
 70
     0
  9
$PUCSORGTOP
 10
0.0
 20
0.0
 30
0.0
  9
$PUCSORGBOTTOM
 10
0.0
 20
0.0
 30
0.0
  9
$PUCSORGLEFT
 10
0.0
 20
0.0
 30
0.0
  9
$PUCSORGRIGHT
 10
0.0
 20
0.0
 30
0.0
  9
$PUCSORGFRONT
 10
0.0
 20
0.0
 30
0.0
  9
$PUCSORGBACK
 10
0.0
 20
0.0
 30
0.0
  9
$USERI1
 70
     0
  9
$USERI2
 70
     0
  9
$USERI3
 70
     0
  9
$USERI4
 70
     0
  9
$USERI5
 70
     0
  9
$USERR1
 40
0.0
  9
$USERR2
 40
0.0
  9
$USERR3
 40
0.0
  9
$USERR4
 40
0.0
  9
$USERR5
 40
0.0
  9
$WORLDVIEW
 70
     1
  9
$SHADEDGE
 70
     3
  9
$SHADEDIF
 70
    70
  9
$TILEMODE
 70
     1
  9
$MAXACTVP
 70
    64
  9
$PINSBASE
 10
0.0
 20
0.0
 30
0.0
  9
$PLIMCHECK
 70
     0
  9
$PEXTMIN
 10
1.000000000000000E+20
 20
1.000000000000000E+20
 30
1.000000000000000E+20
  9
$PEXTMAX
 10
-1.000000000000000E+20
 20
-1.000000000000000E+20
 30
-1.000000000000000E+20
  9
$PLIMMIN
 10
0.0
 20
0.0
  9
$PLIMMAX
 10
12.0
 20
9.0
  9
$UNITMODE
 70
     0
  9
$VISRETAIN
 70
     1
  9
$PLINEGEN
 70
     0
  9
$PSLTSCALE
 70
     1
  9
$TREEDEPTH
 70
  3020
  9
$CMLSTYLE
  2
Standard
  9
$CMLJUST
 70
     0
  9
$CMLSCALE
 40
1.0
  9
$PROXYGRAPHICS
 70
     1
  9
$MEASUREMENT
 70
     0
  9
$CELWEIGHT
370
    -1
  9
$ENDCAPS
280
     0
  9
$JOINSTYLE
280
     0
  9
$LWDISPLAY
290
     1
  9
$INSUNITS
 70
     1
  9
$HYPERLINKBASE
  1

  9
$STYLESHEET
  1

  9
$XEDIT
290
     1
  9
$CEPSNTYPE
380
     0
  9
$PSTYLEMODE
290
     1
  9
$FINGERPRINTGUID
  2
{E8DEB93E-3B46-D14C-E602-8D2DC52E49AB}
  9
$VERSIONGUID
  2
{FAEB1C32-E019-11D5-929B-00C0DF256EC4}
  9
$EXTNAMES
290
     1
  9
$PSVPSCALE
 40
0.0
  9
$OLESTARTUP
290
     0
  9
$SORTENTS
280
   127
  9
$INDEXCTL
280
     0
  9
$HIDETEXT
280
     1
  9
$XCLIPFRAME
280
     2
  9
$HALOGAP
280
     0
  9
$OBSCOLOR
 70
   257
  9
$OBSLTYPE
280
     0
  9
$INTERSECTIONDISPLAY
280
     0
  9
$INTERSECTIONCOLOR
 70
   257
  9
$DIMASSOC
280
     2
  9
$PROJECTNAME
  1

  9
$CAMERADISPLAY
290
     0
  9
$LENSLENGTH
 40
50.0
  9
$CAMERAHEIGHT
 40
0.0
  9
$STEPSPERSEC
 40
2.0
  9
$STEPSIZE
 40
6.0
  9
$3DDWFPREC
 40
2.0
  9
$PSOLWIDTH
 40
0.25
  9
$PSOLHEIGHT
 40
4.0
  9
$LOFTANG1
 40
1.570796326794897
  9
$LOFTANG2
 40
1.570796326794897
  9
$LOFTMAG1
 40
0.0
  9
$LOFTMAG2
 40
0.0
  9
$LOFTPARAM
 70
     7
  9
$LOFTNORMALS
280
     1
  9
$LATITUDE
 40
37.795
  9
$LONGITUDE
 40
-122.394
  9
$NORTHDIRECTION
 40
0.0
  9
$TIMEZONE
 70
 -8000
  9
$LIGHTGLYPHDISPLAY
280
     1
  9
$TILEMODELIGHTSYNCH
280
     1
  9
$CMATERIAL
347
3C
  9
$SOLIDHIST
280
     1
  9
$SHOWHIST
280
     1
  9
$DWFFRAME
280
     2
  9
$DGNFRAME
280
     2
  9
$REALWORLDSCALE
290
     1
  9
$INTERFERECOLOR
 62
   256
  9
$CSHADOW
280
     0
  9
$SHADOWPLANELOCATION
 40
0.0
  0
ENDSEC
  0
SECTION
  2
CLASSES
  0
CLASS
  1
ACDBDICTIONARYWDFLT
  2
AcDbDictionaryWithDefault
  3
ObjectDBX Classes
 90
        0
 91
        4
280
     0
281
     0
  0
CLASS
  1
VISUALSTYLE
  2
AcDbVisualStyle
  3
ObjectDBX Classes
 90
     4095
 91
        4
280
     0
281
     0
  0
CLASS
  1
MATERIAL
  2
AcDbMaterial
  3
ObjectDBX Classes
 90
     1153
 91
        4
280
     0
281
     0
  0
CLASS
  1
SUN
  2
AcDbSun
  3
SCENEOE
 90
     1024
 91
        4
280
     0
281
     0
  0
ENDSEC
  0
SECTION
  2
TABLES
  0
TABLE
  2
VPORT
  5
8
330
0
100
AcDbSymbolTable
 70
     1
  0
VPORT
  5
29
330
8
100
AcDbSymbolTableRecord
100
AcDbViewportTableRecord
  2
*Active
 70
     0
 10
0.0
 20
0.0
 11
1.0
 21
1.0
 12
0.0
 22
0.0
 13
0.0
 23
0.0
 14
0.5
 24
0.5
 15
0.5
 25
0.5
 16
0.0
 26
0.0
 36
1.0
 17
91.00082462281999
 27
-128.4993055234307
 37
0.0
 40
256.9986110468615
 41
0.7081814508812795
 42
50.0
 43
0.0
 44
0.0
 50
0.0
 51
0.0
 71
     0
 72
   100
 73
     1
 74
     3
 75
     0
 76
     0
 77
     0
 78
     0
281
     0
 65
     1
110
0.0
120
0.0
130
0.0
111
1.0
121
0.0
131
0.0
112
0.0
122
1.0
132
0.0
 79
     0
146
0.0
 60
     3
 61
     5
292
     1
282
     1
141
0.0
142
0.0
 63
   250
361
3F
  0
ENDTAB
  0
TABLE
  2
LTYPE
  5
5
330
0
100
AcDbSymbolTable
 70
     1
  0
LTYPE
  5
14
330
5
100
AcDbSymbolTableRecord
100
AcDbLinetypeTableRecord
  2
ByBlock
 70
     0
  3

 72
    65
 73
     0
 40
0.0
  0
LTYPE
  5
15
330
5
100
AcDbSymbolTableRecord
100
AcDbLinetypeTableRecord
  2
ByLayer
 70
     0
  3

 72
    65
 73
     0
 40
0.0
  0
LTYPE
  5
16
330
5
100
AcDbSymbolTableRecord
100
AcDbLinetypeTableRecord
  2
Continuous
 70
     0
  3
Solid line
 72
    65
 73
     0
 40
0.0
  0
ENDTAB
  0
TABLE
  2
LAYER
  5
2
330
0
100
AcDbSymbolTable
 70
     2
  0
LAYER
  5
10
330
2
100
AcDbSymbolTableRecord
100
AcDbLayerTableRecord
  2
0
 70
     0
 62
     7
  6
Continuous
370
    -3
390
F
347
3E
  0
LAYER
  5
40
330
2
100
AcDbSymbolTableRecord
100
AcDbLayerTableRecord
  2
_U+30EC_U+30A4_U+30E4_U+30FC 1
 70
     0
 62
     7
  6
Continuous
370
    -3
390
F
347
3E
  0
ENDTAB
  0
TABLE
  2
STYLE
  5
3
330
0
100
AcDbSymbolTable
 70
     1
  0
STYLE
  5
11
330
3
100
AcDbSymbolTableRecord
100
AcDbTextStyleTableRecord
  2
Standard
 70
     0
 40
0.0
 41
1.0
 50
0.0
 71
     0
 42
0.2
  3
txt
  4

  0
ENDTAB
  0
TABLE
  2
VIEW
  5
6
330
0
100
AcDbSymbolTable
 70
     0
  0
ENDTAB
  0
TABLE
  2
UCS
  5
7
330
0
100
AcDbSymbolTable
 70
     0
  0
ENDTAB
  0
TABLE
  2
APPID
  5
9
330
0
100
AcDbSymbolTable
 70
     1
  0
APPID
  5
12
330
9
100
AcDbSymbolTableRecord
100
AcDbRegAppTableRecord
  2
ACAD
 70
     0
  0
ENDTAB
  0
TABLE
  2
DIMSTYLE
  5
A
330
0
100
AcDbSymbolTable
 70
     1
100
AcDbDimStyleTable
  0
DIMSTYLE
105
27
330
A
100
AcDbSymbolTableRecord
100
AcDbDimStyleTableRecord
  2
Standard
 70
     0
178
     0
340
11
  0
ENDTAB
  0
TABLE
  2
BLOCK_RECORD
  5
1
330
0
100
AcDbSymbolTable
 70
     6
  0
BLOCK_RECORD
  5
1F
330
1
100
AcDbSymbolTableRecord
100
AcDbBlockTableRecord
  2
*Model_Space
340
22
 70
     0
280
     1
281
     0
  0
BLOCK_RECORD
  5
1B
330
1
100
AcDbSymbolTableRecord
100
AcDbBlockTableRecord
  2
*Paper_Space
340
1E
 70
     0
280
     1
281
     0
  0
BLOCK_RECORD
  5
23
330
1
100
AcDbSymbolTableRecord
100
AcDbBlockTableRecord
  2
*Paper_Space0
340
26
 70
     0
280
     1
281
     0
  0
BLOCK_RECORD
  5
5D
330
1
100
AcDbSymbolTableRecord
100
AcDbBlockTableRecord
  2
block 2
340
0
102
{BLKREFS
331
5E
102
}
 70
     0
280
     1
281
     0
  0
BLOCK_RECORD
  5
63
330
1
100
AcDbSymbolTableRecord
100
AcDbBlockTableRecord
  2
block 3
340
0
102
{BLKREFS
331
64
102
}
 70
     0
280
     1
281
     0
  0
BLOCK_RECORD
  5
74
330
1
100
AcDbSymbolTableRecord
100
AcDbBlockTableRecord
  2
block 4
340
0
102
{BLKREFS
331
75
102
}
 70
     0
280
     1
281
     0
  0
BLOCK_RECORD
  5
86
330
1
100
AcDbSymbolTableRecord
100
AcDbBlockTableRecord
  2
block 5
340
0
102
{BLKREFS
331
87
102
}
 70
     0
280
     1
281
     0
  0
BLOCK_RECORD
  5
9A
330
1
100
AcDbSymbolTableRecord
100
AcDbBlockTableRecord
  2
block 6
340
0
102
{BLKREFS
331
9B
102
}
 70
     0
280
     1
281
     0
  0
ENDTAB
  0
ENDSEC
  0
SECTION
  2
BLOCKS
  0
BLOCK
  5
20
330
1F
100
AcDbEntity
  8
0
100
AcDbBlockBegin
  2
*Model_Space
 70
     0
 10
0.0
 20
0.0
 30
0.0
  3
*Model_Space
  1

  0
ENDBLK
  5
21
330
1F
100
AcDbEntity
  8
0
100
AcDbBlockEnd
  0
BLOCK
  5
1C
330
1B
100
AcDbEntity
 67
     1
  8
0
100
AcDbBlockBegin
  2
*Paper_Space
 70
     0
 10
0.0
 20
0.0
 30
0.0
  3
*Paper_Space
  1

  0
ENDBLK
  5
1D
330
1B
100
AcDbEntity
 67
     1
  8
0
100
AcDbBlockEnd
  0
BLOCK
  5
24
330
23
100
AcDbEntity
  8
0
100
AcDbBlockBegin
  2
*Paper_Space0
 70
     0
 10
0.0
 20
0.0
 30
0.0
  3
*Paper_Space0
  1

  0
ENDBLK
  5
25
330
23
100
AcDbEntity
  8
0
100
AcDbBlockEnd
  0
BLOCK
  5
5F
330
5D
100
AcDbEntity
  8
0
100
AcDbBlockBegin
  2
block 2
 70
     0
 10
0.0
 20
0.0
 30
0.0
  3
block 2
  1

  0
SPLINE
  5
61
330
5D
100
AcDbEntity
  8
_U+30EC_U+30A4_U+30E4_U+30FC 1
370
     0
100
AcDbSpline
210
0.0
220
0.0
230
1.0
 70
    11
 71
     3
 72
    26
 73
    22
 74
     0
 42
0.0000000001
 43
0.0000000001
 12
1.0
 22
0.0
 32
0.0
 13
1.0
 23
0.0
 33
0.0
 40
0.0
 40
0.0
 40
0.0
 40
0.0
 40
1.0
 40
1.0
 40
1.0
 40
2.0
 40
2.0
 40
2.0
 40
3.0
 40
3.0
 40
3.0
 40
4.0
 40
4.0
 40
4.0
 40
5.0
 40
5.0
 40
5.0
 40
6.0
 40
6.0
 40
6.0
 40
7.0
 40
7.0
 40
7.0
 40
7.0
 10
105.8736409240524
 20
-132.9534694763103
 30
0.0
 10
105.8736409240524
 20
-132.9534694763103
 30
0.0
 10
104.7694878210299
 20
-132.9534694763103
 30
0.0
 10
104.7694878210299
 20
-132.9534694763103
 30
0.0
 10
104.7694878210299
 20
-132.9534694763103
 30
0.0
 10
104.7694878210299
 20
-133.2835096237972
 30
0.0
 10
104.7694878210299
 20
-133.2835096237972
 30
0.0
 10
104.7694878210299
 20
-133.2835096237972
 30
0.0
 10
104.6213487151641
 20
-133.2835096237972
 30
0.0
 10
104.6213487151641
 20
-133.2835096237972
 30
0.0
 10
104.6065348045775
 20
-132.9514024190191
 30
0.0
 10
104.4435817881252
 20
-132.9048936299682
 30
0.0
 10
104.3292046180149
 20
-132.8752658087951
 30
0.0
 10
104.3292046180149
 20
-132.8752658087951
 30
0.0
 10
104.3292046180149
 20
-132.7291937602205
 30
0.0
 10
104.3292046180149
 20
-132.7291937602205
 30
0.0
 10
104.3292046180149
 20
-132.7291937602205
 30
0.0
 10
105.8736409240524
 20
-132.7291937602205
 30
0.0
 10
105.8736409240524
 20
-132.7291937602205
 30
0.0
 10
105.8736409240524
 20
-132.7291937602205
 30
0.0
 10
105.8736409240524
 20
-132.9534694763103
 30
0.0
 10
105.8736409240524
 20
-132.9534694763103
 30
0.0
  0
HATCH
  5
62
330
5D
100
AcDbEntity
  8
_U+30EC_U+30A4_U+30E4_U+30FC 1
 62
   179
420
  2234388
100
AcDbHatch
 10
0.0
 20
0.0
 30
0.0
210
0.0
220
0.0
230
1.0
  2
SOLID
 70
     1
 71
     0
 91
        1
 92
        1
 93
        1
 72
     4
 94
        3
 73
     0
 74
     1
 95
       26
 96
       22
 40
0.0
 40
0.0
 40
0.0
 40
0.0
 40
1.0
 40
1.0
 40
1.0
 40
2.0
 40
2.0
 40
2.0
 40
3.0
 40
3.0
 40
3.0
 40
4.0
 40
4.0
 40
4.0
 40
5.0
 40
5.0
 40
5.0
 40
6.0
 40
6.0
 40
6.0
 40
7.0
 40
7.0
 40
7.0
 40
7.0
 10
105.8736409240524
 20
-132.9534694763103
 10
105.8736409240524
 20
-132.9534694763103
 10
104.7694878210299
 20
-132.9534694763103
 10
104.7694878210299
 20
-132.9534694763103
 10
104.7694878210299
 20
-132.9534694763103
 10
104.7694878210299
 20
-133.2835096237972
 10
104.7694878210299
 20
-133.2835096237972
 10
104.7694878210299
 20
-133.2835096237972
 10
104.6213487151641
 20
-133.2835096237972
 10
104.6213487151641
 20
-133.2835096237972
 10
104.6065348045775
 20
-132.9514024190191
 10
104.4435817881252
 20
-132.9048936299682
 10
104.3292046180149
 20
-132.8752658087951
 10
104.3292046180149
 20
-132.8752658087951
 10
104.3292046180149
 20
-132.7291937602205
 10
104.3292046180149
 20
-132.7291937602205
 10
104.3292046180149
 20
-132.7291937602205
 10
105.8736409240524
 20
-132.7291937602205
 10
105.8736409240524
 20
-132.7291937602205
 10
105.8736409240524
 20
-132.7291937602205
 10
105.8736409240524
 20
-132.9534694763103
 10
105.8736409240524
 20
-132.9534694763103
 97
        0
 97
        0
 75
     2
 76
     1
 98
        0
  0
ENDBLK
  5
60
330
5D
100
AcDbEntity
  8
0
100
AcDbBlockEnd
  0
BLOCK
  5
65
330
63
100
AcDbEntity
  8
0
100
AcDbBlockBegin
  2
block 3
 70
     0
 10
0.0
 20
0.0
 30
0.0
  3
block 3
  1

  0
SPLINE
  5
67
330
63
100
AcDbEntity
  8
_U+30EC_U+30A4_U+30E4_U+30FC 1
370
     0
100
AcDbSpline
210
0.0
220
0.0
230
1.0
 70
    11
 71
     3
 72
    32
 73
    28
 74
     0
 42
0.0000000001
 43
0.0000000001
 12
1.0
 22
0.0
 32
0.0
 13
1.0
 23
0.0
 33
0.0
 40
0.0
 40
0.0
 40
0.0
 40
0.0
 40
1.0
 40
1.0
 40
1.0
 40
2.0
 40
2.0
 40
2.0
 40
3.0
 40
3.0
 40
3.0
 40
4.0
 40
4.0
 40
4.0
 40
5.0
 40
5.0
 40
5.0
 40
6.0
 40
6.0
 40
6.0
 40
7.0
 40
7.0
 40
7.0
 40
8.0
 40
8.0
 40
8.0
 40
9.0
 40
9.0
 40
9.0
 40
9.0
 10
105.9242838276856
 20
-129.9262640734212
 30
0.0
 10
105.9242838276856
 20
-130.4423393771116
 30
0.0
 10
105.3703124736574
 20
-130.4509521158248
 30
0.0
 10
105.1563720440234
 20
-130.4509521158248
 30
0.0
 10
104.9258951560602
 20
-130.4509521158248
 30
0.0
 10
104.2785617143818
 20
-130.4316595811074
 30
0.0
 10
104.2785617143818
 20
-129.8880235135349
 30
0.0
 10
104.2785617143818
 20
-129.7147352106269
 30
0.0
 10
104.3484971527323
 20
-129.4690999025286
 30
0.0
 10
104.6806043575104
 20
-129.4312038521908
 30
0.0
 10
104.6806043575104
 20
-129.4312038521908
 30
0.0
 10
104.6806043575104
 20
-129.6447997722763
 30
0.0
 10
104.6806043575104
 20
-129.6447997722763
 30
0.0
 10
104.6234157724553
 20
-129.6554795682806
 30
0.0
 10
104.4752766665895
 20
-129.6871744467449
 30
0.0
 10
104.4752766665895
 20
-129.8900905708261
 30
0.0
 10
104.4752766665895
 20
-130.1822346679753
 30
0.0
 10
104.8032497567853
 20
-130.2221977756042
 30
0.0
 10
105.0082329381577
 20
-130.2349446288996
 30
0.0
 10
104.9300292706425
 20
-130.1419270507978
 30
0.0
 10
104.8707736282962
 20
-130.0740586697384
 30
0.0
 10
104.8707736282962
 20
-129.8921576281172
 30
0.0
 10
104.8707736282962
 20
-129.7123236437872
 30
0.0
 10
104.9789496265331
 20
-129.4098442601823
 30
0.0
 10
105.385126384244
 20
-129.4098442601823
 30
0.0
 10
105.7044867357267
 20
-129.4098442601823
 30
0.0
 10
105.9242838276856
 20
-129.6089707792297
 30
0.0
 10
105.9242838276856
 20
-129.9262640734212
 30
0.0
  0
SPLINE
  5
68
330
63
100
AcDbEntity
  8
_U+30EC_U+30A4_U+30E4_U+30FC 1
370
     0
100
AcDbSpline
210
0.0
220
0.0
230
1.0
 70
    11
 71
     3
 72
    17
 73
    13
 74
     0
 42
0.0000000001
 43
0.0000000001
 12
1.0
 22
0.0
 32
0.0
 13
1.0
 23
0.0
 33
0.0
 40
0.0
 40
0.0
 40
0.0
 40
0.0
 40
1.0
 40
1.0
 40
1.0
 40
2.0
 40
2.0
 40
2.0
 40
3.0
 40
3.0
 40
3.0
 40
4.0
 40
4.0
 40
4.0
 40
4.0
 10
105.0654215232128
 20
-129.9093831055435
 30
0.0
 10
105.0654215232128
 20
-130.171554871971
 30
0.0
 10
105.2769503860072
 20
-130.2094509223087
 30
0.0
 10
105.3933946134086
 20
-130.2094509223087
 30
0.0
 10
105.5690944831563
 20
-130.2094509223087
 30
0.0
 10
105.7320474996087
 20
-130.1143662869159
 30
0.0
 10
105.7320474996087
 20
-129.9303981880035
 30
0.0
 10
105.7320474996087
 20
-129.8098198460198
 30
0.0
 10
105.6727918572624
 20
-129.634119976272
 30
0.0
 10
105.3871934415351
 20
-129.634119976272
 30
0.0
 10
105.1629177254454
 20
-129.634119976272
 30
0.0
 10
105.0654215232128
 20
-129.7736463434246
 30
0.0
 10
105.0654215232128
 20
-129.9093831055435
 30
0.0
  0
HATCH
  5
69
330
63
100
AcDbEntity
  8
_U+30EC_U+30A4_U+30E4_U+30FC 1
 62
   179
420
  2234388
100
AcDbHatch
 10
0.0
 20
0.0
 30
0.0
210
0.0
220
0.0
230
1.0
  2
SOLID
 70
     1
 71
     0
 91
        2
 92
        1
 93
        1
 72
     4
 94
        3
 73
     0
 74
     1
 95
       32
 96
       28
 40
0.0
 40
0.0
 40
0.0
 40
0.0
 40
1.0
 40
1.0
 40
1.0
 40
2.0
 40
2.0
 40
2.0
 40
3.0
 40
3.0
 40
3.0
 40
4.0
 40
4.0
 40
4.0
 40
5.0
 40
5.0
 40
5.0
 40
6.0
 40
6.0
 40
6.0
 40
7.0
 40
7.0
 40
7.0
 40
8.0
 40
8.0
 40
8.0
 40
9.0
 40
9.0
 40
9.0
 40
9.0
 10
105.9242838276856
 20
-129.9262640734212
 10
105.9242838276856
 20
-130.4423393771116
 10
105.3703124736574
 20
-130.4509521158248
 10
105.1563720440234
 20
-130.4509521158248
 10
104.9258951560602
 20
-130.4509521158248
 10
104.2785617143818
 20
-130.4316595811074
 10
104.2785617143818
 20
-129.8880235135349
 10
104.2785617143818
 20
-129.7147352106269
 10
104.3484971527323
 20
-129.4690999025286
 10
104.6806043575104
 20
-129.4312038521908
 10
104.6806043575104
 20
-129.4312038521908
 10
104.6806043575104
 20
-129.6447997722763
 10
104.6806043575104
 20
-129.6447997722763
 10
104.6234157724553
 20
-129.6554795682806
 10
104.4752766665895
 20
-129.6871744467449
 10
104.4752766665895
 20
-129.8900905708261
 10
104.4752766665895
 20
-130.1822346679753
 10
104.8032497567853
 20
-130.2221977756042
 10
105.0082329381577
 20
-130.2349446288996
 10
104.9300292706425
 20
-130.1419270507978
 10
104.8707736282962
 20
-130.0740586697384
 10
104.8707736282962
 20
-129.8921576281172
 10
104.8707736282962
 20
-129.7123236437872
 10
104.9789496265331
 20
-129.4098442601823
 10
105.385126384244
 20
-129.4098442601823
 10
105.7044867357267
 20
-129.4098442601823
 10
105.9242838276856
 20
-129.6089707792297
 10
105.9242838276856
 20
-129.9262640734212
 97
        0
 97
        0
 92
        1
 93
        1
 72
     4
 94
        3
 73
     0
 74
     1
 95
       17
 96
       13
 40
0.0
 40
0.0
 40
0.0
 40
0.0
 40
1.0
 40
1.0
 40
1.0
 40
2.0
 40
2.0
 40
2.0
 40
3.0
 40
3.0
 40
3.0
 40
4.0
 40
4.0
 40
4.0
 40
4.0
 10
105.0654215232128
 20
-129.9093831055435
 10
105.0654215232128
 20
-130.171554871971
 10
105.2769503860072
 20
-130.2094509223087
 10
105.3933946134086
 20
-130.2094509223087
 10
105.5690944831563
 20
-130.2094509223087
 10
105.7320474996087
 20
-130.1143662869159
 10
105.7320474996087
 20
-129.9303981880035
 10
105.7320474996087
 20
-129.8098198460198
 10
105.6727918572624
 20
-129.634119976272
 10
105.3871934415351
 20
-129.634119976272
 10
105.1629177254454
 20
-129.634119976272
 10
105.0654215232128
 20
-129.7736463434246
 10
105.0654215232128
 20
-129.9093831055435
 97
        0
 97
        0
 75
     2
 76
     1
 98
        0
  0
POLYLINE
  5
6A
330
63
100
AcDbEntity
  8
_U+30EC_U+30A4_U+30E4_U+30FC 1
370
     0
100
AcDb2dPolyline
 66
     1
 10
0.0
 20
0.0
 30
0.0
  0
VERTEX
  5
6B
330
6A
100
AcDbEntity
  8
_U+30EC_U+30A4_U+30E4_U+30FC 1
370
     0
100
AcDbVertex
100
AcDb2dVertex
 10
105.8736409240524
 20
-129.1934922637086
 30
0.0
  0
VERTEX
  5
6C
330
6A
100
AcDbEntity
  8
_U+30EC_U+30A4_U+30E4_U+30FC 1
370
     0
100
AcDbVertex
100
AcDb2dVertex
 10
105.6218044440807
 20
-129.1934922637086
 30
0.0
  0
VERTEX
  5
6D
330
6A
100
AcDbEntity
  8
_U+30EC_U+30A4_U+30E4_U+30FC 1
370
     0
100
AcDbVertex
100
AcDb2dVertex
 10
105.6218044440807
 20
-128.9416557837368
 30
0.0
  0
VERTEX
  5
6E
330
6A
100
AcDbEntity
  8
_U+30EC_U+30A4_U+30E4_U+30FC 1
370
     0
100
AcDbVertex
100
AcDb2dVertex
 10
105.8736409240524
 20
-128.9416557837368
 30
0.0
  0
VERTEX
  5
6F
330
6A
100
AcDbEntity
  8
_U+30EC_U+30A4_U+30E4_U+30FC 1
370
     0
100
AcDbVertex
100
AcDb2dVertex
 10
105.8736409240524
 20
-129.1934922637086
 30
0.0
  0
SEQEND
  5
70
330
6A
100
AcDbEntity
  8
_U+30EC_U+30A4_U+30E4_U+30FC 1
370
     0
  0
HATCH
  5
71
330
63
100
AcDbEntity
  8
_U+30EC_U+30A4_U+30E4_U+30FC 1
 62
   179
420
  2234388
100
AcDbHatch
 10
0.0
 20
0.0
 30
0.0
210
0.0
220
0.0
230
1.0
  2
SOLID
 70
     1
 71
     0
 91
        1
 92
        1
 93
        4
 72
     1
 10
105.8736409240524
 20
-129.1934922637086
 11
105.6218044440807
 21
-129.1934922637086
 72
     1
 10
105.6218044440807
 20
-129.1934922637086
 11
105.6218044440807
 21
-128.9416557837368
 72
     1
 10
105.6218044440807
 20
-128.9416557837368
 11
105.8736409240524
 21
-128.9416557837368
 72
     1
 10
105.8736409240524
 20
-128.9416557837368
 11
105.8736409240524
 21
-129.1934922637086
 97
        0
 75
     2
 76
     1
 98
        0
  0
SPLINE
  5
72
330
63
100
AcDbEntity
  8
_U+30EC_U+30A4_U+30E4_U+30FC 1
370
     0
100
AcDbSpline
210
0.0
220
0.0
230
1.0
 70
    11
 71
     3
 72
    53
 73
    49
 74
     0
 42
0.0000000001
 43
0.0000000001
 12
1.0
 22
0.0
 32
0.0
 13
1.0
 23
0.0
 33
0.0
 40
0.0
 40
0.0
 40
0.0
 40
0.0
 40
1.0
 40
1.0
 40
1.0
 40
2.0
 40
2.0
 40
2.0
 40
3.0
 40
3.0
 40
3.0
 40
4.0
 40
4.0
 40
4.0
 40
5.0
 40
5.0
 40
5.0
 40
6.0
 40
6.0
 40
6.0
 40
7.0
 40
7.0
 40
7.0
 40
8.0
 40
8.0
 40
8.0
 40
9.0
 40
9.0
 40
9.0
 40
10.0
 40
10.0
 40
10.0
 40
11.0
 40
11.0
 40
11.0
 40
12.0
 40
12.0
 40
12.0
 40
13.0
 40
13.0
 40
13.0
 40
14.0
 40
14.0
 40
14.0
 40
15.0
 40
15.0
 40
15.0
 40
16.0
 40
16.0
 40
16.0
 40
16.0
 10
105.9242838276856
 20
-128.2243869037078
 30
0.0
 10
105.9242838276856
 20
-128.302590571223
 30
0.0
 10
105.9074028598079
 20
-128.4042208880378
 30
0.0
 10
105.8440131028793
 20
-128.5058512048527
 30
0.0
 10
105.7341145568998
 20
-128.6791395077608
 30
0.0
 10
105.6028564189118
 20
-128.7004990997693
 30
0.0
 10
105.4950249302235
 20
-128.7194471249382
 30
0.0
 10
105.4950249302235
 20
-128.7194471249382
 30
0.0
 10
105.4950249302235
 20
-128.4972384661396
 30
0.0
 10
105.4950249302235
 20
-128.4972384661396
 30
0.0
 10
105.6938069397224
 20
-128.4424614479241
 30
0.0
 10
105.7234347608955
 20
-128.3153374245184
 30
0.0
 10
105.7234347608955
 20
-128.2223198464166
 30
0.0
 10
105.7234347608955
 20
-128.082793479264
 30
0.0
 10
105.6238715013718
 20
-127.930520258816
 30
0.0
 10
105.3913275561174
 20
-127.930520258816
 30
0.0
 10
105.1353569615634
 20
-127.930520258816
 30
0.0
 10
105.0654215232128
 20
-128.110354243146
 30
0.0
 10
105.0654215232128
 20
-128.2309325851298
 30
0.0
 10
105.0654215232128
 20
-128.2626274635941
 30
0.0
 10
105.0654215232128
 20
-128.4042208880378
 30
0.0
 10
105.1946126039097
 20
-128.4931043515573
 30
0.0
 10
105.1946126039097
 20
-128.4931043515573
 30
0.0
 10
105.1756645787408
 20
-128.668804221305
 30
0.0
 10
105.1756645787408
 20
-128.668804221305
 30
0.0
 10
105.1756645787408
 20
-128.668804221305
 30
0.0
 10
104.3292046180149
 20
-128.5482258793213
 30
0.0
 10
104.3292046180149
 20
-128.5482258793213
 30
0.0
 10
104.3292046180149
 20
-128.5482258793213
 30
0.0
 10
104.3292046180149
 20
-127.7696342996548
 30
0.0
 10
104.3292046180149
 20
-127.7696342996548
 30
0.0
 10
104.3292046180149
 20
-127.7696342996548
 30
0.0
 10
104.5238525129315
 20
-127.7696342996548
 30
0.0
 10
104.5238525129315
 20
-127.7696342996548
 30
0.0
 10
104.5238525129315
 20
-127.7696342996548
 30
0.0
 10
104.5238525129315
 20
-128.385272862869
 30
0.0
 10
104.5238525129315
 20
-128.385272862869
 30
0.0
 10
104.5238525129315
 20
-128.385272862869
 30
0.0
 10
104.9469102385202
 20
-128.4507296770887
 30
0.0
 10
104.9469102385202
 20
-128.4507296770887
 30
0.0
 10
104.9131483027648
 20
-128.3894069774513
 30
0.0
 10
104.8728406855873
 20
-128.3070691953538
 30
0.0
 10
104.8728406855873
 20
-128.1885579106612
 30
0.0
 10
104.8728406855873
 20
-127.9346543733983
 30
0.0
 10
105.0592203513394
 20
-127.6976318040131
 30
0.0
 10
105.3723795309486
 20
-127.6976318040131
 30
0.0
 10
105.6896728251401
 20
-127.6976318040131
 30
0.0
 10
105.9242838276856
 20
-127.9219075201029
 30
0.0
 10
105.9242838276856
 20
-128.2243869037078
 30
0.0
  0
HATCH
  5
73
330
63
100
AcDbEntity
  8
_U+30EC_U+30A4_U+30E4_U+30FC 1
 62
   179
420
  2234388
100
AcDbHatch
 10
0.0
 20
0.0
 30
0.0
210
0.0
220
0.0
230
1.0
  2
SOLID
 70
     1
 71
     0
 91
        1
 92
        1
 93
        1
 72
     4
 94
        3
 73
     0
 74
     1
 95
       53
 96
       49
 40
0.0
 40
0.0
 40
0.0
 40
0.0
 40
1.0
 40
1.0
 40
1.0
 40
2.0
 40
2.0
 40
2.0
 40
3.0
 40
3.0
 40
3.0
 40
4.0
 40
4.0
 40
4.0
 40
5.0
 40
5.0
 40
5.0
 40
6.0
 40
6.0
 40
6.0
 40
7.0
 40
7.0
 40
7.0
 40
8.0
 40
8.0
 40
8.0
 40
9.0
 40
9.0
 40
9.0
 40
10.0
 40
10.0
 40
10.0
 40
11.0
 40
11.0
 40
11.0
 40
12.0
 40
12.0
 40
12.0
 40
13.0
 40
13.0
 40
13.0
 40
14.0
 40
14.0
 40
14.0
 40
15.0
 40
15.0
 40
15.0
 40
16.0
 40
16.0
 40
16.0
 40
16.0
 10
105.9242838276856
 20
-128.2243869037078
 10
105.9242838276856
 20
-128.302590571223
 10
105.9074028598079
 20
-128.4042208880378
 10
105.8440131028793
 20
-128.5058512048527
 10
105.7341145568998
 20
-128.6791395077608
 10
105.6028564189118
 20
-128.7004990997693
 10
105.4950249302235
 20
-128.7194471249382
 10
105.4950249302235
 20
-128.7194471249382
 10
105.4950249302235
 20
-128.4972384661396
 10
105.4950249302235
 20
-128.4972384661396
 10
105.6938069397224
 20
-128.4424614479241
 10
105.7234347608955
 20
-128.3153374245184
 10
105.7234347608955
 20
-128.2223198464166
 10
105.7234347608955
 20
-128.082793479264
 10
105.6238715013718
 20
-127.930520258816
 10
105.3913275561174
 20
-127.930520258816
 10
105.1353569615634
 20
-127.930520258816
 10
105.0654215232128
 20
-128.110354243146
 10
105.0654215232128
 20
-128.2309325851298
 10
105.0654215232128
 20
-128.2626274635941
 10
105.0654215232128
 20
-128.4042208880378
 10
105.1946126039097
 20
-128.4931043515573
 10
105.1946126039097
 20
-128.4931043515573
 10
105.1756645787408
 20
-128.668804221305
 10
105.1756645787408
 20
-128.668804221305
 10
105.1756645787408
 20
-128.668804221305
 10
104.3292046180149
 20
-128.5482258793213
 10
104.3292046180149
 20
-128.5482258793213
 10
104.3292046180149
 20
-128.5482258793213
 10
104.3292046180149
 20
-127.7696342996548
 10
104.3292046180149
 20
-127.7696342996548
 10
104.3292046180149
 20
-127.7696342996548
 10
104.5238525129315
 20
-127.7696342996548
 10
104.5238525129315
 20
-127.7696342996548
 10
104.5238525129315
 20
-127.7696342996548
 10
104.5238525129315
 20
-128.385272862869
 10
104.5238525129315
 20
-128.385272862869
 10
104.5238525129315
 20
-128.385272862869
 10
104.9469102385202
 20
-128.4507296770887
 10
104.9469102385202
 20
-128.4507296770887
 10
104.9131483027648
 20
-128.3894069774513
 10
104.8728406855873
 20
-128.3070691953538
 10
104.8728406855873
 20
-128.1885579106612
 10
104.8728406855873
 20
-127.9346543733983
 10
105.0592203513394
 20
-127.6976318040131
 10
105.3723795309486
 20
-127.6976318040131
 10
105.6896728251401
 20
-127.6976318040131
 10
105.9242838276856
 20
-127.9219075201029
 10
105.9242838276856
 20
-128.2243869037078
 97
        0
 97
        0
 75
     2
 76
     1
 98
        0
  0
ENDBLK
  5
66
330
63
100
AcDbEntity
  8
0
100
AcDbBlockEnd
  0
BLOCK
  5
76
330
74
100
AcDbEntity
  8
0
100
AcDbBlockBegin
  2
block 4
 70
     0
 10
0.0
 20
0.0
 30
0.0
  3
block 4
  1

  0
SPLINE
  5
78
330
74
100
AcDbEntity
  8
_U+30EC_U+30A4_U+30E4_U+30FC 1
370
     0
100
AcDbSpline
210
0.0
220
0.0
230
1.0
 70
    11
 71
     3
 72
    44
 73
    40
 74
     0
 42
0.0000000001
 43
0.0000000001
 12
1.0
 22
0.0
 32
0.0
 13
1.0
 23
0.0
 33
0.0
 40
0.0
 40
0.0
 40
0.0
 40
0.0
 40
1.0
 40
1.0
 40
1.0
 40
2.0
 40
2.0
 40
2.0
 40
3.0
 40
3.0
 40
3.0
 40
4.0
 40
4.0
 40
4.0
 40
5.0
 40
5.0
 40
5.0
 40
6.0
 40
6.0
 40
6.0
 40
7.0
 40
7.0
 40
7.0
 40
8.0
 40
8.0
 40
8.0
 40
9.0
 40
9.0
 40
9.0
 40
10.0
 40
10.0
 40
10.0
 40
11.0
 40
11.0
 40
11.0
 40
12.0
 40
12.0
 40
12.0
 40
13.0
 40
13.0
 40
13.0
 40
13.0
 10
105.2917642965937
 20
-124.7121120564956
 30
0.0
 10
105.4505831984637
 20
-124.9298420911634
 30
0.0
 10
105.5246527513966
 20
-125.0228596692651
 30
0.0
 10
105.6683132331315
 20
-125.0717800251557
 30
0.0
 10
105.6683132331315
 20
-125.0717800251557
 30
0.0
 10
105.6683132331315
 20
-124.2931884454892
 30
0.0
 10
105.6683132331315
 20
-124.2931884454892
 30
0.0
 10
105.6683132331315
 20
-124.2931884454892
 30
0.0
 10
105.8736409240524
 20
-124.2931884454892
 30
0.0
 10
105.8736409240524
 20
-124.2931884454892
 30
0.0
 10
105.8736409240524
 20
-124.2931884454892
 30
0.0
 10
105.8736409240524
 20
-125.3212049382878
 30
0.0
 10
105.8736409240524
 20
-125.3212049382878
 30
0.0
 10
105.5160400126835
 20
-125.2895100598235
 30
0.0
 10
105.4378363451683
 20
-125.2240532456037
 30
0.0
 10
105.1394910761457
 20
-124.8388915703528
 30
0.0
 10
104.9407090666468
 20
-124.5829209757987
 30
0.0
 10
104.8728406855873
 20
-124.517464161579
 30
0.0
 10
104.7353813757259
 20
-124.517464161579
 30
0.0
 10
104.6168700910333
 20
-124.517464161579
 30
0.0
 10
104.4859564625938
 20
-124.5894666572207
 30
0.0
 10
104.4859564625938
 20
-124.7861816094285
 30
0.0
 10
104.4859564625938
 20
-125.0462863185648
 30
0.0
 10
104.716433350557
 20
-125.054899057278
 30
0.0
 10
104.8328775779585
 20
-125.0590331718602
 30
0.0
 10
104.8328775779585
 20
-125.0590331718602
 30
0.0
 10
104.8328775779585
 20
-125.28330888795
 30
0.0
 10
104.8328775779585
 20
-125.28330888795
 30
0.0
 10
104.7057535545527
 20
-125.2746961492369
 30
0.0
 10
104.5937879512821
 20
-125.2640163532326
 30
0.0
 10
104.4752766665895
 20
-125.1837456284263
 30
0.0
 10
104.3143907074283
 20
-125.0738470824468
 30
0.0
 10
104.2806287716729
 20
-124.8874674166948
 30
0.0
 10
104.2806287716729
 20
-124.7713676988419
 30
0.0
 10
104.2806287716729
 20
-124.4940375122793
 30
0.0
 10
104.4645968705852
 20
-124.2866427640672
 30
0.0
 10
104.737448433017
 20
-124.2866427640672
 30
0.0
 10
104.9662027732376
 20
-124.2866427640672
 30
0.0
 10
105.0654215232128
 20
-124.4030869914687
 30
0.0
 10
105.2917642965937
 20
-124.7121120564956
 30
0.0
  0
HATCH
  5
79
330
74
100
AcDbEntity
  8
_U+30EC_U+30A4_U+30E4_U+30FC 1
 62
   179
420
  2234388
100
AcDbHatch
 10
0.0
 20
0.0
 30
0.0
210
0.0
220
0.0
230
1.0
  2
SOLID
 70
     1
 71
     0
 91
        1
 92
        1
 93
        1
 72
     4
 94
        3
 73
     0
 74
     1
 95
       44
 96
       40
 40
0.0
 40
0.0
 40
0.0
 40
0.0
 40
1.0
 40
1.0
 40
1.0
 40
2.0
 40
2.0
 40
2.0
 40
3.0
 40
3.0
 40
3.0
 40
4.0
 40
4.0
 40
4.0
 40
5.0
 40
5.0
 40
5.0
 40
6.0
 40
6.0
 40
6.0
 40
7.0
 40
7.0
 40
7.0
 40
8.0
 40
8.0
 40
8.0
 40
9.0
 40
9.0
 40
9.0
 40
10.0
 40
10.0
 40
10.0
 40
11.0
 40
11.0
 40
11.0
 40
12.0
 40
12.0
 40
12.0
 40
13.0
 40
13.0
 40
13.0
 40
13.0
 10
105.2917642965937
 20
-124.7121120564956
 10
105.4505831984637
 20
-124.9298420911634
 10
105.5246527513966
 20
-125.0228596692651
 10
105.6683132331315
 20
-125.0717800251557
 10
105.6683132331315
 20
-125.0717800251557
 10
105.6683132331315
 20
-124.2931884454892
 10
105.6683132331315
 20
-124.2931884454892
 10
105.6683132331315
 20
-124.2931884454892
 10
105.8736409240524
 20
-124.2931884454892
 10
105.8736409240524
 20
-124.2931884454892
 10
105.8736409240524
 20
-124.2931884454892
 10
105.8736409240524
 20
-125.3212049382878
 10
105.8736409240524
 20
-125.3212049382878
 10
105.5160400126835
 20
-125.2895100598235
 10
105.4378363451683
 20
-125.2240532456037
 10
105.1394910761457
 20
-124.8388915703528
 10
104.9407090666468
 20
-124.5829209757987
 10
104.8728406855873
 20
-124.517464161579
 10
104.7353813757259
 20
-124.517464161579
 10
104.6168700910333
 20
-124.517464161579
 10
104.4859564625938
 20
-124.5894666572207
 10
104.4859564625938
 20
-124.7861816094285
 10
104.4859564625938
 20
-125.0462863185648
 10
104.716433350557
 20
-125.054899057278
 10
104.8328775779585
 20
-125.0590331718602
 10
104.8328775779585
 20
-125.0590331718602
 10
104.8328775779585
 20
-125.28330888795
 10
104.8328775779585
 20
-125.28330888795
 10
104.7057535545527
 20
-125.2746961492369
 10
104.5937879512821
 20
-125.2640163532326
 10
104.4752766665895
 20
-125.1837456284263
 10
104.3143907074283
 20
-125.0738470824468
 10
104.2806287716729
 20
-124.8874674166948
 10
104.2806287716729
 20
-124.7713676988419
 10
104.2806287716729
 20
-124.4940375122793
 10
104.4645968705852
 20
-124.2866427640672
 10
104.737448433017
 20
-124.2866427640672
 10
104.9662027732376
 20
-124.2866427640672
 10
105.0654215232128
 20
-124.4030869914687
 10
105.2917642965937
 20
-124.7121120564956
 97
        0
 97
        0
 75
     2
 76
     1
 98
        0
  0
ENDBLK
  5
77
330
74
100
AcDbEntity
  8
0
100
AcDbBlockEnd
  0
BLOCK
  5
88
330
86
100
AcDbEntity
  8
0
100
AcDbBlockBegin
  2
block 5
 70
     0
 10
0.0
 20
0.0
 30
0.0
  3
block 5
  1

  0
SPLINE
  5
8A
330
86
100
AcDbEntity
  8
_U+30EC_U+30A4_U+30E4_U+30FC 1
370
     0
100
AcDbSpline
210
0.0
220
0.0
230
1.0
 70
    11
 71
     3
 72
    44
 73
    40
 74
     0
 42
0.0000000001
 43
0.0000000001
 12
1.0
 22
0.0
 32
0.0
 13
1.0
 23
0.0
 33
0.0
 40
0.0
 40
0.0
 40
0.0
 40
0.0
 40
1.0
 40
1.0
 40
1.0
 40
2.0
 40
2.0
 40
2.0
 40
3.0
 40
3.0
 40
3.0
 40
4.0
 40
4.0
 40
4.0
 40
5.0
 40
5.0
 40
5.0
 40
6.0
 40
6.0
 40
6.0
 40
7.0
 40
7.0
 40
7.0
 40
8.0
 40
8.0
 40
8.0
 40
9.0
 40
9.0
 40
9.0
 40
10.0
 40
10.0
 40
10.0
 40
11.0
 40
11.0
 40
11.0
 40
12.0
 40
12.0
 40
12.0
 40
13.0
 40
13.0
 40
13.0
 40
13.0
 10
87.02259519308811
 20
-136.0333848401236
 30
0.0
 10
86.80486515842031
 20
-136.1922037419936
 30
0.0
 10
86.71184758031858
 20
-136.2662732949265
 30
0.0
 10
86.66292722442802
 20
-136.4099337766614
 30
0.0
 10
86.66292722442802
 20
-136.4099337766614
 30
0.0
 10
87.44151880409449
 20
-136.4099337766614
 30
0.0
 10
87.44151880409449
 20
-136.4099337766614
 30
0.0
 10
87.44151880409449
 20
-136.4099337766614
 30
0.0
 10
87.44151880409449
 20
-136.6152614675823
 30
0.0
 10
87.44151880409449
 20
-136.6152614675823
 30
0.0
 10
87.44151880409449
 20
-136.6152614675823
 30
0.0
 10
86.41350231129593
 20
-136.6152614675823
 30
0.0
 10
86.41350231129593
 20
-136.6152614675823
 30
0.0
 10
86.44519718976024
 20
-136.2576605562134
 30
0.0
 10
86.51065400397998
 20
-136.1794568886982
 30
0.0
 10
86.8958156792309
 20
-135.8811116196756
 30
0.0
 10
87.15178627378498
 20
-135.6823296101767
 30
0.0
 10
87.21724308800472
 20
-135.6144612291172
 30
0.0
 10
87.21724308800472
 20
-135.4770019192558
 30
0.0
 10
87.21724308800472
 20
-135.3584906345632
 30
0.0
 10
87.145240592363
 20
-135.2275770061237
 30
0.0
 10
86.94852564015524
 20
-135.2275770061237
 30
0.0
 10
86.68842093101887
 20
-135.2275770061237
 30
0.0
 10
86.68015270185427
 20
-135.4580538940869
 30
0.0
 10
86.67567407772344
 20
-135.5744981214883
 30
0.0
 10
86.67567407772344
 20
-135.5744981214883
 30
0.0
 10
86.45139836163368
 20
-135.5744981214883
 30
0.0
 10
86.45139836163368
 20
-135.5744981214883
 30
0.0
 10
86.4600111003468
 20
-135.4473740980826
 30
0.0
 10
86.47069089635109
 20
-135.335408494812
 30
0.0
 10
86.5509616211574
 20
-135.2168972101194
 30
0.0
 10
86.66086016713687
 20
-135.0560112509582
 30
0.0
 10
86.84723983288889
 20
-135.0222493152028
 30
0.0
 10
86.96333955074181
 20
-135.0222493152028
 30
0.0
 10
87.24066973730442
 20
-135.0222493152028
 30
0.0
 10
87.44806448551645
 20
-135.2062174141151
 30
0.0
 10
87.44806448551645
 20
-135.4790689765469
 30
0.0
 10
87.44806448551645
 20
-135.7078233167675
 30
0.0
 10
87.33162025811501
 20
-135.8070420667427
 30
0.0
 10
87.02259519308811
 20
-136.0333848401236
 30
0.0
  0
HATCH
  5
8B
330
86
100
AcDbEntity
  8
_U+30EC_U+30A4_U+30E4_U+30FC 1
 62
   179
420
  2234388
100
AcDbHatch
 10
0.0
 20
0.0
 30
0.0
210
0.0
220
0.0
230
1.0
  2
SOLID
 70
     1
 71
     0
 91
        1
 92
        1
 93
        1
 72
     4
 94
        3
 73
     0
 74
     1
 95
       44
 96
       40
 40
0.0
 40
0.0
 40
0.0
 40
0.0
 40
1.0
 40
1.0
 40
1.0
 40
2.0
 40
2.0
 40
2.0
 40
3.0
 40
3.0
 40
3.0
 40
4.0
 40
4.0
 40
4.0
 40
5.0
 40
5.0
 40
5.0
 40
6.0
 40
6.0
 40
6.0
 40
7.0
 40
7.0
 40
7.0
 40
8.0
 40
8.0
 40
8.0
 40
9.0
 40
9.0
 40
9.0
 40
10.0
 40
10.0
 40
10.0
 40
11.0
 40
11.0
 40
11.0
 40
12.0
 40
12.0
 40
12.0
 40
13.0
 40
13.0
 40
13.0
 40
13.0
 10
87.02259519308811
 20
-136.0333848401236
 10
86.80486515842031
 20
-136.1922037419936
 10
86.71184758031858
 20
-136.2662732949265
 10
86.66292722442802
 20
-136.4099337766614
 10
86.66292722442802
 20
-136.4099337766614
 10
87.44151880409449
 20
-136.4099337766614
 10
87.44151880409449
 20
-136.4099337766614
 10
87.44151880409449
 20
-136.4099337766614
 10
87.44151880409449
 20
-136.6152614675823
 10
87.44151880409449
 20
-136.6152614675823
 10
87.44151880409449
 20
-136.6152614675823
 10
86.41350231129593
 20
-136.6152614675823
 10
86.41350231129593
 20
-136.6152614675823
 10
86.44519718976024
 20
-136.2576605562134
 10
86.51065400397998
 20
-136.1794568886982
 10
86.8958156792309
 20
-135.8811116196756
 10
87.15178627378498
 20
-135.6823296101767
 10
87.21724308800472
 20
-135.6144612291172
 10
87.21724308800472
 20
-135.4770019192558
 10
87.21724308800472
 20
-135.3584906345632
 10
87.145240592363
 20
-135.2275770061237
 10
86.94852564015524
 20
-135.2275770061237
 10
86.68842093101887
 20
-135.2275770061237
 10
86.68015270185427
 20
-135.4580538940869
 10
86.67567407772344
 20
-135.5744981214883
 10
86.67567407772344
 20
-135.5744981214883
 10
86.45139836163368
 20
-135.5744981214883
 10
86.45139836163368
 20
-135.5744981214883
 10
86.4600111003468
 20
-135.4473740980826
 10
86.47069089635109
 20
-135.335408494812
 10
86.5509616211574
 20
-135.2168972101194
 10
86.66086016713687
 20
-135.0560112509582
 10
86.84723983288889
 20
-135.0222493152028
 10
86.96333955074181
 20
-135.0222493152028
 10
87.24066973730442
 20
-135.0222493152028
 10
87.44806448551645
 20
-135.2062174141151
 10
87.44806448551645
 20
-135.4790689765469
 10
87.44806448551645
 20
-135.7078233167675
 10
87.33162025811501
 20
-135.8070420667427
 10
87.02259519308811
 20
-136.0333848401236
 97
        0
 97
        0
 75
     2
 76
     1
 98
        0
  0
SPLINE
  5
8C
330
86
100
AcDbEntity
  8
_U+30EC_U+30A4_U+30E4_U+30FC 1
370
     0
100
AcDbSpline
210
0.0
220
0.0
230
1.0
 70
    11
 71
     3
 72
    53
 73
    49
 74
     0
 42
0.0000000001
 43
0.0000000001
 12
1.0
 22
0.0
 32
0.0
 13
1.0
 23
0.0
 33
0.0
 40
0.0
 40
0.0
 40
0.0
 40
0.0
 40
1.0
 40
1.0
 40
1.0
 40
2.0
 40
2.0
 40
2.0
 40
3.0
 40
3.0
 40
3.0
 40
4.0
 40
4.0
 40
4.0
 40
5.0
 40
5.0
 40
5.0
 40
6.0
 40
6.0
 40
6.0
 40
7.0
 40
7.0
 40
7.0
 40
8.0
 40
8.0
 40
8.0
 40
9.0
 40
9.0
 40
9.0
 40
10.0
 40
10.0
 40
10.0
 40
11.0
 40
11.0
 40
11.0
 40
12.0
 40
12.0
 40
12.0
 40
13.0
 40
13.0
 40
13.0
 40
14.0
 40
14.0
 40
14.0
 40
15.0
 40
15.0
 40
15.0
 40
16.0
 40
16.0
 40
16.0
 40
16.0
 10
88.08747420757884
 20
-136.6659043712155
 30
0.0
 10
88.00927054006365
 20
-136.6659043712155
 30
0.0
 10
87.90764022324879
 20
-136.6490234033377
 30
0.0
 10
87.80600990643391
 20
-136.5856336464091
 30
0.0
 10
87.63272160352585
 20
-136.4757351004297
 30
0.0
 10
87.6113620115173
 20
-136.3444769624417
 30
0.0
 10
87.59241398634843
 20
-136.2366454737534
 30
0.0
 10
87.59241398634843
 20
-136.2366454737534
 30
0.0
 10
87.81462264514704
 20
-136.2366454737534
 30
0.0
 10
87.81462264514704
 20
-136.2366454737534
 30
0.0
 10
87.86939966336251
 20
-136.4354274832523
 30
0.0
 10
87.99652368676823
 20
-136.4650553044254
 30
0.0
 10
88.08954126486998
 20
-136.4650553044254
 30
0.0
 10
88.22906763202259
 20
-136.4650553044254
 30
0.0
 10
88.38134085247064
 20
-136.3654920449017
 30
0.0
 10
88.38134085247064
 20
-136.1329480996473
 30
0.0
 10
88.38134085247064
 20
-135.8769775050933
 30
0.0
 10
88.2015068681406
 20
-135.8070420667427
 30
0.0
 10
88.08092852615685
 20
-135.8070420667427
 30
0.0
 10
88.04923364769256
 20
-135.8070420667427
 30
0.0
 10
87.90764022324879
 20
-135.8070420667427
 30
0.0
 10
87.81875675972934
 20
-135.9362331474396
 30
0.0
 10
87.81875675972934
 20
-135.9362331474396
 30
0.0
 10
87.6430568899816
 20
-135.9172851222707
 30
0.0
 10
87.6430568899816
 20
-135.9172851222707
 30
0.0
 10
87.6430568899816
 20
-135.9172851222707
 30
0.0
 10
87.76363523196534
 20
-135.0708251615448
 30
0.0
 10
87.76363523196534
 20
-135.0708251615448
 30
0.0
 10
87.76363523196534
 20
-135.0708251615448
 30
0.0
 10
88.5422268116318
 20
-135.0708251615448
 30
0.0
 10
88.5422268116318
 20
-135.0708251615448
 30
0.0
 10
88.5422268116318
 20
-135.0708251615448
 30
0.0
 10
88.5422268116318
 20
-135.2654730564614
 30
0.0
 10
88.5422268116318
 20
-135.2654730564614
 30
0.0
 10
88.5422268116318
 20
-135.2654730564614
 30
0.0
 10
87.92658824841766
 20
-135.2654730564614
 30
0.0
 10
87.92658824841766
 20
-135.2654730564614
 30
0.0
 10
87.92658824841766
 20
-135.2654730564614
 30
0.0
 10
87.86113143419792
 20
-135.6885307820501
 30
0.0
 10
87.86113143419792
 20
-135.6885307820501
 30
0.0
 10
87.92245413383536
 20
-135.6547688462946
 30
0.0
 10
88.00479191593283
 20
-135.6144612291172
 30
0.0
 10
88.12330320062543
 20
-135.6144612291172
 30
0.0
 10
88.37720673788834
 20
-135.6144612291172
 30
0.0
 10
88.61422930727353
 20
-135.8008408948693
 30
0.0
 10
88.61422930727353
 20
-136.1140000744784
 30
0.0
 10
88.61422930727353
 20
-136.43129336867
 30
0.0
 10
88.38995359118377
 20
-136.6659043712155
 30
0.0
 10
88.08747420757884
 20
-136.6659043712155
 30
0.0
  0
HATCH
  5
8D
330
86
100
AcDbEntity
  8
_U+30EC_U+30A4_U+30E4_U+30FC 1
 62
   179
420
  2234388
100
AcDbHatch
 10
0.0
 20
0.0
 30
0.0
210
0.0
220
0.0
230
1.0
  2
SOLID
 70
     1
 71
     0
 91
        1
 92
        1
 93
        1
 72
     4
 94
        3
 73
     0
 74
     1
 95
       53
 96
       49
 40
0.0
 40
0.0
 40
0.0
 40
0.0
 40
1.0
 40
1.0
 40
1.0
 40
2.0
 40
2.0
 40
2.0
 40
3.0
 40
3.0
 40
3.0
 40
4.0
 40
4.0
 40
4.0
 40
5.0
 40
5.0
 40
5.0
 40
6.0
 40
6.0
 40
6.0
 40
7.0
 40
7.0
 40
7.0
 40
8.0
 40
8.0
 40
8.0
 40
9.0
 40
9.0
 40
9.0
 40
10.0
 40
10.0
 40
10.0
 40
11.0
 40
11.0
 40
11.0
 40
12.0
 40
12.0
 40
12.0
 40
13.0
 40
13.0
 40
13.0
 40
14.0
 40
14.0
 40
14.0
 40
15.0
 40
15.0
 40
15.0
 40
16.0
 40
16.0
 40
16.0
 40
16.0
 10
88.08747420757884
 20
-136.6659043712155
 10
88.00927054006365
 20
-136.6659043712155
 10
87.90764022324879
 20
-136.6490234033377
 10
87.80600990643391
 20
-136.5856336464091
 10
87.63272160352585
 20
-136.4757351004297
 10
87.6113620115173
 20
-136.3444769624417
 10
87.59241398634843
 20
-136.2366454737534
 10
87.59241398634843
 20
-136.2366454737534
 10
87.81462264514704
 20
-136.2366454737534
 10
87.81462264514704
 20
-136.2366454737534
 10
87.86939966336251
 20
-136.4354274832523
 10
87.99652368676823
 20
-136.4650553044254
 10
88.08954126486998
 20
-136.4650553044254
 10
88.22906763202259
 20
-136.4650553044254
 10
88.38134085247064
 20
-136.3654920449017
 10
88.38134085247064
 20
-136.1329480996473
 10
88.38134085247064
 20
-135.8769775050933
 10
88.2015068681406
 20
-135.8070420667427
 10
88.08092852615685
 20
-135.8070420667427
 10
88.04923364769256
 20
-135.8070420667427
 10
87.90764022324879
 20
-135.8070420667427
 10
87.81875675972934
 20
-135.9362331474396
 10
87.81875675972934
 20
-135.9362331474396
 10
87.6430568899816
 20
-135.9172851222707
 10
87.6430568899816
 20
-135.9172851222707
 10
87.6430568899816
 20
-135.9172851222707
 10
87.76363523196534
 20
-135.0708251615448
 10
87.76363523196534
 20
-135.0708251615448
 10
87.76363523196534
 20
-135.0708251615448
 10
88.5422268116318
 20
-135.0708251615448
 10
88.5422268116318
 20
-135.0708251615448
 10
88.5422268116318
 20
-135.0708251615448
 10
88.5422268116318
 20
-135.2654730564614
 10
88.5422268116318
 20
-135.2654730564614
 10
88.5422268116318
 20
-135.2654730564614
 10
87.92658824841766
 20
-135.2654730564614
 10
87.92658824841766
 20
-135.2654730564614
 10
87.92658824841766
 20
-135.2654730564614
 10
87.86113143419792
 20
-135.6885307820501
 10
87.86113143419792
 20
-135.6885307820501
 10
87.92245413383536
 20
-135.6547688462946
 10
88.00479191593283
 20
-135.6144612291172
 10
88.12330320062543
 20
-135.6144612291172
 10
88.37720673788834
 20
-135.6144612291172
 10
88.61422930727353
 20
-135.8008408948693
 10
88.61422930727353
 20
-136.1140000744784
 10
88.61422930727353
 20
-136.43129336867
 10
88.38995359118377
 20
-136.6659043712155
 10
88.08747420757884
 20
-136.6659043712155
 97
        0
 97
        0
 75
     2
 76
     1
 98
        0
  0
ENDBLK
  5
89
330
86
100
AcDbEntity
  8
0
100
AcDbBlockEnd
  0
BLOCK
  5
9C
330
9A
100
AcDbEntity
  8
0
100
AcDbBlockBegin
  2
block 6
 70
     0
 10
0.0
 20
0.0
 30
0.0
  3
block 6
  1

  0
SPLINE
  5
9E
330
9A
100
AcDbEntity
  8
_U+30EC_U+30A4_U+30E4_U+30FC 1
370
     0
100
AcDbSpline
210
0.0
220
0.0
230
1.0
 70
    11
 71
     3
 72
    26
 73
    22
 74
     0
 42
0.0000000001
 43
0.0000000001
 12
1.0
 22
0.0
 32
0.0
 13
1.0
 23
0.0
 33
0.0
 40
0.0
 40
0.0
 40
0.0
 40
0.0
 40
1.0
 40
1.0
 40
1.0
 40
2.0
 40
2.0
 40
2.0
 40
3.0
 40
3.0
 40
3.0
 40
4.0
 40
4.0
 40
4.0
 40
5.0
 40
5.0
 40
5.0
 40
6.0
 40
6.0
 40
6.0
 40
7.0
 40
7.0
 40
7.0
 40
7.0
 10
86.63140460073798
 20
-120.6548231035169
 30
0.0
 10
86.63140460073798
 20
-120.6548231035169
 30
0.0
 10
86.63140460073798
 20
-119.5506700004943
 30
0.0
 10
86.63140460073798
 20
-119.5506700004943
 30
0.0
 10
86.63140460073798
 20
-119.5506700004943
 30
0.0
 10
86.30136445325105
 20
-119.5506700004943
 30
0.0
 10
86.30136445325105
 20
-119.5506700004943
 30
0.0
 10
86.30136445325105
 20
-119.5506700004943
 30
0.0
 10
86.30136445325105
 20
-119.4025308946285
 30
0.0
 10
86.30136445325105
 20
-119.4025308946285
 30
0.0
 10
86.63347165802914
 20
-119.387716984042
 30
0.0
 10
86.67998044708001
 20
-119.2247639675897
 30
0.0
 10
86.70960826825316
 20
-119.1103867974794
 30
0.0
 10
86.70960826825316
 20
-119.1103867974794
 30
0.0
 10
86.85568031682774
 20
-119.1103867974794
 30
0.0
 10
86.85568031682774
 20
-119.1103867974794
 30
0.0
 10
86.85568031682774
 20
-119.1103867974794
 30
0.0
 10
86.85568031682774
 20
-120.6548231035169
 30
0.0
 10
86.85568031682774
 20
-120.6548231035169
 30
0.0
 10
86.85568031682774
 20
-120.6548231035169
 30
0.0
 10
86.63140460073798
 20
-120.6548231035169
 30
0.0
 10
86.63140460073798
 20
-120.6548231035169
 30
0.0
  0
HATCH
  5
9F
330
9A
100
AcDbEntity
  8
_U+30EC_U+30A4_U+30E4_U+30FC 1
 62
   179
420
  2234388
100
AcDbHatch
 10
0.0
 20
0.0
 30
0.0
210
0.0
220
0.0
230
1.0
  2
SOLID
 70
     1
 71
     0
 91
        1
 92
        1
 93
        1
 72
     4
 94
        3
 73
     0
 74
     1
 95
       26
 96
       22
 40
0.0
 40
0.0
 40
0.0
 40
0.0
 40
1.0
 40
1.0
 40
1.0
 40
2.0
 40
2.0
 40
2.0
 40
3.0
 40
3.0
 40
3.0
 40
4.0
 40
4.0
 40
4.0
 40
5.0
 40
5.0
 40
5.0
 40
6.0
 40
6.0
 40
6.0
 40
7.0
 40
7.0
 40
7.0
 40
7.0
 10
86.63140460073798
 20
-120.6548231035169
 10
86.63140460073798
 20
-120.6548231035169
 10
86.63140460073798
 20
-119.5506700004943
 10
86.63140460073798
 20
-119.5506700004943
 10
86.63140460073798
 20
-119.5506700004943
 10
86.30136445325105
 20
-119.5506700004943
 10
86.30136445325105
 20
-119.5506700004943
 10
86.30136445325105
 20
-119.5506700004943
 10
86.30136445325105
 20
-119.4025308946285
 10
86.30136445325105
 20
-119.4025308946285
 10
86.63347165802914
 20
-119.387716984042
 10
86.67998044708001
 20
-119.2247639675897
 10
86.70960826825316
 20
-119.1103867974794
 10
86.70960826825316
 20
-119.1103867974794
 10
86.85568031682774
 20
-119.1103867974794
 10
86.85568031682774
 20
-119.1103867974794
 10
86.85568031682774
 20
-119.1103867974794
 10
86.85568031682774
 20
-120.6548231035169
 10
86.85568031682774
 20
-120.6548231035169
 10
86.85568031682774
 20
-120.6548231035169
 10
86.63140460073798
 20
-120.6548231035169
 10
86.63140460073798
 20
-120.6548231035169
 97
        0
 97
        0
 75
     2
 76
     1
 98
        0
  0
SPLINE
  5
A0
330
9A
100
AcDbEntity
  8
_U+30EC_U+30A4_U+30E4_U+30FC 1
370
     0
100
AcDbSpline
210
0.0
220
0.0
230
1.0
 70
    11
 71
     3
 72
    53
 73
    49
 74
     0
 42
0.0000000001
 43
0.0000000001
 12
1.0
 22
0.0
 32
0.0
 13
1.0
 23
0.0
 33
0.0
 40
0.0
 40
0.0
 40
0.0
 40
0.0
 40
1.0
 40
1.0
 40
1.0
 40
2.0
 40
2.0
 40
2.0
 40
3.0
 40
3.0
 40
3.0
 40
4.0
 40
4.0
 40
4.0
 40
5.0
 40
5.0
 40
5.0
 40
6.0
 40
6.0
 40
6.0
 40
7.0
 40
7.0
 40
7.0
 40
8.0
 40
8.0
 40
8.0
 40
9.0
 40
9.0
 40
9.0
 40
10.0
 40
10.0
 40
10.0
 40
11.0
 40
11.0
 40
11.0
 40
12.0
 40
12.0
 40
12.0
 40
13.0
 40
13.0
 40
13.0
 40
14.0
 40
14.0
 40
14.0
 40
15.0
 40
15.0
 40
15.0
 40
16.0
 40
16.0
 40
16.0
 40
16.0
 10
87.83787703967248
 20
-120.70546600715
 30
0.0
 10
87.75967337215731
 20
-120.70546600715
 30
0.0
 10
87.65804305534243
 20
-120.6885850392723
 30
0.0
 10
87.55641273852757
 20
-120.6251952823437
 30
0.0
 10
87.38312443561951
 20
-120.5152967363642
 30
0.0
 10
87.36176484361096
 20
-120.3840385983762
 30
0.0
 10
87.34281681844207
 20
-120.2762071096879
 30
0.0
 10
87.34281681844207
 20
-120.2762071096879
 30
0.0
 10
87.5650254772407
 20
-120.2762071096879
 30
0.0
 10
87.5650254772407
 20
-120.2762071096879
 30
0.0
 10
87.61980249545617
 20
-120.4749891191868
 30
0.0
 10
87.74692651886188
 20
-120.50461694036
 30
0.0
 10
87.83994409696363
 20
-120.50461694036
 30
0.0
 10
87.97947046411625
 20
-120.50461694036
 30
0.0
 10
88.13174368456428
 20
-120.4050536808362
 30
0.0
 10
88.13174368456428
 20
-120.1725097355819
 30
0.0
 10
88.13174368456428
 20
-119.9165391410278
 30
0.0
 10
87.95190970023425
 20
-119.8466037026772
 30
0.0
 10
87.83133135825051
 20
-119.8466037026772
 30
0.0
 10
87.7996364797862
 20
-119.8466037026772
 30
0.0
 10
87.65804305534243
 20
-119.8466037026772
 30
0.0
 10
87.569159591823
 20
-119.9757947833741
 30
0.0
 10
87.569159591823
 20
-119.9757947833741
 30
0.0
 10
87.39345972207525
 20
-119.9568467582052
 30
0.0
 10
87.39345972207525
 20
-119.9568467582052
 30
0.0
 10
87.39345972207525
 20
-119.9568467582052
 30
0.0
 10
87.514038064059
 20
-119.1103867974794
 30
0.0
 10
87.514038064059
 20
-119.1103867974794
 30
0.0
 10
87.514038064059
 20
-119.1103867974794
 30
0.0
 10
88.29262964372546
 20
-119.1103867974794
 30
0.0
 10
88.29262964372546
 20
-119.1103867974794
 30
0.0
 10
88.29262964372546
 20
-119.1103867974794
 30
0.0
 10
88.29262964372546
 20
-119.305034692396
 30
0.0
 10
88.29262964372546
 20
-119.305034692396
 30
0.0
 10
88.29262964372546
 20
-119.305034692396
 30
0.0
 10
87.67699108051131
 20
-119.305034692396
 30
0.0
 10
87.67699108051131
 20
-119.305034692396
 30
0.0
 10
87.67699108051131
 20
-119.305034692396
 30
0.0
 10
87.61153426629157
 20
-119.7280924179847
 30
0.0
 10
87.61153426629157
 20
-119.7280924179847
 30
0.0
 10
87.67285696592901
 20
-119.6943304822292
 30
0.0
 10
87.75519474802648
 20
-119.6540228650518
 30
0.0
 10
87.87370603271907
 20
-119.6540228650518
 30
0.0
 10
88.12760956998198
 20
-119.6540228650518
 30
0.0
 10
88.36463213936717
 20
-119.8404025308038
 30
0.0
 10
88.36463213936717
 20
-120.153561710413
 30
0.0
 10
88.36463213936717
 20
-120.4708550046045
 30
0.0
 10
88.14035642327741
 20
-120.70546600715
 30
0.0
 10
87.83787703967248
 20
-120.70546600715
 30
0.0
  0
HATCH
  5
A1
330
9A
100
AcDbEntity
  8
_U+30EC_U+30A4_U+30E4_U+30FC 1
 62
   179
420
  2234388
100
AcDbHatch
 10
0.0
 20
0.0
 30
0.0
210
0.0
220
0.0
230
1.0
  2
SOLID
 70
     1
 71
     0
 91
        1
 92
        1
 93
        1
 72
     4
 94
        3
 73
     0
 74
     1
 95
       53
 96
       49
 40
0.0
 40
0.0
 40
0.0
 40
0.0
 40
1.0
 40
1.0
 40
1.0
 40
2.0
 40
2.0
 40
2.0
 40
3.0
 40
3.0
 40
3.0
 40
4.0
 40
4.0
 40
4.0
 40
5.0
 40
5.0
 40
5.0
 40
6.0
 40
6.0
 40
6.0
 40
7.0
 40
7.0
 40
7.0
 40
8.0
 40
8.0
 40
8.0
 40
9.0
 40
9.0
 40
9.0
 40
10.0
 40
10.0
 40
10.0
 40
11.0
 40
11.0
 40
11.0
 40
12.0
 40
12.0
 40
12.0
 40
13.0
 40
13.0
 40
13.0
 40
14.0
 40
14.0
 40
14.0
 40
15.0
 40
15.0
 40
15.0
 40
16.0
 40
16.0
 40
16.0
 40
16.0
 10
87.83787703967248
 20
-120.70546600715
 10
87.75967337215731
 20
-120.70546600715
 10
87.65804305534243
 20
-120.6885850392723
 10
87.55641273852757
 20
-120.6251952823437
 10
87.38312443561951
 20
-120.5152967363642
 10
87.36176484361096
 20
-120.3840385983762
 10
87.34281681844207
 20
-120.2762071096879
 10
87.34281681844207
 20
-120.2762071096879
 10
87.5650254772407
 20
-120.2762071096879
 10
87.5650254772407
 20
-120.2762071096879
 10
87.61980249545617
 20
-120.4749891191868
 10
87.74692651886188
 20
-120.50461694036
 10
87.83994409696363
 20
-120.50461694036
 10
87.97947046411625
 20
-120.50461694036
 10
88.13174368456428
 20
-120.4050536808362
 10
88.13174368456428
 20
-120.1725097355819
 10
88.13174368456428
 20
-119.9165391410278
 10
87.95190970023425
 20
-119.8466037026772
 10
87.83133135825051
 20
-119.8466037026772
 10
87.7996364797862
 20
-119.8466037026772
 10
87.65804305534243
 20
-119.8466037026772
 10
87.569159591823
 20
-119.9757947833741
 10
87.569159591823
 20
-119.9757947833741
 10
87.39345972207525
 20
-119.9568467582052
 10
87.39345972207525
 20
-119.9568467582052
 10
87.39345972207525
 20
-119.9568467582052
 10
87.514038064059
 20
-119.1103867974794
 10
87.514038064059
 20
-119.1103867974794
 10
87.514038064059
 20
-119.1103867974794
 10
88.29262964372546
 20
-119.1103867974794
 10
88.29262964372546
 20
-119.1103867974794
 10
88.29262964372546
 20
-119.1103867974794
 10
88.29262964372546
 20
-119.305034692396
 10
88.29262964372546
 20
-119.305034692396
 10
88.29262964372546
 20
-119.305034692396
 10
87.67699108051131
 20
-119.305034692396
 10
87.67699108051131
 20
-119.305034692396
 10
87.67699108051131
 20
-119.305034692396
 10
87.61153426629157
 20
-119.7280924179847
 10
87.61153426629157
 20
-119.7280924179847
 10
87.67285696592901
 20
-119.6943304822292
 10
87.75519474802648
 20
-119.6540228650518
 10
87.87370603271907
 20
-119.6540228650518
 10
88.12760956998198
 20
-119.6540228650518
 10
88.36463213936717
 20
-119.8404025308038
 10
88.36463213936717
 20
-120.153561710413
 10
88.36463213936717
 20
-120.4708550046045
 10
88.14035642327741
 20
-120.70546600715
 10
87.83787703967248
 20
-120.70546600715
 97
        0
 97
        0
 75
     2
 76
     1
 98
        0
  0
ENDBLK
  5
9D
330
9A
100
AcDbEntity
  8
0
100
AcDbBlockEnd
  0
ENDSEC
  0
SECTION
  2
ENTITIES
  0
SPLINE
  5
41
330
1F
100
AcDbEntity
  8
_U+30EC_U+30A4_U+30E4_U+30FC 1
 62
   179
420
  2234388
370
     9
100
AcDbSpline
210
0.0
220
0.0
230
1.0
 70
    11
 71
     3
 72
    17
 73
    13
 74
     0
 42
0.0000000001
 43
0.0000000001
 12
1.0
 22
0.0
 32
0.0
 13
1.0
 23
0.0
 33
0.0
 40
0.0
 40
0.0
 40
0.0
 40
0.0
 40
1.0
 40
1.0
 40
1.0
 40
2.0
 40
2.0
 40
2.0
 40
3.0
 40
3.0
 40
3.0
 40
4.0
 40
4.0
 40
4.0
 40
4.0
 10
102.6672912696281
 20
-133.2122049666967
 30
0.0
 10
102.6672912696281
 20
-133.1570658000443
 30
0.0
 10
102.6224884929933
 20
-133.1122983000551
 30
0.0
 10
102.5673846055102
 20
-133.1122983000551
 30
0.0
 10
102.5122454402503
 20
-133.1122983000551
 30
0.0
 10
102.467480529939
 20
-133.1570658000443
 30
0.0
 10
102.467480529939
 20
-133.2122049666967
 30
0.0
 10
102.467480529939
 20
-133.2673088555723
 30
0.0
 10
102.5122454402503
 20
-133.3121116333384
 30
0.0
 10
102.5673846055102
 20
-133.3121116333384
 30
0.0
 10
102.6224884929933
 20
-133.3121116333384
 30
0.0
 10
102.6672912696281
 20
-133.2673088555723
 30
0.0
 10
102.6672912696281
 20
-133.2122049666967
 30
0.0
  0
SPLINE
  5
42
330
1F
100
AcDbEntity
  8
_U+30EC_U+30A4_U+30E4_U+30FC 1
 62
   179
420
  2234388
370
     9
100
AcDbSpline
210
0.0
220
0.0
230
1.0
 70
    11
 71
     3
 72
    17
 73
    13
 74
     0
 42
0.0000000001
 43
0.0000000001
 12
1.0
 22
0.0
 32
0.0
 13
1.0
 23
0.0
 33
0.0
 40
0.0
 40
0.0
 40
0.0
 40
0.0
 40
1.0
 40
1.0
 40
1.0
 40
2.0
 40
2.0
 40
2.0
 40
3.0
 40
3.0
 40
3.0
 40
4.0
 40
4.0
 40
4.0
 40
4.0
 10
102.6672912696281
 20
-132.2120799669471
 30
0.0
 10
102.6672912696281
 20
-132.1569760780721
 30
0.0
 10
102.6224884929933
 20
-132.1125260780832
 30
0.0
 10
102.5673846055102
 20
-132.1125260780832
 30
0.0
 10
102.5122454402503
 20
-132.1125260780832
 30
0.0
 10
102.467480529939
 20
-132.1569760780721
 30
0.0
 10
102.467480529939
 20
-132.2120799669471
 30
0.0
 10
102.467480529939
 20
-132.2672191336002
 30
0.0
 10
102.5122454402503
 20
-132.3119866335887
 30
0.0
 10
102.5673846055102
 20
-132.3119866335887
 30
0.0
 10
102.6224884929933
 20
-132.3119866335887
 30
0.0
 10
102.6672912696281
 20
-132.2672191336002
 30
0.0
 10
102.6672912696281
 20
-132.2120799669471
 30
0.0
  0
SPLINE
  5
43
330
1F
100
AcDbEntity
  8
_U+30EC_U+30A4_U+30E4_U+30FC 1
 62
   179
420
  2234388
370
     9
100
AcDbSpline
210
0.0
220
0.0
230
1.0
 70
    11
 71
     3
 72
    17
 73
    13
 74
     0
 42
0.0000000001
 43
0.0000000001
 12
1.0
 22
0.0
 32
0.0
 13
1.0
 23
0.0
 33
0.0
 40
0.0
 40
0.0
 40
0.0
 40
0.0
 40
1.0
 40
1.0
 40
1.0
 40
2.0
 40
2.0
 40
2.0
 40
3.0
 40
3.0
 40
3.0
 40
4.0
 40
4.0
 40
4.0
 40
4.0
 10
102.6672912696281
 20
-125.7120435796832
 30
0.0
 10
102.6672912696281
 20
-125.656939690808
 30
0.0
 10
102.6224884929933
 20
-125.6123133019302
 30
0.0
 10
102.5673846055102
 20
-125.6123133019302
 30
0.0
 10
102.5122454402503
 20
-125.6123133019302
 30
0.0
 10
102.467480529939
 20
-125.656939690808
 30
0.0
 10
102.467480529939
 20
-125.7120435796832
 30
0.0
 10
102.467480529939
 20
-125.767182746336
 30
0.0
 10
102.5122454402503
 20
-125.8119502463249
 30
0.0
 10
102.5673846055102
 20
-125.8119502463249
 30
0.0
 10
102.6224884929933
 20
-125.8119502463249
 30
0.0
 10
102.6672912696281
 20
-125.767182746336
 30
0.0
 10
102.6672912696281
 20
-125.7120435796832
 30
0.0
  0
SPLINE
  5
44
330
1F
100
AcDbEntity
  8
_U+30EC_U+30A4_U+30E4_U+30FC 1
 62
   179
420
  2234388
370
     9
100
AcDbSpline
210
0.0
220
0.0
230
1.0
 70
    11
 71
     3
 72
    17
 73
    13
 74
     0
 42
0.0000000001
 43
0.0000000001
 12
1.0
 22
0.0
 32
0.0
 13
1.0
 23
0.0
 33
0.0
 40
0.0
 40
0.0
 40
0.0
 40
0.0
 40
1.0
 40
1.0
 40
1.0
 40
2.0
 40
2.0
 40
2.0
 40
3.0
 40
3.0
 40
3.0
 40
4.0
 40
4.0
 40
4.0
 40
4.0
 10
102.6672912696281
 20
-123.7120052468497
 30
0.0
 10
102.6672912696281
 20
-123.6568660801969
 30
0.0
 10
102.6224884929933
 20
-123.6122749690969
 30
0.0
 10
102.5673846055102
 20
-123.6122749690969
 30
0.0
 10
102.5122454402503
 20
-123.6122749690969
 30
0.0
 10
102.467480529939
 20
-123.6568660801969
 30
0.0
 10
102.467480529939
 20
-123.7120052468497
 30
0.0
 10
102.467480529939
 20
-123.7671091357249
 30
0.0
 10
102.5122454402503
 20
-123.8119119134916
 30
0.0
 10
102.5673846055102
 20
-123.8119119134916
 30
0.0
 10
102.6224884929933
 20
-123.8119119134916
 30
0.0
 10
102.6672912696281
 20
-123.7671091357249
 30
0.0
 10
102.6672912696281
 20
-123.7120052468497
 30
0.0
  0
SPLINE
  5
45
330
1F
100
AcDbEntity
  8
_U+30EC_U+30A4_U+30E4_U+30FC 1
 62
   179
420
  2234388
370
     9
100
AcDbSpline
210
0.0
220
0.0
230
1.0
 70
    11
 71
     3
 72
    17
 73
    13
 74
     0
 42
0.0000000001
 43
0.0000000001
 12
1.0
 22
0.0
 32
0.0
 13
1.0
 23
0.0
 33
0.0
 40
0.0
 40
0.0
 40
0.0
 40
0.0
 40
1.0
 40
1.0
 40
1.0
 40
2.0
 40
2.0
 40
2.0
 40
3.0
 40
3.0
 40
3.0
 40
4.0
 40
4.0
 40
4.0
 40
4.0
 10
100.1943896660504
 20
-137.212634410141
 30
0.0
 10
100.1943896660504
 20
-137.1575305212661
 30
0.0
 10
100.1496221671925
 20
-137.1127277434993
 30
0.0
 10
100.0944830019325
 20
-137.1127277434993
 30
0.0
 10
100.0393791144495
 20
-137.1127277434993
 30
0.0
 10
99.99457633781472
 20
-137.1575305212661
 30
0.0
 10
99.99457633781472
 20
-137.212634410141
 30
0.0
 10
99.99457633781472
 20
-137.267773576794
 30
0.0
 10
100.0393791144495
 20
-137.3125410767832
 30
0.0
 10
100.0944830019325
 20
-137.3125410767832
 30
0.0
 10
100.1496221671925
 20
-137.3125410767832
 30
0.0
 10
100.1943896660504
 20
-137.267773576794
 30
0.0
 10
100.1943896660504
 20
-137.212634410141
 30
0.0
  0
SPLINE
  5
46
330
1F
100
AcDbEntity
  8
_U+30EC_U+30A4_U+30E4_U+30FC 1
 62
   179
420
  2234388
370
     9
100
AcDbSpline
210
0.0
220
0.0
230
1.0
 70
    11
 71
     3
 72
    17
 73
    13
 74
     0
 42
0.0000000001
 43
0.0000000001
 12
1.0
 22
0.0
 32
0.0
 13
1.0
 23
0.0
 33
0.0
 40
0.0
 40
0.0
 40
0.0
 40
0.0
 40
1.0
 40
1.0
 40
1.0
 40
2.0
 40
2.0
 40
2.0
 40
3.0
 40
3.0
 40
3.0
 40
4.0
 40
4.0
 40
4.0
 40
4.0
 10
75.19419335941409
 20
-137.212634410141
 30
0.0
 10
75.19419335941409
 20
-137.1575305212661
 30
0.0
 10
75.1494277589904
 20
-137.1127277434993
 30
0.0
 10
75.09428669529625
 20
-137.1127277434993
 30
0.0
 10
75.03918280781318
 20
-137.1127277434993
 30
0.0
 10
74.99438003117841
 20
-137.1575305212661
 30
0.0
 10
74.99438003117841
 20
-137.212634410141
 30
0.0
 10
74.99438003117841
 20
-137.267773576794
 30
0.0
 10
75.03918280781318
 20
-137.3125410767832
 30
0.0
 10
75.09428669529625
 20
-137.3125410767832
 30
0.0
 10
75.1494277589904
 20
-137.3125410767832
 30
0.0
 10
75.19419335941409
 20
-137.267773576794
 30
0.0
 10
75.19419335941409
 20
-137.212634410141
 30
0.0
  0
SPLINE
  5
47
330
1F
100
AcDbEntity
  8
_U+30EC_U+30A4_U+30E4_U+30FC 1
 62
   179
420
  2234388
370
     9
100
AcDbSpline
210
0.0
220
0.0
230
1.0
 70
    11
 71
     3
 72
    17
 73
    13
 74
     0
 42
0.0000000001
 43
0.0000000001
 12
1.0
 22
0.0
 32
0.0
 13
1.0
 23
0.0
 33
0.0
 40
0.0
 40
0.0
 40
0.0
 40
0.0
 40
1.0
 40
1.0
 40
1.0
 40
2.0
 40
2.0
 40
2.0
 40
3.0
 40
3.0
 40
3.0
 40
4.0
 40
4.0
 40
4.0
 40
4.0
 10
95.19418812694948
 20
-121.2515213585761
 30
0.0
 10
95.19418812694948
 20
-121.1963821919233
 30
0.0
 10
95.14938535031473
 20
-121.1516146919344
 30
0.0
 10
95.09428146283165
 20
-121.1516146919344
 30
0.0
 10
95.0391422975717
 20
-121.1516146919344
 30
0.0
 10
94.99437479871382
 20
-121.1963821919233
 30
0.0
 10
94.99437479871382
 20
-121.2515213585761
 30
0.0
 10
94.99437479871382
 20
-121.3073308030065
 30
0.0
 10
95.0391422975717
 20
-121.3520983029954
 30
0.0
 10
95.09428146283165
 20
-121.3520983029954
 30
0.0
 10
95.14938535031473
 20
-121.3520983029954
 30
0.0
 10
95.19418812694948
 20
-121.3073308030065
 30
0.0
 10
95.19418812694948
 20
-121.2515213585761
 30
0.0
  0
SPLINE
  5
48
330
1F
100
AcDbEntity
  8
_U+30EC_U+30A4_U+30E4_U+30FC 1
 62
   179
420
  2234388
370
     9
100
AcDbSpline
210
0.0
220
0.0
230
1.0
 70
    11
 71
     3
 72
    17
 73
    13
 74
     0
 42
0.0000000001
 43
0.0000000001
 12
1.0
 22
0.0
 32
0.0
 13
1.0
 23
0.0
 33
0.0
 40
0.0
 40
0.0
 40
0.0
 40
0.0
 40
1.0
 40
1.0
 40
1.0
 40
2.0
 40
2.0
 40
2.0
 40
3.0
 40
3.0
 40
3.0
 40
4.0
 40
4.0
 40
4.0
 40
4.0
 10
80.19425378740748
 20
-121.2515213585761
 30
0.0
 10
80.19425378740748
 20
-121.1963821919233
 30
0.0
 10
80.14945101077271
 20
-121.1516146919344
 30
0.0
 10
80.09434712328964
 20
-121.1516146919344
 30
0.0
 10
80.03920795802969
 20
-121.1516146919344
 30
0.0
 10
79.9944404591718
 20
-121.1963821919233
 30
0.0
 10
79.9944404591718
 20
-121.2515213585761
 30
0.0
 10
79.9944404591718
 20
-121.3073308030065
 30
0.0
 10
80.03920795802969
 20
-121.3520983029954
 30
0.0
 10
80.09434712328964
 20
-121.3520983029954
 30
0.0
 10
80.14945101077271
 20
-121.3520983029954
 30
0.0
 10
80.19425378740748
 20
-121.3073308030065
 30
0.0
 10
80.19425378740748
 20
-121.2515213585761
 30
0.0
  0
POLYLINE
  5
49
330
1F
100
AcDbEntity
  8
_U+30EC_U+30A4_U+30E4_U+30FC 1
 62
   179
420
  2234388
370
     9
100
AcDb2dPolyline
 66
     1
 10
0.0
 20
0.0
 30
0.0
  0
VERTEX
  5
4A
330
49
100
AcDbEntity
  8
_U+30EC_U+30A4_U+30E4_U+30FC 1
 62
   179
420
  2234388
370
     9
100
AcDbVertex
100
AcDb2dVertex
 10
102.5673846055102
 20
-133.2135808000303
 30
0.0
  0
VERTEX
  5
4B
330
49
100
AcDbEntity
  8
_U+30EC_U+30A4_U+30E4_U+30FC 1
 62
   179
420
  2234388
370
     9
100
AcDbVertex
100
AcDb2dVertex
 10
102.5673846055102
 20
-123.7135574690718
 30
0.0
  0
SEQEND
  5
4C
330
49
100
AcDbEntity
  8
_U+30EC_U+30A4_U+30E4_U+30FC 1
 62
   179
420
  2234388
370
     9
  0
POLYLINE
  5
4D
330
1F
100
AcDbEntity
  8
_U+30EC_U+30A4_U+30E4_U+30FC 1
 62
   179
420
  2234388
370
     9
100
AcDb2dPolyline
 66
     1
 10
0.0
 20
0.0
 30
0.0
  0
VERTEX
  5
4E
330
4D
100
AcDbEntity
  8
_U+30EC_U+30A4_U+30E4_U+30FC 1
 62
   179
420
  2234388
370
     9
100
AcDbVertex
100
AcDb2dVertex
 10
101.1073432538701
 20
-133.2122049666967
 30
0.0
  0
VERTEX
  5
4F
330
4D
100
AcDbEntity
  8
_U+30EC_U+30A4_U+30E4_U+30FC 1
 62
   179
420
  2234388
370
     9
100
AcDbVertex
100
AcDb2dVertex
 10
103.5678270799868
 20
-133.2122049666967
 30
0.0
  0
SEQEND
  5
50
330
4D
100
AcDbEntity
  8
_U+30EC_U+30A4_U+30E4_U+30FC 1
 62
   179
420
  2234388
370
     9
  0
POLYLINE
  5
51
330
1F
100
AcDbEntity
  8
_U+30EC_U+30A4_U+30E4_U+30FC 1
 62
   179
420
  2234388
370
     9
100
AcDb2dPolyline
 66
     1
 10
0.0
 20
0.0
 30
0.0
  0
VERTEX
  5
52
330
51
100
AcDbEntity
  8
_U+30EC_U+30A4_U+30E4_U+30FC 1
 62
   179
420
  2234388
370
     9
100
AcDbVertex
100
AcDb2dVertex
 10
101.1073432538701
 20
-132.2120799669471
 30
0.0
  0
VERTEX
  5
53
330
51
100
AcDbEntity
  8
_U+30EC_U+30A4_U+30E4_U+30FC 1
 62
   179
420
  2234388
370
     9
100
AcDbVertex
100
AcDb2dVertex
 10
103.5678270799868
 20
-132.2120799669471
 30
0.0
  0
SEQEND
  5
54
330
51
100
AcDbEntity
  8
_U+30EC_U+30A4_U+30E4_U+30FC 1
 62
   179
420
  2234388
370
     9
  0
POLYLINE
  5
55
330
1F
100
AcDbEntity
  8
_U+30EC_U+30A4_U+30E4_U+30FC 1
 62
   179
420
  2234388
370
     9
100
AcDb2dPolyline
 66
     1
 10
0.0
 20
0.0
 30
0.0
  0
VERTEX
  5
56
330
55
100
AcDbEntity
  8
_U+30EC_U+30A4_U+30E4_U+30FC 1
 62
   179
420
  2234388
370
     9
100
AcDbVertex
100
AcDb2dVertex
 10
97.10723141147702
 20
-125.7120435796832
 30
0.0
  0
VERTEX
  5
57
330
55
100
AcDbEntity
  8
_U+30EC_U+30A4_U+30E4_U+30FC 1
 62
   179
420
  2234388
370
     9
100
AcDbVertex
100
AcDb2dVertex
 10
103.5678270799868
 20
-125.7120435796832
 30
0.0
  0
SEQEND
  5
58
330
55
100
AcDbEntity
  8
_U+30EC_U+30A4_U+30E4_U+30FC 1
 62
   179
420
  2234388
370
     9
  0
POLYLINE
  5
59
330
1F
100
AcDbEntity
  8
_U+30EC_U+30A4_U+30E4_U+30FC 1
 62
   179
420
  2234388
370
     9
100
AcDb2dPolyline
 66
     1
 10
0.0
 20
0.0
 30
0.0
  0
VERTEX
  5
5A
330
59
100
AcDbEntity
  8
_U+30EC_U+30A4_U+30E4_U+30FC 1
 62
   179
420
  2234388
370
     9
100
AcDbVertex
100
AcDb2dVertex
 10
97.10723141147702
 20
-123.7120052468497
 30
0.0
  0
VERTEX
  5
5B
330
59
100
AcDbEntity
  8
_U+30EC_U+30A4_U+30E4_U+30FC 1
 62
   179
420
  2234388
370
     9
100
AcDbVertex
100
AcDb2dVertex
 10
103.5678270799868
 20
-123.7120052468497
 30
0.0
  0
SEQEND
  5
5C
330
59
100
AcDbEntity
  8
_U+30EC_U+30A4_U+30E4_U+30FC 1
 62
   179
420
  2234388
370
     9
  0
INSERT
  5
5E
330
1F
100
AcDbEntity
  8
_U+30EC_U+30A4_U+30E4_U+30FC 1
100
AcDbBlockReference
  2
block 2
 10
0.0
 20
0.0
 30
0.0
  0
INSERT
  5
64
330
1F
100
AcDbEntity
  8
_U+30EC_U+30A4_U+30E4_U+30FC 1
100
AcDbBlockReference
  2
block 3
 10
0.0
 20
0.0
 30
0.0
  0
INSERT
  5
75
330
1F
100
AcDbEntity
  8
_U+30EC_U+30A4_U+30E4_U+30FC 1
100
AcDbBlockReference
  2
block 4
 10
0.0
 20
0.0
 30
0.0
  0
POLYLINE
  5
7A
330
1F
100
AcDbEntity
  8
_U+30EC_U+30A4_U+30E4_U+30FC 1
 62
   179
420
  2234388
370
     9
100
AcDb2dPolyline
 66
     1
 10
0.0
 20
0.0
 30
0.0
  0
VERTEX
  5
7B
330
7A
100
AcDbEntity
  8
_U+30EC_U+30A4_U+30E4_U+30FC 1
 62
   179
420
  2234388
370
     9
100
AcDbVertex
100
AcDb2dVertex
 10
75.09428669529625
 20
-137.212634410141
 30
0.0
  0
VERTEX
  5
7C
330
7A
100
AcDbEntity
  8
_U+30EC_U+30A4_U+30E4_U+30FC 1
 62
   179
420
  2234388
370
     9
100
AcDbVertex
100
AcDb2dVertex
 10
100.0944830019325
 20
-137.212634410141
 30
0.0
  0
SEQEND
  5
7D
330
7A
100
AcDbEntity
  8
_U+30EC_U+30A4_U+30E4_U+30FC 1
 62
   179
420
  2234388
370
     9
  0
POLYLINE
  5
7E
330
1F
100
AcDbEntity
  8
_U+30EC_U+30A4_U+30E4_U+30FC 1
 62
   179
420
  2234388
370
     9
100
AcDb2dPolyline
 66
     1
 10
0.0
 20
0.0
 30
0.0
  0
VERTEX
  5
7F
330
7E
100
AcDbEntity
  8
_U+30EC_U+30A4_U+30E4_U+30FC 1
 62
   179
420
  2234388
370
     9
100
AcDbVertex
100
AcDb2dVertex
 10
75.09428669529625
 20
-135.7525930216173
 30
0.0
  0
VERTEX
  5
80
330
7E
100
AcDbEntity
  8
_U+30EC_U+30A4_U+30E4_U+30FC 1
 62
   179
420
  2234388
370
     9
100
AcDbVertex
100
AcDb2dVertex
 10
75.09428669529625
 20
-138.2124066321135
 30
0.0
  0
SEQEND
  5
81
330
7E
100
AcDbEntity
  8
_U+30EC_U+30A4_U+30E4_U+30FC 1
 62
   179
420
  2234388
370
     9
  0
POLYLINE
  5
82
330
1F
100
AcDbEntity
  8
_U+30EC_U+30A4_U+30E4_U+30FC 1
 62
   179
420
  2234388
370
     9
100
AcDb2dPolyline
 66
     1
 10
0.0
 20
0.0
 30
0.0
  0
VERTEX
  5
83
330
82
100
AcDbEntity
  8
_U+30EC_U+30A4_U+30E4_U+30FC 1
 62
   179
420
  2234388
370
     9
100
AcDbVertex
100
AcDb2dVertex
 10
100.0944830019325
 20
-135.7525930216173
 30
0.0
  0
VERTEX
  5
84
330
82
100
AcDbEntity
  8
_U+30EC_U+30A4_U+30E4_U+30FC 1
 62
   179
420
  2234388
370
     9
100
AcDbVertex
100
AcDb2dVertex
 10
100.0944830019325
 20
-138.2124066321135
 30
0.0
  0
SEQEND
  5
85
330
82
100
AcDbEntity
  8
_U+30EC_U+30A4_U+30E4_U+30FC 1
 62
   179
420
  2234388
370
     9
  0
INSERT
  5
87
330
1F
100
AcDbEntity
  8
_U+30EC_U+30A4_U+30E4_U+30FC 1
100
AcDbBlockReference
  2
block 5
 10
0.0
 20
0.0
 30
0.0
  0
POLYLINE
  5
8E
330
1F
100
AcDbEntity
  8
_U+30EC_U+30A4_U+30E4_U+30FC 1
 62
   179
420
  2234388
370
     9
100
AcDb2dPolyline
 66
     1
 10
0.0
 20
0.0
 30
0.0
  0
VERTEX
  5
8F
330
8E
100
AcDbEntity
  8
_U+30EC_U+30A4_U+30E4_U+30FC 1
 62
   179
420
  2234388
370
     9
100
AcDbVertex
100
AcDb2dVertex
 10
95.09428146283165
 20
-121.2515213585761
 30
0.0
  0
VERTEX
  5
90
330
8E
100
AcDbEntity
  8
_U+30EC_U+30A4_U+30E4_U+30FC 1
 62
   179
420
  2234388
370
     9
100
AcDbVertex
100
AcDb2dVertex
 10
80.09434712328964
 20
-121.2515213585761
 30
0.0
  0
SEQEND
  5
91
330
8E
100
AcDbEntity
  8
_U+30EC_U+30A4_U+30E4_U+30FC 1
 62
   179
420
  2234388
370
     9
  0
POLYLINE
  5
92
330
1F
100
AcDbEntity
  8
_U+30EC_U+30A4_U+30E4_U+30FC 1
 62
   179
420
  2234388
370
     9
100
AcDb2dPolyline
 66
     1
 10
0.0
 20
0.0
 30
0.0
  0
VERTEX
  5
93
330
92
100
AcDbEntity
  8
_U+30EC_U+30A4_U+30E4_U+30FC 1
 62
   179
420
  2234388
370
     9
100
AcDbVertex
100
AcDb2dVertex
 10
95.09428146283165
 20
-122.7117038582108
 30
0.0
  0
VERTEX
  5
94
330
92
100
AcDbEntity
  8
_U+30EC_U+30A4_U+30E4_U+30FC 1
 62
   179
420
  2234388
370
     9
100
AcDbVertex
100
AcDb2dVertex
 10
95.09428146283165
 20
-120.2517491366038
 30
0.0
  0
SEQEND
  5
95
330
92
100
AcDbEntity
  8
_U+30EC_U+30A4_U+30E4_U+30FC 1
 62
   179
420
  2234388
370
     9
  0
POLYLINE
  5
96
330
1F
100
AcDbEntity
  8
_U+30EC_U+30A4_U+30E4_U+30FC 1
 62
   179
420
  2234388
370
     9
100
AcDb2dPolyline
 66
     1
 10
0.0
 20
0.0
 30
0.0
  0
VERTEX
  5
97
330
96
100
AcDbEntity
  8
_U+30EC_U+30A4_U+30E4_U+30FC 1
 62
   179
420
  2234388
370
     9
100
AcDbVertex
100
AcDb2dVertex
 10
80.09434712328964
 20
-122.7117038582108
 30
0.0
  0
VERTEX
  5
98
330
96
100
AcDbEntity
  8
_U+30EC_U+30A4_U+30E4_U+30FC 1
 62
   179
420
  2234388
370
     9
100
AcDbVertex
100
AcDb2dVertex
 10
80.09434712328964
 20
-120.2517491366038
 30
0.0
  0
SEQEND
  5
99
330
96
100
AcDbEntity
  8
_U+30EC_U+30A4_U+30E4_U+30FC 1
 62
   179
420
  2234388
370
     9
  0
INSERT
  5
9B
330
1F
100
AcDbEntity
  8
_U+30EC_U+30A4_U+30E4_U+30FC 1
100
AcDbBlockReference
  2
block 6
 10
0.0
 20
0.0
 30
0.0
  0
POLYLINE
  5
A2
330
1F
100
AcDbEntity
  8
_U+30EC_U+30A4_U+30E4_U+30FC 1
 62
   179
420
  2234388
370
    25
100
AcDb2dPolyline
 66
     1
 10
0.0
 20
0.0
 30
0.0
  0
VERTEX
  5
A3
330
A2
100
AcDbEntity
  8
_U+30EC_U+30A4_U+30E4_U+30FC 1
 62
   179
420
  2234388
370
    25
100
AcDbVertex
100
AcDb2dVertex
 10
100.0993160573648
 20
-133.2122049666967
 30
0.0
  0
VERTEX
  5
A4
330
A2
100
AcDbEntity
  8
_U+30EC_U+30A4_U+30E4_U+30FC 1
 62
   179
420
  2234388
370
    25
100
AcDbVertex
100
AcDb2dVertex
 10
75.0891361398721
 20
-133.2122049666967
 30
0.0
  0
VERTEX
  5
A5
330
A2
100
AcDbEntity
  8
_U+30EC_U+30A4_U+30E4_U+30FC 1
 62
   179
420
  2234388
370
    25
100
AcDbVertex
100
AcDb2dVertex
 10
75.0891361398721
 20
-132.2120799669471
 30
0.0
  0
VERTEX
  5
A6
330
A2
100
AcDbEntity
  8
_U+30EC_U+30A4_U+30E4_U+30FC 1
 62
   179
420
  2234388
370
    25
100
AcDbVertex
100
AcDb2dVertex
 10
87.09423416692987
 20
-132.2120799669471
 30
0.0
  0
VERTEX
  5
A7
330
A2
100
AcDbEntity
  8
_U+30EC_U+30A4_U+30E4_U+30FC 1
 62
   179
420
  2234388
370
    25
100
AcDbVertex
100
AcDb2dVertex
 10
87.09423416692987
 20
-124.7120949688221
 30
0.0
  0
VERTEX
  5
A8
330
A2
100
AcDbEntity
  8
_U+30EC_U+30A4_U+30E4_U+30FC 1
 62
   179
420
  2234388
370
    25
100
AcDbVertex
100
AcDb2dVertex
 10
81.09443886861521
 20
-124.7120949688221
 30
0.0
  0
VERTEX
  5
A9
330
A2
100
AcDbEntity
  8
_U+30EC_U+30A4_U+30E4_U+30FC 1
 62
   179
420
  2234388
370
    25
100
AcDbVertex
100
AcDb2dVertex
 10
81.09443886861521
 20
-125.7120435796832
 30
0.0
  0
VERTEX
  5
AA
330
A2
100
AcDbEntity
  8
_U+30EC_U+30A4_U+30E4_U+30FC 1
 62
   179
420
  2234388
370
    25
100
AcDbVertex
100
AcDb2dVertex
 10
80.09434712328964
 20
-125.7120435796832
 30
0.0
  0
VERTEX
  5
AB
330
A2
100
AcDbEntity
  8
_U+30EC_U+30A4_U+30E4_U+30FC 1
 62
   179
420
  2234388
370
    25
100
AcDbVertex
100
AcDb2dVertex
 10
80.09434712328964
 20
-123.7120052468497
 30
0.0
  0
VERTEX
  5
AC
330
A2
100
AcDbEntity
  8
_U+30EC_U+30A4_U+30E4_U+30FC 1
 62
   179
420
  2234388
370
    25
100
AcDbVertex
100
AcDb2dVertex
 10
95.09428146283165
 20
-123.7120052468497
 30
0.0
  0
VERTEX
  5
AD
330
A2
100
AcDbEntity
  8
_U+30EC_U+30A4_U+30E4_U+30FC 1
 62
   179
420
  2234388
370
    25
100
AcDbVertex
100
AcDb2dVertex
 10
95.09428146283165
 20
-125.7120435796832
 30
0.0
  0
VERTEX
  5
AE
330
A2
100
AcDbEntity
  8
_U+30EC_U+30A4_U+30E4_U+30FC 1
 62
   179
420
  2234388
370
    25
100
AcDbVertex
100
AcDb2dVertex
 10
94.09415648834697
 20
-125.7120435796832
 30
0.0
  0
VERTEX
  5
AF
330
A2
100
AcDbEntity
  8
_U+30EC_U+30A4_U+30E4_U+30FC 1
 62
   179
420
  2234388
370
    25
100
AcDbVertex
100
AcDb2dVertex
 10
94.09415648834697
 20
-124.7120949688221
 30
0.0
  0
VERTEX
  5
B0
330
A2
100
AcDbEntity
  8
_U+30EC_U+30A4_U+30E4_U+30FC 1
 62
   179
420
  2234388
370
    25
100
AcDbVertex
100
AcDb2dVertex
 10
88.09400636364578
 20
-124.7120949688221
 30
0.0
  0
VERTEX
  5
B1
330
A2
100
AcDbEntity
  8
_U+30EC_U+30A4_U+30E4_U+30FC 1
 62
   179
420
  2234388
370
    25
100
AcDbVertex
100
AcDb2dVertex
 10
88.09400636364578
 20
-132.2120799669471
 30
0.0
  0
VERTEX
  5
B2
330
A2
100
AcDbEntity
  8
_U+30EC_U+30A4_U+30E4_U+30FC 1
 62
   179
420
  2234388
370
    25
100
AcDbVertex
100
AcDb2dVertex
 10
100.0993160573648
 20
-132.2120799669471
 30
0.0
  0
VERTEX
  5
B3
330
A2
100
AcDbEntity
  8
_U+30EC_U+30A4_U+30E4_U+30FC 1
 62
   179
420
  2234388
370
    25
100
AcDbVertex
100
AcDb2dVertex
 10
100.0993160573648
 20
-133.2122049666967
 30
0.0
  0
SEQEND
  5
B5
330
A2
100
AcDbEntity
  8
_U+30EC_U+30A4_U+30E4_U+30FC 1
 62
   179
420
  2234388
370
    25
  0
HATCH
  5
B4
330
1F
100
AcDbEntity
  8
_U+30EC_U+30A4_U+30E4_U+30FC 1
 62
     9
420
 13224394
100
AcDbHatch
 10
0.0
 20
0.0
 30
0.0
210
0.0
220
0.0
230
1.0
  2
SOLID
 70
     1
 71
     0
 91
        1
 92
        1
 93
       16
 72
     1
 10
100.0993160573648
 20
-133.2122049666967
 11
75.0891361398721
 21
-133.2122049666967
 72
     1
 10
75.0891361398721
 20
-133.2122049666967
 11
75.0891361398721
 21
-132.2120799669471
 72
     1
 10
75.0891361398721
 20
-132.2120799669471
 11
87.09423416692987
 21
-132.2120799669471
 72
     1
 10
87.09423416692987
 20
-132.2120799669471
 11
87.09423416692987
 21
-124.7120949688221
 72
     1
 10
87.09423416692987
 20
-124.7120949688221
 11
81.09443886861521
 21
-124.7120949688221
 72
     1
 10
81.09443886861521
 20
-124.7120949688221
 11
81.09443886861521
 21
-125.7120435796832
 72
     1
 10
81.09443886861521
 20
-125.7120435796832
 11
80.09434712328964
 21
-125.7120435796832
 72
     1
 10
80.09434712328964
 20
-125.7120435796832
 11
80.09434712328964
 21
-123.7120052468497
 72
     1
 10
80.09434712328964
 20
-123.7120052468497
 11
95.09428146283165
 21
-123.7120052468497
 72
     1
 10
95.09428146283165
 20
-123.7120052468497
 11
95.09428146283165
 21
-125.7120435796832
 72
     1
 10
95.09428146283165
 20
-125.7120435796832
 11
94.09415648834697
 21
-125.7120435796832
 72
     1
 10
94.09415648834697
 20
-125.7120435796832
 11
94.09415648834697
 21
-124.7120949688221
 72
     1
 10
94.09415648834697
 20
-124.7120949688221
 11
88.09400636364578
 21
-124.7120949688221
 72
     1
 10
88.09400636364578
 20
-124.7120949688221
 11
88.09400636364578
 21
-132.2120799669471
 72
     1
 10
88.09400636364578
 20
-132.2120799669471
 11
100.0993160573648
 21
-132.2120799669471
 72
     1
 10
100.0993160573648
 20
-132.2120799669471
 11
100.0993160573648
 21
-133.2122049666967
 97
        0
 75
     2
 76
     1
 98
        0
  0
ENDSEC
  0
SECTION
  2
OBJECTS
  0
DICTIONARY
  5
C
330
0
100
AcDbDictionary
281
     1
  3
ACAD_GROUP
350
D
  3
ACAD_LAYOUT
350
1A
  3
ACAD_MATERIAL
350
3B
  3
ACAD_MLEADERSTYLE
350
B7
  3
ACAD_MLINESTYLE
350
17
  3
ACAD_PLOTSETTINGS
350
19
  3
ACAD_PLOTSTYLENAME
350
E
  3
ACAD_TABLESTYLE
350
B6
  3
ACAD_VISUALSTYLE
350
2A
  0
SUN
  5
3F
330
29
100
AcDbSun
 90
        1
290
     0
 63
     7
421
 16777215
 40
1.0
291
     1
 91
  2455826
 92
 54000000
292
     0
 70
     2
 71
   256
280
     1
  0
DICTIONARY
  5
D
102
{ACAD_REACTORS
330
C
102
}
330
C
100
AcDbDictionary
281
     1
  0
DICTIONARY
  5
1A
102
{ACAD_REACTORS
330
C
102
}
330
C
100
AcDbDictionary
281
     1
  3
Layout1
350
1E
  3
Layout2
350
26
  3
Model
350
22
  0
DICTIONARY
  5
3B
102
{ACAD_REACTORS
330
C
102
}
330
C
100
AcDbDictionary
281
     1
  3
ByBlock
350
3D
  3
ByLayer
350
3C
  3
Global
350
3E
  0
DICTIONARY
  5
B7
102
{ACAD_REACTORS
330
C
102
}
330
C
100
AcDbDictionary
281
     1
  0
DICTIONARY
  5
17
102
{ACAD_REACTORS
330
C
102
}
330
C
100
AcDbDictionary
281
     1
  3
Standard
350
18
  0
DICTIONARY
  5
19
102
{ACAD_REACTORS
330
C
102
}
330
C
100
AcDbDictionary
281
     1
  0
ACDBDICTIONARYWDFLT
  5
E
102
{ACAD_REACTORS
330
C
102
}
330
C
100
AcDbDictionary
281
     1
  3
Normal
350
F
100
AcDbDictionaryWithDefault
340
F
  0
DICTIONARY
  5
B6
102
{ACAD_REACTORS
330
C
102
}
330
C
100
AcDbDictionary
281
     1
  0
DICTIONARY
  5
2A
102
{ACAD_REACTORS
330
C
102
}
330
C
100
AcDbDictionary
281
     1
  3
2dWireframe
350
2F
  3
3D Hidden
350
31
  3
3dWireframe
350
30
  3
Basic
350
32
  3
Brighten
350
36
  3
ColorChange
350
3A
  3
Conceptual
350
34
  3
Dim
350
35
  3
Facepattern
350
39
  3
Flat
350
2B
  3
FlatWithEdges
350
2C
  3
Gouraud
350
2D
  3
GouraudWithEdges
350
2E
  3
Linepattern
350
38
  3
Realistic
350
33
  3
Thicken
350
37
  0
LAYOUT
  5
1E
102
{ACAD_REACTORS
330
1A
102
}
330
1A
100
AcDbPlotSettings
  1

  2
none_device
  4

  6

 40
0.0
 41
0.0
 42
0.0
 43
0.0
 44
0.0
 45
0.0
 46
0.0
 47
0.0
 48
0.0
 49
0.0
140
0.0
141
0.0
142
1.0
143
1.0
 70
   688
 72
     0
 73
     0
 74
     5
  7

 75
    16
 76
     0
 77
     2
 78
   300
147
1.0
148
0.0
149
0.0
100
AcDbLayout
  1
Layout1
 70
     1
 71
     1
 10
0.0
 20
0.0
 11
12.0
 21
9.0
 12
0.0
 22
0.0
 32
0.0
 14
1.000000000000000E+20
 24
1.000000000000000E+20
 34
1.000000000000000E+20
 15
-1.000000000000000E+20
 25
-1.000000000000000E+20
 35
-1.000000000000000E+20
146
0.0
 13
0.0
 23
0.0
 33
0.0
 16
1.0
 26
0.0
 36
0.0
 17
0.0
 27
1.0
 37
0.0
 76
     0
330
1B
  0
LAYOUT
  5
26
102
{ACAD_REACTORS
330
1A
102
}
330
1A
100
AcDbPlotSettings
  1

  2
none_device
  4

  6

 40
0.0
 41
0.0
 42
0.0
 43
0.0
 44
0.0
 45
0.0
 46
0.0
 47
0.0
 48
0.0
 49
0.0
140
0.0
141
0.0
142
1.0
143
1.0
 70
   688
 72
     0
 73
     0
 74
     5
  7

 75
    16
 76
     0
 77
     2
 78
   300
147
1.0
148
0.0
149
0.0
100
AcDbLayout
  1
Layout2
 70
     1
 71
     2
 10
0.0
 20
0.0
 11
0.0
 21
0.0
 12
0.0
 22
0.0
 32
0.0
 14
0.0
 24
0.0
 34
0.0
 15
0.0
 25
0.0
 35
0.0
146
0.0
 13
0.0
 23
0.0
 33
0.0
 16
1.0
 26
0.0
 36
0.0
 17
0.0
 27
1.0
 37
0.0
 76
     0
330
23
  0
LAYOUT
  5
22
102
{ACAD_REACTORS
330
1A
102
}
330
1A
100
AcDbPlotSettings
  1

  2
none_device
  4

  6

 40
0.0
 41
0.0
 42
0.0
 43
0.0
 44
0.0
 45
0.0
 46
0.0
 47
0.0
 48
0.0
 49
0.0
140
0.0
141
0.0
142
1.0
143
1.0
 70
  1712
 72
     0
 73
     0
 74
     0
  7

 75
     0
 76
     0
 77
     2
 78
   300
147
1.0
148
0.0
149
0.0
100
AcDbLayout
  1
Model
 70
     1
 71
     0
 10
0.0
 20
0.0
 11
12.0
 21
9.0
 12
0.0
 22
0.0
 32
0.0
 14
1.000000000000000E+20
 24
1.000000000000000E+20
 34
1.000000000000000E+20
 15
-1.000000000000000E+20
 25
-1.000000000000000E+20
 35
-1.000000000000000E+20
146
0.0
 13
0.0
 23
0.0
 33
0.0
 16
1.0
 26
0.0
 36
0.0
 17
0.0
 27
1.0
 37
0.0
 76
     0
330
1F
331
29
  0
MATERIAL
  5
3D
102
{ACAD_REACTORS
330
3B
102
}
330
3B
100
AcDbMaterial
  1
ByBlock
 72
     1
 94
      127
  0
MATERIAL
  5
3C
102
{ACAD_REACTORS
330
3B
102
}
330
3B
100
AcDbMaterial
  1
ByLayer
 72
     1
 94
      127
  0
MATERIAL
  5
3E
102
{ACAD_REACTORS
330
3B
102
}
330
3B
100
AcDbMaterial
  1
Global
 72
     1
 94
      127
  0
MLINESTYLE
  5
18
102
{ACAD_REACTORS
330
17
102
}
330
17
100
AcDbMlineStyle
  2
Standard
 70
     0
  3

 62
   256
 51
90.0
 52
90.0
 71
     2
 49
0.5
 62
   256
  6
BYLAYER
 49
-0.5
 62
   256
  6
BYLAYER
  0
ACDBPLACEHOLDER
  5
F
102
{ACAD_REACTORS
330
E
102
}
330
E
  0
VISUALSTYLE
  5
2F
102
{ACAD_REACTORS
330
2A
102
}
330
2A
100
AcDbVisualStyle
  2
2dWireframe
 70
     4
177
     2
291
     0
 71
     0
176
     1
 72
     2
176
     1
 73
     0
176
     1
 90
        0
176
     1
 40
-0.6
176
     1
 41
-30.0
176
     1
 62
     5
 63
     7
421
 16777215
176
     1
 74
     1
176
     1
 91
        4
176
     1
 64
     7
176
     1
 65
   257
176
     1
 75
     1
176
     1
175
     1
176
     1
 42
1.0
176
     1
 92
        0
176
     1
 66
   257
176
     1
 43
1.0
176
     1
 76
     1
176
     1
 77
     6
176
     1
 78
     2
176
     1
 67
     7
176
     1
 79
     5
176
     1
170
     0
176
     1
171
     0
176
     1
290
     0
176
     1
 93
        1
176
     1
 44
0.0
176
     1
173
     0
176
     1
  0
VISUALSTYLE
  5
31
102
{ACAD_REACTORS
330
2A
102
}
330
2A
100
AcDbVisualStyle
  2
3D Hidden
 70
     6
177
     2
291
     0
 71
     1
176
     1
 72
     2
176
     1
 73
     2
176
     1
 90
        0
176
     1
 40
-0.6
176
     1
 41
-30.0
176
     1
 62
     5
 63
     7
421
 16777215
176
     1
 74
     2
176
     1
 91
        2
176
     1
 64
     7
176
     1
 65
   257
176
     1
 75
     2
176
     1
175
     1
176
     1
 42
40.0
176
     1
 92
        0
176
     1
 66
   257
176
     1
 43
1.0
176
     1
 76
     1
176
     1
 77
     6
176
     1
 78
     2
176
     1
 67
     7
176
     1
 79
     3
176
     1
170
     0
176
     1
171
     0
176
     1
290
     0
176
     1
 93
        1
176
     1
 44
0.0
176
     1
173
     0
176
     1
  0
VISUALSTYLE
  5
30
102
{ACAD_REACTORS
330
2A
102
}
330
2A
100
AcDbVisualStyle
  2
3dWireframe
 70
     5
177
     2
291
     0
 71
     0
176
     1
 72
     2
176
     1
 73
     0
176
     1
 90
        0
176
     1
 40
-0.6
176
     1
 41
-30.0
176
     1
 62
     5
 63
     7
421
 16777215
176
     1
 74
     1
176
     1
 91
        4
176
     1
 64
     7
176
     1
 65
   257
176
     1
 75
     1
176
     1
175
     1
176
     1
 42
1.0
176
     1
 92
        0
176
     1
 66
   257
176
     1
 43
1.0
176
     1
 76
     1
176
     1
 77
     6
176
     1
 78
     2
176
     1
 67
     7
176
     1
 79
     5
176
     1
170
     0
176
     1
171
     0
176
     1
290
     0
176
     1
 93
        1
176
     1
 44
0.0
176
     1
173
     0
176
     1
  0
VISUALSTYLE
  5
32
102
{ACAD_REACTORS
330
2A
102
}
330
2A
100
AcDbVisualStyle
  2
Basic
 70
     7
177
     2
291
     1
 71
     1
176
     1
 72
     0
176
     1
 73
     1
176
     1
 90
        0
176
     1
 40
-0.6
176
     1
 41
-30.0
176
     1
 62
     5
 63
     7
421
 16777215
176
     1
 74
     0
176
     1
 91
        4
176
     1
 64
     7
176
     1
 65
   257
176
     1
 75
     1
176
     1
175
     1
176
     1
 42
1.0
176
     1
 92
        8
176
     1
 66
     7
176
     1
 43
1.0
176
     1
 76
     1
176
     1
 77
     6
176
     1
 78
     2
176
     1
 67
     7
176
     1
 79
     5
176
     1
170
     0
176
     1
171
     0
176
     1
290
     0
176
     1
 93
        1
176
     1
 44
0.0
176
     1
173
     0
176
     1
  0
VISUALSTYLE
  5
36
102
{ACAD_REACTORS
330
2A
102
}
330
2A
100
AcDbVisualStyle
  2
Brighten
 70
    12
177
     2
291
     1
 71
     2
176
     1
 72
     2
176
     1
 73
     0
176
     1
 90
        0
176
     1
 40
-0.6
176
     1
 41
-30.0
176
     1
 62
     5
 63
     7
421
 16777215
176
     1
 74
     1
176
     1
 91
        4
176
     1
 64
     7
176
     1
 65
   257
176
     1
 75
     1
176
     1
175
     1
176
     1
 42
1.0
176
     1
 92
        8
176
     1
 66
     7
176
     1
 43
1.0
176
     1
 76
     1
176
     1
 77
     6
176
     1
 78
     2
176
     1
 67
     7
176
     1
 79
     5
176
     1
170
     0
176
     1
171
     0
176
     1
290
     0
176
     1
 93
        1
176
     1
 44
50.0
176
     1
173
     0
176
     1
  0
VISUALSTYLE
  5
3A
102
{ACAD_REACTORS
330
2A
102
}
330
2A
100
AcDbVisualStyle
  2
ColorChange
 70
    16
177
     2
291
     1
 71
     2
176
     1
 72
     2
176
     1
 73
     3
176
     1
 90
        0
176
     1
 40
-0.6
176
     1
 41
-30.0
176
     1
 62
     5
 63
     8
421
  8421504
176
     1
 74
     1
176
     1
 91
        4
176
     1
 64
     7
176
     1
 65
   257
176
     1
 75
     1
176
     1
175
     1
176
     1
 42
1.0
176
     1
 92
        8
176
     1
 66
     8
424
  8421504
176
     1
 43
1.0
176
     1
 76
     1
176
     1
 77
     6
176
     1
 78
     2
176
     1
 67
     7
176
     1
 79
     5
176
     1
170
     0
176
     1
171
     0
176
     1
290
     0
176
     1
 93
        1
176
     1
 44
0.0
176
     1
173
     0
176
     1
  0
VISUALSTYLE
  5
34
102
{ACAD_REACTORS
330
2A
102
}
330
2A
100
AcDbVisualStyle
  2
Conceptual
 70
     9
177
     2
291
     0
 71
     3
176
     1
 72
     2
176
     1
 73
     0
176
     1
 90
        0
176
     1
 40
-0.6
176
     1
 41
-30.0
176
     1
 62
     5
 63
     7
421
 16777215
176
     1
 74
     2
176
     1
 91
        2
176
     1
 64
     7
176
     1
 65
   257
176
     1
 75
     1
176
     1
175
     1
176
     1
 42
40.0
176
     1
 92
        8
176
     1
 66
     7
176
     1
 43
1.0
176
     1
 76
     1
176
     1
 77
     6
176
     1
 78
     2
176
     1
 67
     7
176
     1
 79
     3
176
     1
170
     0
176
     1
171
     0
176
     1
290
     0
176
     1
 93
        1
176
     1
 44
0.0
176
     1
173
     0
176
     1
  0
VISUALSTYLE
  5
35
102
{ACAD_REACTORS
330
2A
102
}
330
2A
100
AcDbVisualStyle
  2
Dim
 70
    11
177
     2
291
     1
 71
     2
176
     1
 72
     2
176
     1
 73
     0
176
     1
 90
        0
176
     1
 40
-0.6
176
     1
 41
-30.0
176
     1
 62
     5
 63
     7
421
 16777215
176
     1
 74
     1
176
     1
 91
        4
176
     1
 64
     7
176
     1
 65
   257
176
     1
 75
     1
176
     1
175
     1
176
     1
 42
1.0
176
     1
 92
        8
176
     1
 66
     7
176
     1
 43
1.0
176
     1
 76
     1
176
     1
 77
     6
176
     1
 78
     2
176
     1
 67
     7
176
     1
 79
     5
176
     1
170
     0
176
     1
171
     0
176
     1
290
     0
176
     1
 93
        1
176
     1
 44
-50.0
176
     1
173
     0
176
     1
  0
VISUALSTYLE
  5
39
102
{ACAD_REACTORS
330
2A
102
}
330
2A
100
AcDbVisualStyle
  2
Facepattern
 70
    15
177
     2
291
     1
 71
     2
176
     1
 72
     2
176
     1
 73
     0
176
     1
 90
        0
176
     1
 40
-0.6
176
     1
 41
-30.0
176
     1
 62
     5
 63
     7
421
 16777215
176
     1
 74
     1
176
     1
 91
        4
176
     1
 64
     7
176
     1
 65
   257
176
     1
 75
     1
176
     1
175
     1
176
     1
 42
1.0
176
     1
 92
        8
176
     1
 66
     7
176
     1
 43
1.0
176
     1
 76
     1
176
     1
 77
     6
176
     1
 78
     2
176
     1
 67
     7
176
     1
 79
     5
176
     1
170
     0
176
     1
171
     0
176
     1
290
     0
176
     1
 93
        1
176
     1
 44
0.0
176
     1
173
     0
176
     1
  0
VISUALSTYLE
  5
2B
102
{ACAD_REACTORS
330
2A
102
}
330
2A
100
AcDbVisualStyle
  2
Flat
 70
     0
177
     2
291
     1
 71
     2
176
     1
 72
     1
176
     1
 73
     1
176
     1
 90
        2
176
     1
 40
-0.6
176
     1
 41
30.0
176
     1
 62
     5
 63
     7
421
 16777215
176
     1
 74
     0
176
     1
 91
        4
176
     1
 64
     7
176
     1
 65
   257
176
     1
 75
     1
176
     1
175
     1
176
     1
 42
1.0
176
     1
 92
        8
176
     1
 66
     7
176
     1
 43
1.0
176
     1
 76
     1
176
     1
 77
     6
176
     1
 78
     2
176
     1
 67
     7
176
     1
 79
     5
176
     1
170
     0
176
     1
171
     0
176
     1
290
     0
176
     1
 93
       13
176
     1
 44
0.0
176
     1
173
     0
176
     1
  0
VISUALSTYLE
  5
2C
102
{ACAD_REACTORS
330
2A
102
}
330
2A
100
AcDbVisualStyle
  2
FlatWithEdges
 70
     1
177
     2
291
     1
 71
     2
176
     1
 72
     1
176
     1
 73
     1
176
     1
 90
        2
176
     1
 40
-0.6
176
     1
 41
30.0
176
     1
 62
     5
 63
     7
421
 16777215
176
     1
 74
     1
176
     1
 91
        4
176
     1
 64
     7
176
     1
 65
   257
176
     1
 75
     1
176
     1
175
     1
176
     1
 42
1.0
176
     1
 92
        0
176
     1
 66
   257
176
     1
 43
1.0
176
     1
 76
     1
176
     1
 77
     6
176
     1
 78
     2
176
     1
 67
     7
176
     1
 79
     5
176
     1
170
     0
176
     1
171
     0
176
     1
290
     0
176
     1
 93
       13
176
     1
 44
0.0
176
     1
173
     0
176
     1
  0
VISUALSTYLE
  5
2D
102
{ACAD_REACTORS
330
2A
102
}
330
2A
100
AcDbVisualStyle
  2
Gouraud
 70
     2
177
     2
291
     1
 71
     2
176
     1
 72
     2
176
     1
 73
     1
176
     1
 90
        2
176
     1
 40
-0.6
176
     1
 41
30.0
176
     1
 62
     5
 63
     7
421
 16777215
176
     1
 74
     0
176
     1
 91
        4
176
     1
 64
     7
176
     1
 65
   257
176
     1
 75
     1
176
     1
175
     1
176
     1
 42
1.0
176
     1
 92
        0
176
     1
 66
     7
176
     1
 43
1.0
176
     1
 76
     1
176
     1
 77
     6
176
     1
 78
     2
176
     1
 67
     7
176
     1
 79
     5
176
     1
170
     0
176
     1
171
     0
176
     1
290
     0
176
     1
 93
       13
176
     1
 44
0.0
176
     1
173
     0
176
     1
  0
VISUALSTYLE
  5
2E
102
{ACAD_REACTORS
330
2A
102
}
330
2A
100
AcDbVisualStyle
  2
GouraudWithEdges
 70
     3
177
     2
291
     1
 71
     2
176
     1
 72
     2
176
     1
 73
     1
176
     1
 90
        2
176
     1
 40
-0.6
176
     1
 41
30.0
176
     1
 62
     5
 63
     7
421
 16777215
176
     1
 74
     1
176
     1
 91
        4
176
     1
 64
     7
176
     1
 65
   257
176
     1
 75
     1
176
     1
175
     1
176
     1
 42
1.0
176
     1
 92
        0
176
     1
 66
   257
176
     1
 43
1.0
176
     1
 76
     1
176
     1
 77
     6
176
     1
 78
     2
176
     1
 67
     7
176
     1
 79
     5
176
     1
170
     0
176
     1
171
     0
176
     1
290
     0
176
     1
 93
       13
176
     1
 44
0.0
176
     1
173
     0
176
     1
  0
VISUALSTYLE
  5
38
102
{ACAD_REACTORS
330
2A
102
}
330
2A
100
AcDbVisualStyle
  2
Linepattern
 70
    14
177
     2
291
     1
 71
     2
176
     1
 72
     2
176
     1
 73
     0
176
     1
 90
        0
176
     1
 40
-0.6
176
     1
 41
-30.0
176
     1
 62
     5
 63
     7
421
 16777215
176
     1
 74
     1
176
     1
 91
        4
176
     1
 64
     7
176
     1
 65
   257
176
     1
 75
     7
176
     1
175
     7
176
     1
 42
1.0
176
     1
 92
        8
176
     1
 66
     7
176
     1
 43
1.0
176
     1
 76
     1
176
     1
 77
     6
176
     1
 78
     2
176
     1
 67
     7
176
     1
 79
     5
176
     1
170
     0
176
     1
171
     0
176
     1
290
     0
176
     1
 93
        1
176
     1
 44
0.0
176
     1
173
     0
176
     1
  0
VISUALSTYLE
  5
33
102
{ACAD_REACTORS
330
2A
102
}
330
2A
100
AcDbVisualStyle
  2
Realistic
 70
     8
177
     2
291
     0
 71
     2
176
     1
 72
     2
176
     1
 73
     0
176
     1
 90
        0
176
     1
 40
-0.6
176
     1
 41
-30.0
176
     1
 62
     5
 63
     7
421
 16777215
176
     1
 74
     1
176
     1
 91
        0
176
     1
 64
     7
176
     1
 65
   257
176
     1
 75
     1
176
     1
175
     1
176
     1
 42
1.0
176
     1
 92
        8
176
     1
 66
     8
424
  7895160
176
     1
 43
1.0
176
     1
 76
     1
176
     1
 77
     6
176
     1
 78
     2
176
     1
 67
     7
176
     1
 79
     5
176
     1
170
     0
176
     1
171
     0
176
     1
290
     0
176
     1
 93
       13
176
     1
 44
0.0
176
     1
173
     0
176
     1
  0
VISUALSTYLE
  5
37
102
{ACAD_REACTORS
330
2A
102
}
330
2A
100
AcDbVisualStyle
  2
Thicken
 70
    13
177
     2
291
     1
 71
     2
176
     1
 72
     2
176
     1
 73
     0
176
     1
 90
        0
176
     1
 40
-0.6
176
     1
 41
-30.0
176
     1
 62
     5
 63
     7
421
 16777215
176
     1
 74
     1
176
     1
 91
        4
176
     1
 64
     7
176
     1
 65
   257
176
     1
 75
     1
176
     1
175
     1
176
     1
 42
1.0
176
     1
 92
       12
176
     1
 66
     7
176
     1
 43
1.0
176
     1
 76
     1
176
     1
 77
     6
176
     1
 78
     2
176
     1
 67
     7
176
     1
 79
     5
176
     1
170
     0
176
     1
171
     0
176
     1
290
     0
176
     1
 93
        1
176
     1
 44
0.0
176
     1
173
     0
176
     1
  0
ENDSEC
  0
EOF
