  0
SECTION
  2
HEADER
  9
$ACADVER
  1
AC1024
  9
$ACADMAINTVER
 70
     6
  9
$DWGCODEPAGE
  3
UNDEFINED
  9
$INSBASE
 10
0.0
 20
0.0
 30
0.0
  9
$EXTMIN
 10
1.000000000000000E+20
 20
1.000000000000000E+20
 30
1.000000000000000E+20
  9
$EXTMAX
 10
-1.000000000000000E+20
 20
-1.000000000000000E+20
 30
-1.000000000000000E+20
  9
$LIMMIN
 10
0.0
 20
0.0
  9
$LIMMAX
 10
12.0
 20
9.0
  9
$ORTHOMODE
 70
     0
  9
$REGENMODE
 70
     1
  9
$FILLMODE
 70
     1
  9
$QTEXTMODE
 70
     0
  9
$MIRRTEXT
 70
     1
  9
$LTSCALE
 40
1.0
  9
$ATTMODE
 70
     1
  9
$TEXTSIZE
 40
0.2
  9
$TRACEWID
 40
0.05
  9
$TEXTSTYLE
  7
Standard
  9
$CLAYER
  8
0
  9
$CELTYPE
  6
ByLayer
  9
$CECOLOR
 62
   256
  9
$CELTSCALE
 40
1.0
  9
$DISPSILH
 70
     0
  9
$DIMSCALE
 40
1.0
  9
$DIMASZ
 40
0.18
  9
$DIMEXO
 40
0.0625
  9
$DIMDLI
 40
0.38
  9
$DIMRND
 40
0.0
  9
$DIMDLE
 40
0.0
  9
$DIMEXE
 40
0.18
  9
$DIMTP
 40
0.0
  9
$DIMTM
 40
0.0
  9
$DIMTXT
 40
0.18
  9
$DIMCEN
 40
0.09
  9
$DIMTSZ
 40
0.0
  9
$DIMTOL
 70
     0
  9
$DIMLIM
 70
     0
  9
$DIMTIH
 70
     1
  9
$DIMTOH
 70
     1
  9
$DIMSE1
 70
     0
  9
$DIMSE2
 70
     0
  9
$DIMTAD
 70
     0
  9
$DIMZIN
 70
     0
  9
$DIMBLK
  1

  9
$DIMASO
 70
     1
  9
$DIMSHO
 70
     1
  9
$DIMPOST
  1

  9
$DIMAPOST
  1

  9
$DIMALT
 70
     0
  9
$DIMALTD
 70
     2
  9
$DIMALTF
 40
25.4
  9
$DIMLFAC
 40
1.0
  9
$DIMTOFL
 70
     0
  9
$DIMTVP
 40
0.0
  9
$DIMTIX
 70
     0
  9
$DIMSOXD
 70
     0
  9
$DIMSAH
 70
     0
  9
$DIMBLK1
  1

  9
$DIMBLK2
  1

  9
$DIMSTYLE
  2
Standard
  9
$DIMCLRD
 70
     0
  9
$DIMCLRE
 70
     0
  9
$DIMCLRT
 70
     0
  9
$DIMTFAC
 40
1.0
  9
$DIMGAP
 40
0.09
  9
$DIMJUST
 70
     0
  9
$DIMSD1
 70
     0
  9
$DIMSD2
 70
     0
  9
$DIMTOLJ
 70
     1
  9
$DIMTZIN
 70
     0
  9
$DIMALTZ
 70
     0
  9
$DIMALTTZ
 70
     0
  9
$DIMUPT
 70
     0
  9
$DIMDEC
 70
     4
  9
$DIMTDEC
 70
     4
  9
$DIMALTU
 70
     2
  9
$DIMALTTD
 70
     2
  9
$DIMTXSTY
  7
Standard
  9
$DIMAUNIT
 70
     0
  9
$DIMADEC
 70
     0
  9
$DIMALTRND
 40
0.0
  9
$DIMAZIN
 70
     0
  9
$DIMDSEP
 70
    46
  9
$DIMATFIT
 70
     3
  9
$DIMFRAC
 70
     0
  9
$DIMLDRBLK
  1

  9
$DIMLUNIT
 70
     2
  9
$DIMLWD
 70
    -2
  9
$DIMLWE
 70
    -2
  9
$DIMTMOVE
 70
     0
  9
$DIMFXL
 40
1.0
  9
$DIMFXLON
 70
     0
  9
$DIMJOGANG
 40
0.7853981633974483
  9
$DIMTFILL
 70
     0
  9
$DIMTFILLCLR
 70
     0
  9
$DIMARCSYM
 70
     0
  9
$DIMLTYPE
  6

  9
$DIMLTEX1
  6

  9
$DIMLTEX2
  6

  9
$DIMTXTDIRECTION
 70
     0
  9
$LUNITS
 70
     2
  9
$LUPREC
 70
     4
  9
$SKETCHINC
 40
0.1
  9
$FILLETRAD
 40
0.5
  9
$AUNITS
 70
     0
  9
$AUPREC
 70
     0
  9
$MENU
  1
.
  9
$ELEVATION
 40
0.0
  9
$PELEVATION
 40
0.0
  9
$THICKNESS
 40
0.0
  9
$LIMCHECK
 70
     0
  9
$CHAMFERA
 40
0.5
  9
$CHAMFERB
 40
0.5
  9
$CHAMFERC
 40
1.0
  9
$CHAMFERD
 40
0.0
  9
$SKPOLY
 70
     0
  9
$TDCREATE
 40
2457917.62181713
  9
$TDUCREATE
 40
2457917.24681713
  9
$TDUPDATE
 40
2457917.62181713
  9
$TDUUPDATE
 40
2457917.24681713
  9
$TDINDWG
 40
0.0000000116
  9
$TDUSRTIMER
 40
0.0000000116
  9
$USRTIMER
 70
     1
  9
$ANGBASE
 50
0.0
  9
$ANGDIR
 70
     0
  9
$PDMODE
 70
     0
  9
$PDSIZE
 40
0.0
  9
$PLINEWID
 40
0.0
  9
$SPLFRAME
 70
     0
  9
$SPLINETYPE
 70
     6
  9
$SPLINESEGS
 70
     8
  9
$HANDSEED
  5
B0
  9
$SURFTAB1
 70
     6
  9
$SURFTAB2
 70
     6
  9
$SURFTYPE
 70
     6
  9
$SURFU
 70
     6
  9
$SURFV
 70
     6
  9
$UCSBASE
  2

  9
$UCSNAME
  2

  9
$UCSORG
 10
0.0
 20
0.0
 30
0.0
  9
$UCSXDIR
 10
1.0
 20
0.0
 30
0.0
  9
$UCSYDIR
 10
0.0
 20
1.0
 30
0.0
  9
$UCSORTHOREF
  2

  9
$UCSORTHOVIEW
 70
     0
  9
$UCSORGTOP
 10
0.0
 20
0.0
 30
0.0
  9
$UCSORGBOTTOM
 10
0.0
 20
0.0
 30
0.0
  9
$UCSORGLEFT
 10
0.0
 20
0.0
 30
0.0
  9
$UCSORGRIGHT
 10
0.0
 20
0.0
 30
0.0
  9
$UCSORGFRONT
 10
0.0
 20
0.0
 30
0.0
  9
$UCSORGBACK
 10
0.0
 20
0.0
 30
0.0
  9
$PUCSBASE
  2

  9
$PUCSNAME
  2

  9
$PUCSORG
 10
0.0
 20
0.0
 30
0.0
  9
$PUCSXDIR
 10
1.0
 20
0.0
 30
0.0
  9
$PUCSYDIR
 10
0.0
 20
1.0
 30
0.0
  9
$PUCSORTHOREF
  2

  9
$PUCSORTHOVIEW
 70
     0
  9
$PUCSORGTOP
 10
0.0
 20
0.0
 30
0.0
  9
$PUCSORGBOTTOM
 10
0.0
 20
0.0
 30
0.0
  9
$PUCSORGLEFT
 10
0.0
 20
0.0
 30
0.0
  9
$PUCSORGRIGHT
 10
0.0
 20
0.0
 30
0.0
  9
$PUCSORGFRONT
 10
0.0
 20
0.0
 30
0.0
  9
$PUCSORGBACK
 10
0.0
 20
0.0
 30
0.0
  9
$USERI1
 70
     0
  9
$USERI2
 70
     0
  9
$USERI3
 70
     0
  9
$USERI4
 70
     0
  9
$USERI5
 70
     0
  9
$USERR1
 40
0.0
  9
$USERR2
 40
0.0
  9
$USERR3
 40
0.0
  9
$USERR4
 40
0.0
  9
$USERR5
 40
0.0
  9
$WORLDVIEW
 70
     1
  9
$SHADEDGE
 70
     3
  9
$SHADEDIF
 70
    70
  9
$TILEMODE
 70
     1
  9
$MAXACTVP
 70
    64
  9
$PINSBASE
 10
0.0
 20
0.0
 30
0.0
  9
$PLIMCHECK
 70
     0
  9
$PEXTMIN
 10
1.000000000000000E+20
 20
1.000000000000000E+20
 30
1.000000000000000E+20
  9
$PEXTMAX
 10
-1.000000000000000E+20
 20
-1.000000000000000E+20
 30
-1.000000000000000E+20
  9
$PLIMMIN
 10
0.0
 20
0.0
  9
$PLIMMAX
 10
12.0
 20
9.0
  9
$UNITMODE
 70
     0
  9
$VISRETAIN
 70
     1
  9
$PLINEGEN
 70
     0
  9
$PSLTSCALE
 70
     1
  9
$TREEDEPTH
 70
  3020
  9
$CMLSTYLE
  2
Standard
  9
$CMLJUST
 70
     0
  9
$CMLSCALE
 40
1.0
  9
$PROXYGRAPHICS
 70
     1
  9
$MEASUREMENT
 70
     0
  9
$CELWEIGHT
370
    -1
  9
$ENDCAPS
280
     0
  9
$JOINSTYLE
280
     0
  9
$LWDISPLAY
290
     1
  9
$INSUNITS
 70
     1
  9
$HYPERLINKBASE
  1

  9
$STYLESHEET
  1

  9
$XEDIT
290
     1
  9
$CEPSNTYPE
380
     0
  9
$PSTYLEMODE
290
     1
  9
$FINGERPRINTGUID
  2
{76573ECA-A53C-E555-2B0A-6F40AD9570A9}
  9
$VERSIONGUID
  2
{FAEB1C32-E019-11D5-929B-00C0DF256EC4}
  9
$EXTNAMES
290
     1
  9
$PSVPSCALE
 40
0.0
  9
$OLESTARTUP
290
     0
  9
$SORTENTS
280
   127
  9
$INDEXCTL
280
     0
  9
$HIDETEXT
280
     1
  9
$XCLIPFRAME
280
     2
  9
$HALOGAP
280
     0
  9
$OBSCOLOR
 70
   257
  9
$OBSLTYPE
280
     0
  9
$INTERSECTIONDISPLAY
280
     0
  9
$INTERSECTIONCOLOR
 70
   257
  9
$DIMASSOC
280
     2
  9
$PROJECTNAME
  1

  9
$CAMERADISPLAY
290
     0
  9
$LENSLENGTH
 40
50.0
  9
$CAMERAHEIGHT
 40
0.0
  9
$STEPSPERSEC
 40
2.0
  9
$STEPSIZE
 40
6.0
  9
$3DDWFPREC
 40
2.0
  9
$PSOLWIDTH
 40
0.25
  9
$PSOLHEIGHT
 40
4.0
  9
$LOFTANG1
 40
1.570796326794897
  9
$LOFTANG2
 40
1.570796326794897
  9
$LOFTMAG1
 40
0.0
  9
$LOFTMAG2
 40
0.0
  9
$LOFTPARAM
 70
     7
  9
$LOFTNORMALS
280
     1
  9
$LATITUDE
 40
37.795
  9
$LONGITUDE
 40
-122.394
  9
$NORTHDIRECTION
 40
0.0
  9
$TIMEZONE
 70
 -8000
  9
$LIGHTGLYPHDISPLAY
280
     1
  9
$TILEMODELIGHTSYNCH
280
     1
  9
$CMATERIAL
347
3C
  9
$SOLIDHIST
280
     1
  9
$SHOWHIST
280
     1
  9
$DWFFRAME
280
     2
  9
$DGNFRAME
280
     2
  9
$REALWORLDSCALE
290
     1
  9
$INTERFERECOLOR
 62
   256
  9
$CSHADOW
280
     0
  9
$SHADOWPLANELOCATION
 40
0.0
  0
ENDSEC
  0
SECTION
  2
CLASSES
  0
CLASS
  1
ACDBDICTIONARYWDFLT
  2
AcDbDictionaryWithDefault
  3
ObjectDBX Classes
 90
        0
 91
        4
280
     0
281
     0
  0
CLASS
  1
VISUALSTYLE
  2
AcDbVisualStyle
  3
ObjectDBX Classes
 90
     4095
 91
        4
280
     0
281
     0
  0
CLASS
  1
MATERIAL
  2
AcDbMaterial
  3
ObjectDBX Classes
 90
     1153
 91
        4
280
     0
281
     0
  0
CLASS
  1
SUN
  2
AcDbSun
  3
SCENEOE
 90
     1024
 91
        4
280
     0
281
     0
  0
ENDSEC
  0
SECTION
  2
TABLES
  0
TABLE
  2
VPORT
  5
8
330
0
100
AcDbSymbolTable
 70
     1
  0
VPORT
  5
29
330
8
100
AcDbSymbolTableRecord
100
AcDbViewportTableRecord
  2
*Active
 70
     0
 10
0.0
 20
0.0
 11
1.0
 21
1.0
 12
0.0
 22
0.0
 13
0.0
 23
0.0
 14
0.5
 24
0.5
 15
0.5
 25
0.5
 16
0.0
 26
0.0
 36
1.0
 17
91.00082462281999
 27
-128.4993055234307
 37
0.0
 40
256.9986110468615
 41
0.7081814508812795
 42
50.0
 43
0.0
 44
0.0
 50
0.0
 51
0.0
 71
     0
 72
   100
 73
     1
 74
     3
 75
     0
 76
     0
 77
     0
 78
     0
281
     0
 65
     1
110
0.0
120
0.0
130
0.0
111
1.0
121
0.0
131
0.0
112
0.0
122
1.0
132
0.0
 79
     0
146
0.0
 60
     3
 61
     5
292
     1
282
     1
141
0.0
142
0.0
 63
   250
361
3F
  0
ENDTAB
  0
TABLE
  2
LTYPE
  5
5
330
0
100
AcDbSymbolTable
 70
     1
  0
LTYPE
  5
14
330
5
100
AcDbSymbolTableRecord
100
AcDbLinetypeTableRecord
  2
ByBlock
 70
     0
  3

 72
    65
 73
     0
 40
0.0
  0
LTYPE
  5
15
330
5
100
AcDbSymbolTableRecord
100
AcDbLinetypeTableRecord
  2
ByLayer
 70
     0
  3

 72
    65
 73
     0
 40
0.0
  0
LTYPE
  5
16
330
5
100
AcDbSymbolTableRecord
100
AcDbLinetypeTableRecord
  2
Continuous
 70
     0
  3
Solid line
 72
    65
 73
     0
 40
0.0
  0
ENDTAB
  0
TABLE
  2
LAYER
  5
2
330
0
100
AcDbSymbolTable
 70
     2
  0
LAYER
  5
10
330
2
100
AcDbSymbolTableRecord
100
AcDbLayerTableRecord
  2
0
 70
     0
 62
     7
  6
Continuous
370
    -3
390
F
347
3E
  0
LAYER
  5
40
330
2
100
AcDbSymbolTableRecord
100
AcDbLayerTableRecord
  2
_U+30EC_U+30A4_U+30E4_U+30FC 1
 70
     0
 62
     7
  6
Continuous
370
    -3
390
F
347
3E
  0
ENDTAB
  0
TABLE
  2
STYLE
  5
3
330
0
100
AcDbSymbolTable
 70
     1
  0
STYLE
  5
11
330
3
100
AcDbSymbolTableRecord
100
AcDbTextStyleTableRecord
  2
Standard
 70
     0
 40
0.0
 41
1.0
 50
0.0
 71
     0
 42
0.2
  3
txt
  4

  0
ENDTAB
  0
TABLE
  2
VIEW
  5
6
330
0
100
AcDbSymbolTable
 70
     0
  0
ENDTAB
  0
TABLE
  2
UCS
  5
7
330
0
100
AcDbSymbolTable
 70
     0
  0
ENDTAB
  0
TABLE
  2
APPID
  5
9
330
0
100
AcDbSymbolTable
 70
     1
  0
APPID
  5
12
330
9
100
AcDbSymbolTableRecord
100
AcDbRegAppTableRecord
  2
ACAD
 70
     0
  0
ENDTAB
  0
TABLE
  2
DIMSTYLE
  5
A
330
0
100
AcDbSymbolTable
 70
     1
100
AcDbDimStyleTable
  0
DIMSTYLE
105
27
330
A
100
AcDbSymbolTableRecord
100
AcDbDimStyleTableRecord
  2
Standard
 70
     0
178
     0
340
11
  0
ENDTAB
  0
TABLE
  2
BLOCK_RECORD
  5
1
330
0
100
AcDbSymbolTable
 70
     6
  0
BLOCK_RECORD
  5
1F
330
1
100
AcDbSymbolTableRecord
100
AcDbBlockTableRecord
  2
*Model_Space
340
22
 70
     0
280
     1
281
     0
  0
BLOCK_RECORD
  5
1B
330
1
100
AcDbSymbolTableRecord
100
AcDbBlockTableRecord
  2
*Paper_Space
340
1E
 70
     0
280
     1
281
     0
  0
BLOCK_RECORD
  5
23
330
1
100
AcDbSymbolTableRecord
100
AcDbBlockTableRecord
  2
*Paper_Space0
340
26
 70
     0
280
     1
281
     0
  0
BLOCK_RECORD
  5
5D
330
1
100
AcDbSymbolTableRecord
100
AcDbBlockTableRecord
  2
block 2
340
0
102
{BLKREFS
331
5E
102
}
 70
     0
280
     1
281
     0
  0
BLOCK_RECORD
  5
63
330
1
100
AcDbSymbolTableRecord
100
AcDbBlockTableRecord
  2
block 3
340
0
102
{BLKREFS
331
64
102
}
 70
     0
280
     1
281
     0
  0
BLOCK_RECORD
  5
6C
330
1
100
AcDbSymbolTableRecord
100
AcDbBlockTableRecord
  2
block 4
340
0
102
{BLKREFS
331
6D
102
}
 70
     0
280
     1
281
     0
  0
BLOCK_RECORD
  5
7E
330
1
100
AcDbSymbolTableRecord
100
AcDbBlockTableRecord
  2
block 5
340
0
102
{BLKREFS
331
7F
102
}
 70
     0
280
     1
281
     0
  0
BLOCK_RECORD
  5
92
330
1
100
AcDbSymbolTableRecord
100
AcDbBlockTableRecord
  2
block 6
340
0
102
{BLKREFS
331
93
102
}
 70
     0
280
     1
281
     0
  0
ENDTAB
  0
ENDSEC
  0
SECTION
  2
BLOCKS
  0
BLOCK
  5
20
330
1F
100
AcDbEntity
  8
0
100
AcDbBlockBegin
  2
*Model_Space
 70
     0
 10
0.0
 20
0.0
 30
0.0
  3
*Model_Space
  1

  0
ENDBLK
  5
21
330
1F
100
AcDbEntity
  8
0
100
AcDbBlockEnd
  0
BLOCK
  5
1C
330
1B
100
AcDbEntity
 67
     1
  8
0
100
AcDbBlockBegin
  2
*Paper_Space
 70
     0
 10
0.0
 20
0.0
 30
0.0
  3
*Paper_Space
  1

  0
ENDBLK
  5
1D
330
1B
100
AcDbEntity
 67
     1
  8
0
100
AcDbBlockEnd
  0
BLOCK
  5
24
330
23
100
AcDbEntity
  8
0
100
AcDbBlockBegin
  2
*Paper_Space0
 70
     0
 10
0.0
 20
0.0
 30
0.0
  3
*Paper_Space0
  1

  0
ENDBLK
  5
25
330
23
100
AcDbEntity
  8
0
100
AcDbBlockEnd
  0
BLOCK
  5
5F
330
5D
100
AcDbEntity
  8
0
100
AcDbBlockBegin
  2
block 2
 70
     0
 10
0.0
 20
0.0
 30
0.0
  3
block 2
  1

  0
SPLINE
  5
61
330
5D
100
AcDbEntity
  8
_U+30EC_U+30A4_U+30E4_U+30FC 1
370
     0
100
AcDbSpline
210
0.0
220
0.0
230
1.0
 70
    11
 71
     3
 72
    26
 73
    22
 74
     0
 42
0.0000000001
 43
0.0000000001
 12
1.0
 22
0.0
 32
0.0
 13
1.0
 23
0.0
 33
0.0
 40
0.0
 40
0.0
 40
0.0
 40
0.0
 40
1.0
 40
1.0
 40
1.0
 40
2.0
 40
2.0
 40
2.0
 40
3.0
 40
3.0
 40
3.0
 40
4.0
 40
4.0
 40
4.0
 40
5.0
 40
5.0
 40
5.0
 40
6.0
 40
6.0
 40
6.0
 40
7.0
 40
7.0
 40
7.0
 40
7.0
 10
106.1051513406612
 20
-134.9364664376201
 30
0.0
 10
106.1051513406612
 20
-134.9364664376201
 30
0.0
 10
105.0009982376386
 20
-134.9364664376201
 30
0.0
 10
105.0009982376386
 20
-134.9364664376201
 30
0.0
 10
105.0009982376386
 20
-134.9364664376201
 30
0.0
 10
105.0009982376386
 20
-135.266506585107
 30
0.0
 10
105.0009982376386
 20
-135.266506585107
 30
0.0
 10
105.0009982376386
 20
-135.266506585107
 30
0.0
 10
104.8528591317729
 20
-135.266506585107
 30
0.0
 10
104.8528591317729
 20
-135.266506585107
 30
0.0
 10
104.8380452211863
 20
-134.9343993803289
 30
0.0
 10
104.675092204734
 20
-134.887890591278
 30
0.0
 10
104.5607150346237
 20
-134.8582627701049
 30
0.0
 10
104.5607150346237
 20
-134.8582627701049
 30
0.0
 10
104.5607150346237
 20
-134.7121907215303
 30
0.0
 10
104.5607150346237
 20
-134.7121907215303
 30
0.0
 10
104.5607150346237
 20
-134.7121907215303
 30
0.0
 10
106.1051513406612
 20
-134.7121907215303
 30
0.0
 10
106.1051513406612
 20
-134.7121907215303
 30
0.0
 10
106.1051513406612
 20
-134.7121907215303
 30
0.0
 10
106.1051513406612
 20
-134.9364664376201
 30
0.0
 10
106.1051513406612
 20
-134.9364664376201
 30
0.0
  0
HATCH
  5
62
330
5D
100
AcDbEntity
  8
_U+30EC_U+30A4_U+30E4_U+30FC 1
 62
   179
420
  2234388
100
AcDbHatch
 10
0.0
 20
0.0
 30
0.0
210
0.0
220
0.0
230
1.0
  2
SOLID
 70
     1
 71
     0
 91
        1
 92
        1
 93
        1
 72
     4
 94
        3
 73
     0
 74
     1
 95
       26
 96
       22
 40
0.0
 40
0.0
 40
0.0
 40
0.0
 40
1.0
 40
1.0
 40
1.0
 40
2.0
 40
2.0
 40
2.0
 40
3.0
 40
3.0
 40
3.0
 40
4.0
 40
4.0
 40
4.0
 40
5.0
 40
5.0
 40
5.0
 40
6.0
 40
6.0
 40
6.0
 40
7.0
 40
7.0
 40
7.0
 40
7.0
 10
106.1051513406612
 20
-134.9364664376201
 10
106.1051513406612
 20
-134.9364664376201
 10
105.0009982376386
 20
-134.9364664376201
 10
105.0009982376386
 20
-134.9364664376201
 10
105.0009982376386
 20
-134.9364664376201
 10
105.0009982376386
 20
-135.266506585107
 10
105.0009982376386
 20
-135.266506585107
 10
105.0009982376386
 20
-135.266506585107
 10
104.8528591317729
 20
-135.266506585107
 10
104.8528591317729
 20
-135.266506585107
 10
104.8380452211863
 20
-134.9343993803289
 10
104.675092204734
 20
-134.887890591278
 10
104.5607150346237
 20
-134.8582627701049
 10
104.5607150346237
 20
-134.8582627701049
 10
104.5607150346237
 20
-134.7121907215303
 10
104.5607150346237
 20
-134.7121907215303
 10
104.5607150346237
 20
-134.7121907215303
 10
106.1051513406612
 20
-134.7121907215303
 10
106.1051513406612
 20
-134.7121907215303
 10
106.1051513406612
 20
-134.7121907215303
 10
106.1051513406612
 20
-134.9364664376201
 10
106.1051513406612
 20
-134.9364664376201
 97
        0
 97
        0
 75
     2
 76
     1
 98
        0
  0
ENDBLK
  5
60
330
5D
100
AcDbEntity
  8
0
100
AcDbBlockEnd
  0
BLOCK
  5
65
330
63
100
AcDbEntity
  8
0
100
AcDbBlockBegin
  2
block 3
 70
     0
 10
0.0
 20
0.0
 30
0.0
  3
block 3
  1

  0
SPLINE
  5
67
330
63
100
AcDbEntity
  8
_U+30EC_U+30A4_U+30E4_U+30FC 1
370
     0
100
AcDbSpline
210
0.0
220
0.0
230
1.0
 70
    11
 71
     3
 72
    26
 73
    22
 74
     0
 42
0.0000000001
 43
0.0000000001
 12
1.0
 22
0.0
 32
0.0
 13
1.0
 23
0.0
 33
0.0
 40
0.0
 40
0.0
 40
0.0
 40
0.0
 40
1.0
 40
1.0
 40
1.0
 40
2.0
 40
2.0
 40
2.0
 40
3.0
 40
3.0
 40
3.0
 40
4.0
 40
4.0
 40
4.0
 40
5.0
 40
5.0
 40
5.0
 40
6.0
 40
6.0
 40
6.0
 40
7.0
 40
7.0
 40
7.0
 40
7.0
 10
106.1051513406612
 20
-129.8621852973956
 30
0.0
 10
106.1051513406612
 20
-129.8621852973956
 30
0.0
 10
105.0009982376386
 20
-129.8621852973956
 30
0.0
 10
105.0009982376386
 20
-129.8621852973956
 30
0.0
 10
105.0009982376386
 20
-129.8621852973956
 30
0.0
 10
105.0009982376386
 20
-130.1922254448825
 30
0.0
 10
105.0009982376386
 20
-130.1922254448825
 30
0.0
 10
105.0009982376386
 20
-130.1922254448825
 30
0.0
 10
104.8528591317729
 20
-130.1922254448825
 30
0.0
 10
104.8528591317729
 20
-130.1922254448825
 30
0.0
 10
104.8380452211863
 20
-129.8601182401044
 30
0.0
 10
104.675092204734
 20
-129.8136094510535
 30
0.0
 10
104.5607150346237
 20
-129.7839816298804
 30
0.0
 10
104.5607150346237
 20
-129.7839816298804
 30
0.0
 10
104.5607150346237
 20
-129.6379095813058
 30
0.0
 10
104.5607150346237
 20
-129.6379095813058
 30
0.0
 10
104.5607150346237
 20
-129.6379095813058
 30
0.0
 10
106.1051513406612
 20
-129.6379095813058
 30
0.0
 10
106.1051513406612
 20
-129.6379095813058
 30
0.0
 10
106.1051513406612
 20
-129.6379095813058
 30
0.0
 10
106.1051513406612
 20
-129.8621852973956
 30
0.0
 10
106.1051513406612
 20
-129.8621852973956
 30
0.0
  0
HATCH
  5
68
330
63
100
AcDbEntity
  8
_U+30EC_U+30A4_U+30E4_U+30FC 1
 62
   179
420
  2234388
100
AcDbHatch
 10
0.0
 20
0.0
 30
0.0
210
0.0
220
0.0
230
1.0
  2
SOLID
 70
     1
 71
     0
 91
        1
 92
        1
 93
        1
 72
     4
 94
        3
 73
     0
 74
     1
 95
       26
 96
       22
 40
0.0
 40
0.0
 40
0.0
 40
0.0
 40
1.0
 40
1.0
 40
1.0
 40
2.0
 40
2.0
 40
2.0
 40
3.0
 40
3.0
 40
3.0
 40
4.0
 40
4.0
 40
4.0
 40
5.0
 40
5.0
 40
5.0
 40
6.0
 40
6.0
 40
6.0
 40
7.0
 40
7.0
 40
7.0
 40
7.0
 10
106.1051513406612
 20
-129.8621852973956
 10
106.1051513406612
 20
-129.8621852973956
 10
105.0009982376386
 20
-129.8621852973956
 10
105.0009982376386
 20
-129.8621852973956
 10
105.0009982376386
 20
-129.8621852973956
 10
105.0009982376386
 20
-130.1922254448825
 10
105.0009982376386
 20
-130.1922254448825
 10
105.0009982376386
 20
-130.1922254448825
 10
104.8528591317729
 20
-130.1922254448825
 10
104.8528591317729
 20
-130.1922254448825
 10
104.8380452211863
 20
-129.8601182401044
 10
104.675092204734
 20
-129.8136094510535
 10
104.5607150346237
 20
-129.7839816298804
 10
104.5607150346237
 20
-129.7839816298804
 10
104.5607150346237
 20
-129.6379095813058
 10
104.5607150346237
 20
-129.6379095813058
 10
104.5607150346237
 20
-129.6379095813058
 10
106.1051513406612
 20
-129.6379095813058
 10
106.1051513406612
 20
-129.6379095813058
 10
106.1051513406612
 20
-129.6379095813058
 10
106.1051513406612
 20
-129.8621852973956
 10
106.1051513406612
 20
-129.8621852973956
 97
        0
 97
        0
 75
     2
 76
     1
 98
        0
  0
SPLINE
  5
69
330
63
100
AcDbEntity
  8
_U+30EC_U+30A4_U+30E4_U+30FC 1
370
     0
100
AcDbSpline
210
0.0
220
0.0
230
1.0
 70
    11
 71
     3
 72
    29
 73
    25
 74
     0
 42
0.0000000001
 43
0.0000000001
 12
1.0
 22
0.0
 32
0.0
 13
1.0
 23
0.0
 33
0.0
 40
0.0
 40
0.0
 40
0.0
 40
0.0
 40
1.0
 40
1.0
 40
1.0
 40
2.0
 40
2.0
 40
2.0
 40
3.0
 40
3.0
 40
3.0
 40
4.0
 40
4.0
 40
4.0
 40
5.0
 40
5.0
 40
5.0
 40
6.0
 40
6.0
 40
6.0
 40
7.0
 40
7.0
 40
7.0
 40
8.0
 40
8.0
 40
8.0
 40
8.0
 10
105.9273844136223
 20
-128.2388563047458
 30
0.0
 10
106.1368462191255
 20
-128.3470323029827
 30
0.0
 10
106.1557942442944
 20
-128.5203206058908
 30
0.0
 10
106.1557942442944
 20
-128.6367648332922
 30
0.0
 10
106.1557942442944
 20
-128.7976507924534
 30
0.0
 10
106.1092854552435
 20
-128.9392442168972
 30
0.0
 10
105.9273844136223
 20
-129.03432885229
 30
0.0
 10
105.7327365187057
 20
-129.1380262263961
 30
0.0
 10
105.496058458869
 20
-129.1573187611135
 30
0.0
 10
105.3331054424167
 20
-129.1573187611135
 30
0.0
 10
105.1891004511333
 20
-129.1573187611135
 30
0.0
 10
104.9372639711615
 20
-129.1400932836872
 30
0.0
 10
104.7384819616626
 20
-129.03432885229
 30
0.0
 10
104.5355658375814
 20
-128.9264973636017
 30
0.0
 10
104.5121391882817
 20
-128.7656114044405
 30
0.0
 10
104.5121391882817
 20
-128.6367648332922
 30
0.0
 10
104.5121391882817
 20
-128.4779459314222
 30
0.0
 10
104.5565809200414
 20
-128.3342854496873
 30
0.0
 10
104.7384819616626
 20
-128.2388563047458
 30
0.0
 10
104.9310627992881
 20
-128.1396375547706
 30
0.0
 10
105.1594726299601
 20
-128.116210905471
 30
0.0
 10
105.3331054424167
 20
-128.116210905471
 30
0.0
 10
105.5043266880336
 20
-128.116210905471
 30
0.0
 10
105.7348035759969
 20
-128.1375704974795
 30
0.0
 10
105.9273844136223
 20
-128.2388563047458
 30
0.0
  0
SPLINE
  5
6A
330
63
100
AcDbEntity
  8
_U+30EC_U+30A4_U+30E4_U+30FC 1
370
     0
100
AcDbSpline
210
0.0
220
0.0
230
1.0
 70
    11
 71
     3
 72
    17
 73
    13
 74
     0
 42
0.0000000001
 43
0.0000000001
 12
1.0
 22
0.0
 32
0.0
 13
1.0
 23
0.0
 33
0.0
 40
0.0
 40
0.0
 40
0.0
 40
0.0
 40
1.0
 40
1.0
 40
1.0
 40
2.0
 40
2.0
 40
2.0
 40
3.0
 40
3.0
 40
3.0
 40
4.0
 40
4.0
 40
4.0
 40
4.0
 10
104.7047200259072
 20
-128.6367648332922
 30
0.0
 10
104.7047200259072
 20
-128.8865342559728
 30
0.0
 10
104.9882513843432
 20
-128.9330430450237
 30
0.0
 10
105.3331054424167
 20
-128.9330430450237
 30
0.0
 10
105.6524657938994
 20
-128.9330430450237
 30
0.0
 10
105.9611463493778
 20
-128.8968695424286
 30
0.0
 10
105.9611463493778
 20
-128.6367648332922
 30
0.0
 10
105.9611463493778
 20
-128.3890624679027
 30
0.0
 10
105.6800265577814
 20
-128.3404866215607
 30
0.0
 10
105.3331054424167
 20
-128.3404866215607
 30
0.0
 10
105.0134005813855
 20
-128.3404866215607
 30
0.0
 10
104.7047200259072
 20
-128.378727181447
 30
0.0
 10
104.7047200259072
 20
-128.6367648332922
 30
0.0
  0
HATCH
  5
6B
330
63
100
AcDbEntity
  8
_U+30EC_U+30A4_U+30E4_U+30FC 1
 62
   179
420
  2234388
100
AcDbHatch
 10
0.0
 20
0.0
 30
0.0
210
0.0
220
0.0
230
1.0
  2
SOLID
 70
     1
 71
     0
 91
        2
 92
        1
 93
        1
 72
     4
 94
        3
 73
     0
 74
     1
 95
       29
 96
       25
 40
0.0
 40
0.0
 40
0.0
 40
0.0
 40
1.0
 40
1.0
 40
1.0
 40
2.0
 40
2.0
 40
2.0
 40
3.0
 40
3.0
 40
3.0
 40
4.0
 40
4.0
 40
4.0
 40
5.0
 40
5.0
 40
5.0
 40
6.0
 40
6.0
 40
6.0
 40
7.0
 40
7.0
 40
7.0
 40
8.0
 40
8.0
 40
8.0
 40
8.0
 10
105.9273844136223
 20
-128.2388563047458
 10
106.1368462191255
 20
-128.3470323029827
 10
106.1557942442944
 20
-128.5203206058908
 10
106.1557942442944
 20
-128.6367648332922
 10
106.1557942442944
 20
-128.7976507924534
 10
106.1092854552435
 20
-128.9392442168972
 10
105.9273844136223
 20
-129.03432885229
 10
105.7327365187057
 20
-129.1380262263961
 10
105.496058458869
 20
-129.1573187611135
 10
105.3331054424167
 20
-129.1573187611135
 10
105.1891004511333
 20
-129.1573187611135
 10
104.9372639711615
 20
-129.1400932836872
 10
104.7384819616626
 20
-129.03432885229
 10
104.5355658375814
 20
-128.9264973636017
 10
104.5121391882817
 20
-128.7656114044405
 10
104.5121391882817
 20
-128.6367648332922
 10
104.5121391882817
 20
-128.4779459314222
 10
104.5565809200414
 20
-128.3342854496873
 10
104.7384819616626
 20
-128.2388563047458
 10
104.9310627992881
 20
-128.1396375547706
 10
105.1594726299601
 20
-128.116210905471
 10
105.3331054424167
 20
-128.116210905471
 10
105.5043266880336
 20
-128.116210905471
 10
105.7348035759969
 20
-128.1375704974795
 10
105.9273844136223
 20
-128.2388563047458
 97
        0
 97
        0
 92
        1
 93
        1
 72
     4
 94
        3
 73
     0
 74
     1
 95
       17
 96
       13
 40
0.0
 40
0.0
 40
0.0
 40
0.0
 40
1.0
 40
1.0
 40
1.0
 40
2.0
 40
2.0
 40
2.0
 40
3.0
 40
3.0
 40
3.0
 40
4.0
 40
4.0
 40
4.0
 40
4.0
 10
104.7047200259072
 20
-128.6367648332922
 10
104.7047200259072
 20
-128.8865342559728
 10
104.9882513843432
 20
-128.9330430450237
 10
105.3331054424167
 20
-128.9330430450237
 10
105.6524657938994
 20
-128.9330430450237
 10
105.9611463493778
 20
-128.8968695424286
 10
105.9611463493778
 20
-128.6367648332922
 10
105.9611463493778
 20
-128.3890624679027
 10
105.6800265577814
 20
-128.3404866215607
 10
105.3331054424167
 20
-128.3404866215607
 10
105.0134005813855
 20
-128.3404866215607
 10
104.7047200259072
 20
-128.378727181447
 10
104.7047200259072
 20
-128.6367648332922
 97
        0
 97
        0
 75
     2
 76
     1
 98
        0
  0
ENDBLK
  5
66
330
63
100
AcDbEntity
  8
0
100
AcDbBlockEnd
  0
BLOCK
  5
6E
330
6C
100
AcDbEntity
  8
0
100
AcDbBlockBegin
  2
block 4
 70
     0
 10
0.0
 20
0.0
 30
0.0
  3
block 4
  1

  0
SPLINE
  5
70
330
6C
100
AcDbEntity
  8
_U+30EC_U+30A4_U+30E4_U+30FC 1
370
     0
100
AcDbSpline
210
0.0
220
0.0
230
1.0
 70
    11
 71
     3
 72
    44
 73
    40
 74
     0
 42
0.0000000001
 43
0.0000000001
 12
1.0
 22
0.0
 32
0.0
 13
1.0
 23
0.0
 33
0.0
 40
0.0
 40
0.0
 40
0.0
 40
0.0
 40
1.0
 40
1.0
 40
1.0
 40
2.0
 40
2.0
 40
2.0
 40
3.0
 40
3.0
 40
3.0
 40
4.0
 40
4.0
 40
4.0
 40
5.0
 40
5.0
 40
5.0
 40
6.0
 40
6.0
 40
6.0
 40
7.0
 40
7.0
 40
7.0
 40
8.0
 40
8.0
 40
8.0
 40
9.0
 40
9.0
 40
9.0
 40
10.0
 40
10.0
 40
10.0
 40
11.0
 40
11.0
 40
11.0
 40
12.0
 40
12.0
 40
12.0
 40
13.0
 40
13.0
 40
13.0
 40
13.0
 10
105.5232747132025
 20
-123.1952365143401
 30
0.0
 10
105.6820936150725
 20
-123.4129665490079
 30
0.0
 10
105.7561631680054
 20
-123.5059841271096
 30
0.0
 10
105.8998236497403
 20
-123.5549044830002
 30
0.0
 10
105.8998236497403
 20
-123.5549044830002
 30
0.0
 10
105.8998236497403
 20
-122.7763129033337
 30
0.0
 10
105.8998236497403
 20
-122.7763129033337
 30
0.0
 10
105.8998236497403
 20
-122.7763129033337
 30
0.0
 10
106.1051513406612
 20
-122.7763129033337
 30
0.0
 10
106.1051513406612
 20
-122.7763129033337
 30
0.0
 10
106.1051513406612
 20
-122.7763129033337
 30
0.0
 10
106.1051513406612
 20
-123.8043293961323
 30
0.0
 10
106.1051513406612
 20
-123.8043293961323
 30
0.0
 10
105.7475504292923
 20
-123.772634517668
 30
0.0
 10
105.6693467617771
 20
-123.7071777034482
 30
0.0
 10
105.3710014927545
 20
-123.3220160281973
 30
0.0
 10
105.1722194832556
 20
-123.0660454336432
 30
0.0
 10
105.1043511021961
 20
-123.0005886194235
 30
0.0
 10
104.9668917923347
 20
-123.0005886194235
 30
0.0
 10
104.8483805076421
 20
-123.0005886194235
 30
0.0
 10
104.7174668792026
 20
-123.0725911150652
 30
0.0
 10
104.7174668792026
 20
-123.269306067273
 30
0.0
 10
104.7174668792026
 20
-123.5294107764093
 30
0.0
 10
104.9479437671658
 20
-123.5380235151224
 30
0.0
 10
105.0643879945672
 20
-123.5421576297047
 30
0.0
 10
105.0643879945672
 20
-123.5421576297047
 30
0.0
 10
105.0643879945672
 20
-123.7664333457945
 30
0.0
 10
105.0643879945672
 20
-123.7664333457945
 30
0.0
 10
104.9372639711615
 20
-123.7578206070814
 30
0.0
 10
104.8252983678909
 20
-123.7471408110771
 30
0.0
 10
104.7067870831983
 20
-123.6668700862708
 30
0.0
 10
104.5459011240371
 20
-123.5569715402913
 30
0.0
 10
104.5121391882817
 20
-123.3705918745393
 30
0.0
 10
104.5121391882817
 20
-123.2544921566864
 30
0.0
 10
104.5121391882817
 20
-122.9771619701238
 30
0.0
 10
104.696107287194
 20
-122.7697672219117
 30
0.0
 10
104.9689588496258
 20
-122.7697672219117
 30
0.0
 10
105.1977131898464
 20
-122.7697672219117
 30
0.0
 10
105.2969319398216
 20
-122.8862114493132
 30
0.0
 10
105.5232747132025
 20
-123.1952365143401
 30
0.0
  0
HATCH
  5
71
330
6C
100
AcDbEntity
  8
_U+30EC_U+30A4_U+30E4_U+30FC 1
 62
   179
420
  2234388
100
AcDbHatch
 10
0.0
 20
0.0
 30
0.0
210
0.0
220
0.0
230
1.0
  2
SOLID
 70
     1
 71
     0
 91
        1
 92
        1
 93
        1
 72
     4
 94
        3
 73
     0
 74
     1
 95
       44
 96
       40
 40
0.0
 40
0.0
 40
0.0
 40
0.0
 40
1.0
 40
1.0
 40
1.0
 40
2.0
 40
2.0
 40
2.0
 40
3.0
 40
3.0
 40
3.0
 40
4.0
 40
4.0
 40
4.0
 40
5.0
 40
5.0
 40
5.0
 40
6.0
 40
6.0
 40
6.0
 40
7.0
 40
7.0
 40
7.0
 40
8.0
 40
8.0
 40
8.0
 40
9.0
 40
9.0
 40
9.0
 40
10.0
 40
10.0
 40
10.0
 40
11.0
 40
11.0
 40
11.0
 40
12.0
 40
12.0
 40
12.0
 40
13.0
 40
13.0
 40
13.0
 40
13.0
 10
105.5232747132025
 20
-123.1952365143401
 10
105.6820936150725
 20
-123.4129665490079
 10
105.7561631680054
 20
-123.5059841271096
 10
105.8998236497403
 20
-123.5549044830002
 10
105.8998236497403
 20
-123.5549044830002
 10
105.8998236497403
 20
-122.7763129033337
 10
105.8998236497403
 20
-122.7763129033337
 10
105.8998236497403
 20
-122.7763129033337
 10
106.1051513406612
 20
-122.7763129033337
 10
106.1051513406612
 20
-122.7763129033337
 10
106.1051513406612
 20
-122.7763129033337
 10
106.1051513406612
 20
-123.8043293961323
 10
106.1051513406612
 20
-123.8043293961323
 10
105.7475504292923
 20
-123.772634517668
 10
105.6693467617771
 20
-123.7071777034482
 10
105.3710014927545
 20
-123.3220160281973
 10
105.1722194832556
 20
-123.0660454336432
 10
105.1043511021961
 20
-123.0005886194235
 10
104.9668917923347
 20
-123.0005886194235
 10
104.8483805076421
 20
-123.0005886194235
 10
104.7174668792026
 20
-123.0725911150652
 10
104.7174668792026
 20
-123.269306067273
 10
104.7174668792026
 20
-123.5294107764093
 10
104.9479437671658
 20
-123.5380235151224
 10
105.0643879945672
 20
-123.5421576297047
 10
105.0643879945672
 20
-123.5421576297047
 10
105.0643879945672
 20
-123.7664333457945
 10
105.0643879945672
 20
-123.7664333457945
 10
104.9372639711615
 20
-123.7578206070814
 10
104.8252983678909
 20
-123.7471408110771
 10
104.7067870831983
 20
-123.6668700862708
 10
104.5459011240371
 20
-123.5569715402913
 10
104.5121391882817
 20
-123.3705918745393
 10
104.5121391882817
 20
-123.2544921566864
 10
104.5121391882817
 20
-122.9771619701238
 10
104.696107287194
 20
-122.7697672219117
 10
104.9689588496258
 20
-122.7697672219117
 10
105.1977131898464
 20
-122.7697672219117
 10
105.2969319398216
 20
-122.8862114493132
 10
105.5232747132025
 20
-123.1952365143401
 97
        0
 97
        0
 75
     2
 76
     1
 98
        0
  0
ENDBLK
  5
6F
330
6C
100
AcDbEntity
  8
0
100
AcDbBlockEnd
  0
BLOCK
  5
80
330
7E
100
AcDbEntity
  8
0
100
AcDbBlockBegin
  2
block 5
 70
     0
 10
0.0
 20
0.0
 30
0.0
  3
block 5
  1

  0
SPLINE
  5
82
330
7E
100
AcDbEntity
  8
_U+30EC_U+30A4_U+30E4_U+30FC 1
370
     0
100
AcDbSpline
210
0.0
220
0.0
230
1.0
 70
    11
 71
     3
 72
    44
 73
    40
 74
     0
 42
0.0000000001
 43
0.0000000001
 12
1.0
 22
0.0
 32
0.0
 13
1.0
 23
0.0
 33
0.0
 40
0.0
 40
0.0
 40
0.0
 40
0.0
 40
1.0
 40
1.0
 40
1.0
 40
2.0
 40
2.0
 40
2.0
 40
3.0
 40
3.0
 40
3.0
 40
4.0
 40
4.0
 40
4.0
 40
5.0
 40
5.0
 40
5.0
 40
6.0
 40
6.0
 40
6.0
 40
7.0
 40
7.0
 40
7.0
 40
8.0
 40
8.0
 40
8.0
 40
9.0
 40
9.0
 40
9.0
 40
10.0
 40
10.0
 40
10.0
 40
11.0
 40
11.0
 40
11.0
 40
12.0
 40
12.0
 40
12.0
 40
13.0
 40
13.0
 40
13.0
 40
13.0
 10
87.25393335492264
 20
-138.0163818014334
 30
0.0
 10
87.03620332025484
 20
-138.1752007033034
 30
0.0
 10
86.94318574215309
 20
-138.2492702562363
 30
0.0
 10
86.89426538626255
 20
-138.3929307379712
 30
0.0
 10
86.89426538626255
 20
-138.3929307379712
 30
0.0
 10
87.67285696592901
 20
-138.3929307379712
 30
0.0
 10
87.67285696592901
 20
-138.3929307379712
 30
0.0
 10
87.67285696592901
 20
-138.3929307379712
 30
0.0
 10
87.67285696592901
 20
-138.5982584288921
 30
0.0
 10
87.67285696592901
 20
-138.5982584288921
 30
0.0
 10
87.67285696592901
 20
-138.5982584288921
 30
0.0
 10
86.64484047313046
 20
-138.5982584288921
 30
0.0
 10
86.64484047313046
 20
-138.5982584288921
 30
0.0
 10
86.67653535159477
 20
-138.2406575175232
 30
0.0
 10
86.74199216581451
 20
-138.162453850008
 30
0.0
 10
87.12715384106544
 20
-137.8641085809854
 30
0.0
 10
87.38312443561951
 20
-137.6653265714864
 30
0.0
 10
87.44858124983925
 20
-137.597458190427
 30
0.0
 10
87.44858124983925
 20
-137.4599988805656
 30
0.0
 10
87.44858124983925
 20
-137.341487595873
 30
0.0
 10
87.37657875419752
 20
-137.2105739674335
 30
0.0
 10
87.17986380198975
 20
-137.2105739674335
 30
0.0
 10
86.9197590928534
 20
-137.2105739674335
 30
0.0
 10
86.9114908636888
 20
-137.4410508553967
 30
0.0
 10
86.90701223955797
 20
-137.5574950827981
 30
0.0
 10
86.90701223955797
 20
-137.5574950827981
 30
0.0
 10
86.68273652346821
 20
-137.5574950827981
 30
0.0
 10
86.68273652346821
 20
-137.5574950827981
 30
0.0
 10
86.69134926218133
 20
-137.4303710593924
 30
0.0
 10
86.7020290581856
 20
-137.3184054561218
 30
0.0
 10
86.78229978299193
 20
-137.1998941714292
 30
0.0
 10
86.8921983289714
 20
-137.039008212268
 30
0.0
 10
87.07857799472342
 20
-137.0052462765126
 30
0.0
 10
87.19467771257634
 20
-137.0052462765126
 30
0.0
 10
87.47200789913894
 20
-137.0052462765126
 30
0.0
 10
87.67940264735098
 20
-137.1892143754249
 30
0.0
 10
87.67940264735098
 20
-137.4620659378567
 30
0.0
 10
87.67940264735098
 20
-137.6908202780773
 30
0.0
 10
87.56295841994954
 20
-137.7900390280525
 30
0.0
 10
87.25393335492264
 20
-138.0163818014334
 30
0.0
  0
HATCH
  5
83
330
7E
100
AcDbEntity
  8
_U+30EC_U+30A4_U+30E4_U+30FC 1
 62
   179
420
  2234388
100
AcDbHatch
 10
0.0
 20
0.0
 30
0.0
210
0.0
220
0.0
230
1.0
  2
SOLID
 70
     1
 71
     0
 91
        1
 92
        1
 93
        1
 72
     4
 94
        3
 73
     0
 74
     1
 95
       44
 96
       40
 40
0.0
 40
0.0
 40
0.0
 40
0.0
 40
1.0
 40
1.0
 40
1.0
 40
2.0
 40
2.0
 40
2.0
 40
3.0
 40
3.0
 40
3.0
 40
4.0
 40
4.0
 40
4.0
 40
5.0
 40
5.0
 40
5.0
 40
6.0
 40
6.0
 40
6.0
 40
7.0
 40
7.0
 40
7.0
 40
8.0
 40
8.0
 40
8.0
 40
9.0
 40
9.0
 40
9.0
 40
10.0
 40
10.0
 40
10.0
 40
11.0
 40
11.0
 40
11.0
 40
12.0
 40
12.0
 40
12.0
 40
13.0
 40
13.0
 40
13.0
 40
13.0
 10
87.25393335492264
 20
-138.0163818014334
 10
87.03620332025484
 20
-138.1752007033034
 10
86.94318574215309
 20
-138.2492702562363
 10
86.89426538626255
 20
-138.3929307379712
 10
86.89426538626255
 20
-138.3929307379712
 10
87.67285696592901
 20
-138.3929307379712
 10
87.67285696592901
 20
-138.3929307379712
 10
87.67285696592901
 20
-138.3929307379712
 10
87.67285696592901
 20
-138.5982584288921
 10
87.67285696592901
 20
-138.5982584288921
 10
87.67285696592901
 20
-138.5982584288921
 10
86.64484047313046
 20
-138.5982584288921
 10
86.64484047313046
 20
-138.5982584288921
 10
86.67653535159477
 20
-138.2406575175232
 10
86.74199216581451
 20
-138.162453850008
 10
87.12715384106544
 20
-137.8641085809854
 10
87.38312443561951
 20
-137.6653265714864
 10
87.44858124983925
 20
-137.597458190427
 10
87.44858124983925
 20
-137.4599988805656
 10
87.44858124983925
 20
-137.341487595873
 10
87.37657875419752
 20
-137.2105739674335
 10
87.17986380198975
 20
-137.2105739674335
 10
86.9197590928534
 20
-137.2105739674335
 10
86.9114908636888
 20
-137.4410508553967
 10
86.90701223955797
 20
-137.5574950827981
 10
86.90701223955797
 20
-137.5574950827981
 10
86.68273652346821
 20
-137.5574950827981
 10
86.68273652346821
 20
-137.5574950827981
 10
86.69134926218133
 20
-137.4303710593924
 10
86.7020290581856
 20
-137.3184054561218
 10
86.78229978299193
 20
-137.1998941714292
 10
86.8921983289714
 20
-137.039008212268
 10
87.07857799472342
 20
-137.0052462765126
 10
87.19467771257634
 20
-137.0052462765126
 10
87.47200789913894
 20
-137.0052462765126
 10
87.67940264735098
 20
-137.1892143754249
 10
87.67940264735098
 20
-137.4620659378567
 10
87.67940264735098
 20
-137.6908202780773
 10
87.56295841994954
 20
-137.7900390280525
 10
87.25393335492264
 20
-138.0163818014334
 97
        0
 97
        0
 75
     2
 76
     1
 98
        0
  0
SPLINE
  5
84
330
7E
100
AcDbEntity
  8
_U+30EC_U+30A4_U+30E4_U+30FC 1
370
     0
100
AcDbSpline
210
0.0
220
0.0
230
1.0
 70
    11
 71
     3
 72
    53
 73
    49
 74
     0
 42
0.0000000001
 43
0.0000000001
 12
1.0
 22
0.0
 32
0.0
 13
1.0
 23
0.0
 33
0.0
 40
0.0
 40
0.0
 40
0.0
 40
0.0
 40
1.0
 40
1.0
 40
1.0
 40
2.0
 40
2.0
 40
2.0
 40
3.0
 40
3.0
 40
3.0
 40
4.0
 40
4.0
 40
4.0
 40
5.0
 40
5.0
 40
5.0
 40
6.0
 40
6.0
 40
6.0
 40
7.0
 40
7.0
 40
7.0
 40
8.0
 40
8.0
 40
8.0
 40
9.0
 40
9.0
 40
9.0
 40
10.0
 40
10.0
 40
10.0
 40
11.0
 40
11.0
 40
11.0
 40
12.0
 40
12.0
 40
12.0
 40
13.0
 40
13.0
 40
13.0
 40
14.0
 40
14.0
 40
14.0
 40
15.0
 40
15.0
 40
15.0
 40
16.0
 40
16.0
 40
16.0
 40
16.0
 10
88.31881236941335
 20
-138.6489013325253
 30
0.0
 10
88.24060870189818
 20
-138.6489013325253
 30
0.0
 10
88.13897838508332
 20
-138.6320203646476
 30
0.0
 10
88.03734806826844
 20
-138.568630607719
 30
0.0
 10
87.86405976536038
 20
-138.4587320617395
 30
0.0
 10
87.84270017335183
 20
-138.3274739237515
 30
0.0
 10
87.82375214818296
 20
-138.2196424350632
 30
0.0
 10
87.82375214818296
 20
-138.2196424350632
 30
0.0
 10
88.04596080698157
 20
-138.2196424350632
 30
0.0
 10
88.04596080698157
 20
-138.2196424350632
 30
0.0
 10
88.10073782519704
 20
-138.4184244445621
 30
0.0
 10
88.22786184860276
 20
-138.4480522657352
 30
0.0
 10
88.32087942670451
 20
-138.4480522657352
 30
0.0
 10
88.46040579385712
 20
-138.4480522657352
 30
0.0
 10
88.61267901430517
 20
-138.3484890062115
 30
0.0
 10
88.61267901430517
 20
-138.1159450609571
 30
0.0
 10
88.61267901430517
 20
-137.8599744664031
 30
0.0
 10
88.43284502997513
 20
-137.7900390280525
 30
0.0
 10
88.31226668799138
 20
-137.7900390280525
 30
0.0
 10
88.28057180952709
 20
-137.7900390280525
 30
0.0
 10
88.13897838508332
 20
-137.7900390280525
 30
0.0
 10
88.05009492156387
 20
-137.9192301087494
 30
0.0
 10
88.05009492156387
 20
-137.9192301087494
 30
0.0
 10
87.87439505181612
 20
-137.9002820835805
 30
0.0
 10
87.87439505181612
 20
-137.9002820835805
 30
0.0
 10
87.87439505181612
 20
-137.9002820835805
 30
0.0
 10
87.99497339379987
 20
-137.0538221228546
 30
0.0
 10
87.99497339379987
 20
-137.0538221228546
 30
0.0
 10
87.99497339379987
 20
-137.0538221228546
 30
0.0
 10
88.77356497346634
 20
-137.0538221228546
 30
0.0
 10
88.77356497346634
 20
-137.0538221228546
 30
0.0
 10
88.77356497346634
 20
-137.0538221228546
 30
0.0
 10
88.77356497346634
 20
-137.2484700177712
 30
0.0
 10
88.77356497346634
 20
-137.2484700177712
 30
0.0
 10
88.77356497346634
 20
-137.2484700177712
 30
0.0
 10
88.15792641025219
 20
-137.2484700177712
 30
0.0
 10
88.15792641025219
 20
-137.2484700177712
 30
0.0
 10
88.15792641025219
 20
-137.2484700177712
 30
0.0
 10
88.09246959603244
 20
-137.6715277433599
 30
0.0
 10
88.09246959603244
 20
-137.6715277433599
 30
0.0
 10
88.15379229566989
 20
-137.6377658076045
 30
0.0
 10
88.23613007776736
 20
-137.597458190427
 30
0.0
 10
88.35464136245996
 20
-137.597458190427
 30
0.0
 10
88.60854489972287
 20
-137.597458190427
 30
0.0
 10
88.84556746910806
 20
-137.783837856179
 30
0.0
 10
88.84556746910806
 20
-138.0969970357883
 30
0.0
 10
88.84556746910806
 20
-138.4142903299798
 30
0.0
 10
88.6212917530183
 20
-138.6489013325253
 30
0.0
 10
88.31881236941335
 20
-138.6489013325253
 30
0.0
  0
HATCH
  5
85
330
7E
100
AcDbEntity
  8
_U+30EC_U+30A4_U+30E4_U+30FC 1
 62
   179
420
  2234388
100
AcDbHatch
 10
0.0
 20
0.0
 30
0.0
210
0.0
220
0.0
230
1.0
  2
SOLID
 70
     1
 71
     0
 91
        1
 92
        1
 93
        1
 72
     4
 94
        3
 73
     0
 74
     1
 95
       53
 96
       49
 40
0.0
 40
0.0
 40
0.0
 40
0.0
 40
1.0
 40
1.0
 40
1.0
 40
2.0
 40
2.0
 40
2.0
 40
3.0
 40
3.0
 40
3.0
 40
4.0
 40
4.0
 40
4.0
 40
5.0
 40
5.0
 40
5.0
 40
6.0
 40
6.0
 40
6.0
 40
7.0
 40
7.0
 40
7.0
 40
8.0
 40
8.0
 40
8.0
 40
9.0
 40
9.0
 40
9.0
 40
10.0
 40
10.0
 40
10.0
 40
11.0
 40
11.0
 40
11.0
 40
12.0
 40
12.0
 40
12.0
 40
13.0
 40
13.0
 40
13.0
 40
14.0
 40
14.0
 40
14.0
 40
15.0
 40
15.0
 40
15.0
 40
16.0
 40
16.0
 40
16.0
 40
16.0
 10
88.31881236941335
 20
-138.6489013325253
 10
88.24060870189818
 20
-138.6489013325253
 10
88.13897838508332
 20
-138.6320203646476
 10
88.03734806826844
 20
-138.568630607719
 10
87.86405976536038
 20
-138.4587320617395
 10
87.84270017335183
 20
-138.3274739237515
 10
87.82375214818296
 20
-138.2196424350632
 10
87.82375214818296
 20
-138.2196424350632
 10
88.04596080698157
 20
-138.2196424350632
 10
88.04596080698157
 20
-138.2196424350632
 10
88.10073782519704
 20
-138.4184244445621
 10
88.22786184860276
 20
-138.4480522657352
 10
88.32087942670451
 20
-138.4480522657352
 10
88.46040579385712
 20
-138.4480522657352
 10
88.61267901430517
 20
-138.3484890062115
 10
88.61267901430517
 20
-138.1159450609571
 10
88.61267901430517
 20
-137.8599744664031
 10
88.43284502997513
 20
-137.7900390280525
 10
88.31226668799138
 20
-137.7900390280525
 10
88.28057180952709
 20
-137.7900390280525
 10
88.13897838508332
 20
-137.7900390280525
 10
88.05009492156387
 20
-137.9192301087494
 10
88.05009492156387
 20
-137.9192301087494
 10
87.87439505181612
 20
-137.9002820835805
 10
87.87439505181612
 20
-137.9002820835805
 10
87.87439505181612
 20
-137.9002820835805
 10
87.99497339379987
 20
-137.0538221228546
 10
87.99497339379987
 20
-137.0538221228546
 10
87.99497339379987
 20
-137.0538221228546
 10
88.77356497346634
 20
-137.0538221228546
 10
88.77356497346634
 20
-137.0538221228546
 10
88.77356497346634
 20
-137.0538221228546
 10
88.77356497346634
 20
-137.2484700177712
 10
88.77356497346634
 20
-137.2484700177712
 10
88.77356497346634
 20
-137.2484700177712
 10
88.15792641025219
 20
-137.2484700177712
 10
88.15792641025219
 20
-137.2484700177712
 10
88.15792641025219
 20
-137.2484700177712
 10
88.09246959603244
 20
-137.6715277433599
 10
88.09246959603244
 20
-137.6715277433599
 10
88.15379229566989
 20
-137.6377658076045
 10
88.23613007776736
 20
-137.597458190427
 10
88.35464136245996
 20
-137.597458190427
 10
88.60854489972287
 20
-137.597458190427
 10
88.84556746910806
 20
-137.783837856179
 10
88.84556746910806
 20
-138.0969970357883
 10
88.84556746910806
 20
-138.4142903299798
 10
88.6212917530183
 20
-138.6489013325253
 10
88.31881236941335
 20
-138.6489013325253
 97
        0
 97
        0
 75
     2
 76
     1
 98
        0
  0
ENDBLK
  5
81
330
7E
100
AcDbEntity
  8
0
100
AcDbBlockEnd
  0
BLOCK
  5
94
330
92
100
AcDbEntity
  8
0
100
AcDbBlockBegin
  2
block 6
 70
     0
 10
0.0
 20
0.0
 30
0.0
  3
block 6
  1

  0
SPLINE
  5
96
330
92
100
AcDbEntity
  8
_U+30EC_U+30A4_U+30E4_U+30FC 1
370
     0
100
AcDbSpline
210
0.0
220
0.0
230
1.0
 70
    11
 71
     3
 72
    26
 73
    22
 74
     0
 42
0.0000000001
 43
0.0000000001
 12
1.0
 22
0.0
 32
0.0
 13
1.0
 23
0.0
 33
0.0
 40
0.0
 40
0.0
 40
0.0
 40
0.0
 40
1.0
 40
1.0
 40
1.0
 40
2.0
 40
2.0
 40
2.0
 40
3.0
 40
3.0
 40
3.0
 40
4.0
 40
4.0
 40
4.0
 40
5.0
 40
5.0
 40
5.0
 40
6.0
 40
6.0
 40
6.0
 40
7.0
 40
7.0
 40
7.0
 40
7.0
 10
86.86274276257251
 20
-119.1379475613614
 30
0.0
 10
86.86274276257251
 20
-119.1379475613614
 30
0.0
 10
86.86274276257251
 20
-118.0337944583388
 30
0.0
 10
86.86274276257251
 20
-118.0337944583388
 30
0.0
 10
86.86274276257251
 20
-118.0337944583388
 30
0.0
 10
86.53270261508558
 20
-118.0337944583388
 30
0.0
 10
86.53270261508558
 20
-118.0337944583388
 30
0.0
 10
86.53270261508558
 20
-118.0337944583388
 30
0.0
 10
86.53270261508558
 20
-117.885655352473
 30
0.0
 10
86.53270261508558
 20
-117.885655352473
 30
0.0
 10
86.86480981986367
 20
-117.8708414418865
 30
0.0
 10
86.91131860891454
 20
-117.7078884254341
 30
0.0
 10
86.94094643008768
 20
-117.5935112553238
 30
0.0
 10
86.94094643008768
 20
-117.5935112553238
 30
0.0
 10
87.08701847866227
 20
-117.5935112553238
 30
0.0
 10
87.08701847866227
 20
-117.5935112553238
 30
0.0
 10
87.08701847866227
 20
-117.5935112553238
 30
0.0
 10
87.08701847866227
 20
-119.1379475613614
 30
0.0
 10
87.08701847866227
 20
-119.1379475613614
 30
0.0
 10
87.08701847866227
 20
-119.1379475613614
 30
0.0
 10
86.86274276257251
 20
-119.1379475613614
 30
0.0
 10
86.86274276257251
 20
-119.1379475613614
 30
0.0
  0
HATCH
  5
97
330
92
100
AcDbEntity
  8
_U+30EC_U+30A4_U+30E4_U+30FC 1
 62
   179
420
  2234388
100
AcDbHatch
 10
0.0
 20
0.0
 30
0.0
210
0.0
220
0.0
230
1.0
  2
SOLID
 70
     1
 71
     0
 91
        1
 92
        1
 93
        1
 72
     4
 94
        3
 73
     0
 74
     1
 95
       26
 96
       22
 40
0.0
 40
0.0
 40
0.0
 40
0.0
 40
1.0
 40
1.0
 40
1.0
 40
2.0
 40
2.0
 40
2.0
 40
3.0
 40
3.0
 40
3.0
 40
4.0
 40
4.0
 40
4.0
 40
5.0
 40
5.0
 40
5.0
 40
6.0
 40
6.0
 40
6.0
 40
7.0
 40
7.0
 40
7.0
 40
7.0
 10
86.86274276257251
 20
-119.1379475613614
 10
86.86274276257251
 20
-119.1379475613614
 10
86.86274276257251
 20
-118.0337944583388
 10
86.86274276257251
 20
-118.0337944583388
 10
86.86274276257251
 20
-118.0337944583388
 10
86.53270261508558
 20
-118.0337944583388
 10
86.53270261508558
 20
-118.0337944583388
 10
86.53270261508558
 20
-118.0337944583388
 10
86.53270261508558
 20
-117.885655352473
 10
86.53270261508558
 20
-117.885655352473
 10
86.86480981986367
 20
-117.8708414418865
 10
86.91131860891454
 20
-117.7078884254341
 10
86.94094643008768
 20
-117.5935112553238
 10
86.94094643008768
 20
-117.5935112553238
 10
87.08701847866227
 20
-117.5935112553238
 10
87.08701847866227
 20
-117.5935112553238
 10
87.08701847866227
 20
-117.5935112553238
 10
87.08701847866227
 20
-119.1379475613614
 10
87.08701847866227
 20
-119.1379475613614
 10
87.08701847866227
 20
-119.1379475613614
 10
86.86274276257251
 20
-119.1379475613614
 10
86.86274276257251
 20
-119.1379475613614
 97
        0
 97
        0
 75
     2
 76
     1
 98
        0
  0
SPLINE
  5
98
330
92
100
AcDbEntity
  8
_U+30EC_U+30A4_U+30E4_U+30FC 1
370
     0
100
AcDbSpline
210
0.0
220
0.0
230
1.0
 70
    11
 71
     3
 72
    44
 73
    40
 74
     0
 42
0.0000000001
 43
0.0000000001
 12
1.0
 22
0.0
 32
0.0
 13
1.0
 23
0.0
 33
0.0
 40
0.0
 40
0.0
 40
0.0
 40
0.0
 40
1.0
 40
1.0
 40
1.0
 40
2.0
 40
2.0
 40
2.0
 40
3.0
 40
3.0
 40
3.0
 40
4.0
 40
4.0
 40
4.0
 40
5.0
 40
5.0
 40
5.0
 40
6.0
 40
6.0
 40
6.0
 40
7.0
 40
7.0
 40
7.0
 40
8.0
 40
8.0
 40
8.0
 40
9.0
 40
9.0
 40
9.0
 40
10.0
 40
10.0
 40
10.0
 40
11.0
 40
11.0
 40
11.0
 40
12.0
 40
12.0
 40
12.0
 40
13.0
 40
13.0
 40
13.0
 40
13.0
 10
88.18118080477763
 20
-118.5560709339027
 30
0.0
 10
87.96345077010983
 20
-118.7148898357727
 30
0.0
 10
87.8704331920081
 20
-118.7889593887055
 30
0.0
 10
87.82151283611755
 20
-118.9326198704405
 30
0.0
 10
87.82151283611755
 20
-118.9326198704405
 30
0.0
 10
88.600104415784
 20
-118.9326198704405
 30
0.0
 10
88.600104415784
 20
-118.9326198704405
 30
0.0
 10
88.600104415784
 20
-118.9326198704405
 30
0.0
 10
88.600104415784
 20
-119.1379475613614
 30
0.0
 10
88.600104415784
 20
-119.1379475613614
 30
0.0
 10
88.600104415784
 20
-119.1379475613614
 30
0.0
 10
87.57208792298546
 20
-119.1379475613614
 30
0.0
 10
87.57208792298546
 20
-119.1379475613614
 30
0.0
 10
87.60378280144975
 20
-118.7803466499924
 30
0.0
 10
87.6692396156695
 20
-118.7021429824772
 30
0.0
 10
88.05440129092044
 20
-118.4037977134546
 30
0.0
 10
88.3103718854745
 20
-118.2050157039557
 30
0.0
 10
88.37582869969424
 20
-118.1371473228963
 30
0.0
 10
88.37582869969424
 20
-117.9996880130348
 30
0.0
 10
88.37582869969424
 20
-117.8811767283422
 30
0.0
 10
88.30382620405253
 20
-117.7502630999027
 30
0.0
 10
88.10711125184476
 20
-117.7502630999027
 30
0.0
 10
87.84700654270839
 20
-117.7502630999027
 30
0.0
 10
87.83873831354379
 20
-117.9807399878659
 30
0.0
 10
87.83425968941296
 20
-118.0971842152674
 30
0.0
 10
87.83425968941296
 20
-118.0971842152674
 30
0.0
 10
87.6099839733232
 20
-118.0971842152674
 30
0.0
 10
87.6099839733232
 20
-118.0971842152674
 30
0.0
 10
87.61859671203632
 20
-117.9700601918617
 30
0.0
 10
87.6292765080406
 20
-117.858094588591
 30
0.0
 10
87.70954723284692
 20
-117.7395833038984
 30
0.0
 10
87.81944577882639
 20
-117.5786973447373
 30
0.0
 10
88.0058254445784
 20
-117.5449354089818
 30
0.0
 10
88.12192516243132
 20
-117.5449354089818
 30
0.0
 10
88.39925534899395
 20
-117.5449354089818
 30
0.0
 10
88.60665009720599
 20
-117.7289035078942
 30
0.0
 10
88.60665009720599
 20
-118.001755070326
 30
0.0
 10
88.60665009720599
 20
-118.2305094105465
 30
0.0
 10
88.49020586980454
 20
-118.3297281605217
 30
0.0
 10
88.18118080477763
 20
-118.5560709339027
 30
0.0
  0
HATCH
  5
99
330
92
100
AcDbEntity
  8
_U+30EC_U+30A4_U+30E4_U+30FC 1
 62
   179
420
  2234388
100
AcDbHatch
 10
0.0
 20
0.0
 30
0.0
210
0.0
220
0.0
230
1.0
  2
SOLID
 70
     1
 71
     0
 91
        1
 92
        1
 93
        1
 72
     4
 94
        3
 73
     0
 74
     1
 95
       44
 96
       40
 40
0.0
 40
0.0
 40
0.0
 40
0.0
 40
1.0
 40
1.0
 40
1.0
 40
2.0
 40
2.0
 40
2.0
 40
3.0
 40
3.0
 40
3.0
 40
4.0
 40
4.0
 40
4.0
 40
5.0
 40
5.0
 40
5.0
 40
6.0
 40
6.0
 40
6.0
 40
7.0
 40
7.0
 40
7.0
 40
8.0
 40
8.0
 40
8.0
 40
9.0
 40
9.0
 40
9.0
 40
10.0
 40
10.0
 40
10.0
 40
11.0
 40
11.0
 40
11.0
 40
12.0
 40
12.0
 40
12.0
 40
13.0
 40
13.0
 40
13.0
 40
13.0
 10
88.18118080477763
 20
-118.5560709339027
 10
87.96345077010983
 20
-118.7148898357727
 10
87.8704331920081
 20
-118.7889593887055
 10
87.82151283611755
 20
-118.9326198704405
 10
87.82151283611755
 20
-118.9326198704405
 10
88.600104415784
 20
-118.9326198704405
 10
88.600104415784
 20
-118.9326198704405
 10
88.600104415784
 20
-118.9326198704405
 10
88.600104415784
 20
-119.1379475613614
 10
88.600104415784
 20
-119.1379475613614
 10
88.600104415784
 20
-119.1379475613614
 10
87.57208792298546
 20
-119.1379475613614
 10
87.57208792298546
 20
-119.1379475613614
 10
87.60378280144975
 20
-118.7803466499924
 10
87.6692396156695
 20
-118.7021429824772
 10
88.05440129092044
 20
-118.4037977134546
 10
88.3103718854745
 20
-118.2050157039557
 10
88.37582869969424
 20
-118.1371473228963
 10
88.37582869969424
 20
-117.9996880130348
 10
88.37582869969424
 20
-117.8811767283422
 10
88.30382620405253
 20
-117.7502630999027
 10
88.10711125184476
 20
-117.7502630999027
 10
87.84700654270839
 20
-117.7502630999027
 10
87.83873831354379
 20
-117.9807399878659
 10
87.83425968941296
 20
-118.0971842152674
 10
87.83425968941296
 20
-118.0971842152674
 10
87.6099839733232
 20
-118.0971842152674
 10
87.6099839733232
 20
-118.0971842152674
 10
87.61859671203632
 20
-117.9700601918617
 10
87.6292765080406
 20
-117.858094588591
 10
87.70954723284692
 20
-117.7395833038984
 10
87.81944577882639
 20
-117.5786973447373
 10
88.0058254445784
 20
-117.5449354089818
 10
88.12192516243132
 20
-117.5449354089818
 10
88.39925534899395
 20
-117.5449354089818
 10
88.60665009720599
 20
-117.7289035078942
 10
88.60665009720599
 20
-118.001755070326
 10
88.60665009720599
 20
-118.2305094105465
 10
88.49020586980454
 20
-118.3297281605217
 10
88.18118080477763
 20
-118.5560709339027
 97
        0
 97
        0
 75
     2
 76
     1
 98
        0
  0
ENDBLK
  5
95
330
92
100
AcDbEntity
  8
0
100
AcDbBlockEnd
  0
ENDSEC
  0
SECTION
  2
ENTITIES
  0
SPLINE
  5
41
330
1F
100
AcDbEntity
  8
_U+30EC_U+30A4_U+30E4_U+30FC 1
 62
   179
420
  2234388
370
     9
100
AcDbSpline
210
0.0
220
0.0
230
1.0
 70
    11
 71
     3
 72
    17
 73
    13
 74
     0
 42
0.0000000001
 43
0.0000000001
 12
1.0
 22
0.0
 32
0.0
 13
1.0
 23
0.0
 33
0.0
 40
0.0
 40
0.0
 40
0.0
 40
0.0
 40
1.0
 40
1.0
 40
1.0
 40
2.0
 40
2.0
 40
2.0
 40
3.0
 40
3.0
 40
3.0
 40
4.0
 40
4.0
 40
4.0
 40
4.0
 10
102.8984665415081
 20
-135.19485135509
 30
0.0
 10
102.8984665415081
 20
-135.1397121884376
 30
0.0
 10
102.8536637648733
 20
-135.0949446884484
 30
0.0
 10
102.7985598773902
 20
-135.0949446884484
 30
0.0
 10
102.7434207121303
 20
-135.0949446884484
 30
0.0
 10
102.6986532132724
 20
-135.1397121884376
 30
0.0
 10
102.6986532132724
 20
-135.19485135509
 30
0.0
 10
102.6986532132724
 20
-135.2499552439656
 30
0.0
 10
102.7434207121303
 20
-135.2947580217316
 30
0.0
 10
102.7985598773902
 20
-135.2947580217316
 30
0.0
 10
102.8536637648733
 20
-135.2947580217316
 30
0.0
 10
102.8984665415081
 20
-135.2499552439656
 30
0.0
 10
102.8984665415081
 20
-135.19485135509
 30
0.0
  0
SPLINE
  5
42
330
1F
100
AcDbEntity
  8
_U+30EC_U+30A4_U+30E4_U+30FC 1
 62
   179
420
  2234388
370
     9
100
AcDbSpline
210
0.0
220
0.0
230
1.0
 70
    11
 71
     3
 72
    17
 73
    13
 74
     0
 42
0.0000000001
 43
0.0000000001
 12
1.0
 22
0.0
 32
0.0
 13
1.0
 23
0.0
 33
0.0
 40
0.0
 40
0.0
 40
0.0
 40
0.0
 40
1.0
 40
1.0
 40
1.0
 40
2.0
 40
2.0
 40
2.0
 40
3.0
 40
3.0
 40
3.0
 40
4.0
 40
4.0
 40
4.0
 40
4.0
 10
102.8984665415081
 20
-134.1950791331181
 30
0.0
 10
102.8984665415081
 20
-134.1399752442425
 30
0.0
 10
102.8536637648733
 20
-134.0951724664764
 30
0.0
 10
102.7985598773902
 20
-134.0951724664764
 30
0.0
 10
102.7434207121303
 20
-134.0951724664764
 30
0.0
 10
102.6986532132724
 20
-134.1399752442425
 30
0.0
 10
102.6986532132724
 20
-134.1950791331181
 30
0.0
 10
102.6986532132724
 20
-134.2502182997705
 30
0.0
 10
102.7434207121303
 20
-134.2949857997597
 30
0.0
 10
102.7985598773902
 20
-134.2949857997597
 30
0.0
 10
102.8536637648733
 20
-134.2949857997597
 30
0.0
 10
102.8984665415081
 20
-134.2502182997705
 30
0.0
 10
102.8984665415081
 20
-134.1950791331181
 30
0.0
  0
SPLINE
  5
43
330
1F
100
AcDbEntity
  8
_U+30EC_U+30A4_U+30E4_U+30FC 1
 62
   179
420
  2234388
370
     9
100
AcDbSpline
210
0.0
220
0.0
230
1.0
 70
    11
 71
     3
 72
    17
 73
    13
 74
     0
 42
0.0000000001
 43
0.0000000001
 12
1.0
 22
0.0
 32
0.0
 13
1.0
 23
0.0
 33
0.0
 40
0.0
 40
0.0
 40
0.0
 40
0.0
 40
1.0
 40
1.0
 40
1.0
 40
2.0
 40
2.0
 40
2.0
 40
3.0
 40
3.0
 40
3.0
 40
4.0
 40
4.0
 40
4.0
 40
4.0
 10
102.8984665415081
 20
-124.1946758022845
 30
0.0
 10
102.8984665415081
 20
-124.1395366356318
 30
0.0
 10
102.8536637648733
 20
-124.0950866356428
 30
0.0
 10
102.7985598773902
 20
-124.0950866356428
 30
0.0
 10
102.7434207121303
 20
-124.0950866356428
 30
0.0
 10
102.6986532132724
 20
-124.1395366356318
 30
0.0
 10
102.6986532132724
 20
-124.1946758022845
 30
0.0
 10
102.6986532132724
 20
-124.2497796911598
 30
0.0
 10
102.7434207121303
 20
-124.2945824689265
 30
0.0
 10
102.7985598773902
 20
-124.2945824689265
 30
0.0
 10
102.8536637648733
 20
-124.2945824689265
 30
0.0
 10
102.8984665415081
 20
-124.2497796911598
 30
0.0
 10
102.8984665415081
 20
-124.1946758022845
 30
0.0
  0
SPLINE
  5
44
330
1F
100
AcDbEntity
  8
_U+30EC_U+30A4_U+30E4_U+30FC 1
 62
   179
420
  2234388
370
     9
100
AcDbSpline
210
0.0
220
0.0
230
1.0
 70
    11
 71
     3
 72
    17
 73
    13
 74
     0
 42
0.0000000001
 43
0.0000000001
 12
1.0
 22
0.0
 32
0.0
 13
1.0
 23
0.0
 33
0.0
 40
0.0
 40
0.0
 40
0.0
 40
0.0
 40
1.0
 40
1.0
 40
1.0
 40
2.0
 40
2.0
 40
2.0
 40
3.0
 40
3.0
 40
3.0
 40
4.0
 40
4.0
 40
4.0
 40
4.0
 10
102.8984665415081
 20
-122.1947785805623
 30
0.0
 10
102.8984665415081
 20
-122.1396746916874
 30
0.0
 10
102.8536637648733
 20
-122.0952246916984
 30
0.0
 10
102.7985598773902
 20
-122.0952246916984
 30
0.0
 10
102.7434207121303
 20
-122.0952246916984
 30
0.0
 10
102.6986532132724
 20
-122.1396746916874
 30
0.0
 10
102.6986532132724
 20
-122.1947785805623
 30
0.0
 10
102.6986532132724
 20
-122.2499177472154
 30
0.0
 10
102.7434207121303
 20
-122.294685247204
 30
0.0
 10
102.7985598773902
 20
-122.294685247204
 30
0.0
 10
102.8536637648733
 20
-122.294685247204
 30
0.0
 10
102.8984665415081
 20
-122.2499177472154
 30
0.0
 10
102.8984665415081
 20
-122.1947785805623
 30
0.0
  0
SPLINE
  5
45
330
1F
100
AcDbEntity
  8
_U+30EC_U+30A4_U+30E4_U+30FC 1
 62
   179
420
  2234388
370
     9
100
AcDbSpline
210
0.0
220
0.0
230
1.0
 70
    11
 71
     3
 72
    17
 73
    13
 74
     0
 42
0.0000000001
 43
0.0000000001
 12
1.0
 22
0.0
 32
0.0
 13
1.0
 23
0.0
 33
0.0
 40
0.0
 40
0.0
 40
0.0
 40
0.0
 40
1.0
 40
1.0
 40
1.0
 40
2.0
 40
2.0
 40
2.0
 40
3.0
 40
3.0
 40
3.0
 40
4.0
 40
4.0
 40
4.0
 40
4.0
 10
100.4259177156992
 20
-139.1952807985342
 30
0.0
 10
100.4259177156992
 20
-139.1401769096593
 30
0.0
 10
100.3811149390644
 20
-139.0953741318926
 30
0.0
 10
100.3260110515813
 20
-139.0953741318926
 30
0.0
 10
100.2708718863214
 20
-139.0953741318926
 30
0.0
 10
100.2261043874635
 20
-139.1401769096593
 30
0.0
 10
100.2261043874635
 20
-139.1952807985342
 30
0.0
 10
100.2261043874635
 20
-139.2504199651873
 30
0.0
 10
100.2708718863214
 20
-139.2951874651765
 30
0.0
 10
100.3260110515813
 20
-139.2951874651765
 30
0.0
 10
100.3811149390644
 20
-139.2951874651765
 30
0.0
 10
100.4259177156992
 20
-139.2504199651873
 30
0.0
 10
100.4259177156992
 20
-139.1952807985342
 30
0.0
  0
SPLINE
  5
46
330
1F
100
AcDbEntity
  8
_U+30EC_U+30A4_U+30E4_U+30FC 1
 62
   179
420
  2234388
370
     9
100
AcDbSpline
210
0.0
220
0.0
230
1.0
 70
    11
 71
     3
 72
    17
 73
    13
 74
     0
 42
0.0000000001
 43
0.0000000001
 12
1.0
 22
0.0
 32
0.0
 13
1.0
 23
0.0
 33
0.0
 40
0.0
 40
0.0
 40
0.0
 40
0.0
 40
1.0
 40
1.0
 40
1.0
 40
2.0
 40
2.0
 40
2.0
 40
3.0
 40
3.0
 40
3.0
 40
4.0
 40
4.0
 40
4.0
 40
4.0
 10
75.42554502017848
 20
-139.1952807985342
 30
0.0
 10
75.42554502017848
 20
-139.1401769096593
 30
0.0
 10
75.38074224354372
 20
-139.0953741318926
 30
0.0
 10
75.32563835606064
 20
-139.0953741318926
 30
0.0
 10
75.27049919080069
 20
-139.0953741318926
 30
0.0
 10
75.22573169194281
 20
-139.1401769096593
 30
0.0
 10
75.22573169194281
 20
-139.1952807985342
 30
0.0
 10
75.22573169194281
 20
-139.2504199651873
 30
0.0
 10
75.27049919080069
 20
-139.2951874651765
 30
0.0
 10
75.32563835606064
 20
-139.2951874651765
 30
0.0
 10
75.38074224354372
 20
-139.2951874651765
 30
0.0
 10
75.42554502017848
 20
-139.2504199651873
 30
0.0
 10
75.42554502017848
 20
-139.1952807985342
 30
0.0
  0
SPLINE
  5
47
330
1F
100
AcDbEntity
  8
_U+30EC_U+30A4_U+30E4_U+30FC 1
 62
   179
420
  2234388
370
     9
100
AcDbSpline
210
0.0
220
0.0
230
1.0
 70
    11
 71
     3
 72
    17
 73
    13
 74
     0
 42
0.0000000001
 43
0.0000000001
 12
1.0
 22
0.0
 32
0.0
 13
1.0
 23
0.0
 33
0.0
 40
0.0
 40
0.0
 40
0.0
 40
0.0
 40
1.0
 40
1.0
 40
1.0
 40
2.0
 40
2.0
 40
2.0
 40
3.0
 40
3.0
 40
3.0
 40
4.0
 40
4.0
 40
4.0
 40
4.0
 10
93.92570510375563
 20
-119.7342946922887
 30
0.0
 10
93.92570510375563
 20
-119.6791555256356
 30
0.0
 10
93.88090232712086
 20
-119.6343880256471
 30
0.0
 10
93.8257984396378
 20
-119.6343880256471
 30
0.0
 10
93.77065927437785
 20
-119.6343880256471
 30
0.0
 10
93.72589177551995
 20
-119.6791555256356
 30
0.0
 10
93.72589177551995
 20
-119.7342946922887
 30
0.0
 10
93.72589177551995
 20
-119.7901041367192
 30
0.0
 10
93.77065927437785
 20
-119.8349069144859
 30
0.0
 10
93.8257984396378
 20
-119.8349069144859
 30
0.0
 10
93.88090232712086
 20
-119.8349069144859
 30
0.0
 10
93.92570510375563
 20
-119.7901041367192
 30
0.0
 10
93.92570510375563
 20
-119.7342946922887
 30
0.0
  0
SPLINE
  5
48
330
1F
100
AcDbEntity
  8
_U+30EC_U+30A4_U+30E4_U+30FC 1
 62
   179
420
  2234388
370
     9
100
AcDbSpline
210
0.0
220
0.0
230
1.0
 70
    11
 71
     3
 72
    17
 73
    13
 74
     0
 42
0.0000000001
 43
0.0000000001
 12
1.0
 22
0.0
 32
0.0
 13
1.0
 23
0.0
 33
0.0
 40
0.0
 40
0.0
 40
0.0
 40
0.0
 40
1.0
 40
1.0
 40
1.0
 40
2.0
 40
2.0
 40
2.0
 40
3.0
 40
3.0
 40
3.0
 40
4.0
 40
4.0
 40
4.0
 40
4.0
 10
81.92575763212201
 20
-119.7342946922887
 30
0.0
 10
81.92575763212201
 20
-119.6791555256356
 30
0.0
 10
81.88095485548725
 20
-119.6343880256471
 30
0.0
 10
81.82585096800418
 20
-119.6343880256471
 30
0.0
 10
81.77071386844628
 20
-119.6343880256471
 30
0.0
 10
81.72594430388635
 20
-119.6791555256356
 30
0.0
 10
81.72594430388635
 20
-119.7342946922887
 30
0.0
 10
81.72594430388635
 20
-119.7901041367192
 30
0.0
 10
81.77071386844628
 20
-119.8349069144859
 30
0.0
 10
81.82585096800418
 20
-119.8349069144859
 30
0.0
 10
81.88095485548725
 20
-119.8349069144859
 30
0.0
 10
81.92575763212201
 20
-119.7901041367192
 30
0.0
 10
81.92575763212201
 20
-119.7342946922887
 30
0.0
  0
POLYLINE
  5
49
330
1F
100
AcDbEntity
  8
_U+30EC_U+30A4_U+30E4_U+30FC 1
 62
   179
420
  2234388
370
     9
100
AcDb2dPolyline
 66
     1
 10
0.0
 20
0.0
 30
0.0
  0
VERTEX
  5
4A
330
49
100
AcDbEntity
  8
_U+30EC_U+30A4_U+30E4_U+30FC 1
 62
   179
420
  2234388
370
     9
100
AcDbVertex
100
AcDb2dVertex
 10
102.7985598773902
 20
-135.1962271884229
 30
0.0
  0
VERTEX
  5
4B
330
49
100
AcDbEntity
  8
_U+30EC_U+30A4_U+30E4_U+30FC 1
 62
   179
420
  2234388
370
     9
100
AcDbVertex
100
AcDb2dVertex
 10
102.7985598773902
 20
-122.196507191673
 30
0.0
  0
SEQEND
  5
4C
330
49
100
AcDbEntity
  8
_U+30EC_U+30A4_U+30E4_U+30FC 1
 62
   179
420
  2234388
370
     9
  0
POLYLINE
  5
4D
330
1F
100
AcDbEntity
  8
_U+30EC_U+30A4_U+30E4_U+30FC 1
 62
   179
420
  2234388
370
     9
100
AcDb2dPolyline
 66
     1
 10
0.0
 20
0.0
 30
0.0
  0
VERTEX
  5
4E
330
4D
100
AcDbEntity
  8
_U+30EC_U+30A4_U+30E4_U+30FC 1
 62
   179
420
  2234388
370
     9
100
AcDbVertex
100
AcDb2dVertex
 10
101.3385185257501
 20
-135.19485135509
 30
0.0
  0
VERTEX
  5
4F
330
4D
100
AcDbEntity
  8
_U+30EC_U+30A4_U+30E4_U+30FC 1
 62
   179
420
  2234388
370
     9
100
AcDbVertex
100
AcDb2dVertex
 10
103.7990023518668
 20
-135.19485135509
 30
0.0
  0
SEQEND
  5
50
330
4D
100
AcDbEntity
  8
_U+30EC_U+30A4_U+30E4_U+30FC 1
 62
   179
420
  2234388
370
     9
  0
POLYLINE
  5
51
330
1F
100
AcDbEntity
  8
_U+30EC_U+30A4_U+30E4_U+30FC 1
 62
   179
420
  2234388
370
     9
100
AcDb2dPolyline
 66
     1
 10
0.0
 20
0.0
 30
0.0
  0
VERTEX
  5
52
330
51
100
AcDbEntity
  8
_U+30EC_U+30A4_U+30E4_U+30FC 1
 62
   179
420
  2234388
370
     9
100
AcDbVertex
100
AcDb2dVertex
 10
101.3385185257501
 20
-134.1950791331181
 30
0.0
  0
VERTEX
  5
53
330
51
100
AcDbEntity
  8
_U+30EC_U+30A4_U+30E4_U+30FC 1
 62
   179
420
  2234388
370
     9
100
AcDbVertex
100
AcDb2dVertex
 10
103.7990023518668
 20
-134.1950791331181
 30
0.0
  0
SEQEND
  5
54
330
51
100
AcDbEntity
  8
_U+30EC_U+30A4_U+30E4_U+30FC 1
 62
   179
420
  2234388
370
     9
  0
POLYLINE
  5
55
330
1F
100
AcDbEntity
  8
_U+30EC_U+30A4_U+30E4_U+30FC 1
 62
   179
420
  2234388
370
     9
100
AcDb2dPolyline
 66
     1
 10
0.0
 20
0.0
 30
0.0
  0
VERTEX
  5
56
330
55
100
AcDbEntity
  8
_U+30EC_U+30A4_U+30E4_U+30FC 1
 62
   179
420
  2234388
370
     9
100
AcDbVertex
100
AcDb2dVertex
 10
97.33840668335702
 20
-124.1946758022845
 30
0.0
  0
VERTEX
  5
57
330
55
100
AcDbEntity
  8
_U+30EC_U+30A4_U+30E4_U+30FC 1
 62
   179
420
  2234388
370
     9
100
AcDbVertex
100
AcDb2dVertex
 10
103.7990023518668
 20
-124.1946758022845
 30
0.0
  0
SEQEND
  5
58
330
55
100
AcDbEntity
  8
_U+30EC_U+30A4_U+30E4_U+30FC 1
 62
   179
420
  2234388
370
     9
  0
POLYLINE
  5
59
330
1F
100
AcDbEntity
  8
_U+30EC_U+30A4_U+30E4_U+30FC 1
 62
   179
420
  2234388
370
     9
100
AcDb2dPolyline
 66
     1
 10
0.0
 20
0.0
 30
0.0
  0
VERTEX
  5
5A
330
59
100
AcDbEntity
  8
_U+30EC_U+30A4_U+30E4_U+30FC 1
 62
   179
420
  2234388
370
     9
100
AcDbVertex
100
AcDb2dVertex
 10
97.33840668335702
 20
-122.1947785805623
 30
0.0
  0
VERTEX
  5
5B
330
59
100
AcDbEntity
  8
_U+30EC_U+30A4_U+30E4_U+30FC 1
 62
   179
420
  2234388
370
     9
100
AcDbVertex
100
AcDb2dVertex
 10
103.7990023518668
 20
-122.1947785805623
 30
0.0
  0
SEQEND
  5
5C
330
59
100
AcDbEntity
  8
_U+30EC_U+30A4_U+30E4_U+30FC 1
 62
   179
420
  2234388
370
     9
  0
INSERT
  5
5E
330
1F
100
AcDbEntity
  8
_U+30EC_U+30A4_U+30E4_U+30FC 1
100
AcDbBlockReference
  2
block 2
 10
0.0
 20
0.0
 30
0.0
  0
INSERT
  5
64
330
1F
100
AcDbEntity
  8
_U+30EC_U+30A4_U+30E4_U+30FC 1
100
AcDbBlockReference
  2
block 3
 10
0.0
 20
0.0
 30
0.0
  0
INSERT
  5
6D
330
1F
100
AcDbEntity
  8
_U+30EC_U+30A4_U+30E4_U+30FC 1
100
AcDbBlockReference
  2
block 4
 10
0.0
 20
0.0
 30
0.0
  0
POLYLINE
  5
72
330
1F
100
AcDbEntity
  8
_U+30EC_U+30A4_U+30E4_U+30FC 1
 62
   179
420
  2234388
370
     9
100
AcDb2dPolyline
 66
     1
 10
0.0
 20
0.0
 30
0.0
  0
VERTEX
  5
73
330
72
100
AcDbEntity
  8
_U+30EC_U+30A4_U+30E4_U+30FC 1
 62
   179
420
  2234388
370
     9
100
AcDbVertex
100
AcDb2dVertex
 10
75.32563835606064
 20
-139.1952807985342
 30
0.0
  0
VERTEX
  5
74
330
72
100
AcDbEntity
  8
_U+30EC_U+30A4_U+30E4_U+30FC 1
 62
   179
420
  2234388
370
     9
100
AcDbVertex
100
AcDb2dVertex
 10
100.3260110515813
 20
-139.1952807985342
 30
0.0
  0
SEQEND
  5
75
330
72
100
AcDbEntity
  8
_U+30EC_U+30A4_U+30E4_U+30FC 1
 62
   179
420
  2234388
370
     9
  0
POLYLINE
  5
76
330
1F
100
AcDbEntity
  8
_U+30EC_U+30A4_U+30E4_U+30FC 1
 62
   179
420
  2234388
370
     9
100
AcDb2dPolyline
 66
     1
 10
0.0
 20
0.0
 30
0.0
  0
VERTEX
  5
77
330
76
100
AcDbEntity
  8
_U+30EC_U+30A4_U+30E4_U+30FC 1
 62
   179
420
  2234388
370
     9
100
AcDbVertex
100
AcDb2dVertex
 10
75.32563835606064
 20
-137.7352746877887
 30
0.0
  0
VERTEX
  5
78
330
76
100
AcDbEntity
  8
_U+30EC_U+30A4_U+30E4_U+30FC 1
 62
   179
420
  2234388
370
     9
100
AcDbVertex
100
AcDb2dVertex
 10
75.32563835606064
 20
-140.1950530205068
 30
0.0
  0
SEQEND
  5
79
330
76
100
AcDbEntity
  8
_U+30EC_U+30A4_U+30E4_U+30FC 1
 62
   179
420
  2234388
370
     9
  0
POLYLINE
  5
7A
330
1F
100
AcDbEntity
  8
_U+30EC_U+30A4_U+30E4_U+30FC 1
 62
   179
420
  2234388
370
     9
100
AcDb2dPolyline
 66
     1
 10
0.0
 20
0.0
 30
0.0
  0
VERTEX
  5
7B
330
7A
100
AcDbEntity
  8
_U+30EC_U+30A4_U+30E4_U+30FC 1
 62
   179
420
  2234388
370
     9
100
AcDbVertex
100
AcDb2dVertex
 10
100.3260110515813
 20
-137.7352746877887
 30
0.0
  0
VERTEX
  5
7C
330
7A
100
AcDbEntity
  8
_U+30EC_U+30A4_U+30E4_U+30FC 1
 62
   179
420
  2234388
370
     9
100
AcDbVertex
100
AcDb2dVertex
 10
100.3260110515813
 20
-140.1950530205068
 30
0.0
  0
SEQEND
  5
7D
330
7A
100
AcDbEntity
  8
_U+30EC_U+30A4_U+30E4_U+30FC 1
 62
   179
420
  2234388
370
     9
  0
INSERT
  5
7F
330
1F
100
AcDbEntity
  8
_U+30EC_U+30A4_U+30E4_U+30FC 1
100
AcDbBlockReference
  2
block 5
 10
0.0
 20
0.0
 30
0.0
  0
POLYLINE
  5
86
330
1F
100
AcDbEntity
  8
_U+30EC_U+30A4_U+30E4_U+30FC 1
 62
   179
420
  2234388
370
     9
100
AcDb2dPolyline
 66
     1
 10
0.0
 20
0.0
 30
0.0
  0
VERTEX
  5
87
330
86
100
AcDbEntity
  8
_U+30EC_U+30A4_U+30E4_U+30FC 1
 62
   179
420
  2234388
370
     9
100
AcDbVertex
100
AcDb2dVertex
 10
93.8257984396378
 20
-119.7342946922887
 30
0.0
  0
VERTEX
  5
88
330
86
100
AcDbEntity
  8
_U+30EC_U+30A4_U+30E4_U+30FC 1
 62
   179
420
  2234388
370
     9
100
AcDbVertex
100
AcDb2dVertex
 10
81.82585096800418
 20
-119.7342946922887
 30
0.0
  0
SEQEND
  5
89
330
86
100
AcDbEntity
  8
_U+30EC_U+30A4_U+30E4_U+30FC 1
 62
   179
420
  2234388
370
     9
  0
POLYLINE
  5
8A
330
1F
100
AcDbEntity
  8
_U+30EC_U+30A4_U+30E4_U+30FC 1
 62
   179
420
  2234388
370
     9
100
AcDb2dPolyline
 66
     1
 10
0.0
 20
0.0
 30
0.0
  0
VERTEX
  5
8B
330
8A
100
AcDbEntity
  8
_U+30EC_U+30A4_U+30E4_U+30FC 1
 62
   179
420
  2234388
370
     9
100
AcDbVertex
100
AcDb2dVertex
 10
93.8257984396378
 20
-121.1946535808123
 30
0.0
  0
VERTEX
  5
8C
330
8A
100
AcDbEntity
  8
_U+30EC_U+30A4_U+30E4_U+30FC 1
 62
   179
420
  2234388
370
     9
100
AcDbVertex
100
AcDb2dVertex
 10
93.8257984396378
 20
-118.7345224703165
 30
0.0
  0
SEQEND
  5
8D
330
8A
100
AcDbEntity
  8
_U+30EC_U+30A4_U+30E4_U+30FC 1
 62
   179
420
  2234388
370
     9
  0
POLYLINE
  5
8E
330
1F
100
AcDbEntity
  8
_U+30EC_U+30A4_U+30E4_U+30FC 1
 62
   179
420
  2234388
370
     9
100
AcDb2dPolyline
 66
     1
 10
0.0
 20
0.0
 30
0.0
  0
VERTEX
  5
8F
330
8E
100
AcDbEntity
  8
_U+30EC_U+30A4_U+30E4_U+30FC 1
 62
   179
420
  2234388
370
     9
100
AcDbVertex
100
AcDb2dVertex
 10
81.82585096800418
 20
-121.1946535808123
 30
0.0
  0
VERTEX
  5
90
330
8E
100
AcDbEntity
  8
_U+30EC_U+30A4_U+30E4_U+30FC 1
 62
   179
420
  2234388
370
     9
100
AcDbVertex
100
AcDb2dVertex
 10
81.82585096800418
 20
-118.7345224703165
 30
0.0
  0
SEQEND
  5
91
330
8E
100
AcDbEntity
  8
_U+30EC_U+30A4_U+30E4_U+30FC 1
 62
   179
420
  2234388
370
     9
  0
INSERT
  5
93
330
1F
100
AcDbEntity
  8
_U+30EC_U+30A4_U+30E4_U+30FC 1
100
AcDbBlockReference
  2
block 6
 10
0.0
 20
0.0
 30
0.0
  0
POLYLINE
  5
9A
330
1F
100
AcDbEntity
  8
_U+30EC_U+30A4_U+30E4_U+30FC 1
 62
   179
420
  2234388
370
    25
100
AcDb2dPolyline
 66
     1
 10
0.0
 20
0.0
 30
0.0
  0
VERTEX
  5
9B
330
9A
100
AcDbEntity
  8
_U+30EC_U+30A4_U+30E4_U+30FC 1
 62
   179
420
  2234388
370
    25
100
AcDbVertex
100
AcDb2dVertex
 10
75.32045252285961
 20
-134.1950791331181
 30
0.0
  0
VERTEX
  5
9C
330
9A
100
AcDbEntity
  8
_U+30EC_U+30A4_U+30E4_U+30FC 1
 62
   179
420
  2234388
370
    25
100
AcDbVertex
100
AcDb2dVertex
 10
87.32558582769425
 20
-134.1950791331181
 30
0.0
  0
VERTEX
  5
9D
330
9A
100
AcDbEntity
  8
_U+30EC_U+30A4_U+30E4_U+30FC 1
 62
   179
420
  2234388
370
    25
100
AcDbVertex
100
AcDb2dVertex
 10
87.32558582769425
 20
-123.1949035803123
 30
0.0
  0
VERTEX
  5
9E
330
9A
100
AcDbEntity
  8
_U+30EC_U+30A4_U+30E4_U+30FC 1
 62
   179
420
  2234388
370
    25
100
AcDbVertex
100
AcDb2dVertex
 10
82.82562316472008
 20
-123.1949035803123
 30
0.0
  0
VERTEX
  5
9F
330
9A
100
AcDbEntity
  8
_U+30EC_U+30A4_U+30E4_U+30FC 1
 62
   179
420
  2234388
370
    25
100
AcDbVertex
100
AcDb2dVertex
 10
82.82562316472008
 20
-124.1946758022845
 30
0.0
  0
VERTEX
  5
A0
330
9A
100
AcDbEntity
  8
_U+30EC_U+30A4_U+30E4_U+30FC 1
 62
   179
420
  2234388
370
    25
100
AcDbVertex
100
AcDb2dVertex
 10
81.82585096800418
 20
-124.1946758022845
 30
0.0
  0
VERTEX
  5
A1
330
9A
100
AcDbEntity
  8
_U+30EC_U+30A4_U+30E4_U+30FC 1
 62
   179
420
  2234388
370
    25
100
AcDbVertex
100
AcDb2dVertex
 10
81.82585096800418
 20
-122.1947785805623
 30
0.0
  0
VERTEX
  5
A2
330
9A
100
AcDbEntity
  8
_U+30EC_U+30A4_U+30E4_U+30FC 1
 62
   179
420
  2234388
370
    25
100
AcDbVertex
100
AcDb2dVertex
 10
93.8257984396378
 20
-122.1947785805623
 30
0.0
  0
VERTEX
  5
A3
330
9A
100
AcDbEntity
  8
_U+30EC_U+30A4_U+30E4_U+30FC 1
 62
   179
420
  2234388
370
    25
100
AcDbVertex
100
AcDb2dVertex
 10
93.8257984396378
 20
-124.1946758022845
 30
0.0
  0
VERTEX
  5
A4
330
9A
100
AcDbEntity
  8
_U+30EC_U+30A4_U+30E4_U+30FC 1
 62
   179
420
  2234388
370
    25
100
AcDbVertex
100
AcDb2dVertex
 10
92.82535831012714
 20
-124.1946758022845
 30
0.0
  0
VERTEX
  5
A5
330
9A
100
AcDbEntity
  8
_U+30EC_U+30A4_U+30E4_U+30FC 1
 62
   179
420
  2234388
370
    25
100
AcDbVertex
100
AcDb2dVertex
 10
92.82535831012714
 20
-123.1949035803123
 30
0.0
  0
VERTEX
  5
A6
330
9A
100
AcDbEntity
  8
_U+30EC_U+30A4_U+30E4_U+30FC 1
 62
   179
420
  2234388
370
    25
100
AcDbVertex
100
AcDb2dVertex
 10
88.32535802441016
 20
-123.1949035803123
 30
0.0
  0
VERTEX
  5
A7
330
9A
100
AcDbEntity
  8
_U+30EC_U+30A4_U+30E4_U+30FC 1
 62
   179
420
  2234388
370
    25
100
AcDbVertex
100
AcDb2dVertex
 10
88.32535802441016
 20
-134.1950791331181
 30
0.0
  0
VERTEX
  5
A8
330
9A
100
AcDbEntity
  8
_U+30EC_U+30A4_U+30E4_U+30FC 1
 62
   179
420
  2234388
370
    25
100
AcDbVertex
100
AcDb2dVertex
 10
100.3304913292448
 20
-134.1950791331181
 30
0.0
  0
VERTEX
  5
A9
330
9A
100
AcDbEntity
  8
_U+30EC_U+30A4_U+30E4_U+30FC 1
 62
   179
420
  2234388
370
    25
100
AcDbVertex
100
AcDb2dVertex
 10
100.3304913292448
 20
-135.19485135509
 30
0.0
  0
VERTEX
  5
AA
330
9A
100
AcDbEntity
  8
_U+30EC_U+30A4_U+30E4_U+30FC 1
 62
   179
420
  2234388
370
    25
100
AcDbVertex
100
AcDb2dVertex
 10
75.32045252285961
 20
-135.19485135509
 30
0.0
  0
VERTEX
  5
AB
330
9A
100
AcDbEntity
  8
_U+30EC_U+30A4_U+30E4_U+30FC 1
 62
   179
420
  2234388
370
    25
100
AcDbVertex
100
AcDb2dVertex
 10
75.32045252285961
 20
-134.1950791331181
 30
0.0
  0
SEQEND
  5
AD
330
9A
100
AcDbEntity
  8
_U+30EC_U+30A4_U+30E4_U+30FC 1
 62
   179
420
  2234388
370
    25
  0
HATCH
  5
AC
330
1F
100
AcDbEntity
  8
_U+30EC_U+30A4_U+30E4_U+30FC 1
 62
     9
420
 13224394
100
AcDbHatch
 10
0.0
 20
0.0
 30
0.0
210
0.0
220
0.0
230
1.0
  2
SOLID
 70
     1
 71
     0
 91
        1
 92
        1
 93
       16
 72
     1
 10
75.32045252285961
 20
-134.1950791331181
 11
87.32558582769425
 21
-134.1950791331181
 72
     1
 10
87.32558582769425
 20
-134.1950791331181
 11
87.32558582769425
 21
-123.1949035803123
 72
     1
 10
87.32558582769425
 20
-123.1949035803123
 11
82.82562316472008
 21
-123.1949035803123
 72
     1
 10
82.82562316472008
 20
-123.1949035803123
 11
82.82562316472008
 21
-124.1946758022845
 72
     1
 10
82.82562316472008
 20
-124.1946758022845
 11
81.82585096800418
 21
-124.1946758022845
 72
     1
 10
81.82585096800418
 20
-124.1946758022845
 11
81.82585096800418
 21
-122.1947785805623
 72
     1
 10
81.82585096800418
 20
-122.1947785805623
 11
93.8257984396378
 21
-122.1947785805623
 72
     1
 10
93.8257984396378
 20
-122.1947785805623
 11
93.8257984396378
 21
-124.1946758022845
 72
     1
 10
93.8257984396378
 20
-124.1946758022845
 11
92.82535831012714
 21
-124.1946758022845
 72
     1
 10
92.82535831012714
 20
-124.1946758022845
 11
92.82535831012714
 21
-123.1949035803123
 72
     1
 10
92.82535831012714
 20
-123.1949035803123
 11
88.32535802441016
 21
-123.1949035803123
 72
     1
 10
88.32535802441016
 20
-123.1949035803123
 11
88.32535802441016
 21
-134.1950791331181
 72
     1
 10
88.32535802441016
 20
-134.1950791331181
 11
100.3304913292448
 21
-134.1950791331181
 72
     1
 10
100.3304913292448
 20
-134.1950791331181
 11
100.3304913292448
 21
-135.19485135509
 72
     1
 10
100.3304913292448
 20
-135.19485135509
 11
75.32045252285961
 21
-135.19485135509
 72
     1
 10
75.32045252285961
 20
-135.19485135509
 11
75.32045252285961
 21
-134.1950791331181
 97
        0
 75
     2
 76
     1
 98
        0
  0
ENDSEC
  0
SECTION
  2
OBJECTS
  0
DICTIONARY
  5
C
330
0
100
AcDbDictionary
281
     1
  3
ACAD_GROUP
350
D
  3
ACAD_LAYOUT
350
1A
  3
ACAD_MATERIAL
350
3B
  3
ACAD_MLEADERSTYLE
350
AF
  3
ACAD_MLINESTYLE
350
17
  3
ACAD_PLOTSETTINGS
350
19
  3
ACAD_PLOTSTYLENAME
350
E
  3
ACAD_TABLESTYLE
350
AE
  3
ACAD_VISUALSTYLE
350
2A
  0
SUN
  5
3F
330
29
100
AcDbSun
 90
        1
290
     0
 63
     7
421
 16777215
 40
1.0
291
     1
 91
  2455826
 92
 54000000
292
     0
 70
     2
 71
   256
280
     1
  0
DICTIONARY
  5
D
102
{ACAD_REACTORS
330
C
102
}
330
C
100
AcDbDictionary
281
     1
  0
DICTIONARY
  5
1A
102
{ACAD_REACTORS
330
C
102
}
330
C
100
AcDbDictionary
281
     1
  3
Layout1
350
1E
  3
Layout2
350
26
  3
Model
350
22
  0
DICTIONARY
  5
3B
102
{ACAD_REACTORS
330
C
102
}
330
C
100
AcDbDictionary
281
     1
  3
ByBlock
350
3D
  3
ByLayer
350
3C
  3
Global
350
3E
  0
DICTIONARY
  5
AF
102
{ACAD_REACTORS
330
C
102
}
330
C
100
AcDbDictionary
281
     1
  0
DICTIONARY
  5
17
102
{ACAD_REACTORS
330
C
102
}
330
C
100
AcDbDictionary
281
     1
  3
Standard
350
18
  0
DICTIONARY
  5
19
102
{ACAD_REACTORS
330
C
102
}
330
C
100
AcDbDictionary
281
     1
  0
ACDBDICTIONARYWDFLT
  5
E
102
{ACAD_REACTORS
330
C
102
}
330
C
100
AcDbDictionary
281
     1
  3
Normal
350
F
100
AcDbDictionaryWithDefault
340
F
  0
DICTIONARY
  5
AE
102
{ACAD_REACTORS
330
C
102
}
330
C
100
AcDbDictionary
281
     1
  0
DICTIONARY
  5
2A
102
{ACAD_REACTORS
330
C
102
}
330
C
100
AcDbDictionary
281
     1
  3
2dWireframe
350
2F
  3
3D Hidden
350
31
  3
3dWireframe
350
30
  3
Basic
350
32
  3
Brighten
350
36
  3
ColorChange
350
3A
  3
Conceptual
350
34
  3
Dim
350
35
  3
Facepattern
350
39
  3
Flat
350
2B
  3
FlatWithEdges
350
2C
  3
Gouraud
350
2D
  3
GouraudWithEdges
350
2E
  3
Linepattern
350
38
  3
Realistic
350
33
  3
Thicken
350
37
  0
LAYOUT
  5
1E
102
{ACAD_REACTORS
330
1A
102
}
330
1A
100
AcDbPlotSettings
  1

  2
none_device
  4

  6

 40
0.0
 41
0.0
 42
0.0
 43
0.0
 44
0.0
 45
0.0
 46
0.0
 47
0.0
 48
0.0
 49
0.0
140
0.0
141
0.0
142
1.0
143
1.0
 70
   688
 72
     0
 73
     0
 74
     5
  7

 75
    16
 76
     0
 77
     2
 78
   300
147
1.0
148
0.0
149
0.0
100
AcDbLayout
  1
Layout1
 70
     1
 71
     1
 10
0.0
 20
0.0
 11
12.0
 21
9.0
 12
0.0
 22
0.0
 32
0.0
 14
1.000000000000000E+20
 24
1.000000000000000E+20
 34
1.000000000000000E+20
 15
-1.000000000000000E+20
 25
-1.000000000000000E+20
 35
-1.000000000000000E+20
146
0.0
 13
0.0
 23
0.0
 33
0.0
 16
1.0
 26
0.0
 36
0.0
 17
0.0
 27
1.0
 37
0.0
 76
     0
330
1B
  0
LAYOUT
  5
26
102
{ACAD_REACTORS
330
1A
102
}
330
1A
100
AcDbPlotSettings
  1

  2
none_device
  4

  6

 40
0.0
 41
0.0
 42
0.0
 43
0.0
 44
0.0
 45
0.0
 46
0.0
 47
0.0
 48
0.0
 49
0.0
140
0.0
141
0.0
142
1.0
143
1.0
 70
   688
 72
     0
 73
     0
 74
     5
  7

 75
    16
 76
     0
 77
     2
 78
   300
147
1.0
148
0.0
149
0.0
100
AcDbLayout
  1
Layout2
 70
     1
 71
     2
 10
0.0
 20
0.0
 11
0.0
 21
0.0
 12
0.0
 22
0.0
 32
0.0
 14
0.0
 24
0.0
 34
0.0
 15
0.0
 25
0.0
 35
0.0
146
0.0
 13
0.0
 23
0.0
 33
0.0
 16
1.0
 26
0.0
 36
0.0
 17
0.0
 27
1.0
 37
0.0
 76
     0
330
23
  0
LAYOUT
  5
22
102
{ACAD_REACTORS
330
1A
102
}
330
1A
100
AcDbPlotSettings
  1

  2
none_device
  4

  6

 40
0.0
 41
0.0
 42
0.0
 43
0.0
 44
0.0
 45
0.0
 46
0.0
 47
0.0
 48
0.0
 49
0.0
140
0.0
141
0.0
142
1.0
143
1.0
 70
  1712
 72
     0
 73
     0
 74
     0
  7

 75
     0
 76
     0
 77
     2
 78
   300
147
1.0
148
0.0
149
0.0
100
AcDbLayout
  1
Model
 70
     1
 71
     0
 10
0.0
 20
0.0
 11
12.0
 21
9.0
 12
0.0
 22
0.0
 32
0.0
 14
1.000000000000000E+20
 24
1.000000000000000E+20
 34
1.000000000000000E+20
 15
-1.000000000000000E+20
 25
-1.000000000000000E+20
 35
-1.000000000000000E+20
146
0.0
 13
0.0
 23
0.0
 33
0.0
 16
1.0
 26
0.0
 36
0.0
 17
0.0
 27
1.0
 37
0.0
 76
     0
330
1F
331
29
  0
MATERIAL
  5
3D
102
{ACAD_REACTORS
330
3B
102
}
330
3B
100
AcDbMaterial
  1
ByBlock
 72
     1
 94
      127
  0
MATERIAL
  5
3C
102
{ACAD_REACTORS
330
3B
102
}
330
3B
100
AcDbMaterial
  1
ByLayer
 72
     1
 94
      127
  0
MATERIAL
  5
3E
102
{ACAD_REACTORS
330
3B
102
}
330
3B
100
AcDbMaterial
  1
Global
 72
     1
 94
      127
  0
MLINESTYLE
  5
18
102
{ACAD_REACTORS
330
17
102
}
330
17
100
AcDbMlineStyle
  2
Standard
 70
     0
  3

 62
   256
 51
90.0
 52
90.0
 71
     2
 49
0.5
 62
   256
  6
BYLAYER
 49
-0.5
 62
   256
  6
BYLAYER
  0
ACDBPLACEHOLDER
  5
F
102
{ACAD_REACTORS
330
E
102
}
330
E
  0
VISUALSTYLE
  5
2F
102
{ACAD_REACTORS
330
2A
102
}
330
2A
100
AcDbVisualStyle
  2
2dWireframe
 70
     4
177
     2
291
     0
 71
     0
176
     1
 72
     2
176
     1
 73
     0
176
     1
 90
        0
176
     1
 40
-0.6
176
     1
 41
-30.0
176
     1
 62
     5
 63
     7
421
 16777215
176
     1
 74
     1
176
     1
 91
        4
176
     1
 64
     7
176
     1
 65
   257
176
     1
 75
     1
176
     1
175
     1
176
     1
 42
1.0
176
     1
 92
        0
176
     1
 66
   257
176
     1
 43
1.0
176
     1
 76
     1
176
     1
 77
     6
176
     1
 78
     2
176
     1
 67
     7
176
     1
 79
     5
176
     1
170
     0
176
     1
171
     0
176
     1
290
     0
176
     1
 93
        1
176
     1
 44
0.0
176
     1
173
     0
176
     1
  0
VISUALSTYLE
  5
31
102
{ACAD_REACTORS
330
2A
102
}
330
2A
100
AcDbVisualStyle
  2
3D Hidden
 70
     6
177
     2
291
     0
 71
     1
176
     1
 72
     2
176
     1
 73
     2
176
     1
 90
        0
176
     1
 40
-0.6
176
     1
 41
-30.0
176
     1
 62
     5
 63
     7
421
 16777215
176
     1
 74
     2
176
     1
 91
        2
176
     1
 64
     7
176
     1
 65
   257
176
     1
 75
     2
176
     1
175
     1
176
     1
 42
40.0
176
     1
 92
        0
176
     1
 66
   257
176
     1
 43
1.0
176
     1
 76
     1
176
     1
 77
     6
176
     1
 78
     2
176
     1
 67
     7
176
     1
 79
     3
176
     1
170
     0
176
     1
171
     0
176
     1
290
     0
176
     1
 93
        1
176
     1
 44
0.0
176
     1
173
     0
176
     1
  0
VISUALSTYLE
  5
30
102
{ACAD_REACTORS
330
2A
102
}
330
2A
100
AcDbVisualStyle
  2
3dWireframe
 70
     5
177
     2
291
     0
 71
     0
176
     1
 72
     2
176
     1
 73
     0
176
     1
 90
        0
176
     1
 40
-0.6
176
     1
 41
-30.0
176
     1
 62
     5
 63
     7
421
 16777215
176
     1
 74
     1
176
     1
 91
        4
176
     1
 64
     7
176
     1
 65
   257
176
     1
 75
     1
176
     1
175
     1
176
     1
 42
1.0
176
     1
 92
        0
176
     1
 66
   257
176
     1
 43
1.0
176
     1
 76
     1
176
     1
 77
     6
176
     1
 78
     2
176
     1
 67
     7
176
     1
 79
     5
176
     1
170
     0
176
     1
171
     0
176
     1
290
     0
176
     1
 93
        1
176
     1
 44
0.0
176
     1
173
     0
176
     1
  0
VISUALSTYLE
  5
32
102
{ACAD_REACTORS
330
2A
102
}
330
2A
100
AcDbVisualStyle
  2
Basic
 70
     7
177
     2
291
     1
 71
     1
176
     1
 72
     0
176
     1
 73
     1
176
     1
 90
        0
176
     1
 40
-0.6
176
     1
 41
-30.0
176
     1
 62
     5
 63
     7
421
 16777215
176
     1
 74
     0
176
     1
 91
        4
176
     1
 64
     7
176
     1
 65
   257
176
     1
 75
     1
176
     1
175
     1
176
     1
 42
1.0
176
     1
 92
        8
176
     1
 66
     7
176
     1
 43
1.0
176
     1
 76
     1
176
     1
 77
     6
176
     1
 78
     2
176
     1
 67
     7
176
     1
 79
     5
176
     1
170
     0
176
     1
171
     0
176
     1
290
     0
176
     1
 93
        1
176
     1
 44
0.0
176
     1
173
     0
176
     1
  0
VISUALSTYLE
  5
36
102
{ACAD_REACTORS
330
2A
102
}
330
2A
100
AcDbVisualStyle
  2
Brighten
 70
    12
177
     2
291
     1
 71
     2
176
     1
 72
     2
176
     1
 73
     0
176
     1
 90
        0
176
     1
 40
-0.6
176
     1
 41
-30.0
176
     1
 62
     5
 63
     7
421
 16777215
176
     1
 74
     1
176
     1
 91
        4
176
     1
 64
     7
176
     1
 65
   257
176
     1
 75
     1
176
     1
175
     1
176
     1
 42
1.0
176
     1
 92
        8
176
     1
 66
     7
176
     1
 43
1.0
176
     1
 76
     1
176
     1
 77
     6
176
     1
 78
     2
176
     1
 67
     7
176
     1
 79
     5
176
     1
170
     0
176
     1
171
     0
176
     1
290
     0
176
     1
 93
        1
176
     1
 44
50.0
176
     1
173
     0
176
     1
  0
VISUALSTYLE
  5
3A
102
{ACAD_REACTORS
330
2A
102
}
330
2A
100
AcDbVisualStyle
  2
ColorChange
 70
    16
177
     2
291
     1
 71
     2
176
     1
 72
     2
176
     1
 73
     3
176
     1
 90
        0
176
     1
 40
-0.6
176
     1
 41
-30.0
176
     1
 62
     5
 63
     8
421
  8421504
176
     1
 74
     1
176
     1
 91
        4
176
     1
 64
     7
176
     1
 65
   257
176
     1
 75
     1
176
     1
175
     1
176
     1
 42
1.0
176
     1
 92
        8
176
     1
 66
     8
424
  8421504
176
     1
 43
1.0
176
     1
 76
     1
176
     1
 77
     6
176
     1
 78
     2
176
     1
 67
     7
176
     1
 79
     5
176
     1
170
     0
176
     1
171
     0
176
     1
290
     0
176
     1
 93
        1
176
     1
 44
0.0
176
     1
173
     0
176
     1
  0
VISUALSTYLE
  5
34
102
{ACAD_REACTORS
330
2A
102
}
330
2A
100
AcDbVisualStyle
  2
Conceptual
 70
     9
177
     2
291
     0
 71
     3
176
     1
 72
     2
176
     1
 73
     0
176
     1
 90
        0
176
     1
 40
-0.6
176
     1
 41
-30.0
176
     1
 62
     5
 63
     7
421
 16777215
176
     1
 74
     2
176
     1
 91
        2
176
     1
 64
     7
176
     1
 65
   257
176
     1
 75
     1
176
     1
175
     1
176
     1
 42
40.0
176
     1
 92
        8
176
     1
 66
     7
176
     1
 43
1.0
176
     1
 76
     1
176
     1
 77
     6
176
     1
 78
     2
176
     1
 67
     7
176
     1
 79
     3
176
     1
170
     0
176
     1
171
     0
176
     1
290
     0
176
     1
 93
        1
176
     1
 44
0.0
176
     1
173
     0
176
     1
  0
VISUALSTYLE
  5
35
102
{ACAD_REACTORS
330
2A
102
}
330
2A
100
AcDbVisualStyle
  2
Dim
 70
    11
177
     2
291
     1
 71
     2
176
     1
 72
     2
176
     1
 73
     0
176
     1
 90
        0
176
     1
 40
-0.6
176
     1
 41
-30.0
176
     1
 62
     5
 63
     7
421
 16777215
176
     1
 74
     1
176
     1
 91
        4
176
     1
 64
     7
176
     1
 65
   257
176
     1
 75
     1
176
     1
175
     1
176
     1
 42
1.0
176
     1
 92
        8
176
     1
 66
     7
176
     1
 43
1.0
176
     1
 76
     1
176
     1
 77
     6
176
     1
 78
     2
176
     1
 67
     7
176
     1
 79
     5
176
     1
170
     0
176
     1
171
     0
176
     1
290
     0
176
     1
 93
        1
176
     1
 44
-50.0
176
     1
173
     0
176
     1
  0
VISUALSTYLE
  5
39
102
{ACAD_REACTORS
330
2A
102
}
330
2A
100
AcDbVisualStyle
  2
Facepattern
 70
    15
177
     2
291
     1
 71
     2
176
     1
 72
     2
176
     1
 73
     0
176
     1
 90
        0
176
     1
 40
-0.6
176
     1
 41
-30.0
176
     1
 62
     5
 63
     7
421
 16777215
176
     1
 74
     1
176
     1
 91
        4
176
     1
 64
     7
176
     1
 65
   257
176
     1
 75
     1
176
     1
175
     1
176
     1
 42
1.0
176
     1
 92
        8
176
     1
 66
     7
176
     1
 43
1.0
176
     1
 76
     1
176
     1
 77
     6
176
     1
 78
     2
176
     1
 67
     7
176
     1
 79
     5
176
     1
170
     0
176
     1
171
     0
176
     1
290
     0
176
     1
 93
        1
176
     1
 44
0.0
176
     1
173
     0
176
     1
  0
VISUALSTYLE
  5
2B
102
{ACAD_REACTORS
330
2A
102
}
330
2A
100
AcDbVisualStyle
  2
Flat
 70
     0
177
     2
291
     1
 71
     2
176
     1
 72
     1
176
     1
 73
     1
176
     1
 90
        2
176
     1
 40
-0.6
176
     1
 41
30.0
176
     1
 62
     5
 63
     7
421
 16777215
176
     1
 74
     0
176
     1
 91
        4
176
     1
 64
     7
176
     1
 65
   257
176
     1
 75
     1
176
     1
175
     1
176
     1
 42
1.0
176
     1
 92
        8
176
     1
 66
     7
176
     1
 43
1.0
176
     1
 76
     1
176
     1
 77
     6
176
     1
 78
     2
176
     1
 67
     7
176
     1
 79
     5
176
     1
170
     0
176
     1
171
     0
176
     1
290
     0
176
     1
 93
       13
176
     1
 44
0.0
176
     1
173
     0
176
     1
  0
VISUALSTYLE
  5
2C
102
{ACAD_REACTORS
330
2A
102
}
330
2A
100
AcDbVisualStyle
  2
FlatWithEdges
 70
     1
177
     2
291
     1
 71
     2
176
     1
 72
     1
176
     1
 73
     1
176
     1
 90
        2
176
     1
 40
-0.6
176
     1
 41
30.0
176
     1
 62
     5
 63
     7
421
 16777215
176
     1
 74
     1
176
     1
 91
        4
176
     1
 64
     7
176
     1
 65
   257
176
     1
 75
     1
176
     1
175
     1
176
     1
 42
1.0
176
     1
 92
        0
176
     1
 66
   257
176
     1
 43
1.0
176
     1
 76
     1
176
     1
 77
     6
176
     1
 78
     2
176
     1
 67
     7
176
     1
 79
     5
176
     1
170
     0
176
     1
171
     0
176
     1
290
     0
176
     1
 93
       13
176
     1
 44
0.0
176
     1
173
     0
176
     1
  0
VISUALSTYLE
  5
2D
102
{ACAD_REACTORS
330
2A
102
}
330
2A
100
AcDbVisualStyle
  2
Gouraud
 70
     2
177
     2
291
     1
 71
     2
176
     1
 72
     2
176
     1
 73
     1
176
     1
 90
        2
176
     1
 40
-0.6
176
     1
 41
30.0
176
     1
 62
     5
 63
     7
421
 16777215
176
     1
 74
     0
176
     1
 91
        4
176
     1
 64
     7
176
     1
 65
   257
176
     1
 75
     1
176
     1
175
     1
176
     1
 42
1.0
176
     1
 92
        0
176
     1
 66
     7
176
     1
 43
1.0
176
     1
 76
     1
176
     1
 77
     6
176
     1
 78
     2
176
     1
 67
     7
176
     1
 79
     5
176
     1
170
     0
176
     1
171
     0
176
     1
290
     0
176
     1
 93
       13
176
     1
 44
0.0
176
     1
173
     0
176
     1
  0
VISUALSTYLE
  5
2E
102
{ACAD_REACTORS
330
2A
102
}
330
2A
100
AcDbVisualStyle
  2
GouraudWithEdges
 70
     3
177
     2
291
     1
 71
     2
176
     1
 72
     2
176
     1
 73
     1
176
     1
 90
        2
176
     1
 40
-0.6
176
     1
 41
30.0
176
     1
 62
     5
 63
     7
421
 16777215
176
     1
 74
     1
176
     1
 91
        4
176
     1
 64
     7
176
     1
 65
   257
176
     1
 75
     1
176
     1
175
     1
176
     1
 42
1.0
176
     1
 92
        0
176
     1
 66
   257
176
     1
 43
1.0
176
     1
 76
     1
176
     1
 77
     6
176
     1
 78
     2
176
     1
 67
     7
176
     1
 79
     5
176
     1
170
     0
176
     1
171
     0
176
     1
290
     0
176
     1
 93
       13
176
     1
 44
0.0
176
     1
173
     0
176
     1
  0
VISUALSTYLE
  5
38
102
{ACAD_REACTORS
330
2A
102
}
330
2A
100
AcDbVisualStyle
  2
Linepattern
 70
    14
177
     2
291
     1
 71
     2
176
     1
 72
     2
176
     1
 73
     0
176
     1
 90
        0
176
     1
 40
-0.6
176
     1
 41
-30.0
176
     1
 62
     5
 63
     7
421
 16777215
176
     1
 74
     1
176
     1
 91
        4
176
     1
 64
     7
176
     1
 65
   257
176
     1
 75
     7
176
     1
175
     7
176
     1
 42
1.0
176
     1
 92
        8
176
     1
 66
     7
176
     1
 43
1.0
176
     1
 76
     1
176
     1
 77
     6
176
     1
 78
     2
176
     1
 67
     7
176
     1
 79
     5
176
     1
170
     0
176
     1
171
     0
176
     1
290
     0
176
     1
 93
        1
176
     1
 44
0.0
176
     1
173
     0
176
     1
  0
VISUALSTYLE
  5
33
102
{ACAD_REACTORS
330
2A
102
}
330
2A
100
AcDbVisualStyle
  2
Realistic
 70
     8
177
     2
291
     0
 71
     2
176
     1
 72
     2
176
     1
 73
     0
176
     1
 90
        0
176
     1
 40
-0.6
176
     1
 41
-30.0
176
     1
 62
     5
 63
     7
421
 16777215
176
     1
 74
     1
176
     1
 91
        0
176
     1
 64
     7
176
     1
 65
   257
176
     1
 75
     1
176
     1
175
     1
176
     1
 42
1.0
176
     1
 92
        8
176
     1
 66
     8
424
  7895160
176
     1
 43
1.0
176
     1
 76
     1
176
     1
 77
     6
176
     1
 78
     2
176
     1
 67
     7
176
     1
 79
     5
176
     1
170
     0
176
     1
171
     0
176
     1
290
     0
176
     1
 93
       13
176
     1
 44
0.0
176
     1
173
     0
176
     1
  0
VISUALSTYLE
  5
37
102
{ACAD_REACTORS
330
2A
102
}
330
2A
100
AcDbVisualStyle
  2
Thicken
 70
    13
177
     2
291
     1
 71
     2
176
     1
 72
     2
176
     1
 73
     0
176
     1
 90
        0
176
     1
 40
-0.6
176
     1
 41
-30.0
176
     1
 62
     5
 63
     7
421
 16777215
176
     1
 74
     1
176
     1
 91
        4
176
     1
 64
     7
176
     1
 65
   257
176
     1
 75
     1
176
     1
175
     1
176
     1
 42
1.0
176
     1
 92
       12
176
     1
 66
     7
176
     1
 43
1.0
176
     1
 76
     1
176
     1
 77
     6
176
     1
 78
     2
176
     1
 67
     7
176
     1
 79
     5
176
     1
170
     0
176
     1
171
     0
176
     1
290
     0
176
     1
 93
        1
176
     1
 44
0.0
176
     1
173
     0
176
     1
  0
ENDSEC
  0
EOF
