  0
SECTION
  2
HEADER
  9
$ACADVER
  1
AC1024
  9
$ACADMAINTVER
 70
     6
  9
$DWGCODEPAGE
  3
UNDEFINED
  9
$INSBASE
 10
0.0
 20
0.0
 30
0.0
  9
$EXTMIN
 10
1.000000000000000E+20
 20
1.000000000000000E+20
 30
1.000000000000000E+20
  9
$EXTMAX
 10
-1.000000000000000E+20
 20
-1.000000000000000E+20
 30
-1.000000000000000E+20
  9
$LIMMIN
 10
0.0
 20
0.0
  9
$LIMMAX
 10
12.0
 20
9.0
  9
$ORTHOMODE
 70
     0
  9
$REGENMODE
 70
     1
  9
$FILLMODE
 70
     1
  9
$QTEXTMODE
 70
     0
  9
$MIRRTEXT
 70
     1
  9
$LTSCALE
 40
1.0
  9
$ATTMODE
 70
     1
  9
$TEXTSIZE
 40
0.2
  9
$TRACEWID
 40
0.05
  9
$TEXTSTYLE
  7
Standard
  9
$CLAYER
  8
0
  9
$CELTYPE
  6
ByLayer
  9
$CECOLOR
 62
   256
  9
$CELTSCALE
 40
1.0
  9
$DISPSILH
 70
     0
  9
$DIMSCALE
 40
1.0
  9
$DIMASZ
 40
0.18
  9
$DIMEXO
 40
0.0625
  9
$DIMDLI
 40
0.38
  9
$DIMRND
 40
0.0
  9
$DIMDLE
 40
0.0
  9
$DIMEXE
 40
0.18
  9
$DIMTP
 40
0.0
  9
$DIMTM
 40
0.0
  9
$DIMTXT
 40
0.18
  9
$DIMCEN
 40
0.09
  9
$DIMTSZ
 40
0.0
  9
$DIMTOL
 70
     0
  9
$DIMLIM
 70
     0
  9
$DIMTIH
 70
     1
  9
$DIMTOH
 70
     1
  9
$DIMSE1
 70
     0
  9
$DIMSE2
 70
     0
  9
$DIMTAD
 70
     0
  9
$DIMZIN
 70
     0
  9
$DIMBLK
  1

  9
$DIMASO
 70
     1
  9
$DIMSHO
 70
     1
  9
$DIMPOST
  1

  9
$DIMAPOST
  1

  9
$DIMALT
 70
     0
  9
$DIMALTD
 70
     2
  9
$DIMALTF
 40
25.4
  9
$DIMLFAC
 40
1.0
  9
$DIMTOFL
 70
     0
  9
$DIMTVP
 40
0.0
  9
$DIMTIX
 70
     0
  9
$DIMSOXD
 70
     0
  9
$DIMSAH
 70
     0
  9
$DIMBLK1
  1

  9
$DIMBLK2
  1

  9
$DIMSTYLE
  2
Standard
  9
$DIMCLRD
 70
     0
  9
$DIMCLRE
 70
     0
  9
$DIMCLRT
 70
     0
  9
$DIMTFAC
 40
1.0
  9
$DIMGAP
 40
0.09
  9
$DIMJUST
 70
     0
  9
$DIMSD1
 70
     0
  9
$DIMSD2
 70
     0
  9
$DIMTOLJ
 70
     1
  9
$DIMTZIN
 70
     0
  9
$DIMALTZ
 70
     0
  9
$DIMALTTZ
 70
     0
  9
$DIMUPT
 70
     0
  9
$DIMDEC
 70
     4
  9
$DIMTDEC
 70
     4
  9
$DIMALTU
 70
     2
  9
$DIMALTTD
 70
     2
  9
$DIMTXSTY
  7
Standard
  9
$DIMAUNIT
 70
     0
  9
$DIMADEC
 70
     0
  9
$DIMALTRND
 40
0.0
  9
$DIMAZIN
 70
     0
  9
$DIMDSEP
 70
    46
  9
$DIMATFIT
 70
     3
  9
$DIMFRAC
 70
     0
  9
$DIMLDRBLK
  1

  9
$DIMLUNIT
 70
     2
  9
$DIMLWD
 70
    -2
  9
$DIMLWE
 70
    -2
  9
$DIMTMOVE
 70
     0
  9
$DIMFXL
 40
1.0
  9
$DIMFXLON
 70
     0
  9
$DIMJOGANG
 40
0.7853981633974483
  9
$DIMTFILL
 70
     0
  9
$DIMTFILLCLR
 70
     0
  9
$DIMARCSYM
 70
     0
  9
$DIMLTYPE
  6

  9
$DIMLTEX1
  6

  9
$DIMLTEX2
  6

  9
$DIMTXTDIRECTION
 70
     0
  9
$LUNITS
 70
     2
  9
$LUPREC
 70
     4
  9
$SKETCHINC
 40
0.1
  9
$FILLETRAD
 40
0.5
  9
$AUNITS
 70
     0
  9
$AUPREC
 70
     0
  9
$MENU
  1
.
  9
$ELEVATION
 40
0.0
  9
$PELEVATION
 40
0.0
  9
$THICKNESS
 40
0.0
  9
$LIMCHECK
 70
     0
  9
$CHAMFERA
 40
0.5
  9
$CHAMFERB
 40
0.5
  9
$CHAMFERC
 40
1.0
  9
$CHAMFERD
 40
0.0
  9
$SKPOLY
 70
     0
  9
$TDCREATE
 40
2457917.621793982
  9
$TDUCREATE
 40
2457917.246793982
  9
$TDUPDATE
 40
2457917.621793982
  9
$TDUUPDATE
 40
2457917.246793982
  9
$TDINDWG
 40
0.0000000116
  9
$TDUSRTIMER
 40
0.0000000116
  9
$USRTIMER
 70
     1
  9
$ANGBASE
 50
0.0
  9
$ANGDIR
 70
     0
  9
$PDMODE
 70
     0
  9
$PDSIZE
 40
0.0
  9
$PLINEWID
 40
0.0
  9
$SPLFRAME
 70
     0
  9
$SPLINETYPE
 70
     6
  9
$SPLINESEGS
 70
     8
  9
$HANDSEED
  5
B8
  9
$SURFTAB1
 70
     6
  9
$SURFTAB2
 70
     6
  9
$SURFTYPE
 70
     6
  9
$SURFU
 70
     6
  9
$SURFV
 70
     6
  9
$UCSBASE
  2

  9
$UCSNAME
  2

  9
$UCSORG
 10
0.0
 20
0.0
 30
0.0
  9
$UCSXDIR
 10
1.0
 20
0.0
 30
0.0
  9
$UCSYDIR
 10
0.0
 20
1.0
 30
0.0
  9
$UCSORTHOREF
  2

  9
$UCSORTHOVIEW
 70
     0
  9
$UCSORGTOP
 10
0.0
 20
0.0
 30
0.0
  9
$UCSORGBOTTOM
 10
0.0
 20
0.0
 30
0.0
  9
$UCSORGLEFT
 10
0.0
 20
0.0
 30
0.0
  9
$UCSORGRIGHT
 10
0.0
 20
0.0
 30
0.0
  9
$UCSORGFRONT
 10
0.0
 20
0.0
 30
0.0
  9
$UCSORGBACK
 10
0.0
 20
0.0
 30
0.0
  9
$PUCSBASE
  2

  9
$PUCSNAME
  2

  9
$PUCSORG
 10
0.0
 20
0.0
 30
0.0
  9
$PUCSXDIR
 10
1.0
 20
0.0
 30
0.0
  9
$PUCSYDIR
 10
0.0
 20
1.0
 30
0.0
  9
$PUCSORTHOREF
  2

  9
$PUCSORTHOVIEW
 70
     0
  9
$PUCSORGTOP
 10
0.0
 20
0.0
 30
0.0
  9
$PUCSORGBOTTOM
 10
0.0
 20
0.0
 30
0.0
  9
$PUCSORGLEFT
 10
0.0
 20
0.0
 30
0.0
  9
$PUCSORGRIGHT
 10
0.0
 20
0.0
 30
0.0
  9
$PUCSORGFRONT
 10
0.0
 20
0.0
 30
0.0
  9
$PUCSORGBACK
 10
0.0
 20
0.0
 30
0.0
  9
$USERI1
 70
     0
  9
$USERI2
 70
     0
  9
$USERI3
 70
     0
  9
$USERI4
 70
     0
  9
$USERI5
 70
     0
  9
$USERR1
 40
0.0
  9
$USERR2
 40
0.0
  9
$USERR3
 40
0.0
  9
$USERR4
 40
0.0
  9
$USERR5
 40
0.0
  9
$WORLDVIEW
 70
     1
  9
$SHADEDGE
 70
     3
  9
$SHADEDIF
 70
    70
  9
$TILEMODE
 70
     1
  9
$MAXACTVP
 70
    64
  9
$PINSBASE
 10
0.0
 20
0.0
 30
0.0
  9
$PLIMCHECK
 70
     0
  9
$PEXTMIN
 10
1.000000000000000E+20
 20
1.000000000000000E+20
 30
1.000000000000000E+20
  9
$PEXTMAX
 10
-1.000000000000000E+20
 20
-1.000000000000000E+20
 30
-1.000000000000000E+20
  9
$PLIMMIN
 10
0.0
 20
0.0
  9
$PLIMMAX
 10
12.0
 20
9.0
  9
$UNITMODE
 70
     0
  9
$VISRETAIN
 70
     1
  9
$PLINEGEN
 70
     0
  9
$PSLTSCALE
 70
     1
  9
$TREEDEPTH
 70
  3020
  9
$CMLSTYLE
  2
Standard
  9
$CMLJUST
 70
     0
  9
$CMLSCALE
 40
1.0
  9
$PROXYGRAPHICS
 70
     1
  9
$MEASUREMENT
 70
     0
  9
$CELWEIGHT
370
    -1
  9
$ENDCAPS
280
     0
  9
$JOINSTYLE
280
     0
  9
$LWDISPLAY
290
     1
  9
$INSUNITS
 70
     1
  9
$HYPERLINKBASE
  1

  9
$STYLESHEET
  1

  9
$XEDIT
290
     1
  9
$CEPSNTYPE
380
     0
  9
$PSTYLEMODE
290
     1
  9
$FINGERPRINTGUID
  2
{2CAA50F9-A74E-EF67-5A52-A3553FD46D27}
  9
$VERSIONGUID
  2
{FAEB1C32-E019-11D5-929B-00C0DF256EC4}
  9
$EXTNAMES
290
     1
  9
$PSVPSCALE
 40
0.0
  9
$OLESTARTUP
290
     0
  9
$SORTENTS
280
   127
  9
$INDEXCTL
280
     0
  9
$HIDETEXT
280
     1
  9
$XCLIPFRAME
280
     2
  9
$HALOGAP
280
     0
  9
$OBSCOLOR
 70
   257
  9
$OBSLTYPE
280
     0
  9
$INTERSECTIONDISPLAY
280
     0
  9
$INTERSECTIONCOLOR
 70
   257
  9
$DIMASSOC
280
     2
  9
$PROJECTNAME
  1

  9
$CAMERADISPLAY
290
     0
  9
$LENSLENGTH
 40
50.0
  9
$CAMERAHEIGHT
 40
0.0
  9
$STEPSPERSEC
 40
2.0
  9
$STEPSIZE
 40
6.0
  9
$3DDWFPREC
 40
2.0
  9
$PSOLWIDTH
 40
0.25
  9
$PSOLHEIGHT
 40
4.0
  9
$LOFTANG1
 40
1.570796326794897
  9
$LOFTANG2
 40
1.570796326794897
  9
$LOFTMAG1
 40
0.0
  9
$LOFTMAG2
 40
0.0
  9
$LOFTPARAM
 70
     7
  9
$LOFTNORMALS
280
     1
  9
$LATITUDE
 40
37.795
  9
$LONGITUDE
 40
-122.394
  9
$NORTHDIRECTION
 40
0.0
  9
$TIMEZONE
 70
 -8000
  9
$LIGHTGLYPHDISPLAY
280
     1
  9
$TILEMODELIGHTSYNCH
280
     1
  9
$CMATERIAL
347
3C
  9
$SOLIDHIST
280
     1
  9
$SHOWHIST
280
     1
  9
$DWFFRAME
280
     2
  9
$DGNFRAME
280
     2
  9
$REALWORLDSCALE
290
     1
  9
$INTERFERECOLOR
 62
   256
  9
$CSHADOW
280
     0
  9
$SHADOWPLANELOCATION
 40
0.0
  0
ENDSEC
  0
SECTION
  2
CLASSES
  0
CLASS
  1
ACDBDICTIONARYWDFLT
  2
AcDbDictionaryWithDefault
  3
ObjectDBX Classes
 90
        0
 91
        4
280
     0
281
     0
  0
CLASS
  1
VISUALSTYLE
  2
AcDbVisualStyle
  3
ObjectDBX Classes
 90
     4095
 91
        4
280
     0
281
     0
  0
CLASS
  1
MATERIAL
  2
AcDbMaterial
  3
ObjectDBX Classes
 90
     1153
 91
        4
280
     0
281
     0
  0
CLASS
  1
SUN
  2
AcDbSun
  3
SCENEOE
 90
     1024
 91
        4
280
     0
281
     0
  0
ENDSEC
  0
SECTION
  2
TABLES
  0
TABLE
  2
VPORT
  5
8
330
0
100
AcDbSymbolTable
 70
     1
  0
VPORT
  5
29
330
8
100
AcDbSymbolTableRecord
100
AcDbViewportTableRecord
  2
*Active
 70
     0
 10
0.0
 20
0.0
 11
1.0
 21
1.0
 12
0.0
 22
0.0
 13
0.0
 23
0.0
 14
0.5
 24
0.5
 15
0.5
 25
0.5
 16
0.0
 26
0.0
 36
1.0
 17
91.00082462281999
 27
-128.4993055234307
 37
0.0
 40
256.9986110468615
 41
0.7081814508812795
 42
50.0
 43
0.0
 44
0.0
 50
0.0
 51
0.0
 71
     0
 72
   100
 73
     1
 74
     3
 75
     0
 76
     0
 77
     0
 78
     0
281
     0
 65
     1
110
0.0
120
0.0
130
0.0
111
1.0
121
0.0
131
0.0
112
0.0
122
1.0
132
0.0
 79
     0
146
0.0
 60
     3
 61
     5
292
     1
282
     1
141
0.0
142
0.0
 63
   250
361
3F
  0
ENDTAB
  0
TABLE
  2
LTYPE
  5
5
330
0
100
AcDbSymbolTable
 70
     1
  0
LTYPE
  5
14
330
5
100
AcDbSymbolTableRecord
100
AcDbLinetypeTableRecord
  2
ByBlock
 70
     0
  3

 72
    65
 73
     0
 40
0.0
  0
LTYPE
  5
15
330
5
100
AcDbSymbolTableRecord
100
AcDbLinetypeTableRecord
  2
ByLayer
 70
     0
  3

 72
    65
 73
     0
 40
0.0
  0
LTYPE
  5
16
330
5
100
AcDbSymbolTableRecord
100
AcDbLinetypeTableRecord
  2
Continuous
 70
     0
  3
Solid line
 72
    65
 73
     0
 40
0.0
  0
ENDTAB
  0
TABLE
  2
LAYER
  5
2
330
0
100
AcDbSymbolTable
 70
     2
  0
LAYER
  5
10
330
2
100
AcDbSymbolTableRecord
100
AcDbLayerTableRecord
  2
0
 70
     0
 62
     7
  6
Continuous
370
    -3
390
F
347
3E
  0
LAYER
  5
40
330
2
100
AcDbSymbolTableRecord
100
AcDbLayerTableRecord
  2
_U+30EC_U+30A4_U+30E4_U+30FC 1
 70
     0
 62
     7
  6
Continuous
370
    -3
390
F
347
3E
  0
ENDTAB
  0
TABLE
  2
STYLE
  5
3
330
0
100
AcDbSymbolTable
 70
     1
  0
STYLE
  5
11
330
3
100
AcDbSymbolTableRecord
100
AcDbTextStyleTableRecord
  2
Standard
 70
     0
 40
0.0
 41
1.0
 50
0.0
 71
     0
 42
0.2
  3
txt
  4

  0
ENDTAB
  0
TABLE
  2
VIEW
  5
6
330
0
100
AcDbSymbolTable
 70
     0
  0
ENDTAB
  0
TABLE
  2
UCS
  5
7
330
0
100
AcDbSymbolTable
 70
     0
  0
ENDTAB
  0
TABLE
  2
APPID
  5
9
330
0
100
AcDbSymbolTable
 70
     1
  0
APPID
  5
12
330
9
100
AcDbSymbolTableRecord
100
AcDbRegAppTableRecord
  2
ACAD
 70
     0
  0
ENDTAB
  0
TABLE
  2
DIMSTYLE
  5
A
330
0
100
AcDbSymbolTable
 70
     1
100
AcDbDimStyleTable
  0
DIMSTYLE
105
27
330
A
100
AcDbSymbolTableRecord
100
AcDbDimStyleTableRecord
  2
Standard
 70
     0
178
     0
340
11
  0
ENDTAB
  0
TABLE
  2
BLOCK_RECORD
  5
1
330
0
100
AcDbSymbolTable
 70
     6
  0
BLOCK_RECORD
  5
1F
330
1
100
AcDbSymbolTableRecord
100
AcDbBlockTableRecord
  2
*Model_Space
340
22
 70
     0
280
     1
281
     0
  0
BLOCK_RECORD
  5
1B
330
1
100
AcDbSymbolTableRecord
100
AcDbBlockTableRecord
  2
*Paper_Space
340
1E
 70
     0
280
     1
281
     0
  0
BLOCK_RECORD
  5
23
330
1
100
AcDbSymbolTableRecord
100
AcDbBlockTableRecord
  2
*Paper_Space0
340
26
 70
     0
280
     1
281
     0
  0
BLOCK_RECORD
  5
5D
330
1
100
AcDbSymbolTableRecord
100
AcDbBlockTableRecord
  2
block 2
340
0
102
{BLKREFS
331
5E
102
}
 70
     0
280
     1
281
     0
  0
BLOCK_RECORD
  5
63
330
1
100
AcDbSymbolTableRecord
100
AcDbBlockTableRecord
  2
block 3
340
0
102
{BLKREFS
331
64
102
}
 70
     0
280
     1
281
     0
  0
BLOCK_RECORD
  5
74
330
1
100
AcDbSymbolTableRecord
100
AcDbBlockTableRecord
  2
block 4
340
0
102
{BLKREFS
331
75
102
}
 70
     0
280
     1
281
     0
  0
BLOCK_RECORD
  5
86
330
1
100
AcDbSymbolTableRecord
100
AcDbBlockTableRecord
  2
block 5
340
0
102
{BLKREFS
331
87
102
}
 70
     0
280
     1
281
     0
  0
BLOCK_RECORD
  5
9A
330
1
100
AcDbSymbolTableRecord
100
AcDbBlockTableRecord
  2
block 6
340
0
102
{BLKREFS
331
9B
102
}
 70
     0
280
     1
281
     0
  0
ENDTAB
  0
ENDSEC
  0
SECTION
  2
BLOCKS
  0
BLOCK
  5
20
330
1F
100
AcDbEntity
  8
0
100
AcDbBlockBegin
  2
*Model_Space
 70
     0
 10
0.0
 20
0.0
 30
0.0
  3
*Model_Space
  1

  0
ENDBLK
  5
21
330
1F
100
AcDbEntity
  8
0
100
AcDbBlockEnd
  0
BLOCK
  5
1C
330
1B
100
AcDbEntity
 67
     1
  8
0
100
AcDbBlockBegin
  2
*Paper_Space
 70
     0
 10
0.0
 20
0.0
 30
0.0
  3
*Paper_Space
  1

  0
ENDBLK
  5
1D
330
1B
100
AcDbEntity
 67
     1
  8
0
100
AcDbBlockEnd
  0
BLOCK
  5
24
330
23
100
AcDbEntity
  8
0
100
AcDbBlockBegin
  2
*Paper_Space0
 70
     0
 10
0.0
 20
0.0
 30
0.0
  3
*Paper_Space0
  1

  0
ENDBLK
  5
25
330
23
100
AcDbEntity
  8
0
100
AcDbBlockEnd
  0
BLOCK
  5
5F
330
5D
100
AcDbEntity
  8
0
100
AcDbBlockBegin
  2
block 2
 70
     0
 10
0.0
 20
0.0
 30
0.0
  3
block 2
  1

  0
SPLINE
  5
61
330
5D
100
AcDbEntity
  8
_U+30EC_U+30A4_U+30E4_U+30FC 1
370
     0
100
AcDbSpline
210
0.0
220
0.0
230
1.0
 70
    11
 71
     3
 72
    26
 73
    22
 74
     0
 42
0.0000000001
 43
0.0000000001
 12
1.0
 22
0.0
 32
0.0
 13
1.0
 23
0.0
 33
0.0
 40
0.0
 40
0.0
 40
0.0
 40
0.0
 40
1.0
 40
1.0
 40
1.0
 40
2.0
 40
2.0
 40
2.0
 40
3.0
 40
3.0
 40
3.0
 40
4.0
 40
4.0
 40
4.0
 40
5.0
 40
5.0
 40
5.0
 40
6.0
 40
6.0
 40
6.0
 40
7.0
 40
7.0
 40
7.0
 40
7.0
 10
105.8736409240524
 20
-133.1725775491721
 30
0.0
 10
105.8736409240524
 20
-133.1725775491721
 30
0.0
 10
104.7694878210299
 20
-133.1725775491721
 30
0.0
 10
104.7694878210299
 20
-133.1725775491721
 30
0.0
 10
104.7694878210299
 20
-133.1725775491721
 30
0.0
 10
104.7694878210299
 20
-133.5026176966591
 30
0.0
 10
104.7694878210299
 20
-133.5026176966591
 30
0.0
 10
104.7694878210299
 20
-133.5026176966591
 30
0.0
 10
104.6213487151641
 20
-133.5026176966591
 30
0.0
 10
104.6213487151641
 20
-133.5026176966591
 30
0.0
 10
104.6065348045775
 20
-133.170510491881
 30
0.0
 10
104.4435817881252
 20
-133.1240017028301
 30
0.0
 10
104.3292046180149
 20
-133.094373881657
 30
0.0
 10
104.3292046180149
 20
-133.094373881657
 30
0.0
 10
104.3292046180149
 20
-132.9483018330824
 30
0.0
 10
104.3292046180149
 20
-132.9483018330824
 30
0.0
 10
104.3292046180149
 20
-132.9483018330824
 30
0.0
 10
105.8736409240524
 20
-132.9483018330824
 30
0.0
 10
105.8736409240524
 20
-132.9483018330824
 30
0.0
 10
105.8736409240524
 20
-132.9483018330824
 30
0.0
 10
105.8736409240524
 20
-133.1725775491721
 30
0.0
 10
105.8736409240524
 20
-133.1725775491721
 30
0.0
  0
HATCH
  5
62
330
5D
100
AcDbEntity
  8
_U+30EC_U+30A4_U+30E4_U+30FC 1
 62
   179
420
  2234388
100
AcDbHatch
 10
0.0
 20
0.0
 30
0.0
210
0.0
220
0.0
230
1.0
  2
SOLID
 70
     1
 71
     0
 91
        1
 92
        1
 93
        1
 72
     4
 94
        3
 73
     0
 74
     1
 95
       26
 96
       22
 40
0.0
 40
0.0
 40
0.0
 40
0.0
 40
1.0
 40
1.0
 40
1.0
 40
2.0
 40
2.0
 40
2.0
 40
3.0
 40
3.0
 40
3.0
 40
4.0
 40
4.0
 40
4.0
 40
5.0
 40
5.0
 40
5.0
 40
6.0
 40
6.0
 40
6.0
 40
7.0
 40
7.0
 40
7.0
 40
7.0
 10
105.8736409240524
 20
-133.1725775491721
 10
105.8736409240524
 20
-133.1725775491721
 10
104.7694878210299
 20
-133.1725775491721
 10
104.7694878210299
 20
-133.1725775491721
 10
104.7694878210299
 20
-133.1725775491721
 10
104.7694878210299
 20
-133.5026176966591
 10
104.7694878210299
 20
-133.5026176966591
 10
104.7694878210299
 20
-133.5026176966591
 10
104.6213487151641
 20
-133.5026176966591
 10
104.6213487151641
 20
-133.5026176966591
 10
104.6065348045775
 20
-133.170510491881
 10
104.4435817881252
 20
-133.1240017028301
 10
104.3292046180149
 20
-133.094373881657
 10
104.3292046180149
 20
-133.094373881657
 10
104.3292046180149
 20
-132.9483018330824
 10
104.3292046180149
 20
-132.9483018330824
 10
104.3292046180149
 20
-132.9483018330824
 10
105.8736409240524
 20
-132.9483018330824
 10
105.8736409240524
 20
-132.9483018330824
 10
105.8736409240524
 20
-132.9483018330824
 10
105.8736409240524
 20
-133.1725775491721
 10
105.8736409240524
 20
-133.1725775491721
 97
        0
 97
        0
 75
     2
 76
     1
 98
        0
  0
ENDBLK
  5
60
330
5D
100
AcDbEntity
  8
0
100
AcDbBlockEnd
  0
BLOCK
  5
65
330
63
100
AcDbEntity
  8
0
100
AcDbBlockBegin
  2
block 3
 70
     0
 10
0.0
 20
0.0
 30
0.0
  3
block 3
  1

  0
SPLINE
  5
67
330
63
100
AcDbEntity
  8
_U+30EC_U+30A4_U+30E4_U+30FC 1
370
     0
100
AcDbSpline
210
0.0
220
0.0
230
1.0
 70
    11
 71
     3
 72
    32
 73
    28
 74
     0
 42
0.0000000001
 43
0.0000000001
 12
1.0
 22
0.0
 32
0.0
 13
1.0
 23
0.0
 33
0.0
 40
0.0
 40
0.0
 40
0.0
 40
0.0
 40
1.0
 40
1.0
 40
1.0
 40
2.0
 40
2.0
 40
2.0
 40
3.0
 40
3.0
 40
3.0
 40
4.0
 40
4.0
 40
4.0
 40
5.0
 40
5.0
 40
5.0
 40
6.0
 40
6.0
 40
6.0
 40
7.0
 40
7.0
 40
7.0
 40
8.0
 40
8.0
 40
8.0
 40
9.0
 40
9.0
 40
9.0
 40
9.0
 10
105.9242838276856
 20
-130.1453721462831
 30
0.0
 10
105.9242838276856
 20
-130.6614474499735
 30
0.0
 10
105.3703124736574
 20
-130.6700601886866
 30
0.0
 10
105.1563720440234
 20
-130.6700601886866
 30
0.0
 10
104.9258951560602
 20
-130.6700601886866
 30
0.0
 10
104.2785617143818
 20
-130.6507676539693
 30
0.0
 10
104.2785617143818
 20
-130.1071315863968
 30
0.0
 10
104.2785617143818
 20
-129.9338432834888
 30
0.0
 10
104.3484971527323
 20
-129.6882079753904
 30
0.0
 10
104.6806043575104
 20
-129.6503119250527
 30
0.0
 10
104.6806043575104
 20
-129.6503119250527
 30
0.0
 10
104.6806043575104
 20
-129.8639078451382
 30
0.0
 10
104.6806043575104
 20
-129.8639078451382
 30
0.0
 10
104.6234157724553
 20
-129.8745876411425
 30
0.0
 10
104.4752766665895
 20
-129.9062825196068
 30
0.0
 10
104.4752766665895
 20
-130.109198643688
 30
0.0
 10
104.4752766665895
 20
-130.4013427408372
 30
0.0
 10
104.8032497567853
 20
-130.4413058484661
 30
0.0
 10
105.0082329381577
 20
-130.4540527017615
 30
0.0
 10
104.9300292706425
 20
-130.3610351236597
 30
0.0
 10
104.8707736282962
 20
-130.2931667426003
 30
0.0
 10
104.8707736282962
 20
-130.1112657009791
 30
0.0
 10
104.8707736282962
 20
-129.9314317166491
 30
0.0
 10
104.9789496265331
 20
-129.6289523330442
 30
0.0
 10
105.385126384244
 20
-129.6289523330442
 30
0.0
 10
105.7044867357267
 20
-129.6289523330442
 30
0.0
 10
105.9242838276856
 20
-129.8280788520916
 30
0.0
 10
105.9242838276856
 20
-130.1453721462831
 30
0.0
  0
SPLINE
  5
68
330
63
100
AcDbEntity
  8
_U+30EC_U+30A4_U+30E4_U+30FC 1
370
     0
100
AcDbSpline
210
0.0
220
0.0
230
1.0
 70
    11
 71
     3
 72
    17
 73
    13
 74
     0
 42
0.0000000001
 43
0.0000000001
 12
1.0
 22
0.0
 32
0.0
 13
1.0
 23
0.0
 33
0.0
 40
0.0
 40
0.0
 40
0.0
 40
0.0
 40
1.0
 40
1.0
 40
1.0
 40
2.0
 40
2.0
 40
2.0
 40
3.0
 40
3.0
 40
3.0
 40
4.0
 40
4.0
 40
4.0
 40
4.0
 10
105.0654215232128
 20
-130.1284911784054
 30
0.0
 10
105.0654215232128
 20
-130.3906629448329
 30
0.0
 10
105.2769503860072
 20
-130.4285589951706
 30
0.0
 10
105.3933946134086
 20
-130.4285589951706
 30
0.0
 10
105.5690944831563
 20
-130.4285589951706
 30
0.0
 10
105.7320474996087
 20
-130.3334743597777
 30
0.0
 10
105.7320474996087
 20
-130.1495062608654
 30
0.0
 10
105.7320474996087
 20
-130.0289279188817
 30
0.0
 10
105.6727918572624
 20
-129.8532280491339
 30
0.0
 10
105.3871934415351
 20
-129.8532280491339
 30
0.0
 10
105.1629177254454
 20
-129.8532280491339
 30
0.0
 10
105.0654215232128
 20
-129.9927544162865
 30
0.0
 10
105.0654215232128
 20
-130.1284911784054
 30
0.0
  0
HATCH
  5
69
330
63
100
AcDbEntity
  8
_U+30EC_U+30A4_U+30E4_U+30FC 1
 62
   179
420
  2234388
100
AcDbHatch
 10
0.0
 20
0.0
 30
0.0
210
0.0
220
0.0
230
1.0
  2
SOLID
 70
     1
 71
     0
 91
        2
 92
        1
 93
        1
 72
     4
 94
        3
 73
     0
 74
     1
 95
       32
 96
       28
 40
0.0
 40
0.0
 40
0.0
 40
0.0
 40
1.0
 40
1.0
 40
1.0
 40
2.0
 40
2.0
 40
2.0
 40
3.0
 40
3.0
 40
3.0
 40
4.0
 40
4.0
 40
4.0
 40
5.0
 40
5.0
 40
5.0
 40
6.0
 40
6.0
 40
6.0
 40
7.0
 40
7.0
 40
7.0
 40
8.0
 40
8.0
 40
8.0
 40
9.0
 40
9.0
 40
9.0
 40
9.0
 10
105.9242838276856
 20
-130.1453721462831
 10
105.9242838276856
 20
-130.6614474499735
 10
105.3703124736574
 20
-130.6700601886866
 10
105.1563720440234
 20
-130.6700601886866
 10
104.9258951560602
 20
-130.6700601886866
 10
104.2785617143818
 20
-130.6507676539693
 10
104.2785617143818
 20
-130.1071315863968
 10
104.2785617143818
 20
-129.9338432834888
 10
104.3484971527323
 20
-129.6882079753904
 10
104.6806043575104
 20
-129.6503119250527
 10
104.6806043575104
 20
-129.6503119250527
 10
104.6806043575104
 20
-129.8639078451382
 10
104.6806043575104
 20
-129.8639078451382
 10
104.6234157724553
 20
-129.8745876411425
 10
104.4752766665895
 20
-129.9062825196068
 10
104.4752766665895
 20
-130.109198643688
 10
104.4752766665895
 20
-130.4013427408372
 10
104.8032497567853
 20
-130.4413058484661
 10
105.0082329381577
 20
-130.4540527017615
 10
104.9300292706425
 20
-130.3610351236597
 10
104.8707736282962
 20
-130.2931667426003
 10
104.8707736282962
 20
-130.1112657009791
 10
104.8707736282962
 20
-129.9314317166491
 10
104.9789496265331
 20
-129.6289523330442
 10
105.385126384244
 20
-129.6289523330442
 10
105.7044867357267
 20
-129.6289523330442
 10
105.9242838276856
 20
-129.8280788520916
 10
105.9242838276856
 20
-130.1453721462831
 97
        0
 97
        0
 92
        1
 93
        1
 72
     4
 94
        3
 73
     0
 74
     1
 95
       17
 96
       13
 40
0.0
 40
0.0
 40
0.0
 40
0.0
 40
1.0
 40
1.0
 40
1.0
 40
2.0
 40
2.0
 40
2.0
 40
3.0
 40
3.0
 40
3.0
 40
4.0
 40
4.0
 40
4.0
 40
4.0
 10
105.0654215232128
 20
-130.1284911784054
 10
105.0654215232128
 20
-130.3906629448329
 10
105.2769503860072
 20
-130.4285589951706
 10
105.3933946134086
 20
-130.4285589951706
 10
105.5690944831563
 20
-130.4285589951706
 10
105.7320474996087
 20
-130.3334743597777
 10
105.7320474996087
 20
-130.1495062608654
 10
105.7320474996087
 20
-130.0289279188817
 10
105.6727918572624
 20
-129.8532280491339
 10
105.3871934415351
 20
-129.8532280491339
 10
105.1629177254454
 20
-129.8532280491339
 10
105.0654215232128
 20
-129.9927544162865
 10
105.0654215232128
 20
-130.1284911784054
 97
        0
 97
        0
 75
     2
 76
     1
 98
        0
  0
POLYLINE
  5
6A
330
63
100
AcDbEntity
  8
_U+30EC_U+30A4_U+30E4_U+30FC 1
370
     0
100
AcDb2dPolyline
 66
     1
 10
0.0
 20
0.0
 30
0.0
  0
VERTEX
  5
6B
330
6A
100
AcDbEntity
  8
_U+30EC_U+30A4_U+30E4_U+30FC 1
370
     0
100
AcDbVertex
100
AcDb2dVertex
 10
105.8736409240524
 20
-129.4126003365705
 30
0.0
  0
VERTEX
  5
6C
330
6A
100
AcDbEntity
  8
_U+30EC_U+30A4_U+30E4_U+30FC 1
370
     0
100
AcDbVertex
100
AcDb2dVertex
 10
105.6218044440807
 20
-129.4126003365705
 30
0.0
  0
VERTEX
  5
6D
330
6A
100
AcDbEntity
  8
_U+30EC_U+30A4_U+30E4_U+30FC 1
370
     0
100
AcDbVertex
100
AcDb2dVertex
 10
105.6218044440807
 20
-129.1607638565987
 30
0.0
  0
VERTEX
  5
6E
330
6A
100
AcDbEntity
  8
_U+30EC_U+30A4_U+30E4_U+30FC 1
370
     0
100
AcDbVertex
100
AcDb2dVertex
 10
105.8736409240524
 20
-129.1607638565987
 30
0.0
  0
VERTEX
  5
6F
330
6A
100
AcDbEntity
  8
_U+30EC_U+30A4_U+30E4_U+30FC 1
370
     0
100
AcDbVertex
100
AcDb2dVertex
 10
105.8736409240524
 20
-129.4126003365705
 30
0.0
  0
SEQEND
  5
70
330
6A
100
AcDbEntity
  8
_U+30EC_U+30A4_U+30E4_U+30FC 1
370
     0
  0
HATCH
  5
71
330
63
100
AcDbEntity
  8
_U+30EC_U+30A4_U+30E4_U+30FC 1
 62
   179
420
  2234388
100
AcDbHatch
 10
0.0
 20
0.0
 30
0.0
210
0.0
220
0.0
230
1.0
  2
SOLID
 70
     1
 71
     0
 91
        1
 92
        1
 93
        4
 72
     1
 10
105.8736409240524
 20
-129.4126003365705
 11
105.6218044440807
 21
-129.4126003365705
 72
     1
 10
105.6218044440807
 20
-129.4126003365705
 11
105.6218044440807
 21
-129.1607638565987
 72
     1
 10
105.6218044440807
 20
-129.1607638565987
 11
105.8736409240524
 21
-129.1607638565987
 72
     1
 10
105.8736409240524
 20
-129.1607638565987
 11
105.8736409240524
 21
-129.4126003365705
 97
        0
 75
     2
 76
     1
 98
        0
  0
SPLINE
  5
72
330
63
100
AcDbEntity
  8
_U+30EC_U+30A4_U+30E4_U+30FC 1
370
     0
100
AcDbSpline
210
0.0
220
0.0
230
1.0
 70
    11
 71
     3
 72
    53
 73
    49
 74
     0
 42
0.0000000001
 43
0.0000000001
 12
1.0
 22
0.0
 32
0.0
 13
1.0
 23
0.0
 33
0.0
 40
0.0
 40
0.0
 40
0.0
 40
0.0
 40
1.0
 40
1.0
 40
1.0
 40
2.0
 40
2.0
 40
2.0
 40
3.0
 40
3.0
 40
3.0
 40
4.0
 40
4.0
 40
4.0
 40
5.0
 40
5.0
 40
5.0
 40
6.0
 40
6.0
 40
6.0
 40
7.0
 40
7.0
 40
7.0
 40
8.0
 40
8.0
 40
8.0
 40
9.0
 40
9.0
 40
9.0
 40
10.0
 40
10.0
 40
10.0
 40
11.0
 40
11.0
 40
11.0
 40
12.0
 40
12.0
 40
12.0
 40
13.0
 40
13.0
 40
13.0
 40
14.0
 40
14.0
 40
14.0
 40
15.0
 40
15.0
 40
15.0
 40
16.0
 40
16.0
 40
16.0
 40
16.0
 10
105.9242838276856
 20
-128.4434949765697
 30
0.0
 10
105.9242838276856
 20
-128.5216986440849
 30
0.0
 10
105.9074028598079
 20
-128.6233289608997
 30
0.0
 10
105.8440131028793
 20
-128.7249592777146
 30
0.0
 10
105.7341145568998
 20
-128.8982475806227
 30
0.0
 10
105.6028564189118
 20
-128.9196071726312
 30
0.0
 10
105.4950249302235
 20
-128.9385551978001
 30
0.0
 10
105.4950249302235
 20
-128.9385551978001
 30
0.0
 10
105.4950249302235
 20
-128.7163465390015
 30
0.0
 10
105.4950249302235
 20
-128.7163465390015
 30
0.0
 10
105.6938069397224
 20
-128.661569520786
 30
0.0
 10
105.7234347608955
 20
-128.5344454973803
 30
0.0
 10
105.7234347608955
 20
-128.4414279192785
 30
0.0
 10
105.7234347608955
 20
-128.3019015521259
 30
0.0
 10
105.6238715013718
 20
-128.1496283316779
 30
0.0
 10
105.3913275561174
 20
-128.1496283316779
 30
0.0
 10
105.1353569615634
 20
-128.1496283316779
 30
0.0
 10
105.0654215232128
 20
-128.3294623160079
 30
0.0
 10
105.0654215232128
 20
-128.4500406579917
 30
0.0
 10
105.0654215232128
 20
-128.481735536456
 30
0.0
 10
105.0654215232128
 20
-128.6233289608997
 30
0.0
 10
105.1946126039097
 20
-128.7122124244192
 30
0.0
 10
105.1946126039097
 20
-128.7122124244192
 30
0.0
 10
105.1756645787408
 20
-128.8879122941669
 30
0.0
 10
105.1756645787408
 20
-128.8879122941669
 30
0.0
 10
105.1756645787408
 20
-128.8879122941669
 30
0.0
 10
104.3292046180149
 20
-128.7673339521832
 30
0.0
 10
104.3292046180149
 20
-128.7673339521832
 30
0.0
 10
104.3292046180149
 20
-128.7673339521832
 30
0.0
 10
104.3292046180149
 20
-127.9887423725167
 30
0.0
 10
104.3292046180149
 20
-127.9887423725167
 30
0.0
 10
104.3292046180149
 20
-127.9887423725167
 30
0.0
 10
104.5238525129315
 20
-127.9887423725167
 30
0.0
 10
104.5238525129315
 20
-127.9887423725167
 30
0.0
 10
104.5238525129315
 20
-127.9887423725167
 30
0.0
 10
104.5238525129315
 20
-128.6043809357309
 30
0.0
 10
104.5238525129315
 20
-128.6043809357309
 30
0.0
 10
104.5238525129315
 20
-128.6043809357309
 30
0.0
 10
104.9469102385202
 20
-128.6698377499506
 30
0.0
 10
104.9469102385202
 20
-128.6698377499506
 30
0.0
 10
104.9131483027648
 20
-128.6085150503131
 30
0.0
 10
104.8728406855873
 20
-128.5261772682157
 30
0.0
 10
104.8728406855873
 20
-128.4076659835231
 30
0.0
 10
104.8728406855873
 20
-128.1537624462602
 30
0.0
 10
105.0592203513394
 20
-127.916739876875
 30
0.0
 10
105.3723795309486
 20
-127.916739876875
 30
0.0
 10
105.6896728251401
 20
-127.916739876875
 30
0.0
 10
105.9242838276856
 20
-128.1410155929647
 30
0.0
 10
105.9242838276856
 20
-128.4434949765697
 30
0.0
  0
HATCH
  5
73
330
63
100
AcDbEntity
  8
_U+30EC_U+30A4_U+30E4_U+30FC 1
 62
   179
420
  2234388
100
AcDbHatch
 10
0.0
 20
0.0
 30
0.0
210
0.0
220
0.0
230
1.0
  2
SOLID
 70
     1
 71
     0
 91
        1
 92
        1
 93
        1
 72
     4
 94
        3
 73
     0
 74
     1
 95
       53
 96
       49
 40
0.0
 40
0.0
 40
0.0
 40
0.0
 40
1.0
 40
1.0
 40
1.0
 40
2.0
 40
2.0
 40
2.0
 40
3.0
 40
3.0
 40
3.0
 40
4.0
 40
4.0
 40
4.0
 40
5.0
 40
5.0
 40
5.0
 40
6.0
 40
6.0
 40
6.0
 40
7.0
 40
7.0
 40
7.0
 40
8.0
 40
8.0
 40
8.0
 40
9.0
 40
9.0
 40
9.0
 40
10.0
 40
10.0
 40
10.0
 40
11.0
 40
11.0
 40
11.0
 40
12.0
 40
12.0
 40
12.0
 40
13.0
 40
13.0
 40
13.0
 40
14.0
 40
14.0
 40
14.0
 40
15.0
 40
15.0
 40
15.0
 40
16.0
 40
16.0
 40
16.0
 40
16.0
 10
105.9242838276856
 20
-128.4434949765697
 10
105.9242838276856
 20
-128.5216986440849
 10
105.9074028598079
 20
-128.6233289608997
 10
105.8440131028793
 20
-128.7249592777146
 10
105.7341145568998
 20
-128.8982475806227
 10
105.6028564189118
 20
-128.9196071726312
 10
105.4950249302235
 20
-128.9385551978001
 10
105.4950249302235
 20
-128.9385551978001
 10
105.4950249302235
 20
-128.7163465390015
 10
105.4950249302235
 20
-128.7163465390015
 10
105.6938069397224
 20
-128.661569520786
 10
105.7234347608955
 20
-128.5344454973803
 10
105.7234347608955
 20
-128.4414279192785
 10
105.7234347608955
 20
-128.3019015521259
 10
105.6238715013718
 20
-128.1496283316779
 10
105.3913275561174
 20
-128.1496283316779
 10
105.1353569615634
 20
-128.1496283316779
 10
105.0654215232128
 20
-128.3294623160079
 10
105.0654215232128
 20
-128.4500406579917
 10
105.0654215232128
 20
-128.481735536456
 10
105.0654215232128
 20
-128.6233289608997
 10
105.1946126039097
 20
-128.7122124244192
 10
105.1946126039097
 20
-128.7122124244192
 10
105.1756645787408
 20
-128.8879122941669
 10
105.1756645787408
 20
-128.8879122941669
 10
105.1756645787408
 20
-128.8879122941669
 10
104.3292046180149
 20
-128.7673339521832
 10
104.3292046180149
 20
-128.7673339521832
 10
104.3292046180149
 20
-128.7673339521832
 10
104.3292046180149
 20
-127.9887423725167
 10
104.3292046180149
 20
-127.9887423725167
 10
104.3292046180149
 20
-127.9887423725167
 10
104.5238525129315
 20
-127.9887423725167
 10
104.5238525129315
 20
-127.9887423725167
 10
104.5238525129315
 20
-127.9887423725167
 10
104.5238525129315
 20
-128.6043809357309
 10
104.5238525129315
 20
-128.6043809357309
 10
104.5238525129315
 20
-128.6043809357309
 10
104.9469102385202
 20
-128.6698377499506
 10
104.9469102385202
 20
-128.6698377499506
 10
104.9131483027648
 20
-128.6085150503131
 10
104.8728406855873
 20
-128.5261772682157
 10
104.8728406855873
 20
-128.4076659835231
 10
104.8728406855873
 20
-128.1537624462602
 10
105.0592203513394
 20
-127.916739876875
 10
105.3723795309486
 20
-127.916739876875
 10
105.6896728251401
 20
-127.916739876875
 10
105.9242838276856
 20
-128.1410155929647
 10
105.9242838276856
 20
-128.4434949765697
 97
        0
 97
        0
 75
     2
 76
     1
 98
        0
  0
ENDBLK
  5
66
330
63
100
AcDbEntity
  8
0
100
AcDbBlockEnd
  0
BLOCK
  5
76
330
74
100
AcDbEntity
  8
0
100
AcDbBlockBegin
  2
block 4
 70
     0
 10
0.0
 20
0.0
 30
0.0
  3
block 4
  1

  0
SPLINE
  5
78
330
74
100
AcDbEntity
  8
_U+30EC_U+30A4_U+30E4_U+30FC 1
370
     0
100
AcDbSpline
210
0.0
220
0.0
230
1.0
 70
    11
 71
     3
 72
    44
 73
    40
 74
     0
 42
0.0000000001
 43
0.0000000001
 12
1.0
 22
0.0
 32
0.0
 13
1.0
 23
0.0
 33
0.0
 40
0.0
 40
0.0
 40
0.0
 40
0.0
 40
1.0
 40
1.0
 40
1.0
 40
2.0
 40
2.0
 40
2.0
 40
3.0
 40
3.0
 40
3.0
 40
4.0
 40
4.0
 40
4.0
 40
5.0
 40
5.0
 40
5.0
 40
6.0
 40
6.0
 40
6.0
 40
7.0
 40
7.0
 40
7.0
 40
8.0
 40
8.0
 40
8.0
 40
9.0
 40
9.0
 40
9.0
 40
10.0
 40
10.0
 40
10.0
 40
11.0
 40
11.0
 40
11.0
 40
12.0
 40
12.0
 40
12.0
 40
13.0
 40
13.0
 40
13.0
 40
13.0
 10
105.2917642965937
 20
-124.9312201293575
 30
0.0
 10
105.4505831984637
 20
-125.1489501640253
 30
0.0
 10
105.5246527513966
 20
-125.241967742127
 30
0.0
 10
105.6683132331315
 20
-125.2908880980176
 30
0.0
 10
105.6683132331315
 20
-125.2908880980176
 30
0.0
 10
105.6683132331315
 20
-124.5122965183511
 30
0.0
 10
105.6683132331315
 20
-124.5122965183511
 30
0.0
 10
105.6683132331315
 20
-124.5122965183511
 30
0.0
 10
105.8736409240524
 20
-124.5122965183511
 30
0.0
 10
105.8736409240524
 20
-124.5122965183511
 30
0.0
 10
105.8736409240524
 20
-124.5122965183511
 30
0.0
 10
105.8736409240524
 20
-125.5403130111496
 30
0.0
 10
105.8736409240524
 20
-125.5403130111496
 30
0.0
 10
105.5160400126835
 20
-125.5086181326854
 30
0.0
 10
105.4378363451683
 20
-125.4431613184656
 30
0.0
 10
105.1394910761457
 20
-125.0579996432147
 30
0.0
 10
104.9407090666468
 20
-124.8020290486606
 30
0.0
 10
104.8728406855873
 20
-124.7365722344409
 30
0.0
 10
104.7353813757259
 20
-124.7365722344409
 30
0.0
 10
104.6168700910333
 20
-124.7365722344409
 30
0.0
 10
104.4859564625938
 20
-124.8085747300826
 30
0.0
 10
104.4859564625938
 20
-125.0052896822904
 30
0.0
 10
104.4859564625938
 20
-125.2653943914267
 30
0.0
 10
104.716433350557
 20
-125.2740071301398
 30
0.0
 10
104.8328775779585
 20
-125.2781412447221
 30
0.0
 10
104.8328775779585
 20
-125.2781412447221
 30
0.0
 10
104.8328775779585
 20
-125.5024169608119
 30
0.0
 10
104.8328775779585
 20
-125.5024169608119
 30
0.0
 10
104.7057535545527
 20
-125.4938042220988
 30
0.0
 10
104.5937879512821
 20
-125.4831244260945
 30
0.0
 10
104.4752766665895
 20
-125.4028537012882
 30
0.0
 10
104.3143907074283
 20
-125.2929551553087
 30
0.0
 10
104.2806287716729
 20
-125.1065754895567
 30
0.0
 10
104.2806287716729
 20
-124.9904757717038
 30
0.0
 10
104.2806287716729
 20
-124.7131455851412
 30
0.0
 10
104.4645968705852
 20
-124.5057508369291
 30
0.0
 10
104.737448433017
 20
-124.5057508369291
 30
0.0
 10
104.9662027732376
 20
-124.5057508369291
 30
0.0
 10
105.0654215232128
 20
-124.6221950643306
 30
0.0
 10
105.2917642965937
 20
-124.9312201293575
 30
0.0
  0
HATCH
  5
79
330
74
100
AcDbEntity
  8
_U+30EC_U+30A4_U+30E4_U+30FC 1
 62
   179
420
  2234388
100
AcDbHatch
 10
0.0
 20
0.0
 30
0.0
210
0.0
220
0.0
230
1.0
  2
SOLID
 70
     1
 71
     0
 91
        1
 92
        1
 93
        1
 72
     4
 94
        3
 73
     0
 74
     1
 95
       44
 96
       40
 40
0.0
 40
0.0
 40
0.0
 40
0.0
 40
1.0
 40
1.0
 40
1.0
 40
2.0
 40
2.0
 40
2.0
 40
3.0
 40
3.0
 40
3.0
 40
4.0
 40
4.0
 40
4.0
 40
5.0
 40
5.0
 40
5.0
 40
6.0
 40
6.0
 40
6.0
 40
7.0
 40
7.0
 40
7.0
 40
8.0
 40
8.0
 40
8.0
 40
9.0
 40
9.0
 40
9.0
 40
10.0
 40
10.0
 40
10.0
 40
11.0
 40
11.0
 40
11.0
 40
12.0
 40
12.0
 40
12.0
 40
13.0
 40
13.0
 40
13.0
 40
13.0
 10
105.2917642965937
 20
-124.9312201293575
 10
105.4505831984637
 20
-125.1489501640253
 10
105.5246527513966
 20
-125.241967742127
 10
105.6683132331315
 20
-125.2908880980176
 10
105.6683132331315
 20
-125.2908880980176
 10
105.6683132331315
 20
-124.5122965183511
 10
105.6683132331315
 20
-124.5122965183511
 10
105.6683132331315
 20
-124.5122965183511
 10
105.8736409240524
 20
-124.5122965183511
 10
105.8736409240524
 20
-124.5122965183511
 10
105.8736409240524
 20
-124.5122965183511
 10
105.8736409240524
 20
-125.5403130111496
 10
105.8736409240524
 20
-125.5403130111496
 10
105.5160400126835
 20
-125.5086181326854
 10
105.4378363451683
 20
-125.4431613184656
 10
105.1394910761457
 20
-125.0579996432147
 10
104.9407090666468
 20
-124.8020290486606
 10
104.8728406855873
 20
-124.7365722344409
 10
104.7353813757259
 20
-124.7365722344409
 10
104.6168700910333
 20
-124.7365722344409
 10
104.4859564625938
 20
-124.8085747300826
 10
104.4859564625938
 20
-125.0052896822904
 10
104.4859564625938
 20
-125.2653943914267
 10
104.716433350557
 20
-125.2740071301398
 10
104.8328775779585
 20
-125.2781412447221
 10
104.8328775779585
 20
-125.2781412447221
 10
104.8328775779585
 20
-125.5024169608119
 10
104.8328775779585
 20
-125.5024169608119
 10
104.7057535545527
 20
-125.4938042220988
 10
104.5937879512821
 20
-125.4831244260945
 10
104.4752766665895
 20
-125.4028537012882
 10
104.3143907074283
 20
-125.2929551553087
 10
104.2806287716729
 20
-125.1065754895567
 10
104.2806287716729
 20
-124.9904757717038
 10
104.2806287716729
 20
-124.7131455851412
 10
104.4645968705852
 20
-124.5057508369291
 10
104.737448433017
 20
-124.5057508369291
 10
104.9662027732376
 20
-124.5057508369291
 10
105.0654215232128
 20
-124.6221950643306
 10
105.2917642965937
 20
-124.9312201293575
 97
        0
 97
        0
 75
     2
 76
     1
 98
        0
  0
ENDBLK
  5
77
330
74
100
AcDbEntity
  8
0
100
AcDbBlockEnd
  0
BLOCK
  5
88
330
86
100
AcDbEntity
  8
0
100
AcDbBlockBegin
  2
block 5
 70
     0
 10
0.0
 20
0.0
 30
0.0
  3
block 5
  1

  0
SPLINE
  5
8A
330
86
100
AcDbEntity
  8
_U+30EC_U+30A4_U+30E4_U+30FC 1
370
     0
100
AcDbSpline
210
0.0
220
0.0
230
1.0
 70
    11
 71
     3
 72
    44
 73
    40
 74
     0
 42
0.0000000001
 43
0.0000000001
 12
1.0
 22
0.0
 32
0.0
 13
1.0
 23
0.0
 33
0.0
 40
0.0
 40
0.0
 40
0.0
 40
0.0
 40
1.0
 40
1.0
 40
1.0
 40
2.0
 40
2.0
 40
2.0
 40
3.0
 40
3.0
 40
3.0
 40
4.0
 40
4.0
 40
4.0
 40
5.0
 40
5.0
 40
5.0
 40
6.0
 40
6.0
 40
6.0
 40
7.0
 40
7.0
 40
7.0
 40
8.0
 40
8.0
 40
8.0
 40
9.0
 40
9.0
 40
9.0
 40
10.0
 40
10.0
 40
10.0
 40
11.0
 40
11.0
 40
11.0
 40
12.0
 40
12.0
 40
12.0
 40
13.0
 40
13.0
 40
13.0
 40
13.0
 10
87.02259519308811
 20
-136.2524929129855
 30
0.0
 10
86.80486515842031
 20
-136.4113118148555
 30
0.0
 10
86.71184758031858
 20
-136.4853813677884
 30
0.0
 10
86.66292722442802
 20
-136.6290418495233
 30
0.0
 10
86.66292722442802
 20
-136.6290418495233
 30
0.0
 10
87.44151880409449
 20
-136.6290418495233
 30
0.0
 10
87.44151880409449
 20
-136.6290418495233
 30
0.0
 10
87.44151880409449
 20
-136.6290418495233
 30
0.0
 10
87.44151880409449
 20
-136.8343695404442
 30
0.0
 10
87.44151880409449
 20
-136.8343695404442
 30
0.0
 10
87.44151880409449
 20
-136.8343695404442
 30
0.0
 10
86.41350231129593
 20
-136.8343695404442
 30
0.0
 10
86.41350231129593
 20
-136.8343695404442
 30
0.0
 10
86.44519718976024
 20
-136.4767686290753
 30
0.0
 10
86.51065400397998
 20
-136.3985649615601
 30
0.0
 10
86.8958156792309
 20
-136.1002196925375
 30
0.0
 10
87.15178627378498
 20
-135.9014376830385
 30
0.0
 10
87.21724308800472
 20
-135.8335693019791
 30
0.0
 10
87.21724308800472
 20
-135.6961099921176
 30
0.0
 10
87.21724308800472
 20
-135.577598707425
 30
0.0
 10
87.145240592363
 20
-135.4466850789856
 30
0.0
 10
86.94852564015524
 20
-135.4466850789856
 30
0.0
 10
86.68842093101887
 20
-135.4466850789856
 30
0.0
 10
86.68015270185427
 20
-135.6771619669488
 30
0.0
 10
86.67567407772344
 20
-135.7936061943502
 30
0.0
 10
86.67567407772344
 20
-135.7936061943502
 30
0.0
 10
86.45139836163368
 20
-135.7936061943502
 30
0.0
 10
86.45139836163368
 20
-135.7936061943502
 30
0.0
 10
86.4600111003468
 20
-135.6664821709445
 30
0.0
 10
86.47069089635109
 20
-135.5545165676739
 30
0.0
 10
86.5509616211574
 20
-135.4360052829813
 30
0.0
 10
86.66086016713687
 20
-135.2751193238201
 30
0.0
 10
86.84723983288889
 20
-135.2413573880647
 30
0.0
 10
86.96333955074181
 20
-135.2413573880647
 30
0.0
 10
87.24066973730442
 20
-135.2413573880647
 30
0.0
 10
87.44806448551645
 20
-135.425325486977
 30
0.0
 10
87.44806448551645
 20
-135.6981770494088
 30
0.0
 10
87.44806448551645
 20
-135.9269313896294
 30
0.0
 10
87.33162025811501
 20
-136.0261501396046
 30
0.0
 10
87.02259519308811
 20
-136.2524929129855
 30
0.0
  0
HATCH
  5
8B
330
86
100
AcDbEntity
  8
_U+30EC_U+30A4_U+30E4_U+30FC 1
 62
   179
420
  2234388
100
AcDbHatch
 10
0.0
 20
0.0
 30
0.0
210
0.0
220
0.0
230
1.0
  2
SOLID
 70
     1
 71
     0
 91
        1
 92
        1
 93
        1
 72
     4
 94
        3
 73
     0
 74
     1
 95
       44
 96
       40
 40
0.0
 40
0.0
 40
0.0
 40
0.0
 40
1.0
 40
1.0
 40
1.0
 40
2.0
 40
2.0
 40
2.0
 40
3.0
 40
3.0
 40
3.0
 40
4.0
 40
4.0
 40
4.0
 40
5.0
 40
5.0
 40
5.0
 40
6.0
 40
6.0
 40
6.0
 40
7.0
 40
7.0
 40
7.0
 40
8.0
 40
8.0
 40
8.0
 40
9.0
 40
9.0
 40
9.0
 40
10.0
 40
10.0
 40
10.0
 40
11.0
 40
11.0
 40
11.0
 40
12.0
 40
12.0
 40
12.0
 40
13.0
 40
13.0
 40
13.0
 40
13.0
 10
87.02259519308811
 20
-136.2524929129855
 10
86.80486515842031
 20
-136.4113118148555
 10
86.71184758031858
 20
-136.4853813677884
 10
86.66292722442802
 20
-136.6290418495233
 10
86.66292722442802
 20
-136.6290418495233
 10
87.44151880409449
 20
-136.6290418495233
 10
87.44151880409449
 20
-136.6290418495233
 10
87.44151880409449
 20
-136.6290418495233
 10
87.44151880409449
 20
-136.8343695404442
 10
87.44151880409449
 20
-136.8343695404442
 10
87.44151880409449
 20
-136.8343695404442
 10
86.41350231129593
 20
-136.8343695404442
 10
86.41350231129593
 20
-136.8343695404442
 10
86.44519718976024
 20
-136.4767686290753
 10
86.51065400397998
 20
-136.3985649615601
 10
86.8958156792309
 20
-136.1002196925375
 10
87.15178627378498
 20
-135.9014376830385
 10
87.21724308800472
 20
-135.8335693019791
 10
87.21724308800472
 20
-135.6961099921176
 10
87.21724308800472
 20
-135.577598707425
 10
87.145240592363
 20
-135.4466850789856
 10
86.94852564015524
 20
-135.4466850789856
 10
86.68842093101887
 20
-135.4466850789856
 10
86.68015270185427
 20
-135.6771619669488
 10
86.67567407772344
 20
-135.7936061943502
 10
86.67567407772344
 20
-135.7936061943502
 10
86.45139836163368
 20
-135.7936061943502
 10
86.45139836163368
 20
-135.7936061943502
 10
86.4600111003468
 20
-135.6664821709445
 10
86.47069089635109
 20
-135.5545165676739
 10
86.5509616211574
 20
-135.4360052829813
 10
86.66086016713687
 20
-135.2751193238201
 10
86.84723983288889
 20
-135.2413573880647
 10
86.96333955074181
 20
-135.2413573880647
 10
87.24066973730442
 20
-135.2413573880647
 10
87.44806448551645
 20
-135.425325486977
 10
87.44806448551645
 20
-135.6981770494088
 10
87.44806448551645
 20
-135.9269313896294
 10
87.33162025811501
 20
-136.0261501396046
 10
87.02259519308811
 20
-136.2524929129855
 97
        0
 97
        0
 75
     2
 76
     1
 98
        0
  0
SPLINE
  5
8C
330
86
100
AcDbEntity
  8
_U+30EC_U+30A4_U+30E4_U+30FC 1
370
     0
100
AcDbSpline
210
0.0
220
0.0
230
1.0
 70
    11
 71
     3
 72
    53
 73
    49
 74
     0
 42
0.0000000001
 43
0.0000000001
 12
1.0
 22
0.0
 32
0.0
 13
1.0
 23
0.0
 33
0.0
 40
0.0
 40
0.0
 40
0.0
 40
0.0
 40
1.0
 40
1.0
 40
1.0
 40
2.0
 40
2.0
 40
2.0
 40
3.0
 40
3.0
 40
3.0
 40
4.0
 40
4.0
 40
4.0
 40
5.0
 40
5.0
 40
5.0
 40
6.0
 40
6.0
 40
6.0
 40
7.0
 40
7.0
 40
7.0
 40
8.0
 40
8.0
 40
8.0
 40
9.0
 40
9.0
 40
9.0
 40
10.0
 40
10.0
 40
10.0
 40
11.0
 40
11.0
 40
11.0
 40
12.0
 40
12.0
 40
12.0
 40
13.0
 40
13.0
 40
13.0
 40
14.0
 40
14.0
 40
14.0
 40
15.0
 40
15.0
 40
15.0
 40
16.0
 40
16.0
 40
16.0
 40
16.0
 10
88.08747420757884
 20
-136.8850124440774
 30
0.0
 10
88.00927054006365
 20
-136.8850124440774
 30
0.0
 10
87.90764022324879
 20
-136.8681314761996
 30
0.0
 10
87.80600990643391
 20
-136.804741719271
 30
0.0
 10
87.63272160352585
 20
-136.6948431732916
 30
0.0
 10
87.6113620115173
 20
-136.5635850353036
 30
0.0
 10
87.59241398634843
 20
-136.4557535466152
 30
0.0
 10
87.59241398634843
 20
-136.4557535466152
 30
0.0
 10
87.81462264514704
 20
-136.4557535466152
 30
0.0
 10
87.81462264514704
 20
-136.4557535466152
 30
0.0
 10
87.86939966336251
 20
-136.6545355561142
 30
0.0
 10
87.99652368676823
 20
-136.6841633772873
 30
0.0
 10
88.08954126486998
 20
-136.6841633772873
 30
0.0
 10
88.22906763202259
 20
-136.6841633772873
 30
0.0
 10
88.38134085247064
 20
-136.5846001177636
 30
0.0
 10
88.38134085247064
 20
-136.3520561725092
 30
0.0
 10
88.38134085247064
 20
-136.0960855779552
 30
0.0
 10
88.2015068681406
 20
-136.0261501396046
 30
0.0
 10
88.08092852615685
 20
-136.0261501396046
 30
0.0
 10
88.04923364769256
 20
-136.0261501396046
 30
0.0
 10
87.90764022324879
 20
-136.0261501396046
 30
0.0
 10
87.81875675972934
 20
-136.1553412203014
 30
0.0
 10
87.81875675972934
 20
-136.1553412203014
 30
0.0
 10
87.6430568899816
 20
-136.1363931951326
 30
0.0
 10
87.6430568899816
 20
-136.1363931951326
 30
0.0
 10
87.6430568899816
 20
-136.1363931951326
 30
0.0
 10
87.76363523196534
 20
-135.2899332344067
 30
0.0
 10
87.76363523196534
 20
-135.2899332344067
 30
0.0
 10
87.76363523196534
 20
-135.2899332344067
 30
0.0
 10
88.5422268116318
 20
-135.2899332344067
 30
0.0
 10
88.5422268116318
 20
-135.2899332344067
 30
0.0
 10
88.5422268116318
 20
-135.2899332344067
 30
0.0
 10
88.5422268116318
 20
-135.4845811293233
 30
0.0
 10
88.5422268116318
 20
-135.4845811293233
 30
0.0
 10
88.5422268116318
 20
-135.4845811293233
 30
0.0
 10
87.92658824841766
 20
-135.4845811293233
 30
0.0
 10
87.92658824841766
 20
-135.4845811293233
 30
0.0
 10
87.92658824841766
 20
-135.4845811293233
 30
0.0
 10
87.86113143419792
 20
-135.907638854912
 30
0.0
 10
87.86113143419792
 20
-135.907638854912
 30
0.0
 10
87.92245413383536
 20
-135.8738769191565
 30
0.0
 10
88.00479191593283
 20
-135.8335693019791
 30
0.0
 10
88.12330320062543
 20
-135.8335693019791
 30
0.0
 10
88.37720673788834
 20
-135.8335693019791
 30
0.0
 10
88.61422930727353
 20
-136.0199489677311
 30
0.0
 10
88.61422930727353
 20
-136.3331081473403
 30
0.0
 10
88.61422930727353
 20
-136.6504014415318
 30
0.0
 10
88.38995359118377
 20
-136.8850124440774
 30
0.0
 10
88.08747420757884
 20
-136.8850124440774
 30
0.0
  0
HATCH
  5
8D
330
86
100
AcDbEntity
  8
_U+30EC_U+30A4_U+30E4_U+30FC 1
 62
   179
420
  2234388
100
AcDbHatch
 10
0.0
 20
0.0
 30
0.0
210
0.0
220
0.0
230
1.0
  2
SOLID
 70
     1
 71
     0
 91
        1
 92
        1
 93
        1
 72
     4
 94
        3
 73
     0
 74
     1
 95
       53
 96
       49
 40
0.0
 40
0.0
 40
0.0
 40
0.0
 40
1.0
 40
1.0
 40
1.0
 40
2.0
 40
2.0
 40
2.0
 40
3.0
 40
3.0
 40
3.0
 40
4.0
 40
4.0
 40
4.0
 40
5.0
 40
5.0
 40
5.0
 40
6.0
 40
6.0
 40
6.0
 40
7.0
 40
7.0
 40
7.0
 40
8.0
 40
8.0
 40
8.0
 40
9.0
 40
9.0
 40
9.0
 40
10.0
 40
10.0
 40
10.0
 40
11.0
 40
11.0
 40
11.0
 40
12.0
 40
12.0
 40
12.0
 40
13.0
 40
13.0
 40
13.0
 40
14.0
 40
14.0
 40
14.0
 40
15.0
 40
15.0
 40
15.0
 40
16.0
 40
16.0
 40
16.0
 40
16.0
 10
88.08747420757884
 20
-136.8850124440774
 10
88.00927054006365
 20
-136.8850124440774
 10
87.90764022324879
 20
-136.8681314761996
 10
87.80600990643391
 20
-136.804741719271
 10
87.63272160352585
 20
-136.6948431732916
 10
87.6113620115173
 20
-136.5635850353036
 10
87.59241398634843
 20
-136.4557535466152
 10
87.59241398634843
 20
-136.4557535466152
 10
87.81462264514704
 20
-136.4557535466152
 10
87.81462264514704
 20
-136.4557535466152
 10
87.86939966336251
 20
-136.6545355561142
 10
87.99652368676823
 20
-136.6841633772873
 10
88.08954126486998
 20
-136.6841633772873
 10
88.22906763202259
 20
-136.6841633772873
 10
88.38134085247064
 20
-136.5846001177636
 10
88.38134085247064
 20
-136.3520561725092
 10
88.38134085247064
 20
-136.0960855779552
 10
88.2015068681406
 20
-136.0261501396046
 10
88.08092852615685
 20
-136.0261501396046
 10
88.04923364769256
 20
-136.0261501396046
 10
87.90764022324879
 20
-136.0261501396046
 10
87.81875675972934
 20
-136.1553412203014
 10
87.81875675972934
 20
-136.1553412203014
 10
87.6430568899816
 20
-136.1363931951326
 10
87.6430568899816
 20
-136.1363931951326
 10
87.6430568899816
 20
-136.1363931951326
 10
87.76363523196534
 20
-135.2899332344067
 10
87.76363523196534
 20
-135.2899332344067
 10
87.76363523196534
 20
-135.2899332344067
 10
88.5422268116318
 20
-135.2899332344067
 10
88.5422268116318
 20
-135.2899332344067
 10
88.5422268116318
 20
-135.2899332344067
 10
88.5422268116318
 20
-135.4845811293233
 10
88.5422268116318
 20
-135.4845811293233
 10
88.5422268116318
 20
-135.4845811293233
 10
87.92658824841766
 20
-135.4845811293233
 10
87.92658824841766
 20
-135.4845811293233
 10
87.92658824841766
 20
-135.4845811293233
 10
87.86113143419792
 20
-135.907638854912
 10
87.86113143419792
 20
-135.907638854912
 10
87.92245413383536
 20
-135.8738769191565
 10
88.00479191593283
 20
-135.8335693019791
 10
88.12330320062543
 20
-135.8335693019791
 10
88.37720673788834
 20
-135.8335693019791
 10
88.61422930727353
 20
-136.0199489677311
 10
88.61422930727353
 20
-136.3331081473403
 10
88.61422930727353
 20
-136.6504014415318
 10
88.38995359118377
 20
-136.8850124440774
 10
88.08747420757884
 20
-136.8850124440774
 97
        0
 97
        0
 75
     2
 76
     1
 98
        0
  0
ENDBLK
  5
89
330
86
100
AcDbEntity
  8
0
100
AcDbBlockEnd
  0
BLOCK
  5
9C
330
9A
100
AcDbEntity
  8
0
100
AcDbBlockBegin
  2
block 6
 70
     0
 10
0.0
 20
0.0
 30
0.0
  3
block 6
  1

  0
SPLINE
  5
9E
330
9A
100
AcDbEntity
  8
_U+30EC_U+30A4_U+30E4_U+30FC 1
370
     0
100
AcDbSpline
210
0.0
220
0.0
230
1.0
 70
    11
 71
     3
 72
    26
 73
    22
 74
     0
 42
0.0000000001
 43
0.0000000001
 12
1.0
 22
0.0
 32
0.0
 13
1.0
 23
0.0
 33
0.0
 40
0.0
 40
0.0
 40
0.0
 40
0.0
 40
1.0
 40
1.0
 40
1.0
 40
2.0
 40
2.0
 40
2.0
 40
3.0
 40
3.0
 40
3.0
 40
4.0
 40
4.0
 40
4.0
 40
5.0
 40
5.0
 40
5.0
 40
6.0
 40
6.0
 40
6.0
 40
7.0
 40
7.0
 40
7.0
 40
7.0
 10
86.63140460073798
 20
-120.8739311763787
 30
0.0
 10
86.63140460073798
 20
-120.8739311763787
 30
0.0
 10
86.63140460073798
 20
-119.7697780733562
 30
0.0
 10
86.63140460073798
 20
-119.7697780733562
 30
0.0
 10
86.63140460073798
 20
-119.7697780733562
 30
0.0
 10
86.30136445325105
 20
-119.7697780733562
 30
0.0
 10
86.30136445325105
 20
-119.7697780733562
 30
0.0
 10
86.30136445325105
 20
-119.7697780733562
 30
0.0
 10
86.30136445325105
 20
-119.6216389674904
 30
0.0
 10
86.30136445325105
 20
-119.6216389674904
 30
0.0
 10
86.63347165802914
 20
-119.6068250569039
 30
0.0
 10
86.67998044708001
 20
-119.4438720404515
 30
0.0
 10
86.70960826825316
 20
-119.3294948703412
 30
0.0
 10
86.70960826825316
 20
-119.3294948703412
 30
0.0
 10
86.85568031682774
 20
-119.3294948703412
 30
0.0
 10
86.85568031682774
 20
-119.3294948703412
 30
0.0
 10
86.85568031682774
 20
-119.3294948703412
 30
0.0
 10
86.85568031682774
 20
-120.8739311763787
 30
0.0
 10
86.85568031682774
 20
-120.8739311763787
 30
0.0
 10
86.85568031682774
 20
-120.8739311763787
 30
0.0
 10
86.63140460073798
 20
-120.8739311763787
 30
0.0
 10
86.63140460073798
 20
-120.8739311763787
 30
0.0
  0
HATCH
  5
9F
330
9A
100
AcDbEntity
  8
_U+30EC_U+30A4_U+30E4_U+30FC 1
 62
   179
420
  2234388
100
AcDbHatch
 10
0.0
 20
0.0
 30
0.0
210
0.0
220
0.0
230
1.0
  2
SOLID
 70
     1
 71
     0
 91
        1
 92
        1
 93
        1
 72
     4
 94
        3
 73
     0
 74
     1
 95
       26
 96
       22
 40
0.0
 40
0.0
 40
0.0
 40
0.0
 40
1.0
 40
1.0
 40
1.0
 40
2.0
 40
2.0
 40
2.0
 40
3.0
 40
3.0
 40
3.0
 40
4.0
 40
4.0
 40
4.0
 40
5.0
 40
5.0
 40
5.0
 40
6.0
 40
6.0
 40
6.0
 40
7.0
 40
7.0
 40
7.0
 40
7.0
 10
86.63140460073798
 20
-120.8739311763787
 10
86.63140460073798
 20
-120.8739311763787
 10
86.63140460073798
 20
-119.7697780733562
 10
86.63140460073798
 20
-119.7697780733562
 10
86.63140460073798
 20
-119.7697780733562
 10
86.30136445325105
 20
-119.7697780733562
 10
86.30136445325105
 20
-119.7697780733562
 10
86.30136445325105
 20
-119.7697780733562
 10
86.30136445325105
 20
-119.6216389674904
 10
86.30136445325105
 20
-119.6216389674904
 10
86.63347165802914
 20
-119.6068250569039
 10
86.67998044708001
 20
-119.4438720404515
 10
86.70960826825316
 20
-119.3294948703412
 10
86.70960826825316
 20
-119.3294948703412
 10
86.85568031682774
 20
-119.3294948703412
 10
86.85568031682774
 20
-119.3294948703412
 10
86.85568031682774
 20
-119.3294948703412
 10
86.85568031682774
 20
-120.8739311763787
 10
86.85568031682774
 20
-120.8739311763787
 10
86.85568031682774
 20
-120.8739311763787
 10
86.63140460073798
 20
-120.8739311763787
 10
86.63140460073798
 20
-120.8739311763787
 97
        0
 97
        0
 75
     2
 76
     1
 98
        0
  0
SPLINE
  5
A0
330
9A
100
AcDbEntity
  8
_U+30EC_U+30A4_U+30E4_U+30FC 1
370
     0
100
AcDbSpline
210
0.0
220
0.0
230
1.0
 70
    11
 71
     3
 72
    44
 73
    40
 74
     0
 42
0.0000000001
 43
0.0000000001
 12
1.0
 22
0.0
 32
0.0
 13
1.0
 23
0.0
 33
0.0
 40
0.0
 40
0.0
 40
0.0
 40
0.0
 40
1.0
 40
1.0
 40
1.0
 40
2.0
 40
2.0
 40
2.0
 40
3.0
 40
3.0
 40
3.0
 40
4.0
 40
4.0
 40
4.0
 40
5.0
 40
5.0
 40
5.0
 40
6.0
 40
6.0
 40
6.0
 40
7.0
 40
7.0
 40
7.0
 40
8.0
 40
8.0
 40
8.0
 40
9.0
 40
9.0
 40
9.0
 40
10.0
 40
10.0
 40
10.0
 40
11.0
 40
11.0
 40
11.0
 40
12.0
 40
12.0
 40
12.0
 40
13.0
 40
13.0
 40
13.0
 40
13.0
 10
87.9498426429431
 20
-120.29205454892
 30
0.0
 10
87.73211260827532
 20
-120.4508734507901
 30
0.0
 10
87.63909503017356
 20
-120.5249430037229
 30
0.0
 10
87.59017467428302
 20
-120.6686034854579
 30
0.0
 10
87.59017467428302
 20
-120.6686034854579
 30
0.0
 10
88.36876625394947
 20
-120.6686034854579
 30
0.0
 10
88.36876625394947
 20
-120.6686034854579
 30
0.0
 10
88.36876625394947
 20
-120.6686034854579
 30
0.0
 10
88.36876625394947
 20
-120.8739311763787
 30
0.0
 10
88.36876625394947
 20
-120.8739311763787
 30
0.0
 10
88.36876625394947
 20
-120.8739311763787
 30
0.0
 10
87.34074976115093
 20
-120.8739311763787
 30
0.0
 10
87.34074976115093
 20
-120.8739311763787
 30
0.0
 10
87.37244463961522
 20
-120.5163302650098
 30
0.0
 10
87.43790145383497
 20
-120.4381265974946
 30
0.0
 10
87.82306312908591
 20
-120.139781328472
 30
0.0
 10
88.07903372363997
 20
-119.9409993189731
 30
0.0
 10
88.14449053785971
 20
-119.8731309379137
 30
0.0
 10
88.14449053785971
 20
-119.7356716280522
 30
0.0
 10
88.14449053785971
 20
-119.6171603433596
 30
0.0
 10
88.072488042218
 20
-119.4862467149201
 30
0.0
 10
87.87577309001023
 20
-119.4862467149201
 30
0.0
 10
87.61566838087387
 20
-119.4862467149201
 30
0.0
 10
87.60740015170927
 20
-119.7167236028833
 30
0.0
 10
87.60292152757845
 20
-119.8331678302848
 30
0.0
 10
87.60292152757845
 20
-119.8331678302848
 30
0.0
 10
87.37864581148868
 20
-119.8331678302848
 30
0.0
 10
87.37864581148868
 20
-119.8331678302848
 30
0.0
 10
87.3872585502018
 20
-119.7060438068791
 30
0.0
 10
87.39793834620608
 20
-119.5940782036084
 30
0.0
 10
87.4782090710124
 20
-119.4755669189158
 30
0.0
 10
87.58810761699186
 20
-119.3146809597547
 30
0.0
 10
87.77448728274388
 20
-119.2809190239992
 30
0.0
 10
87.8905870005968
 20
-119.2809190239992
 30
0.0
 10
88.16791718715942
 20
-119.2809190239992
 30
0.0
 10
88.37531193537146
 20
-119.4648871229116
 30
0.0
 10
88.37531193537146
 20
-119.7377386853433
 30
0.0
 10
88.37531193537146
 20
-119.9664930255639
 30
0.0
 10
88.25886770797001
 20
-120.0657117755391
 30
0.0
 10
87.9498426429431
 20
-120.29205454892
 30
0.0
  0
HATCH
  5
A1
330
9A
100
AcDbEntity
  8
_U+30EC_U+30A4_U+30E4_U+30FC 1
 62
   179
420
  2234388
100
AcDbHatch
 10
0.0
 20
0.0
 30
0.0
210
0.0
220
0.0
230
1.0
  2
SOLID
 70
     1
 71
     0
 91
        1
 92
        1
 93
        1
 72
     4
 94
        3
 73
     0
 74
     1
 95
       44
 96
       40
 40
0.0
 40
0.0
 40
0.0
 40
0.0
 40
1.0
 40
1.0
 40
1.0
 40
2.0
 40
2.0
 40
2.0
 40
3.0
 40
3.0
 40
3.0
 40
4.0
 40
4.0
 40
4.0
 40
5.0
 40
5.0
 40
5.0
 40
6.0
 40
6.0
 40
6.0
 40
7.0
 40
7.0
 40
7.0
 40
8.0
 40
8.0
 40
8.0
 40
9.0
 40
9.0
 40
9.0
 40
10.0
 40
10.0
 40
10.0
 40
11.0
 40
11.0
 40
11.0
 40
12.0
 40
12.0
 40
12.0
 40
13.0
 40
13.0
 40
13.0
 40
13.0
 10
87.9498426429431
 20
-120.29205454892
 10
87.73211260827532
 20
-120.4508734507901
 10
87.63909503017356
 20
-120.5249430037229
 10
87.59017467428302
 20
-120.6686034854579
 10
87.59017467428302
 20
-120.6686034854579
 10
88.36876625394947
 20
-120.6686034854579
 10
88.36876625394947
 20
-120.6686034854579
 10
88.36876625394947
 20
-120.6686034854579
 10
88.36876625394947
 20
-120.8739311763787
 10
88.36876625394947
 20
-120.8739311763787
 10
88.36876625394947
 20
-120.8739311763787
 10
87.34074976115093
 20
-120.8739311763787
 10
87.34074976115093
 20
-120.8739311763787
 10
87.37244463961522
 20
-120.5163302650098
 10
87.43790145383497
 20
-120.4381265974946
 10
87.82306312908591
 20
-120.139781328472
 10
88.07903372363997
 20
-119.9409993189731
 10
88.14449053785971
 20
-119.8731309379137
 10
88.14449053785971
 20
-119.7356716280522
 10
88.14449053785971
 20
-119.6171603433596
 10
88.072488042218
 20
-119.4862467149201
 10
87.87577309001023
 20
-119.4862467149201
 10
87.61566838087387
 20
-119.4862467149201
 10
87.60740015170927
 20
-119.7167236028833
 10
87.60292152757845
 20
-119.8331678302848
 10
87.60292152757845
 20
-119.8331678302848
 10
87.37864581148868
 20
-119.8331678302848
 10
87.37864581148868
 20
-119.8331678302848
 10
87.3872585502018
 20
-119.7060438068791
 10
87.39793834620608
 20
-119.5940782036084
 10
87.4782090710124
 20
-119.4755669189158
 10
87.58810761699186
 20
-119.3146809597547
 10
87.77448728274388
 20
-119.2809190239992
 10
87.8905870005968
 20
-119.2809190239992
 10
88.16791718715942
 20
-119.2809190239992
 10
88.37531193537146
 20
-119.4648871229116
 10
88.37531193537146
 20
-119.7377386853433
 10
88.37531193537146
 20
-119.9664930255639
 10
88.25886770797001
 20
-120.0657117755391
 10
87.9498426429431
 20
-120.29205454892
 97
        0
 97
        0
 75
     2
 76
     1
 98
        0
  0
ENDBLK
  5
9D
330
9A
100
AcDbEntity
  8
0
100
AcDbBlockEnd
  0
ENDSEC
  0
SECTION
  2
ENTITIES
  0
SPLINE
  5
41
330
1F
100
AcDbEntity
  8
_U+30EC_U+30A4_U+30E4_U+30FC 1
 62
   179
420
  2234388
370
     9
100
AcDbSpline
210
0.0
220
0.0
230
1.0
 70
    11
 71
     3
 72
    17
 73
    13
 74
     0
 42
0.0000000001
 43
0.0000000001
 12
1.0
 22
0.0
 32
0.0
 13
1.0
 23
0.0
 33
0.0
 40
0.0
 40
0.0
 40
0.0
 40
0.0
 40
1.0
 40
1.0
 40
1.0
 40
2.0
 40
2.0
 40
2.0
 40
3.0
 40
3.0
 40
3.0
 40
4.0
 40
4.0
 40
4.0
 40
4.0
 10
102.6672912696281
 20
-133.4309624666421
 30
0.0
 10
102.6672912696281
 20
-133.3758232999896
 30
0.0
 10
102.6224884929933
 20
-133.3310558000004
 30
0.0
 10
102.5673846055102
 20
-133.3310558000004
 30
0.0
 10
102.5122454402503
 20
-133.3310558000004
 30
0.0
 10
102.467480529939
 20
-133.3758232999896
 30
0.0
 10
102.467480529939
 20
-133.4309624666421
 30
0.0
 10
102.467480529939
 20
-133.4860663555176
 30
0.0
 10
102.5122454402503
 20
-133.5308691332837
 30
0.0
 10
102.5673846055102
 20
-133.5308691332837
 30
0.0
 10
102.6224884929933
 20
-133.5308691332837
 30
0.0
 10
102.6672912696281
 20
-133.4860663555176
 30
0.0
 10
102.6672912696281
 20
-133.4309624666421
 30
0.0
  0
SPLINE
  5
42
330
1F
100
AcDbEntity
  8
_U+30EC_U+30A4_U+30E4_U+30FC 1
 62
   179
420
  2234388
370
     9
100
AcDbSpline
210
0.0
220
0.0
230
1.0
 70
    11
 71
     3
 72
    17
 73
    13
 74
     0
 42
0.0000000001
 43
0.0000000001
 12
1.0
 22
0.0
 32
0.0
 13
1.0
 23
0.0
 33
0.0
 40
0.0
 40
0.0
 40
0.0
 40
0.0
 40
1.0
 40
1.0
 40
1.0
 40
2.0
 40
2.0
 40
2.0
 40
3.0
 40
3.0
 40
3.0
 40
4.0
 40
4.0
 40
4.0
 40
4.0
 10
102.6672912696281
 20
-132.4311902446702
 30
0.0
 10
102.6672912696281
 20
-132.3760863557946
 30
0.0
 10
102.6224884929933
 20
-132.3312835780285
 30
0.0
 10
102.5673846055102
 20
-132.3312835780285
 30
0.0
 10
102.5122454402503
 20
-132.3312835780285
 30
0.0
 10
102.467480529939
 20
-132.3760863557946
 30
0.0
 10
102.467480529939
 20
-132.4311902446702
 30
0.0
 10
102.467480529939
 20
-132.4863294113226
 30
0.0
 10
102.5122454402503
 20
-132.5310969113118
 30
0.0
 10
102.5673846055102
 20
-132.5310969113118
 30
0.0
 10
102.6224884929933
 20
-132.5310969113118
 30
0.0
 10
102.6672912696281
 20
-132.4863294113226
 30
0.0
 10
102.6672912696281
 20
-132.4311902446702
 30
0.0
  0
SPLINE
  5
43
330
1F
100
AcDbEntity
  8
_U+30EC_U+30A4_U+30E4_U+30FC 1
 62
   179
420
  2234388
370
     9
100
AcDbSpline
210
0.0
220
0.0
230
1.0
 70
    11
 71
     3
 72
    17
 73
    13
 74
     0
 42
0.0000000001
 43
0.0000000001
 12
1.0
 22
0.0
 32
0.0
 13
1.0
 23
0.0
 33
0.0
 40
0.0
 40
0.0
 40
0.0
 40
0.0
 40
1.0
 40
1.0
 40
1.0
 40
2.0
 40
2.0
 40
2.0
 40
3.0
 40
3.0
 40
3.0
 40
4.0
 40
4.0
 40
4.0
 40
4.0
 10
102.6672912696281
 20
-125.9309774685171
 30
0.0
 10
102.6672912696281
 20
-125.8758735796422
 30
0.0
 10
102.6224884929933
 20
-125.8314235796533
 30
0.0
 10
102.5673846055102
 20
-125.8314235796533
 30
0.0
 10
102.5122454402503
 20
-125.8314235796533
 30
0.0
 10
102.467480529939
 20
-125.8758735796422
 30
0.0
 10
102.467480529939
 20
-125.9309774685171
 30
0.0
 10
102.467480529939
 20
-125.9861166351702
 30
0.0
 10
102.5122454402503
 20
-126.0308841351591
 30
0.0
 10
102.5673846055102
 20
-126.0308841351591
 30
0.0
 10
102.6224884929933
 20
-126.0308841351591
 30
0.0
 10
102.6672912696281
 20
-125.9861166351702
 30
0.0
 10
102.6672912696281
 20
-125.9309774685171
 30
0.0
  0
SPLINE
  5
44
330
1F
100
AcDbEntity
  8
_U+30EC_U+30A4_U+30E4_U+30FC 1
 62
   179
420
  2234388
370
     9
100
AcDbSpline
210
0.0
220
0.0
230
1.0
 70
    11
 71
     3
 72
    17
 73
    13
 74
     0
 42
0.0000000001
 43
0.0000000001
 12
1.0
 22
0.0
 32
0.0
 13
1.0
 23
0.0
 33
0.0
 40
0.0
 40
0.0
 40
0.0
 40
0.0
 40
1.0
 40
1.0
 40
1.0
 40
2.0
 40
2.0
 40
2.0
 40
3.0
 40
3.0
 40
3.0
 40
4.0
 40
4.0
 40
4.0
 40
4.0
 10
102.6672912696281
 20
-123.9311155245728
 30
0.0
 10
102.6672912696281
 20
-123.87597635792
 30
0.0
 10
102.6224884929933
 20
-123.8312088579311
 30
0.0
 10
102.5673846055102
 20
-123.8312088579311
 30
0.0
 10
102.5122454402503
 20
-123.8312088579311
 30
0.0
 10
102.467480529939
 20
-123.87597635792
 30
0.0
 10
102.467480529939
 20
-123.9311155245728
 30
0.0
 10
102.467480529939
 20
-123.986219413448
 30
0.0
 10
102.5122454402503
 20
-124.0310221912144
 30
0.0
 10
102.5673846055102
 20
-124.0310221912144
 30
0.0
 10
102.6224884929933
 20
-124.0310221912144
 30
0.0
 10
102.6672912696281
 20
-123.986219413448
 30
0.0
 10
102.6672912696281
 20
-123.9311155245728
 30
0.0
  0
SPLINE
  5
45
330
1F
100
AcDbEntity
  8
_U+30EC_U+30A4_U+30E4_U+30FC 1
 62
   179
420
  2234388
370
     9
100
AcDbSpline
210
0.0
220
0.0
230
1.0
 70
    11
 71
     3
 72
    17
 73
    13
 74
     0
 42
0.0000000001
 43
0.0000000001
 12
1.0
 22
0.0
 32
0.0
 13
1.0
 23
0.0
 33
0.0
 40
0.0
 40
0.0
 40
0.0
 40
0.0
 40
1.0
 40
1.0
 40
1.0
 40
2.0
 40
2.0
 40
2.0
 40
3.0
 40
3.0
 40
3.0
 40
4.0
 40
4.0
 40
4.0
 40
4.0
 10
100.1943896660504
 20
-137.4313919100863
 30
0.0
 10
100.1943896660504
 20
-137.3762880212114
 30
0.0
 10
100.1496221671925
 20
-137.3314852434447
 30
0.0
 10
100.0944830019325
 20
-137.3314852434447
 30
0.0
 10
100.0393791144495
 20
-137.3314852434447
 30
0.0
 10
99.99457633781472
 20
-137.3762880212114
 30
0.0
 10
99.99457633781472
 20
-137.4313919100863
 30
0.0
 10
99.99457633781472
 20
-137.4865310767394
 30
0.0
 10
100.0393791144495
 20
-137.5312985767286
 30
0.0
 10
100.0944830019325
 20
-137.5312985767286
 30
0.0
 10
100.1496221671925
 20
-137.5312985767286
 30
0.0
 10
100.1943896660504
 20
-137.4865310767394
 30
0.0
 10
100.1943896660504
 20
-137.4313919100863
 30
0.0
  0
SPLINE
  5
46
330
1F
100
AcDbEntity
  8
_U+30EC_U+30A4_U+30E4_U+30FC 1
 62
   179
420
  2234388
370
     9
100
AcDbSpline
210
0.0
220
0.0
230
1.0
 70
    11
 71
     3
 72
    17
 73
    13
 74
     0
 42
0.0000000001
 43
0.0000000001
 12
1.0
 22
0.0
 32
0.0
 13
1.0
 23
0.0
 33
0.0
 40
0.0
 40
0.0
 40
0.0
 40
0.0
 40
1.0
 40
1.0
 40
1.0
 40
2.0
 40
2.0
 40
2.0
 40
3.0
 40
3.0
 40
3.0
 40
4.0
 40
4.0
 40
4.0
 40
4.0
 10
75.19419335941409
 20
-137.4313919100863
 30
0.0
 10
75.19419335941409
 20
-137.3762880212114
 30
0.0
 10
75.1494277589904
 20
-137.3314852434447
 30
0.0
 10
75.09428669529625
 20
-137.3314852434447
 30
0.0
 10
75.03918280781318
 20
-137.3314852434447
 30
0.0
 10
74.99438003117841
 20
-137.3762880212114
 30
0.0
 10
74.99438003117841
 20
-137.4313919100863
 30
0.0
 10
74.99438003117841
 20
-137.4865310767394
 30
0.0
 10
75.03918280781318
 20
-137.5312985767286
 30
0.0
 10
75.09428669529625
 20
-137.5312985767286
 30
0.0
 10
75.1494277589904
 20
-137.5312985767286
 30
0.0
 10
75.19419335941409
 20
-137.4865310767394
 30
0.0
 10
75.19419335941409
 20
-137.4313919100863
 30
0.0
  0
SPLINE
  5
47
330
1F
100
AcDbEntity
  8
_U+30EC_U+30A4_U+30E4_U+30FC 1
 62
   179
420
  2234388
370
     9
100
AcDbSpline
210
0.0
220
0.0
230
1.0
 70
    11
 71
     3
 72
    17
 73
    13
 74
     0
 42
0.0000000001
 43
0.0000000001
 12
1.0
 22
0.0
 32
0.0
 13
1.0
 23
0.0
 33
0.0
 40
0.0
 40
0.0
 40
0.0
 40
0.0
 40
1.0
 40
1.0
 40
1.0
 40
2.0
 40
2.0
 40
2.0
 40
3.0
 40
3.0
 40
3.0
 40
4.0
 40
4.0
 40
4.0
 40
4.0
 10
93.69417705410685
 20
-121.4706316362992
 30
0.0
 10
93.69417705410685
 20
-121.4154924696461
 30
0.0
 10
93.64940955524897
 20
-121.3707249696572
 30
0.0
 10
93.594270389989
 20
-121.3707249696572
 30
0.0
 10
93.53916650250594
 20
-121.3707249696572
 30
0.0
 10
93.49436372587118
 20
-121.4154924696461
 30
0.0
 10
93.49436372587118
 20
-121.4706316362992
 30
0.0
 10
93.49436372587118
 20
-121.5264410807296
 30
0.0
 10
93.53916650250594
 20
-121.5712085807185
 30
0.0
 10
93.594270389989
 20
-121.5712085807185
 30
0.0
 10
93.64940955524897
 20
-121.5712085807185
 30
0.0
 10
93.69417705410685
 20
-121.5264410807296
 30
0.0
 10
93.69417705410685
 20
-121.4706316362992
 30
0.0
  0
SPLINE
  5
48
330
1F
100
AcDbEntity
  8
_U+30EC_U+30A4_U+30E4_U+30FC 1
 62
   179
420
  2234388
370
     9
100
AcDbSpline
210
0.0
220
0.0
230
1.0
 70
    11
 71
     3
 72
    17
 73
    13
 74
     0
 42
0.0000000001
 43
0.0000000001
 12
1.0
 22
0.0
 32
0.0
 13
1.0
 23
0.0
 33
0.0
 40
0.0
 40
0.0
 40
0.0
 40
0.0
 40
1.0
 40
1.0
 40
1.0
 40
2.0
 40
2.0
 40
2.0
 40
3.0
 40
3.0
 40
3.0
 40
4.0
 40
4.0
 40
4.0
 40
4.0
 10
81.69440597135763
 20
-121.4706316362992
 30
0.0
 10
81.69440597135763
 20
-121.4154924696461
 30
0.0
 10
81.64963847249973
 20
-121.3707249696572
 30
0.0
 10
81.59449930723979
 20
-121.3707249696572
 30
0.0
 10
81.53939541975672
 20
-121.3707249696572
 30
0.0
 10
81.49459264312195
 20
-121.4154924696461
 30
0.0
 10
81.49459264312195
 20
-121.4706316362992
 30
0.0
 10
81.49459264312195
 20
-121.5264410807296
 30
0.0
 10
81.53939541975672
 20
-121.5712085807185
 30
0.0
 10
81.59449930723979
 20
-121.5712085807185
 30
0.0
 10
81.64963847249973
 20
-121.5712085807185
 30
0.0
 10
81.69440597135763
 20
-121.5264410807296
 30
0.0
 10
81.69440597135763
 20
-121.4706316362992
 30
0.0
  0
POLYLINE
  5
49
330
1F
100
AcDbEntity
  8
_U+30EC_U+30A4_U+30E4_U+30FC 1
 62
   179
420
  2234388
370
     9
100
AcDb2dPolyline
 66
     1
 10
0.0
 20
0.0
 30
0.0
  0
VERTEX
  5
4A
330
49
100
AcDbEntity
  8
_U+30EC_U+30A4_U+30E4_U+30FC 1
 62
   179
420
  2234388
370
     9
100
AcDbVertex
100
AcDb2dVertex
 10
102.5673846055102
 20
-133.432338299975
 30
0.0
  0
VERTEX
  5
4B
330
49
100
AcDbEntity
  8
_U+30EC_U+30A4_U+30E4_U+30FC 1
 62
   179
420
  2234388
370
     9
100
AcDbVertex
100
AcDb2dVertex
 10
102.5673846055102
 20
-123.9324913579057
 30
0.0
  0
SEQEND
  5
4C
330
49
100
AcDbEntity
  8
_U+30EC_U+30A4_U+30E4_U+30FC 1
 62
   179
420
  2234388
370
     9
  0
POLYLINE
  5
4D
330
1F
100
AcDbEntity
  8
_U+30EC_U+30A4_U+30E4_U+30FC 1
 62
   179
420
  2234388
370
     9
100
AcDb2dPolyline
 66
     1
 10
0.0
 20
0.0
 30
0.0
  0
VERTEX
  5
4E
330
4D
100
AcDbEntity
  8
_U+30EC_U+30A4_U+30E4_U+30FC 1
 62
   179
420
  2234388
370
     9
100
AcDbVertex
100
AcDb2dVertex
 10
101.1073432538701
 20
-133.4309624666421
 30
0.0
  0
VERTEX
  5
4F
330
4D
100
AcDbEntity
  8
_U+30EC_U+30A4_U+30E4_U+30FC 1
 62
   179
420
  2234388
370
     9
100
AcDbVertex
100
AcDb2dVertex
 10
103.5678270799868
 20
-133.4309624666421
 30
0.0
  0
SEQEND
  5
50
330
4D
100
AcDbEntity
  8
_U+30EC_U+30A4_U+30E4_U+30FC 1
 62
   179
420
  2234388
370
     9
  0
POLYLINE
  5
51
330
1F
100
AcDbEntity
  8
_U+30EC_U+30A4_U+30E4_U+30FC 1
 62
   179
420
  2234388
370
     9
100
AcDb2dPolyline
 66
     1
 10
0.0
 20
0.0
 30
0.0
  0
VERTEX
  5
52
330
51
100
AcDbEntity
  8
_U+30EC_U+30A4_U+30E4_U+30FC 1
 62
   179
420
  2234388
370
     9
100
AcDbVertex
100
AcDb2dVertex
 10
101.1073432538701
 20
-132.4311902446702
 30
0.0
  0
VERTEX
  5
53
330
51
100
AcDbEntity
  8
_U+30EC_U+30A4_U+30E4_U+30FC 1
 62
   179
420
  2234388
370
     9
100
AcDbVertex
100
AcDb2dVertex
 10
103.5678270799868
 20
-132.4311902446702
 30
0.0
  0
SEQEND
  5
54
330
51
100
AcDbEntity
  8
_U+30EC_U+30A4_U+30E4_U+30FC 1
 62
   179
420
  2234388
370
     9
  0
POLYLINE
  5
55
330
1F
100
AcDbEntity
  8
_U+30EC_U+30A4_U+30E4_U+30FC 1
 62
   179
420
  2234388
370
     9
100
AcDb2dPolyline
 66
     1
 10
0.0
 20
0.0
 30
0.0
  0
VERTEX
  5
56
330
55
100
AcDbEntity
  8
_U+30EC_U+30A4_U+30E4_U+30FC 1
 62
   179
420
  2234388
370
     9
100
AcDbVertex
100
AcDb2dVertex
 10
97.10691391148512
 20
-125.9309774685171
 30
0.0
  0
VERTEX
  5
57
330
55
100
AcDbEntity
  8
_U+30EC_U+30A4_U+30E4_U+30FC 1
 62
   179
420
  2234388
370
     9
100
AcDbVertex
100
AcDb2dVertex
 10
103.5678270799868
 20
-125.9309774685171
 30
0.0
  0
SEQEND
  5
58
330
55
100
AcDbEntity
  8
_U+30EC_U+30A4_U+30E4_U+30FC 1
 62
   179
420
  2234388
370
     9
  0
POLYLINE
  5
59
330
1F
100
AcDbEntity
  8
_U+30EC_U+30A4_U+30E4_U+30FC 1
 62
   179
420
  2234388
370
     9
100
AcDb2dPolyline
 66
     1
 10
0.0
 20
0.0
 30
0.0
  0
VERTEX
  5
5A
330
59
100
AcDbEntity
  8
_U+30EC_U+30A4_U+30E4_U+30FC 1
 62
   179
420
  2234388
370
     9
100
AcDbVertex
100
AcDb2dVertex
 10
97.10691391148512
 20
-123.9311155245728
 30
0.0
  0
VERTEX
  5
5B
330
59
100
AcDbEntity
  8
_U+30EC_U+30A4_U+30E4_U+30FC 1
 62
   179
420
  2234388
370
     9
100
AcDbVertex
100
AcDb2dVertex
 10
103.5678270799868
 20
-123.9311155245728
 30
0.0
  0
SEQEND
  5
5C
330
59
100
AcDbEntity
  8
_U+30EC_U+30A4_U+30E4_U+30FC 1
 62
   179
420
  2234388
370
     9
  0
INSERT
  5
5E
330
1F
100
AcDbEntity
  8
_U+30EC_U+30A4_U+30E4_U+30FC 1
100
AcDbBlockReference
  2
block 2
 10
0.0
 20
0.0
 30
0.0
  0
INSERT
  5
64
330
1F
100
AcDbEntity
  8
_U+30EC_U+30A4_U+30E4_U+30FC 1
100
AcDbBlockReference
  2
block 3
 10
0.0
 20
0.0
 30
0.0
  0
INSERT
  5
75
330
1F
100
AcDbEntity
  8
_U+30EC_U+30A4_U+30E4_U+30FC 1
100
AcDbBlockReference
  2
block 4
 10
0.0
 20
0.0
 30
0.0
  0
POLYLINE
  5
7A
330
1F
100
AcDbEntity
  8
_U+30EC_U+30A4_U+30E4_U+30FC 1
 62
   179
420
  2234388
370
     9
100
AcDb2dPolyline
 66
     1
 10
0.0
 20
0.0
 30
0.0
  0
VERTEX
  5
7B
330
7A
100
AcDbEntity
  8
_U+30EC_U+30A4_U+30E4_U+30FC 1
 62
   179
420
  2234388
370
     9
100
AcDbVertex
100
AcDb2dVertex
 10
75.09428669529625
 20
-137.4313919100863
 30
0.0
  0
VERTEX
  5
7C
330
7A
100
AcDbEntity
  8
_U+30EC_U+30A4_U+30E4_U+30FC 1
 62
   179
420
  2234388
370
     9
100
AcDbVertex
100
AcDb2dVertex
 10
100.0944830019325
 20
-137.4313919100863
 30
0.0
  0
SEQEND
  5
7D
330
7A
100
AcDbEntity
  8
_U+30EC_U+30A4_U+30E4_U+30FC 1
 62
   179
420
  2234388
370
     9
  0
POLYLINE
  5
7E
330
1F
100
AcDbEntity
  8
_U+30EC_U+30A4_U+30E4_U+30FC 1
 62
   179
420
  2234388
370
     9
100
AcDb2dPolyline
 66
     1
 10
0.0
 20
0.0
 30
0.0
  0
VERTEX
  5
7F
330
7E
100
AcDbEntity
  8
_U+30EC_U+30A4_U+30E4_U+30FC 1
 62
   179
420
  2234388
370
     9
100
AcDbVertex
100
AcDb2dVertex
 10
75.09428669529625
 20
-135.9713857993408
 30
0.0
  0
VERTEX
  5
80
330
7E
100
AcDbEntity
  8
_U+30EC_U+30A4_U+30E4_U+30FC 1
 62
   179
420
  2234388
370
     9
100
AcDbVertex
100
AcDb2dVertex
 10
75.09428669529625
 20
-138.4311641320589
 30
0.0
  0
SEQEND
  5
81
330
7E
100
AcDbEntity
  8
_U+30EC_U+30A4_U+30E4_U+30FC 1
 62
   179
420
  2234388
370
     9
  0
POLYLINE
  5
82
330
1F
100
AcDbEntity
  8
_U+30EC_U+30A4_U+30E4_U+30FC 1
 62
   179
420
  2234388
370
     9
100
AcDb2dPolyline
 66
     1
 10
0.0
 20
0.0
 30
0.0
  0
VERTEX
  5
83
330
82
100
AcDbEntity
  8
_U+30EC_U+30A4_U+30E4_U+30FC 1
 62
   179
420
  2234388
370
     9
100
AcDbVertex
100
AcDb2dVertex
 10
100.0944830019325
 20
-135.9713857993408
 30
0.0
  0
VERTEX
  5
84
330
82
100
AcDbEntity
  8
_U+30EC_U+30A4_U+30E4_U+30FC 1
 62
   179
420
  2234388
370
     9
100
AcDbVertex
100
AcDb2dVertex
 10
100.0944830019325
 20
-138.4311641320589
 30
0.0
  0
SEQEND
  5
85
330
82
100
AcDbEntity
  8
_U+30EC_U+30A4_U+30E4_U+30FC 1
 62
   179
420
  2234388
370
     9
  0
INSERT
  5
87
330
1F
100
AcDbEntity
  8
_U+30EC_U+30A4_U+30E4_U+30FC 1
100
AcDbBlockReference
  2
block 5
 10
0.0
 20
0.0
 30
0.0
  0
POLYLINE
  5
8E
330
1F
100
AcDbEntity
  8
_U+30EC_U+30A4_U+30E4_U+30FC 1
 62
   179
420
  2234388
370
     9
100
AcDb2dPolyline
 66
     1
 10
0.0
 20
0.0
 30
0.0
  0
VERTEX
  5
8F
330
8E
100
AcDbEntity
  8
_U+30EC_U+30A4_U+30E4_U+30FC 1
 62
   179
420
  2234388
370
     9
100
AcDbVertex
100
AcDb2dVertex
 10
93.594270389989
 20
-121.4706316362992
 30
0.0
  0
VERTEX
  5
90
330
8E
100
AcDbEntity
  8
_U+30EC_U+30A4_U+30E4_U+30FC 1
 62
   179
420
  2234388
370
     9
100
AcDbVertex
100
AcDb2dVertex
 10
81.59449930723979
 20
-121.4706316362992
 30
0.0
  0
SEQEND
  5
91
330
8E
100
AcDbEntity
  8
_U+30EC_U+30A4_U+30E4_U+30FC 1
 62
   179
420
  2234388
370
     9
  0
POLYLINE
  5
92
330
1F
100
AcDbEntity
  8
_U+30EC_U+30A4_U+30E4_U+30FC 1
 62
   179
420
  2234388
370
     9
100
AcDb2dPolyline
 66
     1
 10
0.0
 20
0.0
 30
0.0
  0
VERTEX
  5
93
330
92
100
AcDbEntity
  8
_U+30EC_U+30A4_U+30E4_U+30FC 1
 62
   179
420
  2234388
370
     9
100
AcDbVertex
100
AcDb2dVertex
 10
93.594270389989
 20
-122.930637747045
 30
0.0
  0
VERTEX
  5
94
330
92
100
AcDbEntity
  8
_U+30EC_U+30A4_U+30E4_U+30FC 1
 62
   179
420
  2234388
370
     9
100
AcDbVertex
100
AcDb2dVertex
 10
93.594270389989
 20
-120.4708594143266
 30
0.0
  0
SEQEND
  5
95
330
92
100
AcDbEntity
  8
_U+30EC_U+30A4_U+30E4_U+30FC 1
 62
   179
420
  2234388
370
     9
  0
POLYLINE
  5
96
330
1F
100
AcDbEntity
  8
_U+30EC_U+30A4_U+30E4_U+30FC 1
 62
   179
420
  2234388
370
     9
100
AcDb2dPolyline
 66
     1
 10
0.0
 20
0.0
 30
0.0
  0
VERTEX
  5
97
330
96
100
AcDbEntity
  8
_U+30EC_U+30A4_U+30E4_U+30FC 1
 62
   179
420
  2234388
370
     9
100
AcDbVertex
100
AcDb2dVertex
 10
81.59449930723979
 20
-122.930637747045
 30
0.0
  0
VERTEX
  5
98
330
96
100
AcDbEntity
  8
_U+30EC_U+30A4_U+30E4_U+30FC 1
 62
   179
420
  2234388
370
     9
100
AcDbVertex
100
AcDb2dVertex
 10
81.59449930723979
 20
-120.4708594143266
 30
0.0
  0
SEQEND
  5
99
330
96
100
AcDbEntity
  8
_U+30EC_U+30A4_U+30E4_U+30FC 1
 62
   179
420
  2234388
370
     9
  0
INSERT
  5
9B
330
1F
100
AcDbEntity
  8
_U+30EC_U+30A4_U+30E4_U+30FC 1
100
AcDbBlockReference
  2
block 6
 10
0.0
 20
0.0
 30
0.0
  0
POLYLINE
  5
A2
330
1F
100
AcDbEntity
  8
_U+30EC_U+30A4_U+30E4_U+30FC 1
 62
   179
420
  2234388
370
    25
100
AcDb2dPolyline
 66
     1
 10
0.0
 20
0.0
 30
0.0
  0
VERTEX
  5
A3
330
A2
100
AcDbEntity
  8
_U+30EC_U+30A4_U+30E4_U+30FC 1
 62
   179
420
  2234388
370
    25
100
AcDbVertex
100
AcDb2dVertex
 10
75.0891361398721
 20
-132.4311902446702
 30
0.0
  0
VERTEX
  5
A4
330
A2
100
AcDbEntity
  8
_U+30EC_U+30A4_U+30E4_U+30FC 1
 62
   179
420
  2234388
370
    25
100
AcDbVertex
100
AcDb2dVertex
 10
87.09423416692987
 20
-132.4311902446702
 30
0.0
  0
VERTEX
  5
A5
330
A2
100
AcDbEntity
  8
_U+30EC_U+30A4_U+30E4_U+30FC 1
 62
   179
420
  2234388
370
    25
100
AcDbVertex
100
AcDb2dVertex
 10
87.09423416692987
 20
-124.930887746545
 30
0.0
  0
VERTEX
  5
A6
330
A2
100
AcDbEntity
  8
_U+30EC_U+30A4_U+30E4_U+30FC 1
 62
   179
420
  2234388
370
    25
100
AcDbVertex
100
AcDb2dVertex
 10
82.5942715039557
 20
-124.930887746545
 30
0.0
  0
VERTEX
  5
A7
330
A2
100
AcDbEntity
  8
_U+30EC_U+30A4_U+30E4_U+30FC 1
 62
   179
420
  2234388
370
    25
100
AcDbVertex
100
AcDb2dVertex
 10
82.5942715039557
 20
-125.9309774685171
 30
0.0
  0
VERTEX
  5
A8
330
A2
100
AcDbEntity
  8
_U+30EC_U+30A4_U+30E4_U+30FC 1
 62
   179
420
  2234388
370
    25
100
AcDbVertex
100
AcDb2dVertex
 10
81.59449930723979
 20
-125.9309774685171
 30
0.0
  0
VERTEX
  5
A9
330
A2
100
AcDbEntity
  8
_U+30EC_U+30A4_U+30E4_U+30FC 1
 62
   179
420
  2234388
370
    25
100
AcDbVertex
100
AcDb2dVertex
 10
81.59449930723979
 20
-123.9311155245728
 30
0.0
  0
VERTEX
  5
AA
330
A2
100
AcDbEntity
  8
_U+30EC_U+30A4_U+30E4_U+30FC 1
 62
   179
420
  2234388
370
    25
100
AcDbVertex
100
AcDb2dVertex
 10
93.594270389989
 20
-123.9311155245728
 30
0.0
  0
VERTEX
  5
AB
330
A2
100
AcDbEntity
  8
_U+30EC_U+30A4_U+30E4_U+30FC 1
 62
   179
420
  2234388
370
    25
100
AcDbVertex
100
AcDb2dVertex
 10
93.594270389989
 20
-125.9309774685171
 30
0.0
  0
VERTEX
  5
AC
330
A2
100
AcDbEntity
  8
_U+30EC_U+30A4_U+30E4_U+30FC 1
 62
   179
420
  2234388
370
    25
100
AcDbVertex
100
AcDb2dVertex
 10
92.59382791551242
 20
-125.9309774685171
 30
0.0
  0
VERTEX
  5
AD
330
A2
100
AcDbEntity
  8
_U+30EC_U+30A4_U+30E4_U+30FC 1
 62
   179
420
  2234388
370
    25
100
AcDbVertex
100
AcDb2dVertex
 10
92.59382791551242
 20
-124.930887746545
 30
0.0
  0
VERTEX
  5
AE
330
A2
100
AcDbEntity
  8
_U+30EC_U+30A4_U+30E4_U+30FC 1
 62
   179
420
  2234388
370
    25
100
AcDbVertex
100
AcDb2dVertex
 10
88.09400636364578
 20
-124.930887746545
 30
0.0
  0
VERTEX
  5
AF
330
A2
100
AcDbEntity
  8
_U+30EC_U+30A4_U+30E4_U+30FC 1
 62
   179
420
  2234388
370
    25
100
AcDbVertex
100
AcDb2dVertex
 10
88.09400636364578
 20
-132.4311902446702
 30
0.0
  0
VERTEX
  5
B0
330
A2
100
AcDbEntity
  8
_U+30EC_U+30A4_U+30E4_U+30FC 1
 62
   179
420
  2234388
370
    25
100
AcDbVertex
100
AcDb2dVertex
 10
100.0993160573648
 20
-132.4311902446702
 30
0.0
  0
VERTEX
  5
B1
330
A2
100
AcDbEntity
  8
_U+30EC_U+30A4_U+30E4_U+30FC 1
 62
   179
420
  2234388
370
    25
100
AcDbVertex
100
AcDb2dVertex
 10
100.0993160573648
 20
-133.4309624666421
 30
0.0
  0
VERTEX
  5
B2
330
A2
100
AcDbEntity
  8
_U+30EC_U+30A4_U+30E4_U+30FC 1
 62
   179
420
  2234388
370
    25
100
AcDbVertex
100
AcDb2dVertex
 10
75.0891361398721
 20
-133.4309624666421
 30
0.0
  0
VERTEX
  5
B3
330
A2
100
AcDbEntity
  8
_U+30EC_U+30A4_U+30E4_U+30FC 1
 62
   179
420
  2234388
370
    25
100
AcDbVertex
100
AcDb2dVertex
 10
75.0891361398721
 20
-132.4311902446702
 30
0.0
  0
SEQEND
  5
B5
330
A2
100
AcDbEntity
  8
_U+30EC_U+30A4_U+30E4_U+30FC 1
 62
   179
420
  2234388
370
    25
  0
HATCH
  5
B4
330
1F
100
AcDbEntity
  8
_U+30EC_U+30A4_U+30E4_U+30FC 1
 62
     9
420
 13224394
100
AcDbHatch
 10
0.0
 20
0.0
 30
0.0
210
0.0
220
0.0
230
1.0
  2
SOLID
 70
     1
 71
     0
 91
        1
 92
        1
 93
       16
 72
     1
 10
75.0891361398721
 20
-132.4311902446702
 11
87.09423416692987
 21
-132.4311902446702
 72
     1
 10
87.09423416692987
 20
-132.4311902446702
 11
87.09423416692987
 21
-124.930887746545
 72
     1
 10
87.09423416692987
 20
-124.930887746545
 11
82.5942715039557
 21
-124.930887746545
 72
     1
 10
82.5942715039557
 20
-124.930887746545
 11
82.5942715039557
 21
-125.9309774685171
 72
     1
 10
82.5942715039557
 20
-125.9309774685171
 11
81.59449930723979
 21
-125.9309774685171
 72
     1
 10
81.59449930723979
 20
-125.9309774685171
 11
81.59449930723979
 21
-123.9311155245728
 72
     1
 10
81.59449930723979
 20
-123.9311155245728
 11
93.594270389989
 21
-123.9311155245728
 72
     1
 10
93.594270389989
 20
-123.9311155245728
 11
93.594270389989
 21
-125.9309774685171
 72
     1
 10
93.594270389989
 20
-125.9309774685171
 11
92.59382791551242
 21
-125.9309774685171
 72
     1
 10
92.59382791551242
 20
-125.9309774685171
 11
92.59382791551242
 21
-124.930887746545
 72
     1
 10
92.59382791551242
 20
-124.930887746545
 11
88.09400636364578
 21
-124.930887746545
 72
     1
 10
88.09400636364578
 20
-124.930887746545
 11
88.09400636364578
 21
-132.4311902446702
 72
     1
 10
88.09400636364578
 20
-132.4311902446702
 11
100.0993160573648
 21
-132.4311902446702
 72
     1
 10
100.0993160573648
 20
-132.4311902446702
 11
100.0993160573648
 21
-133.4309624666421
 72
     1
 10
100.0993160573648
 20
-133.4309624666421
 11
75.0891361398721
 21
-133.4309624666421
 72
     1
 10
75.0891361398721
 20
-133.4309624666421
 11
75.0891361398721
 21
-132.4311902446702
 97
        0
 75
     2
 76
     1
 98
        0
  0
ENDSEC
  0
SECTION
  2
OBJECTS
  0
DICTIONARY
  5
C
330
0
100
AcDbDictionary
281
     1
  3
ACAD_GROUP
350
D
  3
ACAD_LAYOUT
350
1A
  3
ACAD_MATERIAL
350
3B
  3
ACAD_MLEADERSTYLE
350
B7
  3
ACAD_MLINESTYLE
350
17
  3
ACAD_PLOTSETTINGS
350
19
  3
ACAD_PLOTSTYLENAME
350
E
  3
ACAD_TABLESTYLE
350
B6
  3
ACAD_VISUALSTYLE
350
2A
  0
SUN
  5
3F
330
29
100
AcDbSun
 90
        1
290
     0
 63
     7
421
 16777215
 40
1.0
291
     1
 91
  2455826
 92
 54000000
292
     0
 70
     2
 71
   256
280
     1
  0
DICTIONARY
  5
D
102
{ACAD_REACTORS
330
C
102
}
330
C
100
AcDbDictionary
281
     1
  0
DICTIONARY
  5
1A
102
{ACAD_REACTORS
330
C
102
}
330
C
100
AcDbDictionary
281
     1
  3
Layout1
350
1E
  3
Layout2
350
26
  3
Model
350
22
  0
DICTIONARY
  5
3B
102
{ACAD_REACTORS
330
C
102
}
330
C
100
AcDbDictionary
281
     1
  3
ByBlock
350
3D
  3
ByLayer
350
3C
  3
Global
350
3E
  0
DICTIONARY
  5
B7
102
{ACAD_REACTORS
330
C
102
}
330
C
100
AcDbDictionary
281
     1
  0
DICTIONARY
  5
17
102
{ACAD_REACTORS
330
C
102
}
330
C
100
AcDbDictionary
281
     1
  3
Standard
350
18
  0
DICTIONARY
  5
19
102
{ACAD_REACTORS
330
C
102
}
330
C
100
AcDbDictionary
281
     1
  0
ACDBDICTIONARYWDFLT
  5
E
102
{ACAD_REACTORS
330
C
102
}
330
C
100
AcDbDictionary
281
     1
  3
Normal
350
F
100
AcDbDictionaryWithDefault
340
F
  0
DICTIONARY
  5
B6
102
{ACAD_REACTORS
330
C
102
}
330
C
100
AcDbDictionary
281
     1
  0
DICTIONARY
  5
2A
102
{ACAD_REACTORS
330
C
102
}
330
C
100
AcDbDictionary
281
     1
  3
2dWireframe
350
2F
  3
3D Hidden
350
31
  3
3dWireframe
350
30
  3
Basic
350
32
  3
Brighten
350
36
  3
ColorChange
350
3A
  3
Conceptual
350
34
  3
Dim
350
35
  3
Facepattern
350
39
  3
Flat
350
2B
  3
FlatWithEdges
350
2C
  3
Gouraud
350
2D
  3
GouraudWithEdges
350
2E
  3
Linepattern
350
38
  3
Realistic
350
33
  3
Thicken
350
37
  0
LAYOUT
  5
1E
102
{ACAD_REACTORS
330
1A
102
}
330
1A
100
AcDbPlotSettings
  1

  2
none_device
  4

  6

 40
0.0
 41
0.0
 42
0.0
 43
0.0
 44
0.0
 45
0.0
 46
0.0
 47
0.0
 48
0.0
 49
0.0
140
0.0
141
0.0
142
1.0
143
1.0
 70
   688
 72
     0
 73
     0
 74
     5
  7

 75
    16
 76
     0
 77
     2
 78
   300
147
1.0
148
0.0
149
0.0
100
AcDbLayout
  1
Layout1
 70
     1
 71
     1
 10
0.0
 20
0.0
 11
12.0
 21
9.0
 12
0.0
 22
0.0
 32
0.0
 14
1.000000000000000E+20
 24
1.000000000000000E+20
 34
1.000000000000000E+20
 15
-1.000000000000000E+20
 25
-1.000000000000000E+20
 35
-1.000000000000000E+20
146
0.0
 13
0.0
 23
0.0
 33
0.0
 16
1.0
 26
0.0
 36
0.0
 17
0.0
 27
1.0
 37
0.0
 76
     0
330
1B
  0
LAYOUT
  5
26
102
{ACAD_REACTORS
330
1A
102
}
330
1A
100
AcDbPlotSettings
  1

  2
none_device
  4

  6

 40
0.0
 41
0.0
 42
0.0
 43
0.0
 44
0.0
 45
0.0
 46
0.0
 47
0.0
 48
0.0
 49
0.0
140
0.0
141
0.0
142
1.0
143
1.0
 70
   688
 72
     0
 73
     0
 74
     5
  7

 75
    16
 76
     0
 77
     2
 78
   300
147
1.0
148
0.0
149
0.0
100
AcDbLayout
  1
Layout2
 70
     1
 71
     2
 10
0.0
 20
0.0
 11
0.0
 21
0.0
 12
0.0
 22
0.0
 32
0.0
 14
0.0
 24
0.0
 34
0.0
 15
0.0
 25
0.0
 35
0.0
146
0.0
 13
0.0
 23
0.0
 33
0.0
 16
1.0
 26
0.0
 36
0.0
 17
0.0
 27
1.0
 37
0.0
 76
     0
330
23
  0
LAYOUT
  5
22
102
{ACAD_REACTORS
330
1A
102
}
330
1A
100
AcDbPlotSettings
  1

  2
none_device
  4

  6

 40
0.0
 41
0.0
 42
0.0
 43
0.0
 44
0.0
 45
0.0
 46
0.0
 47
0.0
 48
0.0
 49
0.0
140
0.0
141
0.0
142
1.0
143
1.0
 70
  1712
 72
     0
 73
     0
 74
     0
  7

 75
     0
 76
     0
 77
     2
 78
   300
147
1.0
148
0.0
149
0.0
100
AcDbLayout
  1
Model
 70
     1
 71
     0
 10
0.0
 20
0.0
 11
12.0
 21
9.0
 12
0.0
 22
0.0
 32
0.0
 14
1.000000000000000E+20
 24
1.000000000000000E+20
 34
1.000000000000000E+20
 15
-1.000000000000000E+20
 25
-1.000000000000000E+20
 35
-1.000000000000000E+20
146
0.0
 13
0.0
 23
0.0
 33
0.0
 16
1.0
 26
0.0
 36
0.0
 17
0.0
 27
1.0
 37
0.0
 76
     0
330
1F
331
29
  0
MATERIAL
  5
3D
102
{ACAD_REACTORS
330
3B
102
}
330
3B
100
AcDbMaterial
  1
ByBlock
 72
     1
 94
      127
  0
MATERIAL
  5
3C
102
{ACAD_REACTORS
330
3B
102
}
330
3B
100
AcDbMaterial
  1
ByLayer
 72
     1
 94
      127
  0
MATERIAL
  5
3E
102
{ACAD_REACTORS
330
3B
102
}
330
3B
100
AcDbMaterial
  1
Global
 72
     1
 94
      127
  0
MLINESTYLE
  5
18
102
{ACAD_REACTORS
330
17
102
}
330
17
100
AcDbMlineStyle
  2
Standard
 70
     0
  3

 62
   256
 51
90.0
 52
90.0
 71
     2
 49
0.5
 62
   256
  6
BYLAYER
 49
-0.5
 62
   256
  6
BYLAYER
  0
ACDBPLACEHOLDER
  5
F
102
{ACAD_REACTORS
330
E
102
}
330
E
  0
VISUALSTYLE
  5
2F
102
{ACAD_REACTORS
330
2A
102
}
330
2A
100
AcDbVisualStyle
  2
2dWireframe
 70
     4
177
     2
291
     0
 71
     0
176
     1
 72
     2
176
     1
 73
     0
176
     1
 90
        0
176
     1
 40
-0.6
176
     1
 41
-30.0
176
     1
 62
     5
 63
     7
421
 16777215
176
     1
 74
     1
176
     1
 91
        4
176
     1
 64
     7
176
     1
 65
   257
176
     1
 75
     1
176
     1
175
     1
176
     1
 42
1.0
176
     1
 92
        0
176
     1
 66
   257
176
     1
 43
1.0
176
     1
 76
     1
176
     1
 77
     6
176
     1
 78
     2
176
     1
 67
     7
176
     1
 79
     5
176
     1
170
     0
176
     1
171
     0
176
     1
290
     0
176
     1
 93
        1
176
     1
 44
0.0
176
     1
173
     0
176
     1
  0
VISUALSTYLE
  5
31
102
{ACAD_REACTORS
330
2A
102
}
330
2A
100
AcDbVisualStyle
  2
3D Hidden
 70
     6
177
     2
291
     0
 71
     1
176
     1
 72
     2
176
     1
 73
     2
176
     1
 90
        0
176
     1
 40
-0.6
176
     1
 41
-30.0
176
     1
 62
     5
 63
     7
421
 16777215
176
     1
 74
     2
176
     1
 91
        2
176
     1
 64
     7
176
     1
 65
   257
176
     1
 75
     2
176
     1
175
     1
176
     1
 42
40.0
176
     1
 92
        0
176
     1
 66
   257
176
     1
 43
1.0
176
     1
 76
     1
176
     1
 77
     6
176
     1
 78
     2
176
     1
 67
     7
176
     1
 79
     3
176
     1
170
     0
176
     1
171
     0
176
     1
290
     0
176
     1
 93
        1
176
     1
 44
0.0
176
     1
173
     0
176
     1
  0
VISUALSTYLE
  5
30
102
{ACAD_REACTORS
330
2A
102
}
330
2A
100
AcDbVisualStyle
  2
3dWireframe
 70
     5
177
     2
291
     0
 71
     0
176
     1
 72
     2
176
     1
 73
     0
176
     1
 90
        0
176
     1
 40
-0.6
176
     1
 41
-30.0
176
     1
 62
     5
 63
     7
421
 16777215
176
     1
 74
     1
176
     1
 91
        4
176
     1
 64
     7
176
     1
 65
   257
176
     1
 75
     1
176
     1
175
     1
176
     1
 42
1.0
176
     1
 92
        0
176
     1
 66
   257
176
     1
 43
1.0
176
     1
 76
     1
176
     1
 77
     6
176
     1
 78
     2
176
     1
 67
     7
176
     1
 79
     5
176
     1
170
     0
176
     1
171
     0
176
     1
290
     0
176
     1
 93
        1
176
     1
 44
0.0
176
     1
173
     0
176
     1
  0
VISUALSTYLE
  5
32
102
{ACAD_REACTORS
330
2A
102
}
330
2A
100
AcDbVisualStyle
  2
Basic
 70
     7
177
     2
291
     1
 71
     1
176
     1
 72
     0
176
     1
 73
     1
176
     1
 90
        0
176
     1
 40
-0.6
176
     1
 41
-30.0
176
     1
 62
     5
 63
     7
421
 16777215
176
     1
 74
     0
176
     1
 91
        4
176
     1
 64
     7
176
     1
 65
   257
176
     1
 75
     1
176
     1
175
     1
176
     1
 42
1.0
176
     1
 92
        8
176
     1
 66
     7
176
     1
 43
1.0
176
     1
 76
     1
176
     1
 77
     6
176
     1
 78
     2
176
     1
 67
     7
176
     1
 79
     5
176
     1
170
     0
176
     1
171
     0
176
     1
290
     0
176
     1
 93
        1
176
     1
 44
0.0
176
     1
173
     0
176
     1
  0
VISUALSTYLE
  5
36
102
{ACAD_REACTORS
330
2A
102
}
330
2A
100
AcDbVisualStyle
  2
Brighten
 70
    12
177
     2
291
     1
 71
     2
176
     1
 72
     2
176
     1
 73
     0
176
     1
 90
        0
176
     1
 40
-0.6
176
     1
 41
-30.0
176
     1
 62
     5
 63
     7
421
 16777215
176
     1
 74
     1
176
     1
 91
        4
176
     1
 64
     7
176
     1
 65
   257
176
     1
 75
     1
176
     1
175
     1
176
     1
 42
1.0
176
     1
 92
        8
176
     1
 66
     7
176
     1
 43
1.0
176
     1
 76
     1
176
     1
 77
     6
176
     1
 78
     2
176
     1
 67
     7
176
     1
 79
     5
176
     1
170
     0
176
     1
171
     0
176
     1
290
     0
176
     1
 93
        1
176
     1
 44
50.0
176
     1
173
     0
176
     1
  0
VISUALSTYLE
  5
3A
102
{ACAD_REACTORS
330
2A
102
}
330
2A
100
AcDbVisualStyle
  2
ColorChange
 70
    16
177
     2
291
     1
 71
     2
176
     1
 72
     2
176
     1
 73
     3
176
     1
 90
        0
176
     1
 40
-0.6
176
     1
 41
-30.0
176
     1
 62
     5
 63
     8
421
  8421504
176
     1
 74
     1
176
     1
 91
        4
176
     1
 64
     7
176
     1
 65
   257
176
     1
 75
     1
176
     1
175
     1
176
     1
 42
1.0
176
     1
 92
        8
176
     1
 66
     8
424
  8421504
176
     1
 43
1.0
176
     1
 76
     1
176
     1
 77
     6
176
     1
 78
     2
176
     1
 67
     7
176
     1
 79
     5
176
     1
170
     0
176
     1
171
     0
176
     1
290
     0
176
     1
 93
        1
176
     1
 44
0.0
176
     1
173
     0
176
     1
  0
VISUALSTYLE
  5
34
102
{ACAD_REACTORS
330
2A
102
}
330
2A
100
AcDbVisualStyle
  2
Conceptual
 70
     9
177
     2
291
     0
 71
     3
176
     1
 72
     2
176
     1
 73
     0
176
     1
 90
        0
176
     1
 40
-0.6
176
     1
 41
-30.0
176
     1
 62
     5
 63
     7
421
 16777215
176
     1
 74
     2
176
     1
 91
        2
176
     1
 64
     7
176
     1
 65
   257
176
     1
 75
     1
176
     1
175
     1
176
     1
 42
40.0
176
     1
 92
        8
176
     1
 66
     7
176
     1
 43
1.0
176
     1
 76
     1
176
     1
 77
     6
176
     1
 78
     2
176
     1
 67
     7
176
     1
 79
     3
176
     1
170
     0
176
     1
171
     0
176
     1
290
     0
176
     1
 93
        1
176
     1
 44
0.0
176
     1
173
     0
176
     1
  0
VISUALSTYLE
  5
35
102
{ACAD_REACTORS
330
2A
102
}
330
2A
100
AcDbVisualStyle
  2
Dim
 70
    11
177
     2
291
     1
 71
     2
176
     1
 72
     2
176
     1
 73
     0
176
     1
 90
        0
176
     1
 40
-0.6
176
     1
 41
-30.0
176
     1
 62
     5
 63
     7
421
 16777215
176
     1
 74
     1
176
     1
 91
        4
176
     1
 64
     7
176
     1
 65
   257
176
     1
 75
     1
176
     1
175
     1
176
     1
 42
1.0
176
     1
 92
        8
176
     1
 66
     7
176
     1
 43
1.0
176
     1
 76
     1
176
     1
 77
     6
176
     1
 78
     2
176
     1
 67
     7
176
     1
 79
     5
176
     1
170
     0
176
     1
171
     0
176
     1
290
     0
176
     1
 93
        1
176
     1
 44
-50.0
176
     1
173
     0
176
     1
  0
VISUALSTYLE
  5
39
102
{ACAD_REACTORS
330
2A
102
}
330
2A
100
AcDbVisualStyle
  2
Facepattern
 70
    15
177
     2
291
     1
 71
     2
176
     1
 72
     2
176
     1
 73
     0
176
     1
 90
        0
176
     1
 40
-0.6
176
     1
 41
-30.0
176
     1
 62
     5
 63
     7
421
 16777215
176
     1
 74
     1
176
     1
 91
        4
176
     1
 64
     7
176
     1
 65
   257
176
     1
 75
     1
176
     1
175
     1
176
     1
 42
1.0
176
     1
 92
        8
176
     1
 66
     7
176
     1
 43
1.0
176
     1
 76
     1
176
     1
 77
     6
176
     1
 78
     2
176
     1
 67
     7
176
     1
 79
     5
176
     1
170
     0
176
     1
171
     0
176
     1
290
     0
176
     1
 93
        1
176
     1
 44
0.0
176
     1
173
     0
176
     1
  0
VISUALSTYLE
  5
2B
102
{ACAD_REACTORS
330
2A
102
}
330
2A
100
AcDbVisualStyle
  2
Flat
 70
     0
177
     2
291
     1
 71
     2
176
     1
 72
     1
176
     1
 73
     1
176
     1
 90
        2
176
     1
 40
-0.6
176
     1
 41
30.0
176
     1
 62
     5
 63
     7
421
 16777215
176
     1
 74
     0
176
     1
 91
        4
176
     1
 64
     7
176
     1
 65
   257
176
     1
 75
     1
176
     1
175
     1
176
     1
 42
1.0
176
     1
 92
        8
176
     1
 66
     7
176
     1
 43
1.0
176
     1
 76
     1
176
     1
 77
     6
176
     1
 78
     2
176
     1
 67
     7
176
     1
 79
     5
176
     1
170
     0
176
     1
171
     0
176
     1
290
     0
176
     1
 93
       13
176
     1
 44
0.0
176
     1
173
     0
176
     1
  0
VISUALSTYLE
  5
2C
102
{ACAD_REACTORS
330
2A
102
}
330
2A
100
AcDbVisualStyle
  2
FlatWithEdges
 70
     1
177
     2
291
     1
 71
     2
176
     1
 72
     1
176
     1
 73
     1
176
     1
 90
        2
176
     1
 40
-0.6
176
     1
 41
30.0
176
     1
 62
     5
 63
     7
421
 16777215
176
     1
 74
     1
176
     1
 91
        4
176
     1
 64
     7
176
     1
 65
   257
176
     1
 75
     1
176
     1
175
     1
176
     1
 42
1.0
176
     1
 92
        0
176
     1
 66
   257
176
     1
 43
1.0
176
     1
 76
     1
176
     1
 77
     6
176
     1
 78
     2
176
     1
 67
     7
176
     1
 79
     5
176
     1
170
     0
176
     1
171
     0
176
     1
290
     0
176
     1
 93
       13
176
     1
 44
0.0
176
     1
173
     0
176
     1
  0
VISUALSTYLE
  5
2D
102
{ACAD_REACTORS
330
2A
102
}
330
2A
100
AcDbVisualStyle
  2
Gouraud
 70
     2
177
     2
291
     1
 71
     2
176
     1
 72
     2
176
     1
 73
     1
176
     1
 90
        2
176
     1
 40
-0.6
176
     1
 41
30.0
176
     1
 62
     5
 63
     7
421
 16777215
176
     1
 74
     0
176
     1
 91
        4
176
     1
 64
     7
176
     1
 65
   257
176
     1
 75
     1
176
     1
175
     1
176
     1
 42
1.0
176
     1
 92
        0
176
     1
 66
     7
176
     1
 43
1.0
176
     1
 76
     1
176
     1
 77
     6
176
     1
 78
     2
176
     1
 67
     7
176
     1
 79
     5
176
     1
170
     0
176
     1
171
     0
176
     1
290
     0
176
     1
 93
       13
176
     1
 44
0.0
176
     1
173
     0
176
     1
  0
VISUALSTYLE
  5
2E
102
{ACAD_REACTORS
330
2A
102
}
330
2A
100
AcDbVisualStyle
  2
GouraudWithEdges
 70
     3
177
     2
291
     1
 71
     2
176
     1
 72
     2
176
     1
 73
     1
176
     1
 90
        2
176
     1
 40
-0.6
176
     1
 41
30.0
176
     1
 62
     5
 63
     7
421
 16777215
176
     1
 74
     1
176
     1
 91
        4
176
     1
 64
     7
176
     1
 65
   257
176
     1
 75
     1
176
     1
175
     1
176
     1
 42
1.0
176
     1
 92
        0
176
     1
 66
   257
176
     1
 43
1.0
176
     1
 76
     1
176
     1
 77
     6
176
     1
 78
     2
176
     1
 67
     7
176
     1
 79
     5
176
     1
170
     0
176
     1
171
     0
176
     1
290
     0
176
     1
 93
       13
176
     1
 44
0.0
176
     1
173
     0
176
     1
  0
VISUALSTYLE
  5
38
102
{ACAD_REACTORS
330
2A
102
}
330
2A
100
AcDbVisualStyle
  2
Linepattern
 70
    14
177
     2
291
     1
 71
     2
176
     1
 72
     2
176
     1
 73
     0
176
     1
 90
        0
176
     1
 40
-0.6
176
     1
 41
-30.0
176
     1
 62
     5
 63
     7
421
 16777215
176
     1
 74
     1
176
     1
 91
        4
176
     1
 64
     7
176
     1
 65
   257
176
     1
 75
     7
176
     1
175
     7
176
     1
 42
1.0
176
     1
 92
        8
176
     1
 66
     7
176
     1
 43
1.0
176
     1
 76
     1
176
     1
 77
     6
176
     1
 78
     2
176
     1
 67
     7
176
     1
 79
     5
176
     1
170
     0
176
     1
171
     0
176
     1
290
     0
176
     1
 93
        1
176
     1
 44
0.0
176
     1
173
     0
176
     1
  0
VISUALSTYLE
  5
33
102
{ACAD_REACTORS
330
2A
102
}
330
2A
100
AcDbVisualStyle
  2
Realistic
 70
     8
177
     2
291
     0
 71
     2
176
     1
 72
     2
176
     1
 73
     0
176
     1
 90
        0
176
     1
 40
-0.6
176
     1
 41
-30.0
176
     1
 62
     5
 63
     7
421
 16777215
176
     1
 74
     1
176
     1
 91
        0
176
     1
 64
     7
176
     1
 65
   257
176
     1
 75
     1
176
     1
175
     1
176
     1
 42
1.0
176
     1
 92
        8
176
     1
 66
     8
424
  7895160
176
     1
 43
1.0
176
     1
 76
     1
176
     1
 77
     6
176
     1
 78
     2
176
     1
 67
     7
176
     1
 79
     5
176
     1
170
     0
176
     1
171
     0
176
     1
290
     0
176
     1
 93
       13
176
     1
 44
0.0
176
     1
173
     0
176
     1
  0
VISUALSTYLE
  5
37
102
{ACAD_REACTORS
330
2A
102
}
330
2A
100
AcDbVisualStyle
  2
Thicken
 70
    13
177
     2
291
     1
 71
     2
176
     1
 72
     2
176
     1
 73
     0
176
     1
 90
        0
176
     1
 40
-0.6
176
     1
 41
-30.0
176
     1
 62
     5
 63
     7
421
 16777215
176
     1
 74
     1
176
     1
 91
        4
176
     1
 64
     7
176
     1
 65
   257
176
     1
 75
     1
176
     1
175
     1
176
     1
 42
1.0
176
     1
 92
       12
176
     1
 66
     7
176
     1
 43
1.0
176
     1
 76
     1
176
     1
 77
     6
176
     1
 78
     2
176
     1
 67
     7
176
     1
 79
     5
176
     1
170
     0
176
     1
171
     0
176
     1
290
     0
176
     1
 93
        1
176
     1
 44
0.0
176
     1
173
     0
176
     1
  0
ENDSEC
  0
EOF
