  0
SECTION
  2
HEADER
  9
$ACADVER
  1
AC1024
  9
$ACADMAINTVER
 70
     6
  9
$DWGCODEPAGE
  3
UNDEFINED
  9
$INSBASE
 10
0.0
 20
0.0
 30
0.0
  9
$EXTMIN
 10
1.000000000000000E+20
 20
1.000000000000000E+20
 30
1.000000000000000E+20
  9
$EXTMAX
 10
-1.000000000000000E+20
 20
-1.000000000000000E+20
 30
-1.000000000000000E+20
  9
$LIMMIN
 10
0.0
 20
0.0
  9
$LIMMAX
 10
12.0
 20
9.0
  9
$ORTHOMODE
 70
     0
  9
$REGENMODE
 70
     1
  9
$FILLMODE
 70
     1
  9
$QTEXTMODE
 70
     0
  9
$MIRRTEXT
 70
     1
  9
$LTSCALE
 40
1.0
  9
$ATTMODE
 70
     1
  9
$TEXTSIZE
 40
0.2
  9
$TRACEWID
 40
0.05
  9
$TEXTSTYLE
  7
Standard
  9
$CLAYER
  8
0
  9
$CELTYPE
  6
ByLayer
  9
$CECOLOR
 62
   256
  9
$CELTSCALE
 40
1.0
  9
$DISPSILH
 70
     0
  9
$DIMSCALE
 40
1.0
  9
$DIMASZ
 40
0.18
  9
$DIMEXO
 40
0.0625
  9
$DIMDLI
 40
0.38
  9
$DIMRND
 40
0.0
  9
$DIMDLE
 40
0.0
  9
$DIMEXE
 40
0.18
  9
$DIMTP
 40
0.0
  9
$DIMTM
 40
0.0
  9
$DIMTXT
 40
0.18
  9
$DIMCEN
 40
0.09
  9
$DIMTSZ
 40
0.0
  9
$DIMTOL
 70
     0
  9
$DIMLIM
 70
     0
  9
$DIMTIH
 70
     1
  9
$DIMTOH
 70
     1
  9
$DIMSE1
 70
     0
  9
$DIMSE2
 70
     0
  9
$DIMTAD
 70
     0
  9
$DIMZIN
 70
     0
  9
$DIMBLK
  1

  9
$DIMASO
 70
     1
  9
$DIMSHO
 70
     1
  9
$DIMPOST
  1

  9
$DIMAPOST
  1

  9
$DIMALT
 70
     0
  9
$DIMALTD
 70
     2
  9
$DIMALTF
 40
25.4
  9
$DIMLFAC
 40
1.0
  9
$DIMTOFL
 70
     0
  9
$DIMTVP
 40
0.0
  9
$DIMTIX
 70
     0
  9
$DIMSOXD
 70
     0
  9
$DIMSAH
 70
     0
  9
$DIMBLK1
  1

  9
$DIMBLK2
  1

  9
$DIMSTYLE
  2
Standard
  9
$DIMCLRD
 70
     0
  9
$DIMCLRE
 70
     0
  9
$DIMCLRT
 70
     0
  9
$DIMTFAC
 40
1.0
  9
$DIMGAP
 40
0.09
  9
$DIMJUST
 70
     0
  9
$DIMSD1
 70
     0
  9
$DIMSD2
 70
     0
  9
$DIMTOLJ
 70
     1
  9
$DIMTZIN
 70
     0
  9
$DIMALTZ
 70
     0
  9
$DIMALTTZ
 70
     0
  9
$DIMUPT
 70
     0
  9
$DIMDEC
 70
     4
  9
$DIMTDEC
 70
     4
  9
$DIMALTU
 70
     2
  9
$DIMALTTD
 70
     2
  9
$DIMTXSTY
  7
Standard
  9
$DIMAUNIT
 70
     0
  9
$DIMADEC
 70
     0
  9
$DIMALTRND
 40
0.0
  9
$DIMAZIN
 70
     0
  9
$DIMDSEP
 70
    46
  9
$DIMATFIT
 70
     3
  9
$DIMFRAC
 70
     0
  9
$DIMLDRBLK
  1

  9
$DIMLUNIT
 70
     2
  9
$DIMLWD
 70
    -2
  9
$DIMLWE
 70
    -2
  9
$DIMTMOVE
 70
     0
  9
$DIMFXL
 40
1.0
  9
$DIMFXLON
 70
     0
  9
$DIMJOGANG
 40
0.7853981633974483
  9
$DIMTFILL
 70
     0
  9
$DIMTFILLCLR
 70
     0
  9
$DIMARCSYM
 70
     0
  9
$DIMLTYPE
  6

  9
$DIMLTEX1
  6

  9
$DIMLTEX2
  6

  9
$DIMTXTDIRECTION
 70
     0
  9
$LUNITS
 70
     2
  9
$LUPREC
 70
     4
  9
$SKETCHINC
 40
0.1
  9
$FILLETRAD
 40
0.5
  9
$AUNITS
 70
     0
  9
$AUPREC
 70
     0
  9
$MENU
  1
.
  9
$ELEVATION
 40
0.0
  9
$PELEVATION
 40
0.0
  9
$THICKNESS
 40
0.0
  9
$LIMCHECK
 70
     0
  9
$CHAMFERA
 40
0.5
  9
$CHAMFERB
 40
0.5
  9
$CHAMFERC
 40
1.0
  9
$CHAMFERD
 40
0.0
  9
$SKPOLY
 70
     0
  9
$TDCREATE
 40
2457917.621759248
  9
$TDUCREATE
 40
2457917.246759259
  9
$TDUPDATE
 40
2457917.621759248
  9
$TDUUPDATE
 40
2457917.246759259
  9
$TDINDWG
 40
0.0000000116
  9
$TDUSRTIMER
 40
0.0000000116
  9
$USRTIMER
 70
     1
  9
$ANGBASE
 50
0.0
  9
$ANGDIR
 70
     0
  9
$PDMODE
 70
     0
  9
$PDSIZE
 40
0.0
  9
$PLINEWID
 40
0.0
  9
$SPLFRAME
 70
     0
  9
$SPLINETYPE
 70
     6
  9
$SPLINESEGS
 70
     8
  9
$HANDSEED
  5
CE
  9
$SURFTAB1
 70
     6
  9
$SURFTAB2
 70
     6
  9
$SURFTYPE
 70
     6
  9
$SURFU
 70
     6
  9
$SURFV
 70
     6
  9
$UCSBASE
  2

  9
$UCSNAME
  2

  9
$UCSORG
 10
0.0
 20
0.0
 30
0.0
  9
$UCSXDIR
 10
1.0
 20
0.0
 30
0.0
  9
$UCSYDIR
 10
0.0
 20
1.0
 30
0.0
  9
$UCSORTHOREF
  2

  9
$UCSORTHOVIEW
 70
     0
  9
$UCSORGTOP
 10
0.0
 20
0.0
 30
0.0
  9
$UCSORGBOTTOM
 10
0.0
 20
0.0
 30
0.0
  9
$UCSORGLEFT
 10
0.0
 20
0.0
 30
0.0
  9
$UCSORGRIGHT
 10
0.0
 20
0.0
 30
0.0
  9
$UCSORGFRONT
 10
0.0
 20
0.0
 30
0.0
  9
$UCSORGBACK
 10
0.0
 20
0.0
 30
0.0
  9
$PUCSBASE
  2

  9
$PUCSNAME
  2

  9
$PUCSORG
 10
0.0
 20
0.0
 30
0.0
  9
$PUCSXDIR
 10
1.0
 20
0.0
 30
0.0
  9
$PUCSYDIR
 10
0.0
 20
1.0
 30
0.0
  9
$PUCSORTHOREF
  2

  9
$PUCSORTHOVIEW
 70
     0
  9
$PUCSORGTOP
 10
0.0
 20
0.0
 30
0.0
  9
$PUCSORGBOTTOM
 10
0.0
 20
0.0
 30
0.0
  9
$PUCSORGLEFT
 10
0.0
 20
0.0
 30
0.0
  9
$PUCSORGRIGHT
 10
0.0
 20
0.0
 30
0.0
  9
$PUCSORGFRONT
 10
0.0
 20
0.0
 30
0.0
  9
$PUCSORGBACK
 10
0.0
 20
0.0
 30
0.0
  9
$USERI1
 70
     0
  9
$USERI2
 70
     0
  9
$USERI3
 70
     0
  9
$USERI4
 70
     0
  9
$USERI5
 70
     0
  9
$USERR1
 40
0.0
  9
$USERR2
 40
0.0
  9
$USERR3
 40
0.0
  9
$USERR4
 40
0.0
  9
$USERR5
 40
0.0
  9
$WORLDVIEW
 70
     1
  9
$SHADEDGE
 70
     3
  9
$SHADEDIF
 70
    70
  9
$TILEMODE
 70
     1
  9
$MAXACTVP
 70
    64
  9
$PINSBASE
 10
0.0
 20
0.0
 30
0.0
  9
$PLIMCHECK
 70
     0
  9
$PEXTMIN
 10
1.000000000000000E+20
 20
1.000000000000000E+20
 30
1.000000000000000E+20
  9
$PEXTMAX
 10
-1.000000000000000E+20
 20
-1.000000000000000E+20
 30
-1.000000000000000E+20
  9
$PLIMMIN
 10
0.0
 20
0.0
  9
$PLIMMAX
 10
12.0
 20
9.0
  9
$UNITMODE
 70
     0
  9
$VISRETAIN
 70
     1
  9
$PLINEGEN
 70
     0
  9
$PSLTSCALE
 70
     1
  9
$TREEDEPTH
 70
  3020
  9
$CMLSTYLE
  2
Standard
  9
$CMLJUST
 70
     0
  9
$CMLSCALE
 40
1.0
  9
$PROXYGRAPHICS
 70
     1
  9
$MEASUREMENT
 70
     0
  9
$CELWEIGHT
370
    -1
  9
$ENDCAPS
280
     0
  9
$JOINSTYLE
280
     0
  9
$LWDISPLAY
290
     1
  9
$INSUNITS
 70
     1
  9
$HYPERLINKBASE
  1

  9
$STYLESHEET
  1

  9
$XEDIT
290
     1
  9
$CEPSNTYPE
380
     0
  9
$PSTYLEMODE
290
     1
  9
$FINGERPRINTGUID
  2
{294CBF82-7D7D-0455-2633-C1174730E185}
  9
$VERSIONGUID
  2
{FAEB1C32-E019-11D5-929B-00C0DF256EC4}
  9
$EXTNAMES
290
     1
  9
$PSVPSCALE
 40
0.0
  9
$OLESTARTUP
290
     0
  9
$SORTENTS
280
   127
  9
$INDEXCTL
280
     0
  9
$HIDETEXT
280
     1
  9
$XCLIPFRAME
280
     2
  9
$HALOGAP
280
     0
  9
$OBSCOLOR
 70
   257
  9
$OBSLTYPE
280
     0
  9
$INTERSECTIONDISPLAY
280
     0
  9
$INTERSECTIONCOLOR
 70
   257
  9
$DIMASSOC
280
     2
  9
$PROJECTNAME
  1

  9
$CAMERADISPLAY
290
     0
  9
$LENSLENGTH
 40
50.0
  9
$CAMERAHEIGHT
 40
0.0
  9
$STEPSPERSEC
 40
2.0
  9
$STEPSIZE
 40
6.0
  9
$3DDWFPREC
 40
2.0
  9
$PSOLWIDTH
 40
0.25
  9
$PSOLHEIGHT
 40
4.0
  9
$LOFTANG1
 40
1.570796326794897
  9
$LOFTANG2
 40
1.570796326794897
  9
$LOFTMAG1
 40
0.0
  9
$LOFTMAG2
 40
0.0
  9
$LOFTPARAM
 70
     7
  9
$LOFTNORMALS
280
     1
  9
$LATITUDE
 40
37.795
  9
$LONGITUDE
 40
-122.394
  9
$NORTHDIRECTION
 40
0.0
  9
$TIMEZONE
 70
 -8000
  9
$LIGHTGLYPHDISPLAY
280
     1
  9
$TILEMODELIGHTSYNCH
280
     1
  9
$CMATERIAL
347
3C
  9
$SOLIDHIST
280
     1
  9
$SHOWHIST
280
     1
  9
$DWFFRAME
280
     2
  9
$DGNFRAME
280
     2
  9
$REALWORLDSCALE
290
     1
  9
$INTERFERECOLOR
 62
   256
  9
$CSHADOW
280
     0
  9
$SHADOWPLANELOCATION
 40
0.0
  0
ENDSEC
  0
SECTION
  2
CLASSES
  0
CLASS
  1
ACDBDICTIONARYWDFLT
  2
AcDbDictionaryWithDefault
  3
ObjectDBX Classes
 90
        0
 91
        4
280
     0
281
     0
  0
CLASS
  1
VISUALSTYLE
  2
AcDbVisualStyle
  3
ObjectDBX Classes
 90
     4095
 91
        4
280
     0
281
     0
  0
CLASS
  1
MATERIAL
  2
AcDbMaterial
  3
ObjectDBX Classes
 90
     1153
 91
        4
280
     0
281
     0
  0
CLASS
  1
SUN
  2
AcDbSun
  3
SCENEOE
 90
     1024
 91
        4
280
     0
281
     0
  0
ENDSEC
  0
SECTION
  2
TABLES
  0
TABLE
  2
VPORT
  5
8
330
0
100
AcDbSymbolTable
 70
     1
  0
VPORT
  5
29
330
8
100
AcDbSymbolTableRecord
100
AcDbViewportTableRecord
  2
*Active
 70
     0
 10
0.0
 20
0.0
 11
1.0
 21
1.0
 12
0.0
 22
0.0
 13
0.0
 23
0.0
 14
0.5
 24
0.5
 15
0.5
 25
0.5
 16
0.0
 26
0.0
 36
1.0
 17
91.00082462281999
 27
-128.4993055234307
 37
0.0
 40
256.9986110468615
 41
0.7081814508812795
 42
50.0
 43
0.0
 44
0.0
 50
0.0
 51
0.0
 71
     0
 72
   100
 73
     1
 74
     3
 75
     0
 76
     0
 77
     0
 78
     0
281
     0
 65
     1
110
0.0
120
0.0
130
0.0
111
1.0
121
0.0
131
0.0
112
0.0
122
1.0
132
0.0
 79
     0
146
0.0
 60
     3
 61
     5
292
     1
282
     1
141
0.0
142
0.0
 63
   250
361
3F
  0
ENDTAB
  0
TABLE
  2
LTYPE
  5
5
330
0
100
AcDbSymbolTable
 70
     1
  0
LTYPE
  5
14
330
5
100
AcDbSymbolTableRecord
100
AcDbLinetypeTableRecord
  2
ByBlock
 70
     0
  3

 72
    65
 73
     0
 40
0.0
  0
LTYPE
  5
15
330
5
100
AcDbSymbolTableRecord
100
AcDbLinetypeTableRecord
  2
ByLayer
 70
     0
  3

 72
    65
 73
     0
 40
0.0
  0
LTYPE
  5
16
330
5
100
AcDbSymbolTableRecord
100
AcDbLinetypeTableRecord
  2
Continuous
 70
     0
  3
Solid line
 72
    65
 73
     0
 40
0.0
  0
ENDTAB
  0
TABLE
  2
LAYER
  5
2
330
0
100
AcDbSymbolTable
 70
     2
  0
LAYER
  5
10
330
2
100
AcDbSymbolTableRecord
100
AcDbLayerTableRecord
  2
0
 70
     0
 62
     7
  6
Continuous
370
    -3
390
F
347
3E
  0
LAYER
  5
40
330
2
100
AcDbSymbolTableRecord
100
AcDbLayerTableRecord
  2
_U+30EC_U+30A4_U+30E4_U+30FC 1
 70
     0
 62
     7
  6
Continuous
370
    -3
390
F
347
3E
  0
ENDTAB
  0
TABLE
  2
STYLE
  5
3
330
0
100
AcDbSymbolTable
 70
     1
  0
STYLE
  5
11
330
3
100
AcDbSymbolTableRecord
100
AcDbTextStyleTableRecord
  2
Standard
 70
     0
 40
0.0
 41
1.0
 50
0.0
 71
     0
 42
0.2
  3
txt
  4

  0
ENDTAB
  0
TABLE
  2
VIEW
  5
6
330
0
100
AcDbSymbolTable
 70
     0
  0
ENDTAB
  0
TABLE
  2
UCS
  5
7
330
0
100
AcDbSymbolTable
 70
     0
  0
ENDTAB
  0
TABLE
  2
APPID
  5
9
330
0
100
AcDbSymbolTable
 70
     1
  0
APPID
  5
12
330
9
100
AcDbSymbolTableRecord
100
AcDbRegAppTableRecord
  2
ACAD
 70
     0
  0
ENDTAB
  0
TABLE
  2
DIMSTYLE
  5
A
330
0
100
AcDbSymbolTable
 70
     1
100
AcDbDimStyleTable
  0
DIMSTYLE
105
27
330
A
100
AcDbSymbolTableRecord
100
AcDbDimStyleTableRecord
  2
Standard
 70
     0
178
     0
340
11
  0
ENDTAB
  0
TABLE
  2
BLOCK_RECORD
  5
1
330
0
100
AcDbSymbolTable
 70
     7
  0
BLOCK_RECORD
  5
1F
330
1
100
AcDbSymbolTableRecord
100
AcDbBlockTableRecord
  2
*Model_Space
340
22
 70
     0
280
     1
281
     0
  0
BLOCK_RECORD
  5
1B
330
1
100
AcDbSymbolTableRecord
100
AcDbBlockTableRecord
  2
*Paper_Space
340
1E
 70
     0
280
     1
281
     0
  0
BLOCK_RECORD
  5
23
330
1
100
AcDbSymbolTableRecord
100
AcDbBlockTableRecord
  2
*Paper_Space0
340
26
 70
     0
280
     1
281
     0
  0
BLOCK_RECORD
  5
5F
330
1
100
AcDbSymbolTableRecord
100
AcDbBlockTableRecord
  2
block 2
340
0
102
{BLKREFS
331
60
102
}
 70
     0
280
     1
281
     0
  0
BLOCK_RECORD
  5
65
330
1
100
AcDbSymbolTableRecord
100
AcDbBlockTableRecord
  2
block 3
340
0
102
{BLKREFS
331
66
102
}
 70
     0
280
     1
281
     0
  0
BLOCK_RECORD
  5
77
330
1
100
AcDbSymbolTableRecord
100
AcDbBlockTableRecord
  2
block 4
340
0
102
{BLKREFS
331
78
102
}
 70
     0
280
     1
281
     0
  0
BLOCK_RECORD
  5
88
330
1
100
AcDbSymbolTableRecord
100
AcDbBlockTableRecord
  2
block 5
340
0
102
{BLKREFS
331
89
102
}
 70
     0
280
     1
281
     0
  0
BLOCK_RECORD
  5
9A
330
1
100
AcDbSymbolTableRecord
100
AcDbBlockTableRecord
  2
block 6
340
0
102
{BLKREFS
331
9B
102
}
 70
     0
280
     1
281
     0
  0
BLOCK_RECORD
  5
AE
330
1
100
AcDbSymbolTableRecord
100
AcDbBlockTableRecord
  2
block 7
340
0
102
{BLKREFS
331
AF
102
}
 70
     0
280
     1
281
     0
  0
ENDTAB
  0
ENDSEC
  0
SECTION
  2
BLOCKS
  0
BLOCK
  5
20
330
1F
100
AcDbEntity
  8
0
100
AcDbBlockBegin
  2
*Model_Space
 70
     0
 10
0.0
 20
0.0
 30
0.0
  3
*Model_Space
  1

  0
ENDBLK
  5
21
330
1F
100
AcDbEntity
  8
0
100
AcDbBlockEnd
  0
BLOCK
  5
1C
330
1B
100
AcDbEntity
 67
     1
  8
0
100
AcDbBlockBegin
  2
*Paper_Space
 70
     0
 10
0.0
 20
0.0
 30
0.0
  3
*Paper_Space
  1

  0
ENDBLK
  5
1D
330
1B
100
AcDbEntity
 67
     1
  8
0
100
AcDbBlockEnd
  0
BLOCK
  5
24
330
23
100
AcDbEntity
  8
0
100
AcDbBlockBegin
  2
*Paper_Space0
 70
     0
 10
0.0
 20
0.0
 30
0.0
  3
*Paper_Space0
  1

  0
ENDBLK
  5
25
330
23
100
AcDbEntity
  8
0
100
AcDbBlockEnd
  0
BLOCK
  5
61
330
5F
100
AcDbEntity
  8
0
100
AcDbBlockBegin
  2
block 2
 70
     0
 10
0.0
 20
0.0
 30
0.0
  3
block 2
  1

  0
SPLINE
  5
63
330
5F
100
AcDbEntity
  8
_U+30EC_U+30A4_U+30E4_U+30FC 1
370
     0
100
AcDbSpline
210
0.0
220
0.0
230
1.0
 70
    11
 71
     3
 72
    26
 73
    22
 74
     0
 42
0.0000000001
 43
0.0000000001
 12
1.0
 22
0.0
 32
0.0
 13
1.0
 23
0.0
 33
0.0
 40
0.0
 40
0.0
 40
0.0
 40
0.0
 40
1.0
 40
1.0
 40
1.0
 40
2.0
 40
2.0
 40
2.0
 40
3.0
 40
3.0
 40
3.0
 40
4.0
 40
4.0
 40
4.0
 40
5.0
 40
5.0
 40
5.0
 40
6.0
 40
6.0
 40
6.0
 40
7.0
 40
7.0
 40
7.0
 40
7.0
 10
106.9626356069399
 20
-135.0704806519963
 30
0.0
 10
106.9626356069399
 20
-135.0704806519963
 30
0.0
 10
105.8584825039173
 20
-135.0704806519963
 30
0.0
 10
105.8584825039173
 20
-135.0704806519963
 30
0.0
 10
105.8584825039173
 20
-135.0704806519963
 30
0.0
 10
105.8584825039173
 20
-135.4005207994832
 30
0.0
 10
105.8584825039173
 20
-135.4005207994832
 30
0.0
 10
105.8584825039173
 20
-135.4005207994832
 30
0.0
 10
105.7103433980516
 20
-135.4005207994832
 30
0.0
 10
105.7103433980516
 20
-135.4005207994832
 30
0.0
 10
105.695529487465
 20
-135.0684135947051
 30
0.0
 10
105.5325764710127
 20
-135.0219048056543
 30
0.0
 10
105.4181993009024
 20
-134.9922769844811
 30
0.0
 10
105.4181993009024
 20
-134.9922769844811
 30
0.0
 10
105.4181993009024
 20
-134.8462049359065
 30
0.0
 10
105.4181993009024
 20
-134.8462049359065
 30
0.0
 10
105.4181993009024
 20
-134.8462049359065
 30
0.0
 10
106.9626356069399
 20
-134.8462049359065
 30
0.0
 10
106.9626356069399
 20
-134.8462049359065
 30
0.0
 10
106.9626356069399
 20
-134.8462049359065
 30
0.0
 10
106.9626356069399
 20
-135.0704806519963
 30
0.0
 10
106.9626356069399
 20
-135.0704806519963
 30
0.0
  0
HATCH
  5
64
330
5F
100
AcDbEntity
  8
_U+30EC_U+30A4_U+30E4_U+30FC 1
 62
   179
420
  2234388
100
AcDbHatch
 10
0.0
 20
0.0
 30
0.0
210
0.0
220
0.0
230
1.0
  2
SOLID
 70
     1
 71
     0
 91
        1
 92
        1
 93
        1
 72
     4
 94
        3
 73
     0
 74
     1
 95
       26
 96
       22
 40
0.0
 40
0.0
 40
0.0
 40
0.0
 40
1.0
 40
1.0
 40
1.0
 40
2.0
 40
2.0
 40
2.0
 40
3.0
 40
3.0
 40
3.0
 40
4.0
 40
4.0
 40
4.0
 40
5.0
 40
5.0
 40
5.0
 40
6.0
 40
6.0
 40
6.0
 40
7.0
 40
7.0
 40
7.0
 40
7.0
 10
106.9626356069399
 20
-135.0704806519963
 10
106.9626356069399
 20
-135.0704806519963
 10
105.8584825039173
 20
-135.0704806519963
 10
105.8584825039173
 20
-135.0704806519963
 10
105.8584825039173
 20
-135.0704806519963
 10
105.8584825039173
 20
-135.4005207994832
 10
105.8584825039173
 20
-135.4005207994832
 10
105.8584825039173
 20
-135.4005207994832
 10
105.7103433980516
 20
-135.4005207994832
 10
105.7103433980516
 20
-135.4005207994832
 10
105.695529487465
 20
-135.0684135947051
 10
105.5325764710127
 20
-135.0219048056543
 10
105.4181993009024
 20
-134.9922769844811
 10
105.4181993009024
 20
-134.9922769844811
 10
105.4181993009024
 20
-134.8462049359065
 10
105.4181993009024
 20
-134.8462049359065
 10
105.4181993009024
 20
-134.8462049359065
 10
106.9626356069399
 20
-134.8462049359065
 10
106.9626356069399
 20
-134.8462049359065
 10
106.9626356069399
 20
-134.8462049359065
 10
106.9626356069399
 20
-135.0704806519963
 10
106.9626356069399
 20
-135.0704806519963
 97
        0
 97
        0
 75
     2
 76
     1
 98
        0
  0
ENDBLK
  5
62
330
5F
100
AcDbEntity
  8
0
100
AcDbBlockEnd
  0
BLOCK
  5
67
330
65
100
AcDbEntity
  8
0
100
AcDbBlockBegin
  2
block 3
 70
     0
 10
0.0
 20
0.0
 30
0.0
  3
block 3
  1

  0
SPLINE
  5
69
330
65
100
AcDbEntity
  8
_U+30EC_U+30A4_U+30E4_U+30FC 1
370
     0
100
AcDbSpline
210
0.0
220
0.0
230
1.0
 70
    11
 71
     3
 72
    26
 73
    22
 74
     0
 42
0.0000000001
 43
0.0000000001
 12
1.0
 22
0.0
 32
0.0
 13
1.0
 23
0.0
 33
0.0
 40
0.0
 40
0.0
 40
0.0
 40
0.0
 40
1.0
 40
1.0
 40
1.0
 40
2.0
 40
2.0
 40
2.0
 40
3.0
 40
3.0
 40
3.0
 40
4.0
 40
4.0
 40
4.0
 40
5.0
 40
5.0
 40
5.0
 40
6.0
 40
6.0
 40
6.0
 40
7.0
 40
7.0
 40
7.0
 40
7.0
 10
106.9626356069399
 20
-130.0482204535991
 30
0.0
 10
106.9626356069399
 20
-130.0482204535991
 30
0.0
 10
105.8584825039173
 20
-130.0482204535991
 30
0.0
 10
105.8584825039173
 20
-130.0482204535991
 30
0.0
 10
105.8584825039173
 20
-130.0482204535991
 30
0.0
 10
105.8584825039173
 20
-130.378260601086
 30
0.0
 10
105.8584825039173
 20
-130.378260601086
 30
0.0
 10
105.8584825039173
 20
-130.378260601086
 30
0.0
 10
105.7103433980516
 20
-130.378260601086
 30
0.0
 10
105.7103433980516
 20
-130.378260601086
 30
0.0
 10
105.695529487465
 20
-130.0461533963079
 30
0.0
 10
105.5325764710127
 20
-129.999644607257
 30
0.0
 10
105.4181993009024
 20
-129.9700167860839
 30
0.0
 10
105.4181993009024
 20
-129.9700167860839
 30
0.0
 10
105.4181993009024
 20
-129.8239447375093
 30
0.0
 10
105.4181993009024
 20
-129.8239447375093
 30
0.0
 10
105.4181993009024
 20
-129.8239447375093
 30
0.0
 10
106.9626356069399
 20
-129.8239447375093
 30
0.0
 10
106.9626356069399
 20
-129.8239447375093
 30
0.0
 10
106.9626356069399
 20
-129.8239447375093
 30
0.0
 10
106.9626356069399
 20
-130.0482204535991
 30
0.0
 10
106.9626356069399
 20
-130.0482204535991
 30
0.0
  0
HATCH
  5
6A
330
65
100
AcDbEntity
  8
_U+30EC_U+30A4_U+30E4_U+30FC 1
 62
   179
420
  2234388
100
AcDbHatch
 10
0.0
 20
0.0
 30
0.0
210
0.0
220
0.0
230
1.0
  2
SOLID
 70
     1
 71
     0
 91
        1
 92
        1
 93
        1
 72
     4
 94
        3
 73
     0
 74
     1
 95
       26
 96
       22
 40
0.0
 40
0.0
 40
0.0
 40
0.0
 40
1.0
 40
1.0
 40
1.0
 40
2.0
 40
2.0
 40
2.0
 40
3.0
 40
3.0
 40
3.0
 40
4.0
 40
4.0
 40
4.0
 40
5.0
 40
5.0
 40
5.0
 40
6.0
 40
6.0
 40
6.0
 40
7.0
 40
7.0
 40
7.0
 40
7.0
 10
106.9626356069399
 20
-130.0482204535991
 10
106.9626356069399
 20
-130.0482204535991
 10
105.8584825039173
 20
-130.0482204535991
 10
105.8584825039173
 20
-130.0482204535991
 10
105.8584825039173
 20
-130.0482204535991
 10
105.8584825039173
 20
-130.378260601086
 10
105.8584825039173
 20
-130.378260601086
 10
105.8584825039173
 20
-130.378260601086
 10
105.7103433980516
 20
-130.378260601086
 10
105.7103433980516
 20
-130.378260601086
 10
105.695529487465
 20
-130.0461533963079
 10
105.5325764710127
 20
-129.999644607257
 10
105.4181993009024
 20
-129.9700167860839
 10
105.4181993009024
 20
-129.9700167860839
 10
105.4181993009024
 20
-129.8239447375093
 10
105.4181993009024
 20
-129.8239447375093
 10
105.4181993009024
 20
-129.8239447375093
 10
106.9626356069399
 20
-129.8239447375093
 10
106.9626356069399
 20
-129.8239447375093
 10
106.9626356069399
 20
-129.8239447375093
 10
106.9626356069399
 20
-130.0482204535991
 10
106.9626356069399
 20
-130.0482204535991
 97
        0
 97
        0
 75
     2
 76
     1
 98
        0
  0
SPLINE
  5
6B
330
65
100
AcDbEntity
  8
_U+30EC_U+30A4_U+30E4_U+30FC 1
370
     0
100
AcDbSpline
210
0.0
220
0.0
230
1.0
 70
    11
 71
     3
 72
    44
 73
    40
 74
     0
 42
0.0000000001
 43
0.0000000001
 12
1.0
 22
0.0
 32
0.0
 13
1.0
 23
0.0
 33
0.0
 40
0.0
 40
0.0
 40
0.0
 40
0.0
 40
1.0
 40
1.0
 40
1.0
 40
2.0
 40
2.0
 40
2.0
 40
3.0
 40
3.0
 40
3.0
 40
4.0
 40
4.0
 40
4.0
 40
5.0
 40
5.0
 40
5.0
 40
6.0
 40
6.0
 40
6.0
 40
7.0
 40
7.0
 40
7.0
 40
8.0
 40
8.0
 40
8.0
 40
9.0
 40
9.0
 40
9.0
 40
10.0
 40
10.0
 40
10.0
 40
11.0
 40
11.0
 40
11.0
 40
12.0
 40
12.0
 40
12.0
 40
13.0
 40
13.0
 40
13.0
 40
13.0
 10
106.3807589794812
 20
-128.729782411394
 30
0.0
 10
106.5395778813512
 20
-128.9475124460618
 30
0.0
 10
106.6136474342841
 20
-129.0405300241635
 30
0.0
 10
106.757307916019
 20
-129.089450380054
 30
0.0
 10
106.757307916019
 20
-129.089450380054
 30
0.0
 10
106.757307916019
 20
-128.3108588003876
 30
0.0
 10
106.757307916019
 20
-128.3108588003876
 30
0.0
 10
106.757307916019
 20
-128.3108588003876
 30
0.0
 10
106.9626356069399
 20
-128.3108588003876
 30
0.0
 10
106.9626356069399
 20
-128.3108588003876
 30
0.0
 10
106.9626356069399
 20
-128.3108588003876
 30
0.0
 10
106.9626356069399
 20
-129.3388752931861
 30
0.0
 10
106.9626356069399
 20
-129.3388752931861
 30
0.0
 10
106.605034695571
 20
-129.3071804147218
 30
0.0
 10
106.5268310280558
 20
-129.2417236005021
 30
0.0
 10
106.2284857590332
 20
-128.8565619252512
 30
0.0
 10
106.0297037495342
 20
-128.6005913306971
 30
0.0
 10
105.9618353684748
 20
-128.5351345164773
 30
0.0
 10
105.8243760586134
 20
-128.5351345164773
 30
0.0
 10
105.7058647739208
 20
-128.5351345164773
 30
0.0
 10
105.5749511454813
 20
-128.6071370121191
 30
0.0
 10
105.5749511454813
 20
-128.8038519643268
 30
0.0
 10
105.5749511454813
 20
-129.0639566734632
 30
0.0
 10
105.8054280334445
 20
-129.0725694121763
 30
0.0
 10
105.9218722608459
 20
-129.0767035267586
 30
0.0
 10
105.9218722608459
 20
-129.0767035267586
 30
0.0
 10
105.9218722608459
 20
-129.3009792428484
 30
0.0
 10
105.9218722608459
 20
-129.3009792428484
 30
0.0
 10
105.7947482374402
 20
-129.2923665041353
 30
0.0
 10
105.6827826341696
 20
-129.281686708131
 30
0.0
 10
105.564271349477
 20
-129.2014159833247
 30
0.0
 10
105.4033853903158
 20
-129.0915174373452
 30
0.0
 10
105.3696234545604
 20
-128.9051377715932
 30
0.0
 10
105.3696234545604
 20
-128.7890380537403
 30
0.0
 10
105.3696234545604
 20
-128.5117078671776
 30
0.0
 10
105.5535915534727
 20
-128.3043131189656
 30
0.0
 10
105.8264431159045
 20
-128.3043131189656
 30
0.0
 10
106.0551974561251
 20
-128.3043131189656
 30
0.0
 10
106.1544162061003
 20
-128.420757346367
 30
0.0
 10
106.3807589794812
 20
-128.729782411394
 30
0.0
  0
HATCH
  5
6C
330
65
100
AcDbEntity
  8
_U+30EC_U+30A4_U+30E4_U+30FC 1
 62
   179
420
  2234388
100
AcDbHatch
 10
0.0
 20
0.0
 30
0.0
210
0.0
220
0.0
230
1.0
  2
SOLID
 70
     1
 71
     0
 91
        1
 92
        1
 93
        1
 72
     4
 94
        3
 73
     0
 74
     1
 95
       44
 96
       40
 40
0.0
 40
0.0
 40
0.0
 40
0.0
 40
1.0
 40
1.0
 40
1.0
 40
2.0
 40
2.0
 40
2.0
 40
3.0
 40
3.0
 40
3.0
 40
4.0
 40
4.0
 40
4.0
 40
5.0
 40
5.0
 40
5.0
 40
6.0
 40
6.0
 40
6.0
 40
7.0
 40
7.0
 40
7.0
 40
8.0
 40
8.0
 40
8.0
 40
9.0
 40
9.0
 40
9.0
 40
10.0
 40
10.0
 40
10.0
 40
11.0
 40
11.0
 40
11.0
 40
12.0
 40
12.0
 40
12.0
 40
13.0
 40
13.0
 40
13.0
 40
13.0
 10
106.3807589794812
 20
-128.729782411394
 10
106.5395778813512
 20
-128.9475124460618
 10
106.6136474342841
 20
-129.0405300241635
 10
106.757307916019
 20
-129.089450380054
 10
106.757307916019
 20
-129.089450380054
 10
106.757307916019
 20
-128.3108588003876
 10
106.757307916019
 20
-128.3108588003876
 10
106.757307916019
 20
-128.3108588003876
 10
106.9626356069399
 20
-128.3108588003876
 10
106.9626356069399
 20
-128.3108588003876
 10
106.9626356069399
 20
-128.3108588003876
 10
106.9626356069399
 20
-129.3388752931861
 10
106.9626356069399
 20
-129.3388752931861
 10
106.605034695571
 20
-129.3071804147218
 10
106.5268310280558
 20
-129.2417236005021
 10
106.2284857590332
 20
-128.8565619252512
 10
106.0297037495342
 20
-128.6005913306971
 10
105.9618353684748
 20
-128.5351345164773
 10
105.8243760586134
 20
-128.5351345164773
 10
105.7058647739208
 20
-128.5351345164773
 10
105.5749511454813
 20
-128.6071370121191
 10
105.5749511454813
 20
-128.8038519643268
 10
105.5749511454813
 20
-129.0639566734632
 10
105.8054280334445
 20
-129.0725694121763
 10
105.9218722608459
 20
-129.0767035267586
 10
105.9218722608459
 20
-129.0767035267586
 10
105.9218722608459
 20
-129.3009792428484
 10
105.9218722608459
 20
-129.3009792428484
 10
105.7947482374402
 20
-129.2923665041353
 10
105.6827826341696
 20
-129.281686708131
 10
105.564271349477
 20
-129.2014159833247
 10
105.4033853903158
 20
-129.0915174373452
 10
105.3696234545604
 20
-128.9051377715932
 10
105.3696234545604
 20
-128.7890380537403
 10
105.3696234545604
 20
-128.5117078671776
 10
105.5535915534727
 20
-128.3043131189656
 10
105.8264431159045
 20
-128.3043131189656
 10
106.0551974561251
 20
-128.3043131189656
 10
106.1544162061003
 20
-128.420757346367
 10
106.3807589794812
 20
-128.729782411394
 97
        0
 97
        0
 75
     2
 76
     1
 98
        0
  0
POLYLINE
  5
6D
330
65
100
AcDbEntity
  8
_U+30EC_U+30A4_U+30E4_U+30FC 1
370
     0
100
AcDb2dPolyline
 66
     1
 10
0.0
 20
0.0
 30
0.0
  0
VERTEX
  5
6E
330
6D
100
AcDbEntity
  8
_U+30EC_U+30A4_U+30E4_U+30FC 1
370
     0
100
AcDbVertex
100
AcDb2dVertex
 10
106.9626356069399
 20
-128.0858940652008
 30
0.0
  0
VERTEX
  5
6F
330
6D
100
AcDbEntity
  8
_U+30EC_U+30A4_U+30E4_U+30FC 1
370
     0
100
AcDbVertex
100
AcDb2dVertex
 10
106.7107991269681
 20
-128.0858940652008
 30
0.0
  0
VERTEX
  5
70
330
6D
100
AcDbEntity
  8
_U+30EC_U+30A4_U+30E4_U+30FC 1
370
     0
100
AcDbVertex
100
AcDb2dVertex
 10
106.7107991269681
 20
-127.834057585229
 30
0.0
  0
VERTEX
  5
71
330
6D
100
AcDbEntity
  8
_U+30EC_U+30A4_U+30E4_U+30FC 1
370
     0
100
AcDbVertex
100
AcDb2dVertex
 10
106.9626356069399
 20
-127.834057585229
 30
0.0
  0
VERTEX
  5
72
330
6D
100
AcDbEntity
  8
_U+30EC_U+30A4_U+30E4_U+30FC 1
370
     0
100
AcDbVertex
100
AcDb2dVertex
 10
106.9626356069399
 20
-128.0858940652008
 30
0.0
  0
SEQEND
  5
73
330
6D
100
AcDbEntity
  8
_U+30EC_U+30A4_U+30E4_U+30FC 1
370
     0
  0
HATCH
  5
74
330
65
100
AcDbEntity
  8
_U+30EC_U+30A4_U+30E4_U+30FC 1
 62
   179
420
  2234388
100
AcDbHatch
 10
0.0
 20
0.0
 30
0.0
210
0.0
220
0.0
230
1.0
  2
SOLID
 70
     1
 71
     0
 91
        1
 92
        1
 93
        4
 72
     1
 10
106.9626356069399
 20
-128.0858940652008
 11
106.7107991269681
 21
-128.0858940652008
 72
     1
 10
106.7107991269681
 20
-128.0858940652008
 11
106.7107991269681
 21
-127.834057585229
 72
     1
 10
106.7107991269681
 20
-127.834057585229
 11
106.9626356069399
 21
-127.834057585229
 72
     1
 10
106.9626356069399
 20
-127.834057585229
 11
106.9626356069399
 21
-128.0858940652008
 97
        0
 75
     2
 76
     1
 98
        0
  0
SPLINE
  5
75
330
65
100
AcDbEntity
  8
_U+30EC_U+30A4_U+30E4_U+30FC 1
370
     0
100
AcDbSpline
210
0.0
220
0.0
230
1.0
 70
    11
 71
     3
 72
    53
 73
    49
 74
     0
 42
0.0000000001
 43
0.0000000001
 12
1.0
 22
0.0
 32
0.0
 13
1.0
 23
0.0
 33
0.0
 40
0.0
 40
0.0
 40
0.0
 40
0.0
 40
1.0
 40
1.0
 40
1.0
 40
2.0
 40
2.0
 40
2.0
 40
3.0
 40
3.0
 40
3.0
 40
4.0
 40
4.0
 40
4.0
 40
5.0
 40
5.0
 40
5.0
 40
6.0
 40
6.0
 40
6.0
 40
7.0
 40
7.0
 40
7.0
 40
8.0
 40
8.0
 40
8.0
 40
9.0
 40
9.0
 40
9.0
 40
10.0
 40
10.0
 40
10.0
 40
11.0
 40
11.0
 40
11.0
 40
12.0
 40
12.0
 40
12.0
 40
13.0
 40
13.0
 40
13.0
 40
14.0
 40
14.0
 40
14.0
 40
15.0
 40
15.0
 40
15.0
 40
16.0
 40
16.0
 40
16.0
 40
16.0
 10
107.0132785105731
 20
-127.1167887052
 30
0.0
 10
107.0132785105731
 20
-127.1949923727151
 30
0.0
 10
106.9963975426953
 20
-127.29662268953
 30
0.0
 10
106.9330077857667
 20
-127.3982530063449
 30
0.0
 10
106.8231092397873
 20
-127.571541309253
 30
0.0
 10
106.6918511017993
 20
-127.5929009012615
 30
0.0
 10
106.5840196131109
 20
-127.6118489264304
 30
0.0
 10
106.5840196131109
 20
-127.6118489264304
 30
0.0
 10
106.5840196131109
 20
-127.3896402676318
 30
0.0
 10
106.5840196131109
 20
-127.3896402676318
 30
0.0
 10
106.7828016226099
 20
-127.3348632494163
 30
0.0
 10
106.812429443783
 20
-127.2077392260106
 30
0.0
 10
106.812429443783
 20
-127.1147216479088
 30
0.0
 10
106.812429443783
 20
-126.9751952807562
 30
0.0
 10
106.7128661842593
 20
-126.8229220603082
 30
0.0
 10
106.4803222390049
 20
-126.8229220603082
 30
0.0
 10
106.2243516444509
 20
-126.8229220603082
 30
0.0
 10
106.1544162061003
 20
-127.0027560446382
 30
0.0
 10
106.1544162061003
 20
-127.1233343866219
 30
0.0
 10
106.1544162061003
 20
-127.1550292650862
 30
0.0
 10
106.1544162061003
 20
-127.29662268953
 30
0.0
 10
106.2836072867972
 20
-127.3855061530495
 30
0.0
 10
106.2836072867972
 20
-127.3855061530495
 30
0.0
 10
106.2646592616283
 20
-127.5612060227972
 30
0.0
 10
106.2646592616283
 20
-127.5612060227972
 30
0.0
 10
106.2646592616283
 20
-127.5612060227972
 30
0.0
 10
105.4181993009024
 20
-127.4406276808135
 30
0.0
 10
105.4181993009024
 20
-127.4406276808135
 30
0.0
 10
105.4181993009024
 20
-127.4406276808135
 30
0.0
 10
105.4181993009024
 20
-126.662036101147
 30
0.0
 10
105.4181993009024
 20
-126.662036101147
 30
0.0
 10
105.4181993009024
 20
-126.662036101147
 30
0.0
 10
105.612847195819
 20
-126.662036101147
 30
0.0
 10
105.612847195819
 20
-126.662036101147
 30
0.0
 10
105.612847195819
 20
-126.662036101147
 30
0.0
 10
105.612847195819
 20
-127.2776746643611
 30
0.0
 10
105.612847195819
 20
-127.2776746643611
 30
0.0
 10
105.612847195819
 20
-127.2776746643611
 30
0.0
 10
106.0359049214077
 20
-127.3431314785809
 30
0.0
 10
106.0359049214077
 20
-127.3431314785809
 30
0.0
 10
106.0021429856522
 20
-127.2818087789434
 30
0.0
 10
105.9618353684748
 20
-127.199470996846
 30
0.0
 10
105.9618353684748
 20
-127.0809597121534
 30
0.0
 10
105.9618353684748
 20
-126.8270561748905
 30
0.0
 10
106.1482150342268
 20
-126.5900336055053
 30
0.0
 10
106.4613742138361
 20
-126.5900336055053
 30
0.0
 10
106.7786675080276
 20
-126.5900336055053
 30
0.0
 10
107.0132785105731
 20
-126.814309321595
 30
0.0
 10
107.0132785105731
 20
-127.1167887052
 30
0.0
  0
HATCH
  5
76
330
65
100
AcDbEntity
  8
_U+30EC_U+30A4_U+30E4_U+30FC 1
 62
   179
420
  2234388
100
AcDbHatch
 10
0.0
 20
0.0
 30
0.0
210
0.0
220
0.0
230
1.0
  2
SOLID
 70
     1
 71
     0
 91
        1
 92
        1
 93
        1
 72
     4
 94
        3
 73
     0
 74
     1
 95
       53
 96
       49
 40
0.0
 40
0.0
 40
0.0
 40
0.0
 40
1.0
 40
1.0
 40
1.0
 40
2.0
 40
2.0
 40
2.0
 40
3.0
 40
3.0
 40
3.0
 40
4.0
 40
4.0
 40
4.0
 40
5.0
 40
5.0
 40
5.0
 40
6.0
 40
6.0
 40
6.0
 40
7.0
 40
7.0
 40
7.0
 40
8.0
 40
8.0
 40
8.0
 40
9.0
 40
9.0
 40
9.0
 40
10.0
 40
10.0
 40
10.0
 40
11.0
 40
11.0
 40
11.0
 40
12.0
 40
12.0
 40
12.0
 40
13.0
 40
13.0
 40
13.0
 40
14.0
 40
14.0
 40
14.0
 40
15.0
 40
15.0
 40
15.0
 40
16.0
 40
16.0
 40
16.0
 40
16.0
 10
107.0132785105731
 20
-127.1167887052
 10
107.0132785105731
 20
-127.1949923727151
 10
106.9963975426953
 20
-127.29662268953
 10
106.9330077857667
 20
-127.3982530063449
 10
106.8231092397873
 20
-127.571541309253
 10
106.6918511017993
 20
-127.5929009012615
 10
106.5840196131109
 20
-127.6118489264304
 10
106.5840196131109
 20
-127.6118489264304
 10
106.5840196131109
 20
-127.3896402676318
 10
106.5840196131109
 20
-127.3896402676318
 10
106.7828016226099
 20
-127.3348632494163
 10
106.812429443783
 20
-127.2077392260106
 10
106.812429443783
 20
-127.1147216479088
 10
106.812429443783
 20
-126.9751952807562
 10
106.7128661842593
 20
-126.8229220603082
 10
106.4803222390049
 20
-126.8229220603082
 10
106.2243516444509
 20
-126.8229220603082
 10
106.1544162061003
 20
-127.0027560446382
 10
106.1544162061003
 20
-127.1233343866219
 10
106.1544162061003
 20
-127.1550292650862
 10
106.1544162061003
 20
-127.29662268953
 10
106.2836072867972
 20
-127.3855061530495
 10
106.2836072867972
 20
-127.3855061530495
 10
106.2646592616283
 20
-127.5612060227972
 10
106.2646592616283
 20
-127.5612060227972
 10
106.2646592616283
 20
-127.5612060227972
 10
105.4181993009024
 20
-127.4406276808135
 10
105.4181993009024
 20
-127.4406276808135
 10
105.4181993009024
 20
-127.4406276808135
 10
105.4181993009024
 20
-126.662036101147
 10
105.4181993009024
 20
-126.662036101147
 10
105.4181993009024
 20
-126.662036101147
 10
105.612847195819
 20
-126.662036101147
 10
105.612847195819
 20
-126.662036101147
 10
105.612847195819
 20
-126.662036101147
 10
105.612847195819
 20
-127.2776746643611
 10
105.612847195819
 20
-127.2776746643611
 10
105.612847195819
 20
-127.2776746643611
 10
106.0359049214077
 20
-127.3431314785809
 10
106.0359049214077
 20
-127.3431314785809
 10
106.0021429856522
 20
-127.2818087789434
 10
105.9618353684748
 20
-127.199470996846
 10
105.9618353684748
 20
-127.0809597121534
 10
105.9618353684748
 20
-126.8270561748905
 10
106.1482150342268
 20
-126.5900336055053
 10
106.4613742138361
 20
-126.5900336055053
 10
106.7786675080276
 20
-126.5900336055053
 10
107.0132785105731
 20
-126.814309321595
 10
107.0132785105731
 20
-127.1167887052
 97
        0
 97
        0
 75
     2
 76
     1
 98
        0
  0
ENDBLK
  5
68
330
65
100
AcDbEntity
  8
0
100
AcDbBlockEnd
  0
BLOCK
  5
79
330
77
100
AcDbEntity
  8
0
100
AcDbBlockBegin
  2
block 4
 70
     0
 10
0.0
 20
0.0
 30
0.0
  3
block 4
  1

  0
SPLINE
  5
7B
330
77
100
AcDbEntity
  8
_U+30EC_U+30A4_U+30E4_U+30FC 1
370
     0
100
AcDbSpline
210
0.0
220
0.0
230
1.0
 70
    11
 71
     3
 72
    32
 73
    28
 74
     0
 42
0.0000000001
 43
0.0000000001
 12
1.0
 22
0.0
 32
0.0
 13
1.0
 23
0.0
 33
0.0
 40
0.0
 40
0.0
 40
0.0
 40
0.0
 40
1.0
 40
1.0
 40
1.0
 40
2.0
 40
2.0
 40
2.0
 40
3.0
 40
3.0
 40
3.0
 40
4.0
 40
4.0
 40
4.0
 40
5.0
 40
5.0
 40
5.0
 40
6.0
 40
6.0
 40
6.0
 40
7.0
 40
7.0
 40
7.0
 40
8.0
 40
8.0
 40
8.0
 40
9.0
 40
9.0
 40
9.0
 40
9.0
 10
98.27961694591622
 20
-130.5897894638803
 30
0.0
 10
98.27961694591622
 20
-130.7630777667884
 30
0.0
 10
98.21002601711416
 20
-131.0087130748867
 30
0.0
 10
97.87791881233608
 20
-131.0466091252245
 30
0.0
 10
97.87791881233608
 20
-131.0466091252245
 30
0.0
 10
97.87791881233608
 20
-130.833013205139
 30
0.0
 10
97.87791881233608
 20
-130.833013205139
 30
0.0
 10
97.93717445468238
 20
-130.8223334091347
 30
0.0
 10
98.08531356054812
 20
-130.7906385306704
 30
0.0
 10
98.08531356054812
 20
-130.5877224065892
 30
0.0
 10
98.08531356054812
 20
-130.29557830944
 30
0.0
 10
97.75527341306119
 20
-130.2576822591022
 30
0.0
 10
97.5499457221403
 20
-130.2449354058068
 30
0.0
 10
97.63056095649515
 20
-130.3358859266174
 30
0.0
 10
97.68774954155029
 20
-130.4034097981283
 30
0.0
 10
97.68774954155029
 20
-130.5853108397495
 30
0.0
 10
97.68774954155029
 20
-130.7651448240796
 30
0.0
 10
97.5816406006046
 20
-131.067968717233
 30
0.0
 10
97.17580835244216
 20
-131.067968717233
 30
0.0
 10
96.85610349141098
 20
-131.067968717233
 30
0.0
 10
96.63630639945204
 20
-130.8688421981856
 30
0.0
 10
96.63630639945204
 20
-130.5515489039941
 30
0.0
 10
96.63630639945204
 20
-130.0375406575948
 30
0.0
 10
97.19027775348022
 20
-130.0268608615905
 30
0.0
 10
97.4038736735657
 20
-130.0268608615905
 30
0.0
 10
97.63469507107745
 20
-130.0268608615905
 30
0.0
 10
98.27961694591622
 20
-130.0461533963079
 30
0.0
 10
98.27961694591622
 20
-130.5897894638803
 30
0.0
  0
SPLINE
  5
7C
330
77
100
AcDbEntity
  8
_U+30EC_U+30A4_U+30E4_U+30FC 1
370
     0
100
AcDbSpline
210
0.0
220
0.0
230
1.0
 70
    11
 71
     3
 72
    17
 73
    13
 74
     0
 42
0.0000000001
 43
0.0000000001
 12
1.0
 22
0.0
 32
0.0
 13
1.0
 23
0.0
 33
0.0
 40
0.0
 40
0.0
 40
0.0
 40
0.0
 40
1.0
 40
1.0
 40
1.0
 40
2.0
 40
2.0
 40
2.0
 40
3.0
 40
3.0
 40
3.0
 40
4.0
 40
4.0
 40
4.0
 40
4.0
 10
96.82854272752898
 20
-130.5494818467029
 30
0.0
 10
96.82854272752898
 20
-130.6679931313955
 30
0.0
 10
96.88573131258413
 20
-130.8436930011432
 30
0.0
 10
97.17167423785986
 20
-130.8436930011432
 30
0.0
 10
97.39767250169226
 20
-130.8436930011432
 30
0.0
 10
97.49275713708515
 20
-130.7038221244421
 30
0.0
 10
97.49275713708515
 20
-130.5684298718718
 30
0.0
 10
97.49275713708515
 20
-130.3062581054443
 30
0.0
 10
97.28329533158195
 20
-130.268017545558
 30
0.0
 10
97.16685110418051
 20
-130.268017545558
 30
0.0
 10
96.99184025352982
 20
-130.268017545558
 30
0.0
 10
96.82854272752898
 20
-130.3634466904994
 30
0.0
 10
96.82854272752898
 20
-130.5494818467029
 30
0.0
  0
HATCH
  5
7D
330
77
100
AcDbEntity
  8
_U+30EC_U+30A4_U+30E4_U+30FC 1
 62
   179
420
  2234388
100
AcDbHatch
 10
0.0
 20
0.0
 30
0.0
210
0.0
220
0.0
230
1.0
  2
SOLID
 70
     1
 71
     0
 91
        2
 92
        1
 93
        1
 72
     4
 94
        3
 73
     0
 74
     1
 95
       32
 96
       28
 40
0.0
 40
0.0
 40
0.0
 40
0.0
 40
1.0
 40
1.0
 40
1.0
 40
2.0
 40
2.0
 40
2.0
 40
3.0
 40
3.0
 40
3.0
 40
4.0
 40
4.0
 40
4.0
 40
5.0
 40
5.0
 40
5.0
 40
6.0
 40
6.0
 40
6.0
 40
7.0
 40
7.0
 40
7.0
 40
8.0
 40
8.0
 40
8.0
 40
9.0
 40
9.0
 40
9.0
 40
9.0
 10
98.27961694591622
 20
-130.5897894638803
 10
98.27961694591622
 20
-130.7630777667884
 10
98.21002601711416
 20
-131.0087130748867
 10
97.87791881233608
 20
-131.0466091252245
 10
97.87791881233608
 20
-131.0466091252245
 10
97.87791881233608
 20
-130.833013205139
 10
97.87791881233608
 20
-130.833013205139
 10
97.93717445468238
 20
-130.8223334091347
 10
98.08531356054812
 20
-130.7906385306704
 10
98.08531356054812
 20
-130.5877224065892
 10
98.08531356054812
 20
-130.29557830944
 10
97.75527341306119
 20
-130.2576822591022
 10
97.5499457221403
 20
-130.2449354058068
 10
97.63056095649515
 20
-130.3358859266174
 10
97.68774954155029
 20
-130.4034097981283
 10
97.68774954155029
 20
-130.5853108397495
 10
97.68774954155029
 20
-130.7651448240796
 10
97.5816406006046
 20
-131.067968717233
 10
97.17580835244216
 20
-131.067968717233
 10
96.85610349141098
 20
-131.067968717233
 10
96.63630639945204
 20
-130.8688421981856
 10
96.63630639945204
 20
-130.5515489039941
 10
96.63630639945204
 20
-130.0375406575948
 10
97.19027775348022
 20
-130.0268608615905
 10
97.4038736735657
 20
-130.0268608615905
 10
97.63469507107745
 20
-130.0268608615905
 10
98.27961694591622
 20
-130.0461533963079
 10
98.27961694591622
 20
-130.5897894638803
 97
        0
 97
        0
 92
        1
 93
        1
 72
     4
 94
        3
 73
     0
 74
     1
 95
       17
 96
       13
 40
0.0
 40
0.0
 40
0.0
 40
0.0
 40
1.0
 40
1.0
 40
1.0
 40
2.0
 40
2.0
 40
2.0
 40
3.0
 40
3.0
 40
3.0
 40
4.0
 40
4.0
 40
4.0
 40
4.0
 10
96.82854272752898
 20
-130.5494818467029
 10
96.82854272752898
 20
-130.6679931313955
 10
96.88573131258413
 20
-130.8436930011432
 10
97.17167423785986
 20
-130.8436930011432
 10
97.39767250169226
 20
-130.8436930011432
 10
97.49275713708515
 20
-130.7038221244421
 10
97.49275713708515
 20
-130.5684298718718
 10
97.49275713708515
 20
-130.3062581054443
 10
97.28329533158195
 20
-130.268017545558
 10
97.16685110418051
 20
-130.268017545558
 10
96.99184025352982
 20
-130.268017545558
 10
96.82854272752898
 20
-130.3634466904994
 10
96.82854272752898
 20
-130.5494818467029
 97
        0
 97
        0
 75
     2
 76
     1
 98
        0
  0
POLYLINE
  5
7E
330
77
100
AcDbEntity
  8
_U+30EC_U+30A4_U+30E4_U+30FC 1
370
     0
100
AcDb2dPolyline
 66
     1
 10
0.0
 20
0.0
 30
0.0
  0
VERTEX
  5
7F
330
7E
100
AcDbEntity
  8
_U+30EC_U+30A4_U+30E4_U+30FC 1
370
     0
100
AcDbVertex
100
AcDb2dVertex
 10
98.22931855183157
 20
-129.8105088651168
 30
0.0
  0
VERTEX
  5
80
330
7E
100
AcDbEntity
  8
_U+30EC_U+30A4_U+30E4_U+30FC 1
370
     0
100
AcDbVertex
100
AcDb2dVertex
 10
97.97713756231127
 20
-129.8105088651168
 30
0.0
  0
VERTEX
  5
81
330
7E
100
AcDbEntity
  8
_U+30EC_U+30A4_U+30E4_U+30FC 1
370
     0
100
AcDbVertex
100
AcDb2dVertex
 10
97.97713756231127
 20
-129.5586723851451
 30
0.0
  0
VERTEX
  5
82
330
7E
100
AcDbEntity
  8
_U+30EC_U+30A4_U+30E4_U+30FC 1
370
     0
100
AcDbVertex
100
AcDb2dVertex
 10
98.22931855183157
 20
-129.5586723851451
 30
0.0
  0
VERTEX
  5
83
330
7E
100
AcDbEntity
  8
_U+30EC_U+30A4_U+30E4_U+30FC 1
370
     0
100
AcDbVertex
100
AcDb2dVertex
 10
98.22931855183157
 20
-129.8105088651168
 30
0.0
  0
SEQEND
  5
84
330
7E
100
AcDbEntity
  8
_U+30EC_U+30A4_U+30E4_U+30FC 1
370
     0
  0
HATCH
  5
85
330
77
100
AcDbEntity
  8
_U+30EC_U+30A4_U+30E4_U+30FC 1
 62
   179
420
  2234388
100
AcDbHatch
 10
0.0
 20
0.0
 30
0.0
210
0.0
220
0.0
230
1.0
  2
SOLID
 70
     1
 71
     0
 91
        1
 92
        1
 93
        4
 72
     1
 10
98.22931855183157
 20
-129.8105088651168
 11
97.97713756231127
 21
-129.8105088651168
 72
     1
 10
97.97713756231127
 20
-129.8105088651168
 11
97.97713756231127
 21
-129.5586723851451
 72
     1
 10
97.97713756231127
 20
-129.5586723851451
 11
98.22931855183157
 21
-129.5586723851451
 72
     1
 10
98.22931855183157
 20
-129.5586723851451
 11
98.22931855183157
 21
-129.8105088651168
 97
        0
 75
     2
 76
     1
 98
        0
  0
SPLINE
  5
86
330
77
100
AcDbEntity
  8
_U+30EC_U+30A4_U+30E4_U+30FC 1
370
     0
100
AcDbSpline
210
0.0
220
0.0
230
1.0
 70
    11
 71
     3
 72
    53
 73
    49
 74
     0
 42
0.0000000001
 43
0.0000000001
 12
1.0
 22
0.0
 32
0.0
 13
1.0
 23
0.0
 33
0.0
 40
0.0
 40
0.0
 40
0.0
 40
0.0
 40
1.0
 40
1.0
 40
1.0
 40
2.0
 40
2.0
 40
2.0
 40
3.0
 40
3.0
 40
3.0
 40
4.0
 40
4.0
 40
4.0
 40
5.0
 40
5.0
 40
5.0
 40
6.0
 40
6.0
 40
6.0
 40
7.0
 40
7.0
 40
7.0
 40
8.0
 40
8.0
 40
8.0
 40
9.0
 40
9.0
 40
9.0
 40
10.0
 40
10.0
 40
10.0
 40
11.0
 40
11.0
 40
11.0
 40
12.0
 40
12.0
 40
12.0
 40
13.0
 40
13.0
 40
13.0
 40
14.0
 40
14.0
 40
14.0
 40
15.0
 40
15.0
 40
15.0
 40
16.0
 40
16.0
 40
16.0
 40
16.0
 10
98.27961694591622
 20
-128.841403505116
 30
0.0
 10
98.27961694591622
 20
-128.9196071726312
 30
0.0
 10
98.26308048758702
 20
-129.0212374894461
 30
0.0
 10
98.19969073065842
 20
-129.122867806261
 30
0.0
 10
98.08944767513042
 20
-129.296156109169
 30
0.0
 10
97.95853404669093
 20
-129.3175157011776
 30
0.0
 10
97.85035804845408
 20
-129.3364637263464
 30
0.0
 10
97.85035804845408
 20
-129.3364637263464
 30
0.0
 10
97.85035804845408
 20
-129.1142550675478
 30
0.0
 10
97.85035804845408
 20
-129.1142550675478
 30
0.0
 10
98.04948456750152
 20
-129.0594780493324
 30
0.0
 10
98.07911238867467
 20
-128.9323540259266
 30
0.0
 10
98.07911238867467
 20
-128.8393364478249
 30
0.0
 10
98.07911238867467
 20
-128.6998100806723
 30
0.0
 10
97.97920461960243
 20
-128.5475368602242
 30
0.0
 10
97.74700518389659
 20
-128.5475368602242
 30
0.0
 10
97.49069007979399
 20
-128.5475368602242
 30
0.0
 10
97.42109915099195
 20
-128.7273708445543
 30
0.0
 10
97.42109915099195
 20
-128.847949186538
 30
0.0
 10
97.42109915099195
 20
-128.8796440650023
 30
0.0
 10
97.42109915099195
 20
-129.0212374894461
 30
0.0
 10
97.5499457221403
 20
-129.1101209529655
 30
0.0
 10
97.5499457221403
 20
-129.1101209529655
 30
0.0
 10
97.53134220651995
 20
-129.2858208227133
 30
0.0
 10
97.53134220651995
 20
-129.2858208227133
 30
0.0
 10
97.53134220651995
 20
-129.2858208227133
 30
0.0
 10
96.68453773624553
 20
-129.1652424807295
 30
0.0
 10
96.68453773624553
 20
-129.1652424807295
 30
0.0
 10
96.68453773624553
 20
-129.1652424807295
 30
0.0
 10
96.68453773624553
 20
-128.3866509010631
 30
0.0
 10
96.68453773624553
 20
-128.3866509010631
 30
0.0
 10
96.68453773624553
 20
-128.3866509010631
 30
0.0
 10
96.87953014071067
 20
-128.3866509010631
 30
0.0
 10
96.87953014071067
 20
-128.3866509010631
 30
0.0
 10
96.87953014071067
 20
-128.3866509010631
 30
0.0
 10
96.87953014071067
 20
-129.0022894642772
 30
0.0
 10
96.87953014071067
 20
-129.0022894642772
 30
0.0
 10
96.87953014071067
 20
-129.0022894642772
 30
0.0
 10
97.30258786629936
 20
-129.067746278497
 30
0.0
 10
97.30258786629936
 20
-129.067746278497
 30
0.0
 10
97.26882593054391
 20
-129.0064235788595
 30
0.0
 10
97.22817380381797
 20
-128.924085796762
 30
0.0
 10
97.22817380381797
 20
-128.8055745120695
 30
0.0
 10
97.22817380381797
 20
-128.5516709748065
 30
0.0
 10
97.4148979791185
 20
-128.3146484054213
 30
0.0
 10
97.72771264917918
 20
-128.3146484054213
 30
0.0
 10
98.04535045291922
 20
-128.3146484054213
 30
0.0
 10
98.27961694591622
 20
-128.5389241215111
 30
0.0
 10
98.27961694591622
 20
-128.841403505116
 30
0.0
  0
HATCH
  5
87
330
77
100
AcDbEntity
  8
_U+30EC_U+30A4_U+30E4_U+30FC 1
 62
   179
420
  2234388
100
AcDbHatch
 10
0.0
 20
0.0
 30
0.0
210
0.0
220
0.0
230
1.0
  2
SOLID
 70
     1
 71
     0
 91
        1
 92
        1
 93
        1
 72
     4
 94
        3
 73
     0
 74
     1
 95
       53
 96
       49
 40
0.0
 40
0.0
 40
0.0
 40
0.0
 40
1.0
 40
1.0
 40
1.0
 40
2.0
 40
2.0
 40
2.0
 40
3.0
 40
3.0
 40
3.0
 40
4.0
 40
4.0
 40
4.0
 40
5.0
 40
5.0
 40
5.0
 40
6.0
 40
6.0
 40
6.0
 40
7.0
 40
7.0
 40
7.0
 40
8.0
 40
8.0
 40
8.0
 40
9.0
 40
9.0
 40
9.0
 40
10.0
 40
10.0
 40
10.0
 40
11.0
 40
11.0
 40
11.0
 40
12.0
 40
12.0
 40
12.0
 40
13.0
 40
13.0
 40
13.0
 40
14.0
 40
14.0
 40
14.0
 40
15.0
 40
15.0
 40
15.0
 40
16.0
 40
16.0
 40
16.0
 40
16.0
 10
98.27961694591622
 20
-128.841403505116
 10
98.27961694591622
 20
-128.9196071726312
 10
98.26308048758702
 20
-129.0212374894461
 10
98.19969073065842
 20
-129.122867806261
 10
98.08944767513042
 20
-129.296156109169
 10
97.95853404669093
 20
-129.3175157011776
 10
97.85035804845408
 20
-129.3364637263464
 10
97.85035804845408
 20
-129.3364637263464
 10
97.85035804845408
 20
-129.1142550675478
 10
97.85035804845408
 20
-129.1142550675478
 10
98.04948456750152
 20
-129.0594780493324
 10
98.07911238867467
 20
-128.9323540259266
 10
98.07911238867467
 20
-128.8393364478249
 10
98.07911238867467
 20
-128.6998100806723
 10
97.97920461960243
 20
-128.5475368602242
 10
97.74700518389659
 20
-128.5475368602242
 10
97.49069007979399
 20
-128.5475368602242
 10
97.42109915099195
 20
-128.7273708445543
 10
97.42109915099195
 20
-128.847949186538
 10
97.42109915099195
 20
-128.8796440650023
 10
97.42109915099195
 20
-129.0212374894461
 10
97.5499457221403
 20
-129.1101209529655
 10
97.5499457221403
 20
-129.1101209529655
 10
97.53134220651995
 20
-129.2858208227133
 10
97.53134220651995
 20
-129.2858208227133
 10
97.53134220651995
 20
-129.2858208227133
 10
96.68453773624553
 20
-129.1652424807295
 10
96.68453773624553
 20
-129.1652424807295
 10
96.68453773624553
 20
-129.1652424807295
 10
96.68453773624553
 20
-128.3866509010631
 10
96.68453773624553
 20
-128.3866509010631
 10
96.68453773624553
 20
-128.3866509010631
 10
96.87953014071067
 20
-128.3866509010631
 10
96.87953014071067
 20
-128.3866509010631
 10
96.87953014071067
 20
-128.3866509010631
 10
96.87953014071067
 20
-129.0022894642772
 10
96.87953014071067
 20
-129.0022894642772
 10
96.87953014071067
 20
-129.0022894642772
 10
97.30258786629936
 20
-129.067746278497
 10
97.30258786629936
 20
-129.067746278497
 10
97.26882593054391
 20
-129.0064235788595
 10
97.22817380381797
 20
-128.924085796762
 10
97.22817380381797
 20
-128.8055745120695
 10
97.22817380381797
 20
-128.5516709748065
 10
97.4148979791185
 20
-128.3146484054213
 10
97.72771264917918
 20
-128.3146484054213
 10
98.04535045291922
 20
-128.3146484054213
 10
98.27961694591622
 20
-128.5389241215111
 10
98.27961694591622
 20
-128.841403505116
 97
        0
 97
        0
 75
     2
 76
     1
 98
        0
  0
ENDBLK
  5
7A
330
77
100
AcDbEntity
  8
0
100
AcDbBlockEnd
  0
BLOCK
  5
8A
330
88
100
AcDbEntity
  8
0
100
AcDbBlockBegin
  2
block 5
 70
     0
 10
0.0
 20
0.0
 30
0.0
  3
block 5
  1

  0
SPLINE
  5
8C
330
88
100
AcDbEntity
  8
_U+30EC_U+30A4_U+30E4_U+30FC 1
370
     0
100
AcDbSpline
210
0.0
220
0.0
230
1.0
 70
    11
 71
     3
 72
    62
 73
    58
 74
     0
 42
0.0000000001
 43
0.0000000001
 12
1.0
 22
0.0
 32
0.0
 13
1.0
 23
0.0
 33
0.0
 40
0.0
 40
0.0
 40
0.0
 40
0.0
 40
1.0
 40
1.0
 40
1.0
 40
2.0
 40
2.0
 40
2.0
 40
3.0
 40
3.0
 40
3.0
 40
4.0
 40
4.0
 40
4.0
 40
5.0
 40
5.0
 40
5.0
 40
6.0
 40
6.0
 40
6.0
 40
7.0
 40
7.0
 40
7.0
 40
8.0
 40
8.0
 40
8.0
 40
9.0
 40
9.0
 40
9.0
 40
10.0
 40
10.0
 40
10.0
 40
11.0
 40
11.0
 40
11.0
 40
12.0
 40
12.0
 40
12.0
 40
13.0
 40
13.0
 40
13.0
 40
14.0
 40
14.0
 40
14.0
 40
15.0
 40
15.0
 40
15.0
 40
16.0
 40
16.0
 40
16.0
 40
17.0
 40
17.0
 40
17.0
 40
18.0
 40
18.0
 40
18.0
 40
19.0
 40
19.0
 40
19.0
 40
19.0
 10
98.27961694591622
 20
-123.5304443050549
 30
0.0
 10
98.27961694591622
 20
-123.6258734499963
 30
0.0
 10
98.25894637300472
 20
-123.8436034846641
 30
0.0
 10
98.07291121680122
 20
-123.9686604507787
 30
0.0
 10
97.96060110398207
 20
-124.0427300037115
 30
0.0
 10
97.86138235400688
 20
-124.0468641182938
 30
0.0
 10
97.77663300506974
 20
-124.0509982328761
 30
0.0
 10
97.77663300506974
 20
-124.0509982328761
 30
0.0
 10
97.77663300506974
 20
-123.8308566313687
 30
0.0
 10
97.77663300506974
 20
-123.8308566313687
 30
0.0
 10
97.85035804845408
 20
-123.8287895740775
 30
0.0
 10
98.08531356054812
 20
-123.8184542876218
 30
0.0
 10
98.08531356054812
 20
-123.5349229291857
 30
0.0
 10
98.08531356054812
 20
-123.3974636193243
 30
0.0
 10
98.01572263174607
 20
-123.2448458893277
 30
0.0
 10
97.78696829152548
 20
-123.2448458893277
 30
0.0
 10
97.67052406412404
 20
-123.2448458893277
 30
0.0
 10
97.62229272733055
 20
-123.283086449214
 30
0.0
 10
97.59059784886624
 20
-123.3147813276783
 30
0.0
 10
97.51618378638484
 20
-123.3888508806111
 30
0.0
 10
97.50378144263794
 20
-123.5052951080126
 30
0.0
 10
97.50378144263794
 20
-123.5600721262281
 30
0.0
 10
97.50378144263794
 20
-123.5793646609454
 30
0.0
 10
97.5058484999291
 20
-123.615193653992
 30
0.0
 10
97.5099826145114
 20
-123.642754417874
 30
0.0
 10
97.5099826145114
 20
-123.642754417874
 30
0.0
 10
97.31499021004626
 20
-123.642754417874
 30
0.0
 10
97.31499021004626
 20
-123.642754417874
 30
0.0
 10
97.32188040101676
 20
-123.6045138579878
 30
0.0
 10
97.32394745830791
 20
-123.5624836930677
 30
0.0
 10
97.32394745830791
 20
-123.5559380116458
 30
0.0
 10
97.32394745830791
 20
-123.490481197426
 30
0.0
 10
97.30258786629936
 20
-123.2916991879271
 30
0.0
 10
97.06556529691417
 20
-123.2916991879271
 30
0.0
 10
96.88779836987527
 20
-123.2916991879271
 30
0.0
 10
96.83267684211128
 20
-123.4226128163666
 30
0.0
 10
96.83267684211128
 20
-123.5328558718946
 30
0.0
 10
96.83267684211128
 20
-123.7970946956132
 30
0.0
 10
97.06556529691417
 20
-123.8057074343264
 30
0.0
 10
97.13722328300736
 20
-123.8098415489087
 30
0.0
 10
97.13722328300736
 20
-123.8098415489087
 30
0.0
 10
97.13722328300736
 20
-124.0131021825384
 30
0.0
 10
97.13722328300736
 20
-124.0131021825384
 30
0.0
 10
97.01251082644131
 20
-124.0044894438253
 30
0.0
 10
96.63630639945204
 20
-123.9769286799433
 30
0.0
 10
96.63630639945204
 20
-123.5201090185991
 30
0.0
 10
96.63630639945204
 20
-123.2958333025094
 30
0.0
 10
96.76308591330924
 20
-123.0546766185419
 30
0.0
 10
97.05936412504072
 20
-123.0546766185419
 30
0.0
 10
97.2453992812442
 20
-123.0546766185419
 30
0.0
 10
97.32808157289021
 20
-123.1497612539348
 30
0.0
 10
97.38940427252766
 20
-123.2493245134585
 30
0.0
 10
97.41696503640965
 20
-123.1880018138211
 30
0.0
 10
97.49689125166745
 20
-123.0061007721999
 30
0.0
 10
97.77456594777858
 20
-123.0061007721999
 30
0.0
 10
98.11287432443012
 20
-123.0061007721999
 30
0.0
 10
98.27961694591622
 20
-123.2534586280408
 30
0.0
 10
98.27961694591622
 20
-123.5304443050549
 30
0.0
  0
HATCH
  5
8D
330
88
100
AcDbEntity
  8
_U+30EC_U+30A4_U+30E4_U+30FC 1
 62
   179
420
  2234388
100
AcDbHatch
 10
0.0
 20
0.0
 30
0.0
210
0.0
220
0.0
230
1.0
  2
SOLID
 70
     1
 71
     0
 91
        1
 92
        1
 93
        1
 72
     4
 94
        3
 73
     0
 74
     1
 95
       62
 96
       58
 40
0.0
 40
0.0
 40
0.0
 40
0.0
 40
1.0
 40
1.0
 40
1.0
 40
2.0
 40
2.0
 40
2.0
 40
3.0
 40
3.0
 40
3.0
 40
4.0
 40
4.0
 40
4.0
 40
5.0
 40
5.0
 40
5.0
 40
6.0
 40
6.0
 40
6.0
 40
7.0
 40
7.0
 40
7.0
 40
8.0
 40
8.0
 40
8.0
 40
9.0
 40
9.0
 40
9.0
 40
10.0
 40
10.0
 40
10.0
 40
11.0
 40
11.0
 40
11.0
 40
12.0
 40
12.0
 40
12.0
 40
13.0
 40
13.0
 40
13.0
 40
14.0
 40
14.0
 40
14.0
 40
15.0
 40
15.0
 40
15.0
 40
16.0
 40
16.0
 40
16.0
 40
17.0
 40
17.0
 40
17.0
 40
18.0
 40
18.0
 40
18.0
 40
19.0
 40
19.0
 40
19.0
 40
19.0
 10
98.27961694591622
 20
-123.5304443050549
 10
98.27961694591622
 20
-123.6258734499963
 10
98.25894637300472
 20
-123.8436034846641
 10
98.07291121680122
 20
-123.9686604507787
 10
97.96060110398207
 20
-124.0427300037115
 10
97.86138235400688
 20
-124.0468641182938
 10
97.77663300506974
 20
-124.0509982328761
 10
97.77663300506974
 20
-124.0509982328761
 10
97.77663300506974
 20
-123.8308566313687
 10
97.77663300506974
 20
-123.8308566313687
 10
97.85035804845408
 20
-123.8287895740775
 10
98.08531356054812
 20
-123.8184542876218
 10
98.08531356054812
 20
-123.5349229291857
 10
98.08531356054812
 20
-123.3974636193243
 10
98.01572263174607
 20
-123.2448458893277
 10
97.78696829152548
 20
-123.2448458893277
 10
97.67052406412404
 20
-123.2448458893277
 10
97.62229272733055
 20
-123.283086449214
 10
97.59059784886624
 20
-123.3147813276783
 10
97.51618378638484
 20
-123.3888508806111
 10
97.50378144263794
 20
-123.5052951080126
 10
97.50378144263794
 20
-123.5600721262281
 10
97.50378144263794
 20
-123.5793646609454
 10
97.5058484999291
 20
-123.615193653992
 10
97.5099826145114
 20
-123.642754417874
 10
97.5099826145114
 20
-123.642754417874
 10
97.31499021004626
 20
-123.642754417874
 10
97.31499021004626
 20
-123.642754417874
 10
97.32188040101676
 20
-123.6045138579878
 10
97.32394745830791
 20
-123.5624836930677
 10
97.32394745830791
 20
-123.5559380116458
 10
97.32394745830791
 20
-123.490481197426
 10
97.30258786629936
 20
-123.2916991879271
 10
97.06556529691417
 20
-123.2916991879271
 10
96.88779836987527
 20
-123.2916991879271
 10
96.83267684211128
 20
-123.4226128163666
 10
96.83267684211128
 20
-123.5328558718946
 10
96.83267684211128
 20
-123.7970946956132
 10
97.06556529691417
 20
-123.8057074343264
 10
97.13722328300736
 20
-123.8098415489087
 10
97.13722328300736
 20
-123.8098415489087
 10
97.13722328300736
 20
-124.0131021825384
 10
97.13722328300736
 20
-124.0131021825384
 10
97.01251082644131
 20
-124.0044894438253
 10
96.63630639945204
 20
-123.9769286799433
 10
96.63630639945204
 20
-123.5201090185991
 10
96.63630639945204
 20
-123.2958333025094
 10
96.76308591330924
 20
-123.0546766185419
 10
97.05936412504072
 20
-123.0546766185419
 10
97.2453992812442
 20
-123.0546766185419
 10
97.32808157289021
 20
-123.1497612539348
 10
97.38940427252766
 20
-123.2493245134585
 10
97.41696503640965
 20
-123.1880018138211
 10
97.49689125166745
 20
-123.0061007721999
 10
97.77456594777858
 20
-123.0061007721999
 10
98.11287432443012
 20
-123.0061007721999
 10
98.27961694591622
 20
-123.2534586280408
 10
98.27961694591622
 20
-123.5304443050549
 97
        0
 97
        0
 75
     2
 76
     1
 98
        0
  0
ENDBLK
  5
8B
330
88
100
AcDbEntity
  8
0
100
AcDbBlockEnd
  0
BLOCK
  5
9C
330
9A
100
AcDbEntity
  8
0
100
AcDbBlockBegin
  2
block 6
 70
     0
 10
0.0
 20
0.0
 30
0.0
  3
block 6
  1

  0
SPLINE
  5
9E
330
9A
100
AcDbEntity
  8
_U+30EC_U+30A4_U+30E4_U+30FC 1
370
     0
100
AcDbSpline
210
0.0
220
0.0
230
1.0
 70
    11
 71
     3
 72
    44
 73
    40
 74
     0
 42
0.0000000001
 43
0.0000000001
 12
1.0
 22
0.0
 32
0.0
 13
1.0
 23
0.0
 33
0.0
 40
0.0
 40
0.0
 40
0.0
 40
0.0
 40
1.0
 40
1.0
 40
1.0
 40
2.0
 40
2.0
 40
2.0
 40
3.0
 40
3.0
 40
3.0
 40
4.0
 40
4.0
 40
4.0
 40
5.0
 40
5.0
 40
5.0
 40
6.0
 40
6.0
 40
6.0
 40
7.0
 40
7.0
 40
7.0
 40
8.0
 40
8.0
 40
8.0
 40
9.0
 40
9.0
 40
9.0
 40
10.0
 40
10.0
 40
10.0
 40
11.0
 40
11.0
 40
11.0
 40
12.0
 40
12.0
 40
12.0
 40
13.0
 40
13.0
 40
13.0
 40
13.0
 10
87.11147865660755
 20
-138.1503960158096
 30
0.0
 10
86.89374862193976
 20
-138.3092149176796
 30
0.0
 10
86.80073104383801
 20
-138.3832844706125
 30
0.0
 10
86.75181068794747
 20
-138.5269449523474
 30
0.0
 10
86.75181068794747
 20
-138.5269449523474
 30
0.0
 10
87.53040226761394
 20
-138.5269449523474
 30
0.0
 10
87.53040226761394
 20
-138.5269449523474
 30
0.0
 10
87.53040226761394
 20
-138.5269449523474
 30
0.0
 10
87.53040226761394
 20
-138.7322726432683
 30
0.0
 10
87.53040226761394
 20
-138.7322726432683
 30
0.0
 10
87.53040226761394
 20
-138.7322726432683
 30
0.0
 10
86.50238577481538
 20
-138.7322726432683
 30
0.0
 10
86.50238577481538
 20
-138.7322726432683
 30
0.0
 10
86.53408065327967
 20
-138.3746717318994
 30
0.0
 10
86.59953746749943
 20
-138.2964680643842
 30
0.0
 10
86.98469914275036
 20
-137.9981227953616
 30
0.0
 10
87.24066973730442
 20
-137.7993407858627
 30
0.0
 10
87.30612655152417
 20
-137.7314724048032
 30
0.0
 10
87.30612655152417
 20
-137.5940130949418
 30
0.0
 10
87.30612655152417
 20
-137.4755018102492
 30
0.0
 10
87.23412405588245
 20
-137.3445881818097
 30
0.0
 10
87.03740910367468
 20
-137.3445881818097
 30
0.0
 10
86.77730439453832
 20
-137.3445881818097
 30
0.0
 10
86.76903616537372
 20
-137.5750650697729
 30
0.0
 10
86.7645575412429
 20
-137.6915092971743
 30
0.0
 10
86.7645575412429
 20
-137.6915092971743
 30
0.0
 10
86.54028182515313
 20
-137.6915092971743
 30
0.0
 10
86.54028182515313
 20
-137.6915092971743
 30
0.0
 10
86.54889456386626
 20
-137.5643852737686
 30
0.0
 10
86.55957435987052
 20
-137.452419670498
 30
0.0
 10
86.63984508467685
 20
-137.3339083858054
 30
0.0
 10
86.74974363065631
 20
-137.1730224266443
 30
0.0
 10
86.93612329640834
 20
-137.1392604908888
 30
0.0
 10
87.05222301426126
 20
-137.1392604908888
 30
0.0
 10
87.32955320082387
 20
-137.1392604908888
 30
0.0
 10
87.5369479490359
 20
-137.3232285898011
 30
0.0
 10
87.5369479490359
 20
-137.5960801522329
 30
0.0
 10
87.5369479490359
 20
-137.8248344924535
 30
0.0
 10
87.42050372163446
 20
-137.9240532424287
 30
0.0
 10
87.11147865660755
 20
-138.1503960158096
 30
0.0
  0
HATCH
  5
9F
330
9A
100
AcDbEntity
  8
_U+30EC_U+30A4_U+30E4_U+30FC 1
 62
   179
420
  2234388
100
AcDbHatch
 10
0.0
 20
0.0
 30
0.0
210
0.0
220
0.0
230
1.0
  2
SOLID
 70
     1
 71
     0
 91
        1
 92
        1
 93
        1
 72
     4
 94
        3
 73
     0
 74
     1
 95
       44
 96
       40
 40
0.0
 40
0.0
 40
0.0
 40
0.0
 40
1.0
 40
1.0
 40
1.0
 40
2.0
 40
2.0
 40
2.0
 40
3.0
 40
3.0
 40
3.0
 40
4.0
 40
4.0
 40
4.0
 40
5.0
 40
5.0
 40
5.0
 40
6.0
 40
6.0
 40
6.0
 40
7.0
 40
7.0
 40
7.0
 40
8.0
 40
8.0
 40
8.0
 40
9.0
 40
9.0
 40
9.0
 40
10.0
 40
10.0
 40
10.0
 40
11.0
 40
11.0
 40
11.0
 40
12.0
 40
12.0
 40
12.0
 40
13.0
 40
13.0
 40
13.0
 40
13.0
 10
87.11147865660755
 20
-138.1503960158096
 10
86.89374862193976
 20
-138.3092149176796
 10
86.80073104383801
 20
-138.3832844706125
 10
86.75181068794747
 20
-138.5269449523474
 10
86.75181068794747
 20
-138.5269449523474
 10
87.53040226761394
 20
-138.5269449523474
 10
87.53040226761394
 20
-138.5269449523474
 10
87.53040226761394
 20
-138.5269449523474
 10
87.53040226761394
 20
-138.7322726432683
 10
87.53040226761394
 20
-138.7322726432683
 10
87.53040226761394
 20
-138.7322726432683
 10
86.50238577481538
 20
-138.7322726432683
 10
86.50238577481538
 20
-138.7322726432683
 10
86.53408065327967
 20
-138.3746717318994
 10
86.59953746749943
 20
-138.2964680643842
 10
86.98469914275036
 20
-137.9981227953616
 10
87.24066973730442
 20
-137.7993407858627
 10
87.30612655152417
 20
-137.7314724048032
 10
87.30612655152417
 20
-137.5940130949418
 10
87.30612655152417
 20
-137.4755018102492
 10
87.23412405588245
 20
-137.3445881818097
 10
87.03740910367468
 20
-137.3445881818097
 10
86.77730439453832
 20
-137.3445881818097
 10
86.76903616537372
 20
-137.5750650697729
 10
86.7645575412429
 20
-137.6915092971743
 10
86.7645575412429
 20
-137.6915092971743
 10
86.54028182515313
 20
-137.6915092971743
 10
86.54028182515313
 20
-137.6915092971743
 10
86.54889456386626
 20
-137.5643852737686
 10
86.55957435987052
 20
-137.452419670498
 10
86.63984508467685
 20
-137.3339083858054
 10
86.74974363065631
 20
-137.1730224266443
 10
86.93612329640834
 20
-137.1392604908888
 10
87.05222301426126
 20
-137.1392604908888
 10
87.32955320082387
 20
-137.1392604908888
 10
87.5369479490359
 20
-137.3232285898011
 10
87.5369479490359
 20
-137.5960801522329
 10
87.5369479490359
 20
-137.8248344924535
 10
87.42050372163446
 20
-137.9240532424287
 10
87.11147865660755
 20
-138.1503960158096
 97
        0
 97
        0
 75
     2
 76
     1
 98
        0
  0
SPLINE
  5
A0
330
9A
100
AcDbEntity
  8
_U+30EC_U+30A4_U+30E4_U+30FC 1
370
     0
100
AcDbSpline
210
0.0
220
0.0
230
1.0
 70
    11
 71
     3
 72
    26
 73
    22
 74
     0
 42
0.0000000001
 43
0.0000000001
 12
1.0
 22
0.0
 32
0.0
 13
1.0
 23
0.0
 33
0.0
 40
0.0
 40
0.0
 40
0.0
 40
0.0
 40
1.0
 40
1.0
 40
1.0
 40
2.0
 40
2.0
 40
2.0
 40
3.0
 40
3.0
 40
3.0
 40
4.0
 40
4.0
 40
4.0
 40
5.0
 40
5.0
 40
5.0
 40
6.0
 40
6.0
 40
6.0
 40
7.0
 40
7.0
 40
7.0
 40
7.0
 10
88.1064222327477
 20
-138.7322726432683
 30
0.0
 10
88.1064222327477
 20
-138.7322726432683
 30
0.0
 10
87.86939966336251
 20
-138.7322726432683
 30
0.0
 10
87.86939966336251
 20
-138.7322726432683
 30
0.0
 10
87.89489336995337
 20
-138.4232475782414
 30
0.0
 10
88.08747420757884
 20
-137.9051052172598
 30
0.0
 10
88.49365096528979
 20
-137.3993652000252
 30
0.0
 10
88.49365096528979
 20
-137.3993652000252
 30
0.0
 10
87.65580374327702
 20
-137.3993652000252
 30
0.0
 10
87.65580374327702
 20
-137.3993652000252
 30
0.0
 10
87.65580374327702
 20
-137.3993652000252
 30
0.0
 10
87.65580374327702
 20
-137.1878363372308
 30
0.0
 10
87.65580374327702
 20
-137.1878363372308
 30
0.0
 10
87.65580374327702
 20
-137.1878363372308
 30
0.0
 10
88.73067353467498
 20
-137.1878363372308
 30
0.0
 10
88.73067353467498
 20
-137.1878363372308
 30
0.0
 10
88.73067353467498
 20
-137.1878363372308
 30
0.0
 10
88.73067353467498
 20
-137.3993652000252
 30
0.0
 10
88.73067353467498
 20
-137.3993652000252
 30
0.0
 10
88.4068345590615
 20
-137.6894422398832
 30
0.0
 10
88.14018416850315
 20
-138.2816541537977
 30
0.0
 10
88.1064222327477
 20
-138.7322726432683
 30
0.0
  0
HATCH
  5
A1
330
9A
100
AcDbEntity
  8
_U+30EC_U+30A4_U+30E4_U+30FC 1
 62
   179
420
  2234388
100
AcDbHatch
 10
0.0
 20
0.0
 30
0.0
210
0.0
220
0.0
230
1.0
  2
SOLID
 70
     1
 71
     0
 91
        1
 92
        1
 93
        1
 72
     4
 94
        3
 73
     0
 74
     1
 95
       26
 96
       22
 40
0.0
 40
0.0
 40
0.0
 40
0.0
 40
1.0
 40
1.0
 40
1.0
 40
2.0
 40
2.0
 40
2.0
 40
3.0
 40
3.0
 40
3.0
 40
4.0
 40
4.0
 40
4.0
 40
5.0
 40
5.0
 40
5.0
 40
6.0
 40
6.0
 40
6.0
 40
7.0
 40
7.0
 40
7.0
 40
7.0
 10
88.1064222327477
 20
-138.7322726432683
 10
88.1064222327477
 20
-138.7322726432683
 10
87.86939966336251
 20
-138.7322726432683
 10
87.86939966336251
 20
-138.7322726432683
 10
87.89489336995337
 20
-138.4232475782414
 10
88.08747420757884
 20
-137.9051052172598
 10
88.49365096528979
 20
-137.3993652000252
 10
88.49365096528979
 20
-137.3993652000252
 10
87.65580374327702
 20
-137.3993652000252
 10
87.65580374327702
 20
-137.3993652000252
 10
87.65580374327702
 20
-137.3993652000252
 10
87.65580374327702
 20
-137.1878363372308
 10
87.65580374327702
 20
-137.1878363372308
 10
87.65580374327702
 20
-137.1878363372308
 10
88.73067353467498
 20
-137.1878363372308
 10
88.73067353467498
 20
-137.1878363372308
 10
88.73067353467498
 20
-137.1878363372308
 10
88.73067353467498
 20
-137.3993652000252
 10
88.73067353467498
 20
-137.3993652000252
 10
88.4068345590615
 20
-137.6894422398832
 10
88.14018416850315
 20
-138.2816541537977
 10
88.1064222327477
 20
-138.7322726432683
 97
        0
 97
        0
 75
     2
 76
     1
 98
        0
  0
ENDBLK
  5
9D
330
9A
100
AcDbEntity
  8
0
100
AcDbBlockEnd
  0
BLOCK
  5
B0
330
AE
100
AcDbEntity
  8
0
100
AcDbBlockBegin
  2
block 7
 70
     0
 10
0.0
 20
0.0
 30
0.0
  3
block 7
  1

  0
SPLINE
  5
B2
330
AE
100
AcDbEntity
  8
_U+30EC_U+30A4_U+30E4_U+30FC 1
370
     0
100
AcDbSpline
210
0.0
220
0.0
230
1.0
 70
    11
 71
     3
 72
    26
 73
    22
 74
     0
 42
0.0000000001
 43
0.0000000001
 12
1.0
 22
0.0
 32
0.0
 13
1.0
 23
0.0
 33
0.0
 40
0.0
 40
0.0
 40
0.0
 40
0.0
 40
1.0
 40
1.0
 40
1.0
 40
2.0
 40
2.0
 40
2.0
 40
3.0
 40
3.0
 40
3.0
 40
4.0
 40
4.0
 40
4.0
 40
5.0
 40
5.0
 40
5.0
 40
6.0
 40
6.0
 40
6.0
 40
7.0
 40
7.0
 40
7.0
 40
7.0
 10
87.58001164260153
 20
-118.7717339112793
 30
0.0
 10
87.58001164260153
 20
-118.7717339112793
 30
0.0
 10
87.34298907321634
 20
-118.7717339112793
 30
0.0
 10
87.34298907321634
 20
-118.7717339112793
 30
0.0
 10
87.3684827798072
 20
-118.4627088462524
 30
0.0
 10
87.56106361743265
 20
-117.9445664852708
 30
0.0
 10
87.9672403751436
 20
-117.4388264680361
 30
0.0
 10
87.9672403751436
 20
-117.4388264680361
 30
0.0
 10
87.12939315313085
 20
-117.4388264680361
 30
0.0
 10
87.12939315313085
 20
-117.4388264680361
 30
0.0
 10
87.12939315313085
 20
-117.4388264680361
 30
0.0
 10
87.12939315313085
 20
-117.2272976052418
 30
0.0
 10
87.12939315313085
 20
-117.2272976052418
 30
0.0
 10
87.12939315313085
 20
-117.2272976052418
 30
0.0
 10
88.2042629445288
 20
-117.2272976052418
 30
0.0
 10
88.2042629445288
 20
-117.2272976052418
 30
0.0
 10
88.2042629445288
 20
-117.2272976052418
 30
0.0
 10
88.2042629445288
 20
-117.4388264680361
 30
0.0
 10
88.2042629445288
 20
-117.4388264680361
 30
0.0
 10
87.88042396891531
 20
-117.7289035078942
 30
0.0
 10
87.61377357835698
 20
-118.3211154218086
 30
0.0
 10
87.58001164260153
 20
-118.7717339112793
 30
0.0
  0
HATCH
  5
B3
330
AE
100
AcDbEntity
  8
_U+30EC_U+30A4_U+30E4_U+30FC 1
 62
   179
420
  2234388
100
AcDbHatch
 10
0.0
 20
0.0
 30
0.0
210
0.0
220
0.0
230
1.0
  2
SOLID
 70
     1
 71
     0
 91
        1
 92
        1
 93
        1
 72
     4
 94
        3
 73
     0
 74
     1
 95
       26
 96
       22
 40
0.0
 40
0.0
 40
0.0
 40
0.0
 40
1.0
 40
1.0
 40
1.0
 40
2.0
 40
2.0
 40
2.0
 40
3.0
 40
3.0
 40
3.0
 40
4.0
 40
4.0
 40
4.0
 40
5.0
 40
5.0
 40
5.0
 40
6.0
 40
6.0
 40
6.0
 40
7.0
 40
7.0
 40
7.0
 40
7.0
 10
87.58001164260153
 20
-118.7717339112793
 10
87.58001164260153
 20
-118.7717339112793
 10
87.34298907321634
 20
-118.7717339112793
 10
87.34298907321634
 20
-118.7717339112793
 10
87.3684827798072
 20
-118.4627088462524
 10
87.56106361743265
 20
-117.9445664852708
 10
87.9672403751436
 20
-117.4388264680361
 10
87.9672403751436
 20
-117.4388264680361
 10
87.12939315313085
 20
-117.4388264680361
 10
87.12939315313085
 20
-117.4388264680361
 10
87.12939315313085
 20
-117.4388264680361
 10
87.12939315313085
 20
-117.2272976052418
 10
87.12939315313085
 20
-117.2272976052418
 10
87.12939315313085
 20
-117.2272976052418
 10
88.2042629445288
 20
-117.2272976052418
 10
88.2042629445288
 20
-117.2272976052418
 10
88.2042629445288
 20
-117.2272976052418
 10
88.2042629445288
 20
-117.4388264680361
 10
88.2042629445288
 20
-117.4388264680361
 10
87.88042396891531
 20
-117.7289035078942
 10
87.61377357835698
 20
-118.3211154218086
 10
87.58001164260153
 20
-118.7717339112793
 97
        0
 97
        0
 75
     2
 76
     1
 98
        0
  0
ENDBLK
  5
B1
330
AE
100
AcDbEntity
  8
0
100
AcDbBlockEnd
  0
ENDSEC
  0
SECTION
  2
ENTITIES
  0
SPLINE
  5
41
330
1F
100
AcDbEntity
  8
_U+30EC_U+30A4_U+30E4_U+30FC 1
 62
   179
420
  2234388
370
     9
100
AcDbSpline
210
0.0
220
0.0
230
1.0
 70
    11
 71
     3
 72
    17
 73
    13
 74
     0
 42
0.0000000001
 43
0.0000000001
 12
1.0
 22
0.0
 32
0.0
 13
1.0
 23
0.0
 33
0.0
 40
0.0
 40
0.0
 40
0.0
 40
0.0
 40
1.0
 40
1.0
 40
1.0
 40
2.0
 40
2.0
 40
2.0
 40
3.0
 40
3.0
 40
3.0
 40
4.0
 40
4.0
 40
4.0
 40
4.0
 10
103.7559281862991
 20
-135.3288716328342
 30
0.0
 10
103.7559281862991
 20
-135.2737324661818
 30
0.0
 10
103.7111606874412
 20
-135.2289649661926
 30
0.0
 10
103.6560215221812
 20
-135.2289649661926
 30
0.0
 10
103.6009176346982
 20
-135.2289649661926
 30
0.0
 10
103.5561148580634
 20
-135.2737324661818
 30
0.0
 10
103.5561148580634
 20
-135.3288716328342
 30
0.0
 10
103.5561148580634
 20
-135.3839755217098
 30
0.0
 10
103.6009176346982
 20
-135.4287782994759
 30
0.0
 10
103.6560215221812
 20
-135.4287782994759
 30
0.0
 10
103.7111606874412
 20
-135.4287782994759
 30
0.0
 10
103.7559281862991
 20
-135.3839755217098
 30
0.0
 10
103.7559281862991
 20
-135.3288716328342
 30
0.0
  0
SPLINE
  5
42
330
1F
100
AcDbEntity
  8
_U+30EC_U+30A4_U+30E4_U+30FC 1
 62
   179
420
  2234388
370
     9
100
AcDbSpline
210
0.0
220
0.0
230
1.0
 70
    11
 71
     3
 72
    17
 73
    13
 74
     0
 42
0.0000000001
 43
0.0000000001
 12
1.0
 22
0.0
 32
0.0
 13
1.0
 23
0.0
 33
0.0
 40
0.0
 40
0.0
 40
0.0
 40
0.0
 40
1.0
 40
1.0
 40
1.0
 40
2.0
 40
2.0
 40
2.0
 40
3.0
 40
3.0
 40
3.0
 40
4.0
 40
4.0
 40
4.0
 40
4.0
 10
103.7559281862991
 20
-134.3287466330846
 30
0.0
 10
103.7559281862991
 20
-134.2736427442097
 30
0.0
 10
103.7111606874412
 20
-134.2291927442207
 30
0.0
 10
103.6560215221812
 20
-134.2291927442207
 30
0.0
 10
103.6009176346982
 20
-134.2291927442207
 30
0.0
 10
103.5561148580634
 20
-134.2736427442097
 30
0.0
 10
103.5561148580634
 20
-134.3287466330846
 30
0.0
 10
103.5561148580634
 20
-134.3838857997376
 30
0.0
 10
103.6009176346982
 20
-134.4286532997262
 30
0.0
 10
103.6560215221812
 20
-134.4286532997262
 30
0.0
 10
103.7111606874412
 20
-134.4286532997262
 30
0.0
 10
103.7559281862991
 20
-134.3838857997376
 30
0.0
 10
103.7559281862991
 20
-134.3287466330846
 30
0.0
  0
SPLINE
  5
43
330
1F
100
AcDbEntity
  8
_U+30EC_U+30A4_U+30E4_U+30FC 1
 62
   179
420
  2234388
370
     9
100
AcDbSpline
210
0.0
220
0.0
230
1.0
 70
    11
 71
     3
 72
    17
 73
    13
 74
     0
 42
0.0000000001
 43
0.0000000001
 12
1.0
 22
0.0
 32
0.0
 13
1.0
 23
0.0
 33
0.0
 40
0.0
 40
0.0
 40
0.0
 40
0.0
 40
1.0
 40
1.0
 40
1.0
 40
2.0
 40
2.0
 40
2.0
 40
3.0
 40
3.0
 40
3.0
 40
4.0
 40
4.0
 40
4.0
 40
4.0
 10
103.7559281862991
 20
-124.8287233021261
 30
0.0
 10
103.7559281862991
 20
-124.7736194132512
 30
0.0
 10
103.7111606874412
 20
-124.7289930243733
 30
0.0
 10
103.6560215221812
 20
-124.7289930243733
 30
0.0
 10
103.6009176346982
 20
-124.7289930243733
 30
0.0
 10
103.5561148580634
 20
-124.7736194132512
 30
0.0
 10
103.5561148580634
 20
-124.8287233021261
 30
0.0
 10
103.5561148580634
 20
-124.8838624687791
 30
0.0
 10
103.6009176346982
 20
-124.9286299687677
 30
0.0
 10
103.6560215221812
 20
-124.9286299687677
 30
0.0
 10
103.7111606874412
 20
-124.9286299687677
 30
0.0
 10
103.7559281862991
 20
-124.8838624687791
 30
0.0
 10
103.7559281862991
 20
-124.8287233021261
 30
0.0
  0
SPLINE
  5
44
330
1F
100
AcDbEntity
  8
_U+30EC_U+30A4_U+30E4_U+30FC 1
 62
   179
420
  2234388
370
     9
100
AcDbSpline
210
0.0
220
0.0
230
1.0
 70
    11
 71
     3
 72
    17
 73
    13
 74
     0
 42
0.0000000001
 43
0.0000000001
 12
1.0
 22
0.0
 32
0.0
 13
1.0
 23
0.0
 33
0.0
 40
0.0
 40
0.0
 40
0.0
 40
0.0
 40
1.0
 40
1.0
 40
1.0
 40
2.0
 40
2.0
 40
2.0
 40
3.0
 40
3.0
 40
3.0
 40
4.0
 40
4.0
 40
4.0
 40
4.0
 10
103.7559281862991
 20
-121.8287363584317
 30
0.0
 10
103.7559281862991
 20
-121.7736324695565
 30
0.0
 10
103.7111606874412
 20
-121.729006080679
 30
0.0
 10
103.6560215221812
 20
-121.729006080679
 30
0.0
 10
103.6009176346982
 20
-121.729006080679
 30
0.0
 10
103.5561148580634
 20
-121.7736324695565
 30
0.0
 10
103.5561148580634
 20
-121.8287363584317
 30
0.0
 10
103.5561148580634
 20
-121.8838755250845
 30
0.0
 10
103.6009176346982
 20
-121.9286430250734
 30
0.0
 10
103.6560215221812
 20
-121.9286430250734
 30
0.0
 10
103.7111606874412
 20
-121.9286430250734
 30
0.0
 10
103.7559281862991
 20
-121.8838755250845
 30
0.0
 10
103.7559281862991
 20
-121.8287363584317
 30
0.0
  0
SPLINE
  5
45
330
1F
100
AcDbEntity
  8
_U+30EC_U+30A4_U+30E4_U+30FC 1
 62
   179
420
  2234388
370
     9
100
AcDbSpline
210
0.0
220
0.0
230
1.0
 70
    11
 71
     3
 72
    17
 73
    13
 74
     0
 42
0.0000000001
 43
0.0000000001
 12
1.0
 22
0.0
 32
0.0
 13
1.0
 23
0.0
 33
0.0
 40
0.0
 40
0.0
 40
0.0
 40
0.0
 40
1.0
 40
1.0
 40
1.0
 40
2.0
 40
2.0
 40
2.0
 40
3.0
 40
3.0
 40
3.0
 40
4.0
 40
4.0
 40
4.0
 40
4.0
 10
95.85494088787006
 20
-124.8287233021261
 30
0.0
 10
95.85494088787006
 20
-124.7736194132512
 30
0.0
 10
95.81017338901218
 20
-124.7289930243733
 30
0.0
 10
95.75503422375222
 20
-124.7289930243733
 30
0.0
 10
95.69993033626915
 20
-124.7289930243733
 30
0.0
 10
95.6551275596344
 20
-124.7736194132512
 30
0.0
 10
95.6551275596344
 20
-124.8287233021261
 30
0.0
 10
95.6551275596344
 20
-124.8838624687791
 30
0.0
 10
95.69993033626915
 20
-124.9286299687677
 30
0.0
 10
95.75503422375222
 20
-124.9286299687677
 30
0.0
 10
95.81017338901218
 20
-124.9286299687677
 30
0.0
 10
95.85494088787006
 20
-124.8838624687791
 30
0.0
 10
95.85494088787006
 20
-124.8287233021261
 30
0.0
  0
SPLINE
  5
46
330
1F
100
AcDbEntity
  8
_U+30EC_U+30A4_U+30E4_U+30FC 1
 62
   179
420
  2234388
370
     9
100
AcDbSpline
210
0.0
220
0.0
230
1.0
 70
    11
 71
     3
 72
    17
 73
    13
 74
     0
 42
0.0000000001
 43
0.0000000001
 12
1.0
 22
0.0
 32
0.0
 13
1.0
 23
0.0
 33
0.0
 40
0.0
 40
0.0
 40
0.0
 40
0.0
 40
1.0
 40
1.0
 40
1.0
 40
2.0
 40
2.0
 40
2.0
 40
3.0
 40
3.0
 40
3.0
 40
4.0
 40
4.0
 40
4.0
 40
4.0
 10
95.85494088787006
 20
-121.8287363584317
 30
0.0
 10
95.85494088787006
 20
-121.7736324695565
 30
0.0
 10
95.81017338901218
 20
-121.729006080679
 30
0.0
 10
95.75503422375222
 20
-121.729006080679
 30
0.0
 10
95.69993033626915
 20
-121.729006080679
 30
0.0
 10
95.6551275596344
 20
-121.7736324695565
 30
0.0
 10
95.6551275596344
 20
-121.8287363584317
 30
0.0
 10
95.6551275596344
 20
-121.8838755250845
 30
0.0
 10
95.69993033626915
 20
-121.9286430250734
 30
0.0
 10
95.75503422375222
 20
-121.9286430250734
 30
0.0
 10
95.81017338901218
 20
-121.9286430250734
 30
0.0
 10
95.85494088787006
 20
-121.8838755250845
 30
0.0
 10
95.85494088787006
 20
-121.8287363584317
 30
0.0
  0
SPLINE
  5
47
330
1F
100
AcDbEntity
  8
_U+30EC_U+30A4_U+30E4_U+30FC 1
 62
   179
420
  2234388
370
     9
100
AcDbSpline
210
0.0
220
0.0
230
1.0
 70
    11
 71
     3
 72
    17
 73
    13
 74
     0
 42
0.0000000001
 43
0.0000000001
 12
1.0
 22
0.0
 32
0.0
 13
1.0
 23
0.0
 33
0.0
 40
0.0
 40
0.0
 40
0.0
 40
0.0
 40
1.0
 40
1.0
 40
1.0
 40
2.0
 40
2.0
 40
2.0
 40
3.0
 40
3.0
 40
3.0
 40
4.0
 40
4.0
 40
4.0
 40
4.0
 10
101.2830618604983
 20
-139.3293010762785
 30
0.0
 10
101.2830618604983
 20
-139.2741971874036
 30
0.0
 10
101.2382590838635
 20
-139.2293944096369
 30
0.0
 10
101.1831551963804
 20
-139.2293944096369
 30
0.0
 10
101.1280160311205
 20
-139.2293944096369
 30
0.0
 10
101.0832485322626
 20
-139.2741971874036
 30
0.0
 10
101.0832485322626
 20
-139.3293010762785
 30
0.0
 10
101.0832485322626
 20
-139.3844402429316
 30
0.0
 10
101.1280160311205
 20
-139.4292077429208
 30
0.0
 10
101.1831551963804
 20
-139.4292077429208
 30
0.0
 10
101.2382590838635
 20
-139.4292077429208
 30
0.0
 10
101.2830618604983
 20
-139.3844402429316
 30
0.0
 10
101.2830618604983
 20
-139.3293010762785
 30
0.0
  0
SPLINE
  5
48
330
1F
100
AcDbEntity
  8
_U+30EC_U+30A4_U+30E4_U+30FC 1
 62
   179
420
  2234388
370
     9
100
AcDbSpline
210
0.0
220
0.0
230
1.0
 70
    11
 71
     3
 72
    17
 73
    13
 74
     0
 42
0.0000000001
 43
0.0000000001
 12
1.0
 22
0.0
 32
0.0
 13
1.0
 23
0.0
 33
0.0
 40
0.0
 40
0.0
 40
0.0
 40
0.0
 40
1.0
 40
1.0
 40
1.0
 40
2.0
 40
2.0
 40
2.0
 40
3.0
 40
3.0
 40
3.0
 40
4.0
 40
4.0
 40
4.0
 40
4.0
 10
74.28314477154576
 20
-139.3293010762785
 30
0.0
 10
74.28314477154576
 20
-139.2741971874036
 30
0.0
 10
74.23837727268787
 20
-139.2293944096369
 30
0.0
 10
74.18323810742793
 20
-139.2293944096369
 30
0.0
 10
74.12813609257923
 20
-139.2293944096369
 30
0.0
 10
74.0833333148125
 20
-139.2741971874036
 30
0.0
 10
74.0833333148125
 20
-139.3293010762785
 30
0.0
 10
74.0833333148125
 20
-139.3844402429316
 30
0.0
 10
74.12813609257923
 20
-139.4292077429208
 30
0.0
 10
74.18323810742793
 20
-139.4292077429208
 30
0.0
 10
74.23837727268787
 20
-139.4292077429208
 30
0.0
 10
74.28314477154576
 20
-139.3844402429316
 30
0.0
 10
74.28314477154576
 20
-139.3293010762785
 30
0.0
  0
SPLINE
  5
49
330
1F
100
AcDbEntity
  8
_U+30EC_U+30A4_U+30E4_U+30FC 1
 62
   179
420
  2234388
370
     9
100
AcDbSpline
210
0.0
220
0.0
230
1.0
 70
    11
 71
     3
 72
    17
 73
    13
 74
     0
 42
0.0000000001
 43
0.0000000001
 12
1.0
 22
0.0
 32
0.0
 13
1.0
 23
0.0
 33
0.0
 40
0.0
 40
0.0
 40
0.0
 40
0.0
 40
1.0
 40
1.0
 40
1.0
 40
2.0
 40
2.0
 40
2.0
 40
3.0
 40
3.0
 40
3.0
 40
4.0
 40
4.0
 40
4.0
 40
4.0
 10
91.28332906005714
 20
-119.3682524701581
 30
0.0
 10
91.28332906005714
 20
-119.313113303505
 30
0.0
 10
91.23852628342239
 20
-119.2683458035162
 30
0.0
 10
91.18342239593932
 20
-119.2683458035162
 30
0.0
 10
91.12828323067936
 20
-119.2683458035162
 30
0.0
 10
91.08351573182148
 20
-119.313113303505
 30
0.0
 10
91.08351573182148
 20
-119.3682524701581
 30
0.0
 10
91.08351573182148
 20
-119.4240619145885
 30
0.0
 10
91.12828323067936
 20
-119.468864692355
 30
0.0
 10
91.18342239593932
 20
-119.468864692355
 30
0.0
 10
91.23852628342239
 20
-119.468864692355
 30
0.0
 10
91.28332906005714
 20
-119.4240619145885
 30
0.0
 10
91.28332906005714
 20
-119.3682524701581
 30
0.0
  0
SPLINE
  5
4A
330
1F
100
AcDbEntity
  8
_U+30EC_U+30A4_U+30E4_U+30FC 1
 62
   179
420
  2234388
370
     9
100
AcDbSpline
210
0.0
220
0.0
230
1.0
 70
    11
 71
     3
 72
    17
 73
    13
 74
     0
 42
0.0000000001
 43
0.0000000001
 12
1.0
 22
0.0
 32
0.0
 13
1.0
 23
0.0
 33
0.0
 40
0.0
 40
0.0
 40
0.0
 40
0.0
 40
1.0
 40
1.0
 40
1.0
 40
2.0
 40
2.0
 40
2.0
 40
3.0
 40
3.0
 40
3.0
 40
4.0
 40
4.0
 40
4.0
 40
4.0
 10
84.28287757198687
 20
-119.3682524701581
 30
0.0
 10
84.28287757198687
 20
-119.313113303505
 30
0.0
 10
84.238110073129
 20
-119.2683458035162
 30
0.0
 10
84.18297090786905
 20
-119.2683458035162
 30
0.0
 10
84.12786702038598
 20
-119.2683458035162
 30
0.0
 10
84.08306424375121
 20
-119.313113303505
 30
0.0
 10
84.08306424375121
 20
-119.3682524701581
 30
0.0
 10
84.08306424375121
 20
-119.4240619145885
 30
0.0
 10
84.12786702038598
 20
-119.468864692355
 30
0.0
 10
84.18297090786905
 20
-119.468864692355
 30
0.0
 10
84.238110073129
 20
-119.468864692355
 30
0.0
 10
84.28287757198687
 20
-119.4240619145885
 30
0.0
 10
84.28287757198687
 20
-119.3682524701581
 30
0.0
  0
POLYLINE
  5
4B
330
1F
100
AcDbEntity
  8
_U+30EC_U+30A4_U+30E4_U+30FC 1
 62
   179
420
  2234388
370
     9
100
AcDb2dPolyline
 66
     1
 10
0.0
 20
0.0
 30
0.0
  0
VERTEX
  5
4C
330
4B
100
AcDbEntity
  8
_U+30EC_U+30A4_U+30E4_U+30FC 1
 62
   179
420
  2234388
370
     9
100
AcDbVertex
100
AcDb2dVertex
 10
103.6560215221812
 20
-135.3302474661677
 30
0.0
  0
VERTEX
  5
4D
330
4B
100
AcDbEntity
  8
_U+30EC_U+30A4_U+30E4_U+30FC 1
 62
   179
420
  2234388
370
     9
100
AcDbVertex
100
AcDb2dVertex
 10
103.6560215221812
 20
-121.8302885806535
 30
0.0
  0
SEQEND
  5
4E
330
4B
100
AcDbEntity
  8
_U+30EC_U+30A4_U+30E4_U+30FC 1
 62
   179
420
  2234388
370
     9
  0
POLYLINE
  5
4F
330
1F
100
AcDbEntity
  8
_U+30EC_U+30A4_U+30E4_U+30FC 1
 62
   179
420
  2234388
370
     9
100
AcDb2dPolyline
 66
     1
 10
0.0
 20
0.0
 30
0.0
  0
VERTEX
  5
50
330
4F
100
AcDbEntity
  8
_U+30EC_U+30A4_U+30E4_U+30FC 1
 62
   179
420
  2234388
370
     9
100
AcDbVertex
100
AcDb2dVertex
 10
102.196015448318
 20
-135.3288716328342
 30
0.0
  0
VERTEX
  5
51
330
4F
100
AcDbEntity
  8
_U+30EC_U+30A4_U+30E4_U+30FC 1
 62
   179
420
  2234388
370
     9
100
AcDbVertex
100
AcDb2dVertex
 10
104.6564992744347
 20
-135.3288716328342
 30
0.0
  0
SEQEND
  5
52
330
4F
100
AcDbEntity
  8
_U+30EC_U+30A4_U+30E4_U+30FC 1
 62
   179
420
  2234388
370
     9
  0
POLYLINE
  5
53
330
1F
100
AcDbEntity
  8
_U+30EC_U+30A4_U+30E4_U+30FC 1
 62
   179
420
  2234388
370
     9
100
AcDb2dPolyline
 66
     1
 10
0.0
 20
0.0
 30
0.0
  0
VERTEX
  5
54
330
53
100
AcDbEntity
  8
_U+30EC_U+30A4_U+30E4_U+30FC 1
 62
   179
420
  2234388
370
     9
100
AcDbVertex
100
AcDb2dVertex
 10
102.196015448318
 20
-134.3287466330846
 30
0.0
  0
VERTEX
  5
55
330
53
100
AcDbEntity
  8
_U+30EC_U+30A4_U+30E4_U+30FC 1
 62
   179
420
  2234388
370
     9
100
AcDbVertex
100
AcDb2dVertex
 10
104.6564992744347
 20
-134.3287466330846
 30
0.0
  0
SEQEND
  5
56
330
53
100
AcDbEntity
  8
_U+30EC_U+30A4_U+30E4_U+30FC 1
 62
   179
420
  2234388
370
     9
  0
POLYLINE
  5
57
330
1F
100
AcDbEntity
  8
_U+30EC_U+30A4_U+30E4_U+30FC 1
 62
   179
420
  2234388
370
     9
100
AcDb2dPolyline
 66
     1
 10
0.0
 20
0.0
 30
0.0
  0
VERTEX
  5
58
330
57
100
AcDbEntity
  8
_U+30EC_U+30A4_U+30E4_U+30FC 1
 62
   179
420
  2234388
370
     9
100
AcDbVertex
100
AcDb2dVertex
 10
92.30511458954479
 20
-124.8287233021261
 30
0.0
  0
VERTEX
  5
59
330
57
100
AcDbEntity
  8
_U+30EC_U+30A4_U+30E4_U+30FC 1
 62
   179
420
  2234388
370
     9
100
AcDbVertex
100
AcDb2dVertex
 10
103.6732749740818
 20
-124.8287233021261
 30
0.0
  0
SEQEND
  5
5A
330
57
100
AcDbEntity
  8
_U+30EC_U+30A4_U+30E4_U+30FC 1
 62
   179
420
  2234388
370
     9
  0
POLYLINE
  5
5B
330
1F
100
AcDbEntity
  8
_U+30EC_U+30A4_U+30E4_U+30FC 1
 62
   179
420
  2234388
370
     9
100
AcDb2dPolyline
 66
     1
 10
0.0
 20
0.0
 30
0.0
  0
VERTEX
  5
5C
330
5B
100
AcDbEntity
  8
_U+30EC_U+30A4_U+30E4_U+30FC 1
 62
   179
420
  2234388
370
     9
100
AcDbVertex
100
AcDb2dVertex
 10
92.30511458954479
 20
-121.8287363584317
 30
0.0
  0
VERTEX
  5
5D
330
5B
100
AcDbEntity
  8
_U+30EC_U+30A4_U+30E4_U+30FC 1
 62
   179
420
  2234388
370
     9
100
AcDbVertex
100
AcDb2dVertex
 10
104.6564992744347
 20
-121.8287363584317
 30
0.0
  0
SEQEND
  5
5E
330
5B
100
AcDbEntity
  8
_U+30EC_U+30A4_U+30E4_U+30FC 1
 62
   179
420
  2234388
370
     9
  0
INSERT
  5
60
330
1F
100
AcDbEntity
  8
_U+30EC_U+30A4_U+30E4_U+30FC 1
100
AcDbBlockReference
  2
block 2
 10
0.0
 20
0.0
 30
0.0
  0
INSERT
  5
66
330
1F
100
AcDbEntity
  8
_U+30EC_U+30A4_U+30E4_U+30FC 1
100
AcDbBlockReference
  2
block 3
 10
0.0
 20
0.0
 30
0.0
  0
INSERT
  5
78
330
1F
100
AcDbEntity
  8
_U+30EC_U+30A4_U+30E4_U+30FC 1
100
AcDbBlockReference
  2
block 4
 10
0.0
 20
0.0
 30
0.0
  0
INSERT
  5
89
330
1F
100
AcDbEntity
  8
_U+30EC_U+30A4_U+30E4_U+30FC 1
100
AcDbBlockReference
  2
block 5
 10
0.0
 20
0.0
 30
0.0
  0
POLYLINE
  5
8E
330
1F
100
AcDbEntity
  8
_U+30EC_U+30A4_U+30E4_U+30FC 1
 62
   179
420
  2234388
370
     9
100
AcDb2dPolyline
 66
     1
 10
0.0
 20
0.0
 30
0.0
  0
VERTEX
  5
8F
330
8E
100
AcDbEntity
  8
_U+30EC_U+30A4_U+30E4_U+30FC 1
 62
   179
420
  2234388
370
     9
100
AcDbVertex
100
AcDb2dVertex
 10
74.18323810742793
 20
-139.3293010762785
 30
0.0
  0
VERTEX
  5
90
330
8E
100
AcDbEntity
  8
_U+30EC_U+30A4_U+30E4_U+30FC 1
 62
   179
420
  2234388
370
     9
100
AcDbVertex
100
AcDb2dVertex
 10
101.1831551963804
 20
-139.3293010762785
 30
0.0
  0
SEQEND
  5
91
330
8E
100
AcDbEntity
  8
_U+30EC_U+30A4_U+30E4_U+30FC 1
 62
   179
420
  2234388
370
     9
  0
POLYLINE
  5
92
330
1F
100
AcDbEntity
  8
_U+30EC_U+30A4_U+30E4_U+30FC 1
 62
   179
420
  2234388
370
     9
100
AcDb2dPolyline
 66
     1
 10
0.0
 20
0.0
 30
0.0
  0
VERTEX
  5
93
330
92
100
AcDbEntity
  8
_U+30EC_U+30A4_U+30E4_U+30FC 1
 62
   179
420
  2234388
370
     9
100
AcDbVertex
100
AcDb2dVertex
 10
74.18323810742793
 20
-137.8692596877548
 30
0.0
  0
VERTEX
  5
94
330
92
100
AcDbEntity
  8
_U+30EC_U+30A4_U+30E4_U+30FC 1
 62
   179
420
  2234388
370
     9
100
AcDbVertex
100
AcDb2dVertex
 10
74.18323810742793
 20
-140.329073298251
 30
0.0
  0
SEQEND
  5
95
330
92
100
AcDbEntity
  8
_U+30EC_U+30A4_U+30E4_U+30FC 1
 62
   179
420
  2234388
370
     9
  0
POLYLINE
  5
96
330
1F
100
AcDbEntity
  8
_U+30EC_U+30A4_U+30E4_U+30FC 1
 62
   179
420
  2234388
370
     9
100
AcDb2dPolyline
 66
     1
 10
0.0
 20
0.0
 30
0.0
  0
VERTEX
  5
97
330
96
100
AcDbEntity
  8
_U+30EC_U+30A4_U+30E4_U+30FC 1
 62
   179
420
  2234388
370
     9
100
AcDbVertex
100
AcDb2dVertex
 10
101.1831551963804
 20
-137.8692596877548
 30
0.0
  0
VERTEX
  5
98
330
96
100
AcDbEntity
  8
_U+30EC_U+30A4_U+30E4_U+30FC 1
 62
   179
420
  2234388
370
     9
100
AcDbVertex
100
AcDb2dVertex
 10
101.1831551963804
 20
-140.329073298251
 30
0.0
  0
SEQEND
  5
99
330
96
100
AcDbEntity
  8
_U+30EC_U+30A4_U+30E4_U+30FC 1
 62
   179
420
  2234388
370
     9
  0
INSERT
  5
9B
330
1F
100
AcDbEntity
  8
_U+30EC_U+30A4_U+30E4_U+30FC 1
100
AcDbBlockReference
  2
block 6
 10
0.0
 20
0.0
 30
0.0
  0
POLYLINE
  5
A2
330
1F
100
AcDbEntity
  8
_U+30EC_U+30A4_U+30E4_U+30FC 1
 62
   179
420
  2234388
370
     9
100
AcDb2dPolyline
 66
     1
 10
0.0
 20
0.0
 30
0.0
  0
VERTEX
  5
A3
330
A2
100
AcDbEntity
  8
_U+30EC_U+30A4_U+30E4_U+30FC 1
 62
   179
420
  2234388
370
     9
100
AcDbVertex
100
AcDb2dVertex
 10
91.18342239593932
 20
-119.3682524701581
 30
0.0
  0
VERTEX
  5
A4
330
A2
100
AcDbEntity
  8
_U+30EC_U+30A4_U+30E4_U+30FC 1
 62
   179
420
  2234388
370
     9
100
AcDbVertex
100
AcDb2dVertex
 10
84.18297090786905
 20
-119.3682524701581
 30
0.0
  0
SEQEND
  5
A5
330
A2
100
AcDbEntity
  8
_U+30EC_U+30A4_U+30E4_U+30FC 1
 62
   179
420
  2234388
370
     9
  0
POLYLINE
  5
A6
330
1F
100
AcDbEntity
  8
_U+30EC_U+30A4_U+30E4_U+30FC 1
 62
   179
420
  2234388
370
     9
100
AcDb2dPolyline
 66
     1
 10
0.0
 20
0.0
 30
0.0
  0
VERTEX
  5
A7
330
A6
100
AcDbEntity
  8
_U+30EC_U+30A4_U+30E4_U+30FC 1
 62
   179
420
  2234388
370
     9
100
AcDbVertex
100
AcDb2dVertex
 10
91.18342239593932
 20
-120.8284702475707
 30
0.0
  0
VERTEX
  5
A8
330
A6
100
AcDbEntity
  8
_U+30EC_U+30A4_U+30E4_U+30FC 1
 62
   179
420
  2234388
370
     9
100
AcDbVertex
100
AcDb2dVertex
 10
91.18342239593932
 20
-118.3684802481856
 30
0.0
  0
SEQEND
  5
A9
330
A6
100
AcDbEntity
  8
_U+30EC_U+30A4_U+30E4_U+30FC 1
 62
   179
420
  2234388
370
     9
  0
POLYLINE
  5
AA
330
1F
100
AcDbEntity
  8
_U+30EC_U+30A4_U+30E4_U+30FC 1
 62
   179
420
  2234388
370
     9
100
AcDb2dPolyline
 66
     1
 10
0.0
 20
0.0
 30
0.0
  0
VERTEX
  5
AB
330
AA
100
AcDbEntity
  8
_U+30EC_U+30A4_U+30E4_U+30FC 1
 62
   179
420
  2234388
370
     9
100
AcDbVertex
100
AcDb2dVertex
 10
84.18297090786905
 20
-120.8284702475707
 30
0.0
  0
VERTEX
  5
AC
330
AA
100
AcDbEntity
  8
_U+30EC_U+30A4_U+30E4_U+30FC 1
 62
   179
420
  2234388
370
     9
100
AcDbVertex
100
AcDb2dVertex
 10
84.18297090786905
 20
-118.3684802481856
 30
0.0
  0
SEQEND
  5
AD
330
AA
100
AcDbEntity
  8
_U+30EC_U+30A4_U+30E4_U+30FC 1
 62
   179
420
  2234388
370
     9
  0
INSERT
  5
AF
330
1F
100
AcDbEntity
  8
_U+30EC_U+30A4_U+30E4_U+30FC 1
100
AcDbBlockReference
  2
block 7
 10
0.0
 20
0.0
 30
0.0
  0
POLYLINE
  5
B4
330
1F
100
AcDbEntity
  8
_U+30EC_U+30A4_U+30E4_U+30FC 1
 62
   179
420
  2234388
370
    25
100
AcDb2dPolyline
 66
     1
 10
0.0
 20
0.0
 30
0.0
  0
VERTEX
  5
B5
330
B4
100
AcDbEntity
  8
_U+30EC_U+30A4_U+30E4_U+30FC 1
 62
   179
420
  2234388
370
    25
100
AcDbVertex
100
AcDb2dVertex
 10
101.1876354740439
 20
-135.3288716328342
 30
0.0
  0
VERTEX
  5
B6
330
B4
100
AcDbEntity
  8
_U+30EC_U+30A4_U+30E4_U+30FC 1
 62
   179
420
  2234388
370
    25
100
AcDbVertex
100
AcDb2dVertex
 10
74.17808755200377
 20
-135.3288716328342
 30
0.0
  0
VERTEX
  5
B7
330
B4
100
AcDbEntity
  8
_U+30EC_U+30A4_U+30E4_U+30FC 1
 62
   179
420
  2234388
370
    25
100
AcDbVertex
100
AcDb2dVertex
 10
74.17808755200377
 20
-134.3287466330846
 30
0.0
  0
VERTEX
  5
B8
330
B4
100
AcDbEntity
  8
_U+30EC_U+30A4_U+30E4_U+30FC 1
 62
   179
420
  2234388
370
    25
100
AcDbVertex
100
AcDb2dVertex
 10
87.18295777577744
 20
-134.3287466330846
 30
0.0
  0
VERTEX
  5
B9
330
B4
100
AcDbEntity
  8
_U+30EC_U+30A4_U+30E4_U+30FC 1
 62
   179
420
  2234388
370
    25
100
AcDbVertex
100
AcDb2dVertex
 10
87.18295777577744
 20
-122.8288613581817
 30
0.0
  0
VERTEX
  5
BA
330
B4
100
AcDbEntity
  8
_U+30EC_U+30A4_U+30E4_U+30FC 1
 62
   179
420
  2234388
370
    25
100
AcDbVertex
100
AcDb2dVertex
 10
85.18341338234563
 20
-122.8288613581817
 30
0.0
  0
VERTEX
  5
BB
330
B4
100
AcDbEntity
  8
_U+30EC_U+30A4_U+30E4_U+30FC 1
 62
   179
420
  2234388
370
    25
100
AcDbVertex
100
AcDb2dVertex
 10
85.18341338234563
 20
-124.8287233021261
 30
0.0
  0
VERTEX
  5
BC
330
B4
100
AcDbEntity
  8
_U+30EC_U+30A4_U+30E4_U+30FC 1
 62
   179
420
  2234388
370
    25
100
AcDbVertex
100
AcDb2dVertex
 10
84.18297090786905
 20
-124.8287233021261
 30
0.0
  0
VERTEX
  5
BD
330
B4
100
AcDbEntity
  8
_U+30EC_U+30A4_U+30E4_U+30FC 1
 62
   179
420
  2234388
370
    25
100
AcDbVertex
100
AcDb2dVertex
 10
84.18297090786905
 20
-121.8287363584317
 30
0.0
  0
VERTEX
  5
BE
330
B4
100
AcDbEntity
  8
_U+30EC_U+30A4_U+30E4_U+30FC 1
 62
   179
420
  2234388
370
    25
100
AcDbVertex
100
AcDb2dVertex
 10
91.18342239593932
 20
-121.8287363584317
 30
0.0
  0
VERTEX
  5
BF
330
B4
100
AcDbEntity
  8
_U+30EC_U+30A4_U+30E4_U+30FC 1
 62
   179
420
  2234388
370
    25
100
AcDbVertex
100
AcDb2dVertex
 10
91.18342239593932
 20
-124.8287233021261
 30
0.0
  0
VERTEX
  5
C0
330
B4
100
AcDbEntity
  8
_U+30EC_U+30A4_U+30E4_U+30FC 1
 62
   179
420
  2234388
370
    25
100
AcDbVertex
100
AcDb2dVertex
 10
90.18294464368584
 20
-124.8287233021261
 30
0.0
  0
VERTEX
  5
C1
330
B4
100
AcDbEntity
  8
_U+30EC_U+30A4_U+30E4_U+30FC 1
 62
   179
420
  2234388
370
    25
100
AcDbVertex
100
AcDb2dVertex
 10
90.18294464368584
 20
-122.8288613581817
 30
0.0
  0
VERTEX
  5
C2
330
B4
100
AcDbEntity
  8
_U+30EC_U+30A4_U+30E4_U+30FC 1
 62
   179
420
  2234388
370
    25
100
AcDbVertex
100
AcDb2dVertex
 10
88.18272997249335
 20
-122.8288613581817
 30
0.0
  0
VERTEX
  5
C3
330
B4
100
AcDbEntity
  8
_U+30EC_U+30A4_U+30E4_U+30FC 1
 62
   179
420
  2234388
370
    25
100
AcDbVertex
100
AcDb2dVertex
 10
88.18272997249335
 20
-134.3287466330846
 30
0.0
  0
VERTEX
  5
C4
330
B4
100
AcDbEntity
  8
_U+30EC_U+30A4_U+30E4_U+30FC 1
 62
   179
420
  2234388
370
    25
100
AcDbVertex
100
AcDb2dVertex
 10
101.1876354740439
 20
-134.3287466330846
 30
0.0
  0
VERTEX
  5
C5
330
B4
100
AcDbEntity
  8
_U+30EC_U+30A4_U+30E4_U+30FC 1
 62
   179
420
  2234388
370
    25
100
AcDbVertex
100
AcDb2dVertex
 10
101.1876354740439
 20
-135.3288716328342
 30
0.0
  0
SEQEND
  5
C7
330
B4
100
AcDbEntity
  8
_U+30EC_U+30A4_U+30E4_U+30FC 1
 62
   179
420
  2234388
370
    25
  0
HATCH
  5
C6
330
1F
100
AcDbEntity
  8
_U+30EC_U+30A4_U+30E4_U+30FC 1
 62
     9
420
 13224394
100
AcDbHatch
 10
0.0
 20
0.0
 30
0.0
210
0.0
220
0.0
230
1.0
  2
SOLID
 70
     1
 71
     0
 91
        1
 92
        1
 93
       16
 72
     1
 10
101.1876354740439
 20
-135.3288716328342
 11
74.17808755200377
 21
-135.3288716328342
 72
     1
 10
74.17808755200377
 20
-135.3288716328342
 11
74.17808755200377
 21
-134.3287466330846
 72
     1
 10
74.17808755200377
 20
-134.3287466330846
 11
87.18295777577744
 21
-134.3287466330846
 72
     1
 10
87.18295777577744
 20
-134.3287466330846
 11
87.18295777577744
 21
-122.8288613581817
 72
     1
 10
87.18295777577744
 20
-122.8288613581817
 11
85.18341338234563
 21
-122.8288613581817
 72
     1
 10
85.18341338234563
 20
-122.8288613581817
 11
85.18341338234563
 21
-124.8287233021261
 72
     1
 10
85.18341338234563
 20
-124.8287233021261
 11
84.18297090786905
 21
-124.8287233021261
 72
     1
 10
84.18297090786905
 20
-124.8287233021261
 11
84.18297090786905
 21
-121.8287363584317
 72
     1
 10
84.18297090786905
 20
-121.8287363584317
 11
91.18342239593932
 21
-121.8287363584317
 72
     1
 10
91.18342239593932
 20
-121.8287363584317
 11
91.18342239593932
 21
-124.8287233021261
 72
     1
 10
91.18342239593932
 20
-124.8287233021261
 11
90.18294464368584
 21
-124.8287233021261
 72
     1
 10
90.18294464368584
 20
-124.8287233021261
 11
90.18294464368584
 21
-122.8288613581817
 72
     1
 10
90.18294464368584
 20
-122.8288613581817
 11
88.18272997249335
 21
-122.8288613581817
 72
     1
 10
88.18272997249335
 20
-122.8288613581817
 11
88.18272997249335
 21
-134.3287466330846
 72
     1
 10
88.18272997249335
 20
-134.3287466330846
 11
101.1876354740439
 21
-134.3287466330846
 72
     1
 10
101.1876354740439
 20
-134.3287466330846
 11
101.1876354740439
 21
-135.3288716328342
 97
        0
 75
     2
 76
     1
 98
        0
  0
POLYLINE
  5
C8
330
1F
100
AcDbEntity
  8
_U+30EC_U+30A4_U+30E4_U+30FC 1
 62
   179
420
  2234388
370
     9
100
AcDb2dPolyline
 66
     1
 10
0.0
 20
0.0
 30
0.0
  0
VERTEX
  5
C9
330
C8
100
AcDbEntity
  8
_U+30EC_U+30A4_U+30E4_U+30FC 1
 62
   179
420
  2234388
370
     9
100
AcDbVertex
100
AcDb2dVertex
 10
95.75503422375222
 20
-121.8287363584317
 30
0.0
  0
VERTEX
  5
CA
330
C8
100
AcDbEntity
  8
_U+30EC_U+30A4_U+30E4_U+30FC 1
 62
   179
420
  2234388
370
     9
100
AcDbVertex
100
AcDb2dVertex
 10
95.75503422375222
 20
-134.3287466330846
 30
0.0
  0
SEQEND
  5
CB
330
C8
100
AcDbEntity
  8
_U+30EC_U+30A4_U+30E4_U+30FC 1
 62
   179
420
  2234388
370
     9
  0
ENDSEC
  0
SECTION
  2
OBJECTS
  0
DICTIONARY
  5
C
330
0
100
AcDbDictionary
281
     1
  3
ACAD_GROUP
350
D
  3
ACAD_LAYOUT
350
1A
  3
ACAD_MATERIAL
350
3B
  3
ACAD_MLEADERSTYLE
350
CD
  3
ACAD_MLINESTYLE
350
17
  3
ACAD_PLOTSETTINGS
350
19
  3
ACAD_PLOTSTYLENAME
350
E
  3
ACAD_TABLESTYLE
350
CC
  3
ACAD_VISUALSTYLE
350
2A
  0
SUN
  5
3F
330
29
100
AcDbSun
 90
        1
290
     0
 63
     7
421
 16777215
 40
1.0
291
     1
 91
  2455826
 92
 54000000
292
     0
 70
     2
 71
   256
280
     1
  0
DICTIONARY
  5
D
102
{ACAD_REACTORS
330
C
102
}
330
C
100
AcDbDictionary
281
     1
  0
DICTIONARY
  5
1A
102
{ACAD_REACTORS
330
C
102
}
330
C
100
AcDbDictionary
281
     1
  3
Layout1
350
1E
  3
Layout2
350
26
  3
Model
350
22
  0
DICTIONARY
  5
3B
102
{ACAD_REACTORS
330
C
102
}
330
C
100
AcDbDictionary
281
     1
  3
ByBlock
350
3D
  3
ByLayer
350
3C
  3
Global
350
3E
  0
DICTIONARY
  5
CD
102
{ACAD_REACTORS
330
C
102
}
330
C
100
AcDbDictionary
281
     1
  0
DICTIONARY
  5
17
102
{ACAD_REACTORS
330
C
102
}
330
C
100
AcDbDictionary
281
     1
  3
Standard
350
18
  0
DICTIONARY
  5
19
102
{ACAD_REACTORS
330
C
102
}
330
C
100
AcDbDictionary
281
     1
  0
ACDBDICTIONARYWDFLT
  5
E
102
{ACAD_REACTORS
330
C
102
}
330
C
100
AcDbDictionary
281
     1
  3
Normal
350
F
100
AcDbDictionaryWithDefault
340
F
  0
DICTIONARY
  5
CC
102
{ACAD_REACTORS
330
C
102
}
330
C
100
AcDbDictionary
281
     1
  0
DICTIONARY
  5
2A
102
{ACAD_REACTORS
330
C
102
}
330
C
100
AcDbDictionary
281
     1
  3
2dWireframe
350
2F
  3
3D Hidden
350
31
  3
3dWireframe
350
30
  3
Basic
350
32
  3
Brighten
350
36
  3
ColorChange
350
3A
  3
Conceptual
350
34
  3
Dim
350
35
  3
Facepattern
350
39
  3
Flat
350
2B
  3
FlatWithEdges
350
2C
  3
Gouraud
350
2D
  3
GouraudWithEdges
350
2E
  3
Linepattern
350
38
  3
Realistic
350
33
  3
Thicken
350
37
  0
LAYOUT
  5
1E
102
{ACAD_REACTORS
330
1A
102
}
330
1A
100
AcDbPlotSettings
  1

  2
none_device
  4

  6

 40
0.0
 41
0.0
 42
0.0
 43
0.0
 44
0.0
 45
0.0
 46
0.0
 47
0.0
 48
0.0
 49
0.0
140
0.0
141
0.0
142
1.0
143
1.0
 70
   688
 72
     0
 73
     0
 74
     5
  7

 75
    16
 76
     0
 77
     2
 78
   300
147
1.0
148
0.0
149
0.0
100
AcDbLayout
  1
Layout1
 70
     1
 71
     1
 10
0.0
 20
0.0
 11
12.0
 21
9.0
 12
0.0
 22
0.0
 32
0.0
 14
1.000000000000000E+20
 24
1.000000000000000E+20
 34
1.000000000000000E+20
 15
-1.000000000000000E+20
 25
-1.000000000000000E+20
 35
-1.000000000000000E+20
146
0.0
 13
0.0
 23
0.0
 33
0.0
 16
1.0
 26
0.0
 36
0.0
 17
0.0
 27
1.0
 37
0.0
 76
     0
330
1B
  0
LAYOUT
  5
26
102
{ACAD_REACTORS
330
1A
102
}
330
1A
100
AcDbPlotSettings
  1

  2
none_device
  4

  6

 40
0.0
 41
0.0
 42
0.0
 43
0.0
 44
0.0
 45
0.0
 46
0.0
 47
0.0
 48
0.0
 49
0.0
140
0.0
141
0.0
142
1.0
143
1.0
 70
   688
 72
     0
 73
     0
 74
     5
  7

 75
    16
 76
     0
 77
     2
 78
   300
147
1.0
148
0.0
149
0.0
100
AcDbLayout
  1
Layout2
 70
     1
 71
     2
 10
0.0
 20
0.0
 11
0.0
 21
0.0
 12
0.0
 22
0.0
 32
0.0
 14
0.0
 24
0.0
 34
0.0
 15
0.0
 25
0.0
 35
0.0
146
0.0
 13
0.0
 23
0.0
 33
0.0
 16
1.0
 26
0.0
 36
0.0
 17
0.0
 27
1.0
 37
0.0
 76
     0
330
23
  0
LAYOUT
  5
22
102
{ACAD_REACTORS
330
1A
102
}
330
1A
100
AcDbPlotSettings
  1

  2
none_device
  4

  6

 40
0.0
 41
0.0
 42
0.0
 43
0.0
 44
0.0
 45
0.0
 46
0.0
 47
0.0
 48
0.0
 49
0.0
140
0.0
141
0.0
142
1.0
143
1.0
 70
  1712
 72
     0
 73
     0
 74
     0
  7

 75
     0
 76
     0
 77
     2
 78
   300
147
1.0
148
0.0
149
0.0
100
AcDbLayout
  1
Model
 70
     1
 71
     0
 10
0.0
 20
0.0
 11
12.0
 21
9.0
 12
0.0
 22
0.0
 32
0.0
 14
1.000000000000000E+20
 24
1.000000000000000E+20
 34
1.000000000000000E+20
 15
-1.000000000000000E+20
 25
-1.000000000000000E+20
 35
-1.000000000000000E+20
146
0.0
 13
0.0
 23
0.0
 33
0.0
 16
1.0
 26
0.0
 36
0.0
 17
0.0
 27
1.0
 37
0.0
 76
     0
330
1F
331
29
  0
MATERIAL
  5
3D
102
{ACAD_REACTORS
330
3B
102
}
330
3B
100
AcDbMaterial
  1
ByBlock
 72
     1
 94
      127
  0
MATERIAL
  5
3C
102
{ACAD_REACTORS
330
3B
102
}
330
3B
100
AcDbMaterial
  1
ByLayer
 72
     1
 94
      127
  0
MATERIAL
  5
3E
102
{ACAD_REACTORS
330
3B
102
}
330
3B
100
AcDbMaterial
  1
Global
 72
     1
 94
      127
  0
MLINESTYLE
  5
18
102
{ACAD_REACTORS
330
17
102
}
330
17
100
AcDbMlineStyle
  2
Standard
 70
     0
  3

 62
   256
 51
90.0
 52
90.0
 71
     2
 49
0.5
 62
   256
  6
BYLAYER
 49
-0.5
 62
   256
  6
BYLAYER
  0
ACDBPLACEHOLDER
  5
F
102
{ACAD_REACTORS
330
E
102
}
330
E
  0
VISUALSTYLE
  5
2F
102
{ACAD_REACTORS
330
2A
102
}
330
2A
100
AcDbVisualStyle
  2
2dWireframe
 70
     4
177
     2
291
     0
 71
     0
176
     1
 72
     2
176
     1
 73
     0
176
     1
 90
        0
176
     1
 40
-0.6
176
     1
 41
-30.0
176
     1
 62
     5
 63
     7
421
 16777215
176
     1
 74
     1
176
     1
 91
        4
176
     1
 64
     7
176
     1
 65
   257
176
     1
 75
     1
176
     1
175
     1
176
     1
 42
1.0
176
     1
 92
        0
176
     1
 66
   257
176
     1
 43
1.0
176
     1
 76
     1
176
     1
 77
     6
176
     1
 78
     2
176
     1
 67
     7
176
     1
 79
     5
176
     1
170
     0
176
     1
171
     0
176
     1
290
     0
176
     1
 93
        1
176
     1
 44
0.0
176
     1
173
     0
176
     1
  0
VISUALSTYLE
  5
31
102
{ACAD_REACTORS
330
2A
102
}
330
2A
100
AcDbVisualStyle
  2
3D Hidden
 70
     6
177
     2
291
     0
 71
     1
176
     1
 72
     2
176
     1
 73
     2
176
     1
 90
        0
176
     1
 40
-0.6
176
     1
 41
-30.0
176
     1
 62
     5
 63
     7
421
 16777215
176
     1
 74
     2
176
     1
 91
        2
176
     1
 64
     7
176
     1
 65
   257
176
     1
 75
     2
176
     1
175
     1
176
     1
 42
40.0
176
     1
 92
        0
176
     1
 66
   257
176
     1
 43
1.0
176
     1
 76
     1
176
     1
 77
     6
176
     1
 78
     2
176
     1
 67
     7
176
     1
 79
     3
176
     1
170
     0
176
     1
171
     0
176
     1
290
     0
176
     1
 93
        1
176
     1
 44
0.0
176
     1
173
     0
176
     1
  0
VISUALSTYLE
  5
30
102
{ACAD_REACTORS
330
2A
102
}
330
2A
100
AcDbVisualStyle
  2
3dWireframe
 70
     5
177
     2
291
     0
 71
     0
176
     1
 72
     2
176
     1
 73
     0
176
     1
 90
        0
176
     1
 40
-0.6
176
     1
 41
-30.0
176
     1
 62
     5
 63
     7
421
 16777215
176
     1
 74
     1
176
     1
 91
        4
176
     1
 64
     7
176
     1
 65
   257
176
     1
 75
     1
176
     1
175
     1
176
     1
 42
1.0
176
     1
 92
        0
176
     1
 66
   257
176
     1
 43
1.0
176
     1
 76
     1
176
     1
 77
     6
176
     1
 78
     2
176
     1
 67
     7
176
     1
 79
     5
176
     1
170
     0
176
     1
171
     0
176
     1
290
     0
176
     1
 93
        1
176
     1
 44
0.0
176
     1
173
     0
176
     1
  0
VISUALSTYLE
  5
32
102
{ACAD_REACTORS
330
2A
102
}
330
2A
100
AcDbVisualStyle
  2
Basic
 70
     7
177
     2
291
     1
 71
     1
176
     1
 72
     0
176
     1
 73
     1
176
     1
 90
        0
176
     1
 40
-0.6
176
     1
 41
-30.0
176
     1
 62
     5
 63
     7
421
 16777215
176
     1
 74
     0
176
     1
 91
        4
176
     1
 64
     7
176
     1
 65
   257
176
     1
 75
     1
176
     1
175
     1
176
     1
 42
1.0
176
     1
 92
        8
176
     1
 66
     7
176
     1
 43
1.0
176
     1
 76
     1
176
     1
 77
     6
176
     1
 78
     2
176
     1
 67
     7
176
     1
 79
     5
176
     1
170
     0
176
     1
171
     0
176
     1
290
     0
176
     1
 93
        1
176
     1
 44
0.0
176
     1
173
     0
176
     1
  0
VISUALSTYLE
  5
36
102
{ACAD_REACTORS
330
2A
102
}
330
2A
100
AcDbVisualStyle
  2
Brighten
 70
    12
177
     2
291
     1
 71
     2
176
     1
 72
     2
176
     1
 73
     0
176
     1
 90
        0
176
     1
 40
-0.6
176
     1
 41
-30.0
176
     1
 62
     5
 63
     7
421
 16777215
176
     1
 74
     1
176
     1
 91
        4
176
     1
 64
     7
176
     1
 65
   257
176
     1
 75
     1
176
     1
175
     1
176
     1
 42
1.0
176
     1
 92
        8
176
     1
 66
     7
176
     1
 43
1.0
176
     1
 76
     1
176
     1
 77
     6
176
     1
 78
     2
176
     1
 67
     7
176
     1
 79
     5
176
     1
170
     0
176
     1
171
     0
176
     1
290
     0
176
     1
 93
        1
176
     1
 44
50.0
176
     1
173
     0
176
     1
  0
VISUALSTYLE
  5
3A
102
{ACAD_REACTORS
330
2A
102
}
330
2A
100
AcDbVisualStyle
  2
ColorChange
 70
    16
177
     2
291
     1
 71
     2
176
     1
 72
     2
176
     1
 73
     3
176
     1
 90
        0
176
     1
 40
-0.6
176
     1
 41
-30.0
176
     1
 62
     5
 63
     8
421
  8421504
176
     1
 74
     1
176
     1
 91
        4
176
     1
 64
     7
176
     1
 65
   257
176
     1
 75
     1
176
     1
175
     1
176
     1
 42
1.0
176
     1
 92
        8
176
     1
 66
     8
424
  8421504
176
     1
 43
1.0
176
     1
 76
     1
176
     1
 77
     6
176
     1
 78
     2
176
     1
 67
     7
176
     1
 79
     5
176
     1
170
     0
176
     1
171
     0
176
     1
290
     0
176
     1
 93
        1
176
     1
 44
0.0
176
     1
173
     0
176
     1
  0
VISUALSTYLE
  5
34
102
{ACAD_REACTORS
330
2A
102
}
330
2A
100
AcDbVisualStyle
  2
Conceptual
 70
     9
177
     2
291
     0
 71
     3
176
     1
 72
     2
176
     1
 73
     0
176
     1
 90
        0
176
     1
 40
-0.6
176
     1
 41
-30.0
176
     1
 62
     5
 63
     7
421
 16777215
176
     1
 74
     2
176
     1
 91
        2
176
     1
 64
     7
176
     1
 65
   257
176
     1
 75
     1
176
     1
175
     1
176
     1
 42
40.0
176
     1
 92
        8
176
     1
 66
     7
176
     1
 43
1.0
176
     1
 76
     1
176
     1
 77
     6
176
     1
 78
     2
176
     1
 67
     7
176
     1
 79
     3
176
     1
170
     0
176
     1
171
     0
176
     1
290
     0
176
     1
 93
        1
176
     1
 44
0.0
176
     1
173
     0
176
     1
  0
VISUALSTYLE
  5
35
102
{ACAD_REACTORS
330
2A
102
}
330
2A
100
AcDbVisualStyle
  2
Dim
 70
    11
177
     2
291
     1
 71
     2
176
     1
 72
     2
176
     1
 73
     0
176
     1
 90
        0
176
     1
 40
-0.6
176
     1
 41
-30.0
176
     1
 62
     5
 63
     7
421
 16777215
176
     1
 74
     1
176
     1
 91
        4
176
     1
 64
     7
176
     1
 65
   257
176
     1
 75
     1
176
     1
175
     1
176
     1
 42
1.0
176
     1
 92
        8
176
     1
 66
     7
176
     1
 43
1.0
176
     1
 76
     1
176
     1
 77
     6
176
     1
 78
     2
176
     1
 67
     7
176
     1
 79
     5
176
     1
170
     0
176
     1
171
     0
176
     1
290
     0
176
     1
 93
        1
176
     1
 44
-50.0
176
     1
173
     0
176
     1
  0
VISUALSTYLE
  5
39
102
{ACAD_REACTORS
330
2A
102
}
330
2A
100
AcDbVisualStyle
  2
Facepattern
 70
    15
177
     2
291
     1
 71
     2
176
     1
 72
     2
176
     1
 73
     0
176
     1
 90
        0
176
     1
 40
-0.6
176
     1
 41
-30.0
176
     1
 62
     5
 63
     7
421
 16777215
176
     1
 74
     1
176
     1
 91
        4
176
     1
 64
     7
176
     1
 65
   257
176
     1
 75
     1
176
     1
175
     1
176
     1
 42
1.0
176
     1
 92
        8
176
     1
 66
     7
176
     1
 43
1.0
176
     1
 76
     1
176
     1
 77
     6
176
     1
 78
     2
176
     1
 67
     7
176
     1
 79
     5
176
     1
170
     0
176
     1
171
     0
176
     1
290
     0
176
     1
 93
        1
176
     1
 44
0.0
176
     1
173
     0
176
     1
  0
VISUALSTYLE
  5
2B
102
{ACAD_REACTORS
330
2A
102
}
330
2A
100
AcDbVisualStyle
  2
Flat
 70
     0
177
     2
291
     1
 71
     2
176
     1
 72
     1
176
     1
 73
     1
176
     1
 90
        2
176
     1
 40
-0.6
176
     1
 41
30.0
176
     1
 62
     5
 63
     7
421
 16777215
176
     1
 74
     0
176
     1
 91
        4
176
     1
 64
     7
176
     1
 65
   257
176
     1
 75
     1
176
     1
175
     1
176
     1
 42
1.0
176
     1
 92
        8
176
     1
 66
     7
176
     1
 43
1.0
176
     1
 76
     1
176
     1
 77
     6
176
     1
 78
     2
176
     1
 67
     7
176
     1
 79
     5
176
     1
170
     0
176
     1
171
     0
176
     1
290
     0
176
     1
 93
       13
176
     1
 44
0.0
176
     1
173
     0
176
     1
  0
VISUALSTYLE
  5
2C
102
{ACAD_REACTORS
330
2A
102
}
330
2A
100
AcDbVisualStyle
  2
FlatWithEdges
 70
     1
177
     2
291
     1
 71
     2
176
     1
 72
     1
176
     1
 73
     1
176
     1
 90
        2
176
     1
 40
-0.6
176
     1
 41
30.0
176
     1
 62
     5
 63
     7
421
 16777215
176
     1
 74
     1
176
     1
 91
        4
176
     1
 64
     7
176
     1
 65
   257
176
     1
 75
     1
176
     1
175
     1
176
     1
 42
1.0
176
     1
 92
        0
176
     1
 66
   257
176
     1
 43
1.0
176
     1
 76
     1
176
     1
 77
     6
176
     1
 78
     2
176
     1
 67
     7
176
     1
 79
     5
176
     1
170
     0
176
     1
171
     0
176
     1
290
     0
176
     1
 93
       13
176
     1
 44
0.0
176
     1
173
     0
176
     1
  0
VISUALSTYLE
  5
2D
102
{ACAD_REACTORS
330
2A
102
}
330
2A
100
AcDbVisualStyle
  2
Gouraud
 70
     2
177
     2
291
     1
 71
     2
176
     1
 72
     2
176
     1
 73
     1
176
     1
 90
        2
176
     1
 40
-0.6
176
     1
 41
30.0
176
     1
 62
     5
 63
     7
421
 16777215
176
     1
 74
     0
176
     1
 91
        4
176
     1
 64
     7
176
     1
 65
   257
176
     1
 75
     1
176
     1
175
     1
176
     1
 42
1.0
176
     1
 92
        0
176
     1
 66
     7
176
     1
 43
1.0
176
     1
 76
     1
176
     1
 77
     6
176
     1
 78
     2
176
     1
 67
     7
176
     1
 79
     5
176
     1
170
     0
176
     1
171
     0
176
     1
290
     0
176
     1
 93
       13
176
     1
 44
0.0
176
     1
173
     0
176
     1
  0
VISUALSTYLE
  5
2E
102
{ACAD_REACTORS
330
2A
102
}
330
2A
100
AcDbVisualStyle
  2
GouraudWithEdges
 70
     3
177
     2
291
     1
 71
     2
176
     1
 72
     2
176
     1
 73
     1
176
     1
 90
        2
176
     1
 40
-0.6
176
     1
 41
30.0
176
     1
 62
     5
 63
     7
421
 16777215
176
     1
 74
     1
176
     1
 91
        4
176
     1
 64
     7
176
     1
 65
   257
176
     1
 75
     1
176
     1
175
     1
176
     1
 42
1.0
176
     1
 92
        0
176
     1
 66
   257
176
     1
 43
1.0
176
     1
 76
     1
176
     1
 77
     6
176
     1
 78
     2
176
     1
 67
     7
176
     1
 79
     5
176
     1
170
     0
176
     1
171
     0
176
     1
290
     0
176
     1
 93
       13
176
     1
 44
0.0
176
     1
173
     0
176
     1
  0
VISUALSTYLE
  5
38
102
{ACAD_REACTORS
330
2A
102
}
330
2A
100
AcDbVisualStyle
  2
Linepattern
 70
    14
177
     2
291
     1
 71
     2
176
     1
 72
     2
176
     1
 73
     0
176
     1
 90
        0
176
     1
 40
-0.6
176
     1
 41
-30.0
176
     1
 62
     5
 63
     7
421
 16777215
176
     1
 74
     1
176
     1
 91
        4
176
     1
 64
     7
176
     1
 65
   257
176
     1
 75
     7
176
     1
175
     7
176
     1
 42
1.0
176
     1
 92
        8
176
     1
 66
     7
176
     1
 43
1.0
176
     1
 76
     1
176
     1
 77
     6
176
     1
 78
     2
176
     1
 67
     7
176
     1
 79
     5
176
     1
170
     0
176
     1
171
     0
176
     1
290
     0
176
     1
 93
        1
176
     1
 44
0.0
176
     1
173
     0
176
     1
  0
VISUALSTYLE
  5
33
102
{ACAD_REACTORS
330
2A
102
}
330
2A
100
AcDbVisualStyle
  2
Realistic
 70
     8
177
     2
291
     0
 71
     2
176
     1
 72
     2
176
     1
 73
     0
176
     1
 90
        0
176
     1
 40
-0.6
176
     1
 41
-30.0
176
     1
 62
     5
 63
     7
421
 16777215
176
     1
 74
     1
176
     1
 91
        0
176
     1
 64
     7
176
     1
 65
   257
176
     1
 75
     1
176
     1
175
     1
176
     1
 42
1.0
176
     1
 92
        8
176
     1
 66
     8
424
  7895160
176
     1
 43
1.0
176
     1
 76
     1
176
     1
 77
     6
176
     1
 78
     2
176
     1
 67
     7
176
     1
 79
     5
176
     1
170
     0
176
     1
171
     0
176
     1
290
     0
176
     1
 93
       13
176
     1
 44
0.0
176
     1
173
     0
176
     1
  0
VISUALSTYLE
  5
37
102
{ACAD_REACTORS
330
2A
102
}
330
2A
100
AcDbVisualStyle
  2
Thicken
 70
    13
177
     2
291
     1
 71
     2
176
     1
 72
     2
176
     1
 73
     0
176
     1
 90
        0
176
     1
 40
-0.6
176
     1
 41
-30.0
176
     1
 62
     5
 63
     7
421
 16777215
176
     1
 74
     1
176
     1
 91
        4
176
     1
 64
     7
176
     1
 65
   257
176
     1
 75
     1
176
     1
175
     1
176
     1
 42
1.0
176
     1
 92
       12
176
     1
 66
     7
176
     1
 43
1.0
176
     1
 76
     1
176
     1
 77
     6
176
     1
 78
     2
176
     1
 67
     7
176
     1
 79
     5
176
     1
170
     0
176
     1
171
     0
176
     1
290
     0
176
     1
 93
        1
176
     1
 44
0.0
176
     1
173
     0
176
     1
  0
ENDSEC
  0
EOF
