  0
SECTION
  2
HEADER
  9
$ACADVER
  1
AC1024
  9
$ACADMAINTVER
 70
     6
  9
$DWGCODEPAGE
  3
UNDEFINED
  9
$INSBASE
 10
0.0
 20
0.0
 30
0.0
  9
$EXTMIN
 10
1.000000000000000E+20
 20
1.000000000000000E+20
 30
1.000000000000000E+20
  9
$EXTMAX
 10
-1.000000000000000E+20
 20
-1.000000000000000E+20
 30
-1.000000000000000E+20
  9
$LIMMIN
 10
0.0
 20
0.0
  9
$LIMMAX
 10
12.0
 20
9.0
  9
$ORTHOMODE
 70
     0
  9
$REGENMODE
 70
     1
  9
$FILLMODE
 70
     1
  9
$QTEXTMODE
 70
     0
  9
$MIRRTEXT
 70
     1
  9
$LTSCALE
 40
1.0
  9
$ATTMODE
 70
     1
  9
$TEXTSIZE
 40
0.2
  9
$TRACEWID
 40
0.05
  9
$TEXTSTYLE
  7
Standard
  9
$CLAYER
  8
0
  9
$CELTYPE
  6
ByLayer
  9
$CECOLOR
 62
   256
  9
$CELTSCALE
 40
1.0
  9
$DISPSILH
 70
     0
  9
$DIMSCALE
 40
1.0
  9
$DIMASZ
 40
0.18
  9
$DIMEXO
 40
0.0625
  9
$DIMDLI
 40
0.38
  9
$DIMRND
 40
0.0
  9
$DIMDLE
 40
0.0
  9
$DIMEXE
 40
0.18
  9
$DIMTP
 40
0.0
  9
$DIMTM
 40
0.0
  9
$DIMTXT
 40
0.18
  9
$DIMCEN
 40
0.09
  9
$DIMTSZ
 40
0.0
  9
$DIMTOL
 70
     0
  9
$DIMLIM
 70
     0
  9
$DIMTIH
 70
     1
  9
$DIMTOH
 70
     1
  9
$DIMSE1
 70
     0
  9
$DIMSE2
 70
     0
  9
$DIMTAD
 70
     0
  9
$DIMZIN
 70
     0
  9
$DIMBLK
  1

  9
$DIMASO
 70
     1
  9
$DIMSHO
 70
     1
  9
$DIMPOST
  1

  9
$DIMAPOST
  1

  9
$DIMALT
 70
     0
  9
$DIMALTD
 70
     2
  9
$DIMALTF
 40
25.4
  9
$DIMLFAC
 40
1.0
  9
$DIMTOFL
 70
     0
  9
$DIMTVP
 40
0.0
  9
$DIMTIX
 70
     0
  9
$DIMSOXD
 70
     0
  9
$DIMSAH
 70
     0
  9
$DIMBLK1
  1

  9
$DIMBLK2
  1

  9
$DIMSTYLE
  2
Standard
  9
$DIMCLRD
 70
     0
  9
$DIMCLRE
 70
     0
  9
$DIMCLRT
 70
     0
  9
$DIMTFAC
 40
1.0
  9
$DIMGAP
 40
0.09
  9
$DIMJUST
 70
     0
  9
$DIMSD1
 70
     0
  9
$DIMSD2
 70
     0
  9
$DIMTOLJ
 70
     1
  9
$DIMTZIN
 70
     0
  9
$DIMALTZ
 70
     0
  9
$DIMALTTZ
 70
     0
  9
$DIMUPT
 70
     0
  9
$DIMDEC
 70
     4
  9
$DIMTDEC
 70
     4
  9
$DIMALTU
 70
     2
  9
$DIMALTTD
 70
     2
  9
$DIMTXSTY
  7
Standard
  9
$DIMAUNIT
 70
     0
  9
$DIMADEC
 70
     0
  9
$DIMALTRND
 40
0.0
  9
$DIMAZIN
 70
     0
  9
$DIMDSEP
 70
    46
  9
$DIMATFIT
 70
     3
  9
$DIMFRAC
 70
     0
  9
$DIMLDRBLK
  1

  9
$DIMLUNIT
 70
     2
  9
$DIMLWD
 70
    -2
  9
$DIMLWE
 70
    -2
  9
$DIMTMOVE
 70
     0
  9
$DIMFXL
 40
1.0
  9
$DIMFXLON
 70
     0
  9
$DIMJOGANG
 40
0.7853981633974483
  9
$DIMTFILL
 70
     0
  9
$DIMTFILLCLR
 70
     0
  9
$DIMARCSYM
 70
     0
  9
$DIMLTYPE
  6

  9
$DIMLTEX1
  6

  9
$DIMLTEX2
  6

  9
$DIMTXTDIRECTION
 70
     0
  9
$LUNITS
 70
     2
  9
$LUPREC
 70
     4
  9
$SKETCHINC
 40
0.1
  9
$FILLETRAD
 40
0.5
  9
$AUNITS
 70
     0
  9
$AUPREC
 70
     0
  9
$MENU
  1
.
  9
$ELEVATION
 40
0.0
  9
$PELEVATION
 40
0.0
  9
$THICKNESS
 40
0.0
  9
$LIMCHECK
 70
     0
  9
$CHAMFERA
 40
0.5
  9
$CHAMFERB
 40
0.5
  9
$CHAMFERC
 40
1.0
  9
$CHAMFERD
 40
0.0
  9
$SKPOLY
 70
     0
  9
$TDCREATE
 40
2457917.621701389
  9
$TDUCREATE
 40
2457917.246701389
  9
$TDUPDATE
 40
2457917.621701389
  9
$TDUUPDATE
 40
2457917.246701389
  9
$TDINDWG
 40
0.0000000116
  9
$TDUSRTIMER
 40
0.0000000116
  9
$USRTIMER
 70
     1
  9
$ANGBASE
 50
0.0
  9
$ANGDIR
 70
     0
  9
$PDMODE
 70
     0
  9
$PDSIZE
 40
0.0
  9
$PLINEWID
 40
0.0
  9
$SPLFRAME
 70
     0
  9
$SPLINETYPE
 70
     6
  9
$SPLINESEGS
 70
     8
  9
$HANDSEED
  5
D2
  9
$SURFTAB1
 70
     6
  9
$SURFTAB2
 70
     6
  9
$SURFTYPE
 70
     6
  9
$SURFU
 70
     6
  9
$SURFV
 70
     6
  9
$UCSBASE
  2

  9
$UCSNAME
  2

  9
$UCSORG
 10
0.0
 20
0.0
 30
0.0
  9
$UCSXDIR
 10
1.0
 20
0.0
 30
0.0
  9
$UCSYDIR
 10
0.0
 20
1.0
 30
0.0
  9
$UCSORTHOREF
  2

  9
$UCSORTHOVIEW
 70
     0
  9
$UCSORGTOP
 10
0.0
 20
0.0
 30
0.0
  9
$UCSORGBOTTOM
 10
0.0
 20
0.0
 30
0.0
  9
$UCSORGLEFT
 10
0.0
 20
0.0
 30
0.0
  9
$UCSORGRIGHT
 10
0.0
 20
0.0
 30
0.0
  9
$UCSORGFRONT
 10
0.0
 20
0.0
 30
0.0
  9
$UCSORGBACK
 10
0.0
 20
0.0
 30
0.0
  9
$PUCSBASE
  2

  9
$PUCSNAME
  2

  9
$PUCSORG
 10
0.0
 20
0.0
 30
0.0
  9
$PUCSXDIR
 10
1.0
 20
0.0
 30
0.0
  9
$PUCSYDIR
 10
0.0
 20
1.0
 30
0.0
  9
$PUCSORTHOREF
  2

  9
$PUCSORTHOVIEW
 70
     0
  9
$PUCSORGTOP
 10
0.0
 20
0.0
 30
0.0
  9
$PUCSORGBOTTOM
 10
0.0
 20
0.0
 30
0.0
  9
$PUCSORGLEFT
 10
0.0
 20
0.0
 30
0.0
  9
$PUCSORGRIGHT
 10
0.0
 20
0.0
 30
0.0
  9
$PUCSORGFRONT
 10
0.0
 20
0.0
 30
0.0
  9
$PUCSORGBACK
 10
0.0
 20
0.0
 30
0.0
  9
$USERI1
 70
     0
  9
$USERI2
 70
     0
  9
$USERI3
 70
     0
  9
$USERI4
 70
     0
  9
$USERI5
 70
     0
  9
$USERR1
 40
0.0
  9
$USERR2
 40
0.0
  9
$USERR3
 40
0.0
  9
$USERR4
 40
0.0
  9
$USERR5
 40
0.0
  9
$WORLDVIEW
 70
     1
  9
$SHADEDGE
 70
     3
  9
$SHADEDIF
 70
    70
  9
$TILEMODE
 70
     1
  9
$MAXACTVP
 70
    64
  9
$PINSBASE
 10
0.0
 20
0.0
 30
0.0
  9
$PLIMCHECK
 70
     0
  9
$PEXTMIN
 10
1.000000000000000E+20
 20
1.000000000000000E+20
 30
1.000000000000000E+20
  9
$PEXTMAX
 10
-1.000000000000000E+20
 20
-1.000000000000000E+20
 30
-1.000000000000000E+20
  9
$PLIMMIN
 10
0.0
 20
0.0
  9
$PLIMMAX
 10
12.0
 20
9.0
  9
$UNITMODE
 70
     0
  9
$VISRETAIN
 70
     1
  9
$PLINEGEN
 70
     0
  9
$PSLTSCALE
 70
     1
  9
$TREEDEPTH
 70
  3020
  9
$CMLSTYLE
  2
Standard
  9
$CMLJUST
 70
     0
  9
$CMLSCALE
 40
1.0
  9
$PROXYGRAPHICS
 70
     1
  9
$MEASUREMENT
 70
     0
  9
$CELWEIGHT
370
    -1
  9
$ENDCAPS
280
     0
  9
$JOINSTYLE
280
     0
  9
$LWDISPLAY
290
     1
  9
$INSUNITS
 70
     1
  9
$HYPERLINKBASE
  1

  9
$STYLESHEET
  1

  9
$XEDIT
290
     1
  9
$CEPSNTYPE
380
     0
  9
$PSTYLEMODE
290
     1
  9
$FINGERPRINTGUID
  2
{F6378508-331C-F445-2225-9069794FD7DE}
  9
$VERSIONGUID
  2
{FAEB1C32-E019-11D5-929B-00C0DF256EC4}
  9
$EXTNAMES
290
     1
  9
$PSVPSCALE
 40
0.0
  9
$OLESTARTUP
290
     0
  9
$SORTENTS
280
   127
  9
$INDEXCTL
280
     0
  9
$HIDETEXT
280
     1
  9
$XCLIPFRAME
280
     2
  9
$HALOGAP
280
     0
  9
$OBSCOLOR
 70
   257
  9
$OBSLTYPE
280
     0
  9
$INTERSECTIONDISPLAY
280
     0
  9
$INTERSECTIONCOLOR
 70
   257
  9
$DIMASSOC
280
     2
  9
$PROJECTNAME
  1

  9
$CAMERADISPLAY
290
     0
  9
$LENSLENGTH
 40
50.0
  9
$CAMERAHEIGHT
 40
0.0
  9
$STEPSPERSEC
 40
2.0
  9
$STEPSIZE
 40
6.0
  9
$3DDWFPREC
 40
2.0
  9
$PSOLWIDTH
 40
0.25
  9
$PSOLHEIGHT
 40
4.0
  9
$LOFTANG1
 40
1.570796326794897
  9
$LOFTANG2
 40
1.570796326794897
  9
$LOFTMAG1
 40
0.0
  9
$LOFTMAG2
 40
0.0
  9
$LOFTPARAM
 70
     7
  9
$LOFTNORMALS
280
     1
  9
$LATITUDE
 40
37.795
  9
$LONGITUDE
 40
-122.394
  9
$NORTHDIRECTION
 40
0.0
  9
$TIMEZONE
 70
 -8000
  9
$LIGHTGLYPHDISPLAY
280
     1
  9
$TILEMODELIGHTSYNCH
280
     1
  9
$CMATERIAL
347
3C
  9
$SOLIDHIST
280
     1
  9
$SHOWHIST
280
     1
  9
$DWFFRAME
280
     2
  9
$DGNFRAME
280
     2
  9
$REALWORLDSCALE
290
     1
  9
$INTERFERECOLOR
 62
   256
  9
$CSHADOW
280
     0
  9
$SHADOWPLANELOCATION
 40
0.0
  0
ENDSEC
  0
SECTION
  2
CLASSES
  0
CLASS
  1
ACDBDICTIONARYWDFLT
  2
AcDbDictionaryWithDefault
  3
ObjectDBX Classes
 90
        0
 91
        4
280
     0
281
     0
  0
CLASS
  1
VISUALSTYLE
  2
AcDbVisualStyle
  3
ObjectDBX Classes
 90
     4095
 91
        4
280
     0
281
     0
  0
CLASS
  1
MATERIAL
  2
AcDbMaterial
  3
ObjectDBX Classes
 90
     1153
 91
        4
280
     0
281
     0
  0
CLASS
  1
SUN
  2
AcDbSun
  3
SCENEOE
 90
     1024
 91
        4
280
     0
281
     0
  0
ENDSEC
  0
SECTION
  2
TABLES
  0
TABLE
  2
VPORT
  5
8
330
0
100
AcDbSymbolTable
 70
     1
  0
VPORT
  5
29
330
8
100
AcDbSymbolTableRecord
100
AcDbViewportTableRecord
  2
*Active
 70
     0
 10
0.0
 20
0.0
 11
1.0
 21
1.0
 12
0.0
 22
0.0
 13
0.0
 23
0.0
 14
0.5
 24
0.5
 15
0.5
 25
0.5
 16
0.0
 26
0.0
 36
1.0
 17
91.00082462281999
 27
-128.4993055234307
 37
0.0
 40
256.9986110468615
 41
0.7081814508812795
 42
50.0
 43
0.0
 44
0.0
 50
0.0
 51
0.0
 71
     0
 72
   100
 73
     1
 74
     3
 75
     0
 76
     0
 77
     0
 78
     0
281
     0
 65
     1
110
0.0
120
0.0
130
0.0
111
1.0
121
0.0
131
0.0
112
0.0
122
1.0
132
0.0
 79
     0
146
0.0
 60
     3
 61
     5
292
     1
282
     1
141
0.0
142
0.0
 63
   250
361
3F
  0
ENDTAB
  0
TABLE
  2
LTYPE
  5
5
330
0
100
AcDbSymbolTable
 70
     1
  0
LTYPE
  5
14
330
5
100
AcDbSymbolTableRecord
100
AcDbLinetypeTableRecord
  2
ByBlock
 70
     0
  3

 72
    65
 73
     0
 40
0.0
  0
LTYPE
  5
15
330
5
100
AcDbSymbolTableRecord
100
AcDbLinetypeTableRecord
  2
ByLayer
 70
     0
  3

 72
    65
 73
     0
 40
0.0
  0
LTYPE
  5
16
330
5
100
AcDbSymbolTableRecord
100
AcDbLinetypeTableRecord
  2
Continuous
 70
     0
  3
Solid line
 72
    65
 73
     0
 40
0.0
  0
ENDTAB
  0
TABLE
  2
LAYER
  5
2
330
0
100
AcDbSymbolTable
 70
     2
  0
LAYER
  5
10
330
2
100
AcDbSymbolTableRecord
100
AcDbLayerTableRecord
  2
0
 70
     0
 62
     7
  6
Continuous
370
    -3
390
F
347
3E
  0
LAYER
  5
40
330
2
100
AcDbSymbolTableRecord
100
AcDbLayerTableRecord
  2
_U+30EC_U+30A4_U+30E4_U+30FC 1
 70
     0
 62
     7
  6
Continuous
370
    -3
390
F
347
3E
  0
ENDTAB
  0
TABLE
  2
STYLE
  5
3
330
0
100
AcDbSymbolTable
 70
     1
  0
STYLE
  5
11
330
3
100
AcDbSymbolTableRecord
100
AcDbTextStyleTableRecord
  2
Standard
 70
     0
 40
0.0
 41
1.0
 50
0.0
 71
     0
 42
0.2
  3
txt
  4

  0
ENDTAB
  0
TABLE
  2
VIEW
  5
6
330
0
100
AcDbSymbolTable
 70
     0
  0
ENDTAB
  0
TABLE
  2
UCS
  5
7
330
0
100
AcDbSymbolTable
 70
     0
  0
ENDTAB
  0
TABLE
  2
APPID
  5
9
330
0
100
AcDbSymbolTable
 70
     1
  0
APPID
  5
12
330
9
100
AcDbSymbolTableRecord
100
AcDbRegAppTableRecord
  2
ACAD
 70
     0
  0
ENDTAB
  0
TABLE
  2
DIMSTYLE
  5
A
330
0
100
AcDbSymbolTable
 70
     1
100
AcDbDimStyleTable
  0
DIMSTYLE
105
27
330
A
100
AcDbSymbolTableRecord
100
AcDbDimStyleTableRecord
  2
Standard
 70
     0
178
     0
340
11
  0
ENDTAB
  0
TABLE
  2
BLOCK_RECORD
  5
1
330
0
100
AcDbSymbolTable
 70
     6
  0
BLOCK_RECORD
  5
1F
330
1
100
AcDbSymbolTableRecord
100
AcDbBlockTableRecord
  2
*Model_Space
340
22
 70
     0
280
     1
281
     0
  0
BLOCK_RECORD
  5
1B
330
1
100
AcDbSymbolTableRecord
100
AcDbBlockTableRecord
  2
*Paper_Space
340
1E
 70
     0
280
     1
281
     0
  0
BLOCK_RECORD
  5
23
330
1
100
AcDbSymbolTableRecord
100
AcDbBlockTableRecord
  2
*Paper_Space0
340
26
 70
     0
280
     1
281
     0
  0
BLOCK_RECORD
  5
58
330
1
100
AcDbSymbolTableRecord
100
AcDbBlockTableRecord
  2
block 2
340
0
102
{BLKREFS
331
59
102
}
 70
     0
280
     1
281
     0
  0
BLOCK_RECORD
  5
5E
330
1
100
AcDbSymbolTableRecord
100
AcDbBlockTableRecord
  2
block 3
340
0
102
{BLKREFS
331
5F
102
}
 70
     0
280
     1
281
     0
  0
BLOCK_RECORD
  5
6E
330
1
100
AcDbSymbolTableRecord
100
AcDbBlockTableRecord
  2
block 4
340
0
102
{BLKREFS
331
6F
102
}
 70
     0
280
     1
281
     0
  0
BLOCK_RECORD
  5
76
330
1
100
AcDbSymbolTableRecord
100
AcDbBlockTableRecord
  2
block 5
340
0
102
{BLKREFS
331
77
102
}
 70
     0
280
     1
281
     0
  0
BLOCK_RECORD
  5
C6
330
1
100
AcDbSymbolTableRecord
100
AcDbBlockTableRecord
  2
block 6
340
0
102
{BLKREFS
331
C7
102
}
 70
     0
280
     1
281
     0
  0
ENDTAB
  0
ENDSEC
  0
SECTION
  2
BLOCKS
  0
BLOCK
  5
20
330
1F
100
AcDbEntity
  8
0
100
AcDbBlockBegin
  2
*Model_Space
 70
     0
 10
0.0
 20
0.0
 30
0.0
  3
*Model_Space
  1

  0
ENDBLK
  5
21
330
1F
100
AcDbEntity
  8
0
100
AcDbBlockEnd
  0
BLOCK
  5
1C
330
1B
100
AcDbEntity
 67
     1
  8
0
100
AcDbBlockBegin
  2
*Paper_Space
 70
     0
 10
0.0
 20
0.0
 30
0.0
  3
*Paper_Space
  1

  0
ENDBLK
  5
1D
330
1B
100
AcDbEntity
 67
     1
  8
0
100
AcDbBlockEnd
  0
BLOCK
  5
24
330
23
100
AcDbEntity
  8
0
100
AcDbBlockBegin
  2
*Paper_Space0
 70
     0
 10
0.0
 20
0.0
 30
0.0
  3
*Paper_Space0
  1

  0
ENDBLK
  5
25
330
23
100
AcDbEntity
  8
0
100
AcDbBlockEnd
  0
BLOCK
  5
5A
330
58
100
AcDbEntity
  8
0
100
AcDbBlockBegin
  2
block 2
 70
     0
 10
0.0
 20
0.0
 30
0.0
  3
block 2
  1

  0
SPLINE
  5
5C
330
58
100
AcDbEntity
  8
_U+30EC_U+30A4_U+30E4_U+30FC 1
370
     0
100
AcDbSpline
210
0.0
220
0.0
230
1.0
 70
    11
 71
     3
 72
    26
 73
    22
 74
     0
 42
0.0000000001
 43
0.0000000001
 12
1.0
 22
0.0
 32
0.0
 13
1.0
 23
0.0
 33
0.0
 40
0.0
 40
0.0
 40
0.0
 40
0.0
 40
1.0
 40
1.0
 40
1.0
 40
2.0
 40
2.0
 40
2.0
 40
3.0
 40
3.0
 40
3.0
 40
4.0
 40
4.0
 40
4.0
 40
5.0
 40
5.0
 40
5.0
 40
6.0
 40
6.0
 40
6.0
 40
7.0
 40
7.0
 40
7.0
 40
7.0
 10
83.54270424343724
 20
-135.4828585815807
 30
0.0
 10
83.54270424343724
 20
-135.4828585815807
 30
0.0
 10
82.4383788856404
 20
-135.4828585815807
 30
0.0
 10
82.4383788856404
 20
-135.4828585815807
 30
0.0
 10
82.4383788856404
 20
-135.4828585815807
 30
0.0
 10
82.4383788856404
 20
-135.8352918497217
 30
0.0
 10
82.4383788856404
 20
-135.8352918497217
 30
0.0
 10
82.4383788856404
 20
-135.8352918497217
 30
0.0
 10
82.29023977977467
 20
-135.8352918497217
 30
0.0
 10
82.29023977977467
 20
-135.8352918497217
 30
0.0
 10
82.27559812396235
 20
-135.480447014741
 30
0.0
 10
82.11264510751003
 20
-135.4308376397534
 30
0.0
 10
81.998440192174
 20
-135.3991427612891
 30
0.0
 10
81.998440192174
 20
-135.3991427612891
 30
0.0
 10
81.998440192174
 20
-135.2430799358073
 30
0.0
 10
81.998440192174
 20
-135.2430799358073
 30
0.0
 10
81.998440192174
 20
-135.2430799358073
 30
0.0
 10
83.54270424343724
 20
-135.2430799358073
 30
0.0
 10
83.54270424343724
 20
-135.2430799358073
 30
0.0
 10
83.54270424343724
 20
-135.2430799358073
 30
0.0
 10
83.54270424343724
 20
-135.4828585815807
 30
0.0
 10
83.54270424343724
 20
-135.4828585815807
 30
0.0
  0
HATCH
  5
5D
330
58
100
AcDbEntity
  8
_U+30EC_U+30A4_U+30E4_U+30FC 1
 62
   179
420
  2234388
100
AcDbHatch
 10
0.0
 20
0.0
 30
0.0
210
0.0
220
0.0
230
1.0
  2
SOLID
 70
     1
 71
     0
 91
        1
 92
        1
 93
        1
 72
     4
 94
        3
 73
     0
 74
     1
 95
       26
 96
       22
 40
0.0
 40
0.0
 40
0.0
 40
0.0
 40
1.0
 40
1.0
 40
1.0
 40
2.0
 40
2.0
 40
2.0
 40
3.0
 40
3.0
 40
3.0
 40
4.0
 40
4.0
 40
4.0
 40
5.0
 40
5.0
 40
5.0
 40
6.0
 40
6.0
 40
6.0
 40
7.0
 40
7.0
 40
7.0
 40
7.0
 10
83.54270424343724
 20
-135.4828585815807
 10
83.54270424343724
 20
-135.4828585815807
 10
82.4383788856404
 20
-135.4828585815807
 10
82.4383788856404
 20
-135.4828585815807
 10
82.4383788856404
 20
-135.4828585815807
 10
82.4383788856404
 20
-135.8352918497217
 10
82.4383788856404
 20
-135.8352918497217
 10
82.4383788856404
 20
-135.8352918497217
 10
82.29023977977467
 20
-135.8352918497217
 10
82.29023977977467
 20
-135.8352918497217
 10
82.27559812396235
 20
-135.480447014741
 10
82.11264510751003
 20
-135.4308376397534
 10
81.998440192174
 20
-135.3991427612891
 10
81.998440192174
 20
-135.3991427612891
 10
81.998440192174
 20
-135.2430799358073
 10
81.998440192174
 20
-135.2430799358073
 10
81.998440192174
 20
-135.2430799358073
 10
83.54270424343724
 20
-135.2430799358073
 10
83.54270424343724
 20
-135.2430799358073
 10
83.54270424343724
 20
-135.2430799358073
 10
83.54270424343724
 20
-135.4828585815807
 10
83.54270424343724
 20
-135.4828585815807
 97
        0
 97
        0
 75
     2
 76
     1
 98
        0
  0
ENDBLK
  5
5B
330
58
100
AcDbEntity
  8
0
100
AcDbBlockEnd
  0
BLOCK
  5
60
330
5E
100
AcDbEntity
  8
0
100
AcDbBlockBegin
  2
block 3
 70
     0
 10
0.0
 20
0.0
 30
0.0
  3
block 3
  1

  0
SPLINE
  5
62
330
5E
100
AcDbEntity
  8
_U+30EC_U+30A4_U+30E4_U+30FC 1
370
     0
100
AcDbSpline
210
0.0
220
0.0
230
1.0
 70
    11
 71
     3
 72
    26
 73
    22
 74
     0
 42
0.0000000001
 43
0.0000000001
 12
1.0
 22
0.0
 32
0.0
 13
1.0
 23
0.0
 33
0.0
 40
0.0
 40
0.0
 40
0.0
 40
0.0
 40
1.0
 40
1.0
 40
1.0
 40
2.0
 40
2.0
 40
2.0
 40
3.0
 40
3.0
 40
3.0
 40
4.0
 40
4.0
 40
4.0
 40
5.0
 40
5.0
 40
5.0
 40
6.0
 40
6.0
 40
6.0
 40
7.0
 40
7.0
 40
7.0
 40
7.0
 10
83.54270424343724
 20
-129.2661837784474
 30
0.0
 10
83.54270424343724
 20
-129.2661837784474
 30
0.0
 10
82.4383788856404
 20
-129.2661837784474
 30
0.0
 10
82.4383788856404
 20
-129.2661837784474
 30
0.0
 10
82.4383788856404
 20
-129.2661837784474
 30
0.0
 10
82.4383788856404
 20
-129.6186170465884
 30
0.0
 10
82.4383788856404
 20
-129.6186170465884
 30
0.0
 10
82.4383788856404
 20
-129.6186170465884
 30
0.0
 10
82.29023977977467
 20
-129.6186170465884
 30
0.0
 10
82.29023977977467
 20
-129.6186170465884
 30
0.0
 10
82.27559812396235
 20
-129.2637722116077
 30
0.0
 10
82.11264510751003
 20
-129.2141628366201
 30
0.0
 10
81.998440192174
 20
-129.1824679581558
 30
0.0
 10
81.998440192174
 20
-129.1824679581558
 30
0.0
 10
81.998440192174
 20
-129.026405132674
 30
0.0
 10
81.998440192174
 20
-129.026405132674
 30
0.0
 10
81.998440192174
 20
-129.026405132674
 30
0.0
 10
83.54270424343724
 20
-129.026405132674
 30
0.0
 10
83.54270424343724
 20
-129.026405132674
 30
0.0
 10
83.54270424343724
 20
-129.026405132674
 30
0.0
 10
83.54270424343724
 20
-129.2661837784474
 30
0.0
 10
83.54270424343724
 20
-129.2661837784474
 30
0.0
  0
HATCH
  5
63
330
5E
100
AcDbEntity
  8
_U+30EC_U+30A4_U+30E4_U+30FC 1
 62
   179
420
  2234388
100
AcDbHatch
 10
0.0
 20
0.0
 30
0.0
210
0.0
220
0.0
230
1.0
  2
SOLID
 70
     1
 71
     0
 91
        1
 92
        1
 93
        1
 72
     4
 94
        3
 73
     0
 74
     1
 95
       26
 96
       22
 40
0.0
 40
0.0
 40
0.0
 40
0.0
 40
1.0
 40
1.0
 40
1.0
 40
2.0
 40
2.0
 40
2.0
 40
3.0
 40
3.0
 40
3.0
 40
4.0
 40
4.0
 40
4.0
 40
5.0
 40
5.0
 40
5.0
 40
6.0
 40
6.0
 40
6.0
 40
7.0
 40
7.0
 40
7.0
 40
7.0
 10
83.54270424343724
 20
-129.2661837784474
 10
83.54270424343724
 20
-129.2661837784474
 10
82.4383788856404
 20
-129.2661837784474
 10
82.4383788856404
 20
-129.2661837784474
 10
82.4383788856404
 20
-129.2661837784474
 10
82.4383788856404
 20
-129.6186170465884
 10
82.4383788856404
 20
-129.6186170465884
 10
82.4383788856404
 20
-129.6186170465884
 10
82.29023977977467
 20
-129.6186170465884
 10
82.29023977977467
 20
-129.6186170465884
 10
82.27559812396235
 20
-129.2637722116077
 10
82.11264510751003
 20
-129.2141628366201
 10
81.998440192174
 20
-129.1824679581558
 10
81.998440192174
 20
-129.1824679581558
 10
81.998440192174
 20
-129.026405132674
 10
81.998440192174
 20
-129.026405132674
 10
81.998440192174
 20
-129.026405132674
 10
83.54270424343724
 20
-129.026405132674
 10
83.54270424343724
 20
-129.026405132674
 10
83.54270424343724
 20
-129.026405132674
 10
83.54270424343724
 20
-129.2661837784474
 10
83.54270424343724
 20
-129.2661837784474
 97
        0
 97
        0
 75
     2
 76
     1
 98
        0
  0
SPLINE
  5
64
330
5E
100
AcDbEntity
  8
_U+30EC_U+30A4_U+30E4_U+30FC 1
370
     0
100
AcDbSpline
210
0.0
220
0.0
230
1.0
 70
    11
 71
     3
 72
    62
 73
    58
 74
     0
 42
0.0000000001
 43
0.0000000001
 12
1.0
 22
0.0
 32
0.0
 13
1.0
 23
0.0
 33
0.0
 40
0.0
 40
0.0
 40
0.0
 40
0.0
 40
1.0
 40
1.0
 40
1.0
 40
2.0
 40
2.0
 40
2.0
 40
3.0
 40
3.0
 40
3.0
 40
4.0
 40
4.0
 40
4.0
 40
5.0
 40
5.0
 40
5.0
 40
6.0
 40
6.0
 40
6.0
 40
7.0
 40
7.0
 40
7.0
 40
8.0
 40
8.0
 40
8.0
 40
9.0
 40
9.0
 40
9.0
 40
10.0
 40
10.0
 40
10.0
 40
11.0
 40
11.0
 40
11.0
 40
12.0
 40
12.0
 40
12.0
 40
13.0
 40
13.0
 40
13.0
 40
14.0
 40
14.0
 40
14.0
 40
15.0
 40
15.0
 40
15.0
 40
16.0
 40
16.0
 40
16.0
 40
17.0
 40
17.0
 40
17.0
 40
18.0
 40
18.0
 40
18.0
 40
19.0
 40
19.0
 40
19.0
 40
19.0
 10
83.59351940184467
 20
-127.965315723217
 30
0.0
 10
83.59351940184467
 20
-128.0671182948061
 30
0.0
 10
83.57233206461039
 20
-128.2998344948348
 30
0.0
 10
83.38612465363263
 20
-128.4333319448882
 30
0.0
 10
83.27398679558776
 20
-128.5123968862747
 30
0.0
 10
83.1745957908383
 20
-128.5168755104055
 30
0.0
 10
83.09001869667541
 20
-128.5215263893106
 30
0.0
 10
83.09001869667541
 20
-128.5215263893106
 30
0.0
 10
83.09001869667541
 20
-128.2863986224423
 30
0.0
 10
83.09001869667541
 20
-128.2863986224423
 30
0.0
 10
83.16408824960828
 20
-128.2841593103769
 30
0.0
 10
83.39887150692806
 20
-128.2727904952756
 30
0.0
 10
83.39887150692806
 20
-127.9697943473478
 30
0.0
 10
83.39887150692806
 20
-127.8228610249019
 30
0.0
 10
83.32910832335176
 20
-127.6600802632239
 30
0.0
 10
83.10052623790543
 20
-127.6600802632239
 30
0.0
 10
82.98425426527825
 20
-127.6600802632239
 30
0.0
 10
82.93550616416196
 20
-127.7007323899498
 30
0.0
 10
82.90381128569766
 20
-127.7346665804795
 30
0.0
 10
82.82974173276479
 20
-127.8139037766403
 30
0.0
 10
82.81716713424363
 20
-127.9380994688835
 30
0.0
 10
82.81716713424363
 20
-127.9970106016813
 30
0.0
 10
82.81716713424363
 20
-128.0173366650443
 30
0.0
 10
82.81923419153478
 20
-128.0557494797048
 30
0.0
 10
82.82336830611708
 20
-128.0852050461037
 30
0.0
 10
82.82336830611708
 20
-128.0852050461037
 30
0.0
 10
82.62889266597473
 20
-128.0852050461037
 30
0.0
 10
82.62889266597473
 20
-128.0852050461037
 30
0.0
 10
82.63509383784817
 20
-128.0443806646035
 30
0.0
 10
82.63733314991359
 20
-127.9992499137467
 30
0.0
 10
82.63733314991359
 20
-127.9923597227762
 30
0.0
 10
82.63733314991359
 20
-127.9224242844256
 30
0.0
 10
82.6161458126793
 20
-127.7098618929857
 30
0.0
 10
82.37912324329412
 20
-127.7098618929857
 30
0.0
 10
82.20152857102948
 20
-127.7098618929857
 30
0.0
 10
82.14640704326548
 20
-127.8500772792354
 30
0.0
 10
82.14640704326548
 20
-127.9675550352824
 30
0.0
 10
82.14640704326548
 20
-128.2502251198472
 30
0.0
 10
82.37912324329412
 20
-128.2591823681088
 30
0.0
 10
82.45112573893583
 20
-128.2636609922396
 30
0.0
 10
82.45112573893583
 20
-128.2636609922396
 30
0.0
 10
82.45112573893583
 20
-128.4807020078104
 30
0.0
 10
82.45112573893583
 20
-128.4807020078104
 30
0.0
 10
82.32624102759553
 20
-128.4717447595487
 30
0.0
 10
81.94969209105771
 20
-128.4422891931499
 30
0.0
 10
81.94969209105771
 20
-127.9539469081157
 30
0.0
 10
81.94969209105771
 20
-127.7143405171166
 30
0.0
 10
82.07664385968917
 20
-127.4566473748199
 30
0.0
 10
82.3727498166464
 20
-127.4566473748199
 30
0.0
 10
82.55895722762415
 20
-127.4566473748199
 30
0.0
 10
82.64146726449589
 20
-127.5582776916347
 30
0.0
 10
82.70278996413333
 20
-127.6645588873547
 30
0.0
 10
82.73035072801534
 20
-127.599102073135
 30
0.0
 10
82.81079370759592
 20
-127.4046264329926
 30
0.0
 10
83.08795163938427
 20
-127.4046264329926
 30
0.0
 10
83.42643227081007
 20
-127.4046264329926
 30
0.0
 10
83.59351940184467
 20
-127.6692097662598
 30
0.0
 10
83.59351940184467
 20
-127.965315723217
 30
0.0
  0
HATCH
  5
65
330
5E
100
AcDbEntity
  8
_U+30EC_U+30A4_U+30E4_U+30FC 1
 62
   179
420
  2234388
100
AcDbHatch
 10
0.0
 20
0.0
 30
0.0
210
0.0
220
0.0
230
1.0
  2
SOLID
 70
     1
 71
     0
 91
        1
 92
        1
 93
        1
 72
     4
 94
        3
 73
     0
 74
     1
 95
       62
 96
       58
 40
0.0
 40
0.0
 40
0.0
 40
0.0
 40
1.0
 40
1.0
 40
1.0
 40
2.0
 40
2.0
 40
2.0
 40
3.0
 40
3.0
 40
3.0
 40
4.0
 40
4.0
 40
4.0
 40
5.0
 40
5.0
 40
5.0
 40
6.0
 40
6.0
 40
6.0
 40
7.0
 40
7.0
 40
7.0
 40
8.0
 40
8.0
 40
8.0
 40
9.0
 40
9.0
 40
9.0
 40
10.0
 40
10.0
 40
10.0
 40
11.0
 40
11.0
 40
11.0
 40
12.0
 40
12.0
 40
12.0
 40
13.0
 40
13.0
 40
13.0
 40
14.0
 40
14.0
 40
14.0
 40
15.0
 40
15.0
 40
15.0
 40
16.0
 40
16.0
 40
16.0
 40
17.0
 40
17.0
 40
17.0
 40
18.0
 40
18.0
 40
18.0
 40
19.0
 40
19.0
 40
19.0
 40
19.0
 10
83.59351940184467
 20
-127.965315723217
 10
83.59351940184467
 20
-128.0671182948061
 10
83.57233206461039
 20
-128.2998344948348
 10
83.38612465363263
 20
-128.4333319448882
 10
83.27398679558776
 20
-128.5123968862747
 10
83.1745957908383
 20
-128.5168755104055
 10
83.09001869667541
 20
-128.5215263893106
 10
83.09001869667541
 20
-128.5215263893106
 10
83.09001869667541
 20
-128.2863986224423
 10
83.09001869667541
 20
-128.2863986224423
 10
83.16408824960828
 20
-128.2841593103769
 10
83.39887150692806
 20
-128.2727904952756
 10
83.39887150692806
 20
-127.9697943473478
 10
83.39887150692806
 20
-127.8228610249019
 10
83.32910832335176
 20
-127.6600802632239
 10
83.10052623790543
 20
-127.6600802632239
 10
82.98425426527825
 20
-127.6600802632239
 10
82.93550616416196
 20
-127.7007323899498
 10
82.90381128569766
 20
-127.7346665804795
 10
82.82974173276479
 20
-127.8139037766403
 10
82.81716713424363
 20
-127.9380994688835
 10
82.81716713424363
 20
-127.9970106016813
 10
82.81716713424363
 20
-128.0173366650443
 10
82.81923419153478
 20
-128.0557494797048
 10
82.82336830611708
 20
-128.0852050461037
 10
82.82336830611708
 20
-128.0852050461037
 10
82.62889266597473
 20
-128.0852050461037
 10
82.62889266597473
 20
-128.0852050461037
 10
82.63509383784817
 20
-128.0443806646035
 10
82.63733314991359
 20
-127.9992499137467
 10
82.63733314991359
 20
-127.9923597227762
 10
82.63733314991359
 20
-127.9224242844256
 10
82.6161458126793
 20
-127.7098618929857
 10
82.37912324329412
 20
-127.7098618929857
 10
82.20152857102948
 20
-127.7098618929857
 10
82.14640704326548
 20
-127.8500772792354
 10
82.14640704326548
 20
-127.9675550352824
 10
82.14640704326548
 20
-128.2502251198472
 10
82.37912324329412
 20
-128.2591823681088
 10
82.45112573893583
 20
-128.2636609922396
 10
82.45112573893583
 20
-128.2636609922396
 10
82.45112573893583
 20
-128.4807020078104
 10
82.45112573893583
 20
-128.4807020078104
 10
82.32624102759553
 20
-128.4717447595487
 10
81.94969209105771
 20
-128.4422891931499
 10
81.94969209105771
 20
-127.9539469081157
 10
81.94969209105771
 20
-127.7143405171166
 10
82.07664385968917
 20
-127.4566473748199
 10
82.3727498166464
 20
-127.4566473748199
 10
82.55895722762415
 20
-127.4566473748199
 10
82.64146726449589
 20
-127.5582776916347
 10
82.70278996413333
 20
-127.6645588873547
 10
82.73035072801534
 20
-127.599102073135
 10
82.81079370759592
 20
-127.4046264329926
 10
83.08795163938427
 20
-127.4046264329926
 10
83.42643227081007
 20
-127.4046264329926
 10
83.59351940184467
 20
-127.6692097662598
 10
83.59351940184467
 20
-127.965315723217
 97
        0
 97
        0
 75
     2
 76
     1
 98
        0
  0
ENDBLK
  5
61
330
5E
100
AcDbEntity
  8
0
100
AcDbBlockEnd
  0
BLOCK
  5
70
330
6E
100
AcDbEntity
  8
0
100
AcDbBlockBegin
  2
block 4
 70
     0
 10
0.0
 20
0.0
 30
0.0
  3
block 4
  1

  0
SPLINE
  5
72
330
6E
100
AcDbEntity
  8
_U+30EC_U+30A4_U+30E4_U+30FC 1
370
     0
100
AcDbSpline
210
0.0
220
0.0
230
1.0
 70
    11
 71
     3
 72
    26
 73
    22
 74
     0
 42
0.0000000001
 43
0.0000000001
 12
1.0
 22
0.0
 32
0.0
 13
1.0
 23
0.0
 33
0.0
 40
0.0
 40
0.0
 40
0.0
 40
0.0
 40
1.0
 40
1.0
 40
1.0
 40
2.0
 40
2.0
 40
2.0
 40
3.0
 40
3.0
 40
3.0
 40
4.0
 40
4.0
 40
4.0
 40
5.0
 40
5.0
 40
5.0
 40
6.0
 40
6.0
 40
6.0
 40
7.0
 40
7.0
 40
7.0
 40
7.0
 10
93.2697590912659
 20
-116.3705023580602
 30
0.0
 10
93.2697590912659
 20
-116.3705023580602
 30
0.0
 10
93.2697590912659
 20
-115.2661770002633
 30
0.0
 10
93.2697590912659
 20
-115.2661770002633
 30
0.0
 10
93.2697590912659
 20
-115.2661770002633
 30
0.0
 10
92.91732582312484
 20
-115.2661770002633
 30
0.0
 10
92.91732582312484
 20
-115.2661770002633
 30
0.0
 10
92.91732582312484
 20
-115.2661770002633
 30
0.0
 10
92.91732582312484
 20
-115.1182101491718
 30
0.0
 10
92.91732582312484
 20
-115.1182101491718
 30
0.0
 10
93.27217065810557
 20
-115.1033962385853
 30
0.0
 10
93.32178003309318
 20
-114.940443222133
 30
0.0
 10
93.35347491155747
 20
-114.8262383067969
 30
0.0
 10
93.35347491155747
 20
-114.8262383067969
 30
0.0
 10
93.50953773703928
 20
-114.8262383067969
 30
0.0
 10
93.50953773703928
 20
-114.8262383067969
 30
0.0
 10
93.50953773703928
 20
-114.8262383067969
 30
0.0
 10
93.50953773703928
 20
-116.3705023580602
 30
0.0
 10
93.50953773703928
 20
-116.3705023580602
 30
0.0
 10
93.50953773703928
 20
-116.3705023580602
 30
0.0
 10
93.2697590912659
 20
-116.3705023580602
 30
0.0
 10
93.2697590912659
 20
-116.3705023580602
 30
0.0
  0
HATCH
  5
73
330
6E
100
AcDbEntity
  8
_U+30EC_U+30A4_U+30E4_U+30FC 1
 62
   179
420
  2234388
100
AcDbHatch
 10
0.0
 20
0.0
 30
0.0
210
0.0
220
0.0
230
1.0
  2
SOLID
 70
     1
 71
     0
 91
        1
 92
        1
 93
        1
 72
     4
 94
        3
 73
     0
 74
     1
 95
       26
 96
       22
 40
0.0
 40
0.0
 40
0.0
 40
0.0
 40
1.0
 40
1.0
 40
1.0
 40
2.0
 40
2.0
 40
2.0
 40
3.0
 40
3.0
 40
3.0
 40
4.0
 40
4.0
 40
4.0
 40
5.0
 40
5.0
 40
5.0
 40
6.0
 40
6.0
 40
6.0
 40
7.0
 40
7.0
 40
7.0
 40
7.0
 10
93.2697590912659
 20
-116.3705023580602
 10
93.2697590912659
 20
-116.3705023580602
 10
93.2697590912659
 20
-115.2661770002633
 10
93.2697590912659
 20
-115.2661770002633
 10
93.2697590912659
 20
-115.2661770002633
 10
92.91732582312484
 20
-115.2661770002633
 10
92.91732582312484
 20
-115.2661770002633
 10
92.91732582312484
 20
-115.2661770002633
 10
92.91732582312484
 20
-115.1182101491718
 10
92.91732582312484
 20
-115.1182101491718
 10
93.27217065810557
 20
-115.1033962385853
 10
93.32178003309318
 20
-114.940443222133
 10
93.35347491155747
 20
-114.8262383067969
 10
93.35347491155747
 20
-114.8262383067969
 10
93.50953773703928
 20
-114.8262383067969
 10
93.50953773703928
 20
-114.8262383067969
 10
93.50953773703928
 20
-114.8262383067969
 10
93.50953773703928
 20
-116.3705023580602
 10
93.50953773703928
 20
-116.3705023580602
 10
93.50953773703928
 20
-116.3705023580602
 10
93.2697590912659
 20
-116.3705023580602
 10
93.2697590912659
 20
-116.3705023580602
 97
        0
 97
        0
 75
     2
 76
     1
 98
        0
  0
SPLINE
  5
74
330
6E
100
AcDbEntity
  8
_U+30EC_U+30A4_U+30E4_U+30FC 1
370
     0
100
AcDbSpline
210
0.0
220
0.0
230
1.0
 70
    11
 71
     3
 72
    44
 73
    40
 74
     0
 42
0.0000000001
 43
0.0000000001
 12
1.0
 22
0.0
 32
0.0
 13
1.0
 23
0.0
 33
0.0
 40
0.0
 40
0.0
 40
0.0
 40
0.0
 40
1.0
 40
1.0
 40
1.0
 40
2.0
 40
2.0
 40
2.0
 40
3.0
 40
3.0
 40
3.0
 40
4.0
 40
4.0
 40
4.0
 40
5.0
 40
5.0
 40
5.0
 40
6.0
 40
6.0
 40
6.0
 40
7.0
 40
7.0
 40
7.0
 40
8.0
 40
8.0
 40
8.0
 40
9.0
 40
9.0
 40
9.0
 40
10.0
 40
10.0
 40
10.0
 40
11.0
 40
11.0
 40
11.0
 40
12.0
 40
12.0
 40
12.0
 40
13.0
 40
13.0
 40
13.0
 40
13.0
 10
94.6791476542816
 20
-115.7886257306015
 30
0.0
 10
94.44625919947872
 20
-115.9474446324715
 30
0.0
 10
94.346695939955
 20
-116.0215141854043
 30
0.0
 10
94.29501950767624
 20
-116.1651746671393
 30
0.0
 10
94.29501950767624
 20
-116.1651746671393
 30
0.0
 10
95.12666555781556
 20
-116.1651746671393
 30
0.0
 10
95.12666555781556
 20
-116.1651746671393
 30
0.0
 10
95.12666555781556
 20
-116.1651746671393
 30
0.0
 10
95.12666555781556
 20
-116.3705023580602
 30
0.0
 10
95.12666555781556
 20
-116.3705023580602
 30
0.0
 10
95.12666555781556
 20
-116.3705023580602
 30
0.0
 10
94.02802460756939
 20
-116.3705023580602
 30
0.0
 10
94.02802460756939
 20
-116.3705023580602
 30
0.0
 10
94.06213105287335
 20
-116.0129014466912
 30
0.0
 10
94.13206649122394
 20
-115.934697779176
 30
0.0
 10
94.54341089216277
 20
-115.6363525101534
 30
0.0
 10
94.8169514736916
 20
-115.4375705006545
 30
0.0
 10
94.8872314215907
 20
-115.3698743743693
 30
0.0
 10
94.8872314215907
 20
-115.2324150645079
 30
0.0
 10
94.8872314215907
 20
-115.1139037798153
 30
0.0
 10
94.81040579226962
 20
-114.9828178966015
 30
0.0
 10
94.59991045812086
 20
-114.9828178966015
 30
0.0
 10
94.3218912524612
 20
-114.9828178966015
 30
0.0
 10
94.31293400419955
 20
-115.2132947845647
 30
0.0
 10
94.30845538006872
 20
-115.3297390119662
 30
0.0
 10
94.30845538006872
 20
-115.3297390119662
 30
0.0
 10
94.06867673429534
 20
-115.3297390119662
 30
0.0
 10
94.06867673429534
 20
-115.3297390119662
 30
0.0
 10
94.07797849210552
 20
-115.2027872433347
 30
0.0
 10
94.08900279765831
 20
-115.0906493852898
 30
0.0
 10
94.17513018478955
 20
-114.9721381005972
 30
0.0
 10
94.29260794083658
 20
-114.8114243962103
 30
0.0
 10
94.49138995033549
 20
-114.7774902056806
 30
0.0
 10
94.615757897353
 20
-114.7774902056806
 30
0.0
 10
94.9120361090845
 20
-114.7774902056806
 30
0.0
 10
95.13355574878607
 20
-114.9616305593672
 30
0.0
 10
95.13355574878607
 20
-115.234482121799
 30
0.0
 10
95.13355574878607
 20
-115.4628919524711
 30
0.0
 10
95.00918780176855
 20
-115.5622829572205
 30
0.0
 10
94.6791476542816
 20
-115.7886257306015
 30
0.0
  0
HATCH
  5
75
330
6E
100
AcDbEntity
  8
_U+30EC_U+30A4_U+30E4_U+30FC 1
 62
   179
420
  2234388
100
AcDbHatch
 10
0.0
 20
0.0
 30
0.0
210
0.0
220
0.0
230
1.0
  2
SOLID
 70
     1
 71
     0
 91
        1
 92
        1
 93
        1
 72
     4
 94
        3
 73
     0
 74
     1
 95
       44
 96
       40
 40
0.0
 40
0.0
 40
0.0
 40
0.0
 40
1.0
 40
1.0
 40
1.0
 40
2.0
 40
2.0
 40
2.0
 40
3.0
 40
3.0
 40
3.0
 40
4.0
 40
4.0
 40
4.0
 40
5.0
 40
5.0
 40
5.0
 40
6.0
 40
6.0
 40
6.0
 40
7.0
 40
7.0
 40
7.0
 40
8.0
 40
8.0
 40
8.0
 40
9.0
 40
9.0
 40
9.0
 40
10.0
 40
10.0
 40
10.0
 40
11.0
 40
11.0
 40
11.0
 40
12.0
 40
12.0
 40
12.0
 40
13.0
 40
13.0
 40
13.0
 40
13.0
 10
94.6791476542816
 20
-115.7886257306015
 10
94.44625919947872
 20
-115.9474446324715
 10
94.346695939955
 20
-116.0215141854043
 10
94.29501950767624
 20
-116.1651746671393
 10
94.29501950767624
 20
-116.1651746671393
 10
95.12666555781556
 20
-116.1651746671393
 10
95.12666555781556
 20
-116.1651746671393
 10
95.12666555781556
 20
-116.1651746671393
 10
95.12666555781556
 20
-116.3705023580602
 10
95.12666555781556
 20
-116.3705023580602
 10
95.12666555781556
 20
-116.3705023580602
 10
94.02802460756939
 20
-116.3705023580602
 10
94.02802460756939
 20
-116.3705023580602
 10
94.06213105287335
 20
-116.0129014466912
 10
94.13206649122394
 20
-115.934697779176
 10
94.54341089216277
 20
-115.6363525101534
 10
94.8169514736916
 20
-115.4375705006545
 10
94.8872314215907
 20
-115.3698743743693
 10
94.8872314215907
 20
-115.2324150645079
 10
94.8872314215907
 20
-115.1139037798153
 10
94.81040579226962
 20
-114.9828178966015
 10
94.59991045812086
 20
-114.9828178966015
 10
94.3218912524612
 20
-114.9828178966015
 10
94.31293400419955
 20
-115.2132947845647
 10
94.30845538006872
 20
-115.3297390119662
 10
94.30845538006872
 20
-115.3297390119662
 10
94.06867673429534
 20
-115.3297390119662
 10
94.06867673429534
 20
-115.3297390119662
 10
94.07797849210552
 20
-115.2027872433347
 10
94.08900279765831
 20
-115.0906493852898
 10
94.17513018478955
 20
-114.9721381005972
 10
94.29260794083658
 20
-114.8114243962103
 10
94.49138995033549
 20
-114.7774902056806
 10
94.615757897353
 20
-114.7774902056806
 10
94.9120361090845
 20
-114.7774902056806
 10
95.13355574878607
 20
-114.9616305593672
 10
95.13355574878607
 20
-115.234482121799
 10
95.13355574878607
 20
-115.4628919524711
 10
95.00918780176855
 20
-115.5622829572205
 10
94.6791476542816
 20
-115.7886257306015
 97
        0
 97
        0
 75
     2
 76
     1
 98
        0
  0
ENDBLK
  5
71
330
6E
100
AcDbEntity
  8
0
100
AcDbBlockEnd
  0
BLOCK
  5
78
330
76
100
AcDbEntity
  8
0
100
AcDbBlockBegin
  2
block 5
 70
     0
 10
0.0
 20
0.0
 30
0.0
  3
block 5
  1

  0
SPLINE
  5
7A
330
76
100
AcDbEntity
  8
_U+30EC_U+30A4_U+30E4_U+30FC 1
370
     0
100
AcDbSpline
210
0.0
220
0.0
230
1.0
 70
    11
 71
     3
 72
    26
 73
    22
 74
     0
 42
0.0000000001
 43
0.0000000001
 12
1.0
 22
0.0
 32
0.0
 13
1.0
 23
0.0
 33
0.0
 40
0.0
 40
0.0
 40
0.0
 40
0.0
 40
1.0
 40
1.0
 40
1.0
 40
2.0
 40
2.0
 40
2.0
 40
3.0
 40
3.0
 40
3.0
 40
4.0
 40
4.0
 40
4.0
 40
5.0
 40
5.0
 40
5.0
 40
6.0
 40
6.0
 40
6.0
 40
7.0
 40
7.0
 40
7.0
 40
7.0
 10
93.2697590912659
 20
-142.0381862709141
 30
0.0
 10
93.2697590912659
 20
-142.0381862709141
 30
0.0
 10
93.2697590912659
 20
-140.9340331678915
 30
0.0
 10
93.2697590912659
 20
-140.9340331678915
 30
0.0
 10
93.2697590912659
 20
-140.9340331678915
 30
0.0
 10
92.91732582312484
 20
-140.9340331678915
 30
0.0
 10
92.91732582312484
 20
-140.9340331678915
 30
0.0
 10
92.91732582312484
 20
-140.9340331678915
 30
0.0
 10
92.91732582312484
 20
-140.7858940620258
 30
0.0
 10
92.91732582312484
 20
-140.7858940620258
 30
0.0
 10
93.27217065810557
 20
-140.7710801514392
 30
0.0
 10
93.32178003309318
 20
-140.6081271349869
 30
0.0
 10
93.35347491155747
 20
-140.4940944744251
 30
0.0
 10
93.35347491155747
 20
-140.4940944744251
 30
0.0
 10
93.50953773703928
 20
-140.4940944744251
 30
0.0
 10
93.50953773703928
 20
-140.4940944744251
 30
0.0
 10
93.50953773703928
 20
-140.4940944744251
 30
0.0
 10
93.50953773703928
 20
-142.0381862709141
 30
0.0
 10
93.50953773703928
 20
-142.0381862709141
 30
0.0
 10
93.50953773703928
 20
-142.0381862709141
 30
0.0
 10
93.2697590912659
 20
-142.0381862709141
 30
0.0
 10
93.2697590912659
 20
-142.0381862709141
 30
0.0
  0
HATCH
  5
7B
330
76
100
AcDbEntity
  8
_U+30EC_U+30A4_U+30E4_U+30FC 1
 62
   179
420
  2234388
100
AcDbHatch
 10
0.0
 20
0.0
 30
0.0
210
0.0
220
0.0
230
1.0
  2
SOLID
 70
     1
 71
     0
 91
        1
 92
        1
 93
        1
 72
     4
 94
        3
 73
     0
 74
     1
 95
       26
 96
       22
 40
0.0
 40
0.0
 40
0.0
 40
0.0
 40
1.0
 40
1.0
 40
1.0
 40
2.0
 40
2.0
 40
2.0
 40
3.0
 40
3.0
 40
3.0
 40
4.0
 40
4.0
 40
4.0
 40
5.0
 40
5.0
 40
5.0
 40
6.0
 40
6.0
 40
6.0
 40
7.0
 40
7.0
 40
7.0
 40
7.0
 10
93.2697590912659
 20
-142.0381862709141
 10
93.2697590912659
 20
-142.0381862709141
 10
93.2697590912659
 20
-140.9340331678915
 10
93.2697590912659
 20
-140.9340331678915
 10
93.2697590912659
 20
-140.9340331678915
 10
92.91732582312484
 20
-140.9340331678915
 10
92.91732582312484
 20
-140.9340331678915
 10
92.91732582312484
 20
-140.9340331678915
 10
92.91732582312484
 20
-140.7858940620258
 10
92.91732582312484
 20
-140.7858940620258
 10
93.27217065810557
 20
-140.7710801514392
 10
93.32178003309318
 20
-140.6081271349869
 10
93.35347491155747
 20
-140.4940944744251
 10
93.35347491155747
 20
-140.4940944744251
 10
93.50953773703928
 20
-140.4940944744251
 10
93.50953773703928
 20
-140.4940944744251
 10
93.50953773703928
 20
-140.4940944744251
 10
93.50953773703928
 20
-142.0381862709141
 10
93.50953773703928
 20
-142.0381862709141
 10
93.50953773703928
 20
-142.0381862709141
 10
93.2697590912659
 20
-142.0381862709141
 10
93.2697590912659
 20
-142.0381862709141
 97
        0
 97
        0
 75
     2
 76
     1
 98
        0
  0
SPLINE
  5
7C
330
76
100
AcDbEntity
  8
_U+30EC_U+30A4_U+30E4_U+30FC 1
370
     0
100
AcDbSpline
210
0.0
220
0.0
230
1.0
 70
    11
 71
     3
 72
    44
 73
    40
 74
     0
 42
0.0000000001
 43
0.0000000001
 12
1.0
 22
0.0
 32
0.0
 13
1.0
 23
0.0
 33
0.0
 40
0.0
 40
0.0
 40
0.0
 40
0.0
 40
1.0
 40
1.0
 40
1.0
 40
2.0
 40
2.0
 40
2.0
 40
3.0
 40
3.0
 40
3.0
 40
4.0
 40
4.0
 40
4.0
 40
5.0
 40
5.0
 40
5.0
 40
6.0
 40
6.0
 40
6.0
 40
7.0
 40
7.0
 40
7.0
 40
8.0
 40
8.0
 40
8.0
 40
9.0
 40
9.0
 40
9.0
 40
10.0
 40
10.0
 40
10.0
 40
11.0
 40
11.0
 40
11.0
 40
12.0
 40
12.0
 40
12.0
 40
13.0
 40
13.0
 40
13.0
 40
13.0
 10
94.6791476542816
 20
-141.4563096434554
 30
0.0
 10
94.44625919947872
 20
-141.6151285453254
 30
0.0
 10
94.346695939955
 20
-141.6891980982583
 30
0.0
 10
94.29501950767624
 20
-141.8328585799932
 30
0.0
 10
94.29501950767624
 20
-141.8328585799932
 30
0.0
 10
95.12666555781556
 20
-141.8328585799932
 30
0.0
 10
95.12666555781556
 20
-141.8328585799932
 30
0.0
 10
95.12666555781556
 20
-141.8328585799932
 30
0.0
 10
95.12666555781556
 20
-142.0381862709141
 30
0.0
 10
95.12666555781556
 20
-142.0381862709141
 30
0.0
 10
95.12666555781556
 20
-142.0381862709141
 30
0.0
 10
94.02802460756939
 20
-142.0381862709141
 30
0.0
 10
94.02802460756939
 20
-142.0381862709141
 30
0.0
 10
94.06213105287335
 20
-141.6805853595451
 30
0.0
 10
94.13206649122394
 20
-141.60238169203
 30
0.0
 10
94.54341089216277
 20
-141.3040364230073
 30
0.0
 10
94.8169514736916
 20
-141.1052544135084
 30
0.0
 10
94.8872314215907
 20
-141.0377305419975
 30
0.0
 10
94.8872314215907
 20
-140.900271232136
 30
0.0
 10
94.8872314215907
 20
-140.7817599474434
 30
0.0
 10
94.81040579226962
 20
-140.6505018094554
 30
0.0
 10
94.59991045812086
 20
-140.6505018094554
 30
0.0
 10
94.3218912524612
 20
-140.6505018094554
 30
0.0
 10
94.31293400419955
 20
-140.8809786974186
 30
0.0
 10
94.30845538006872
 20
-140.9974229248201
 30
0.0
 10
94.30845538006872
 20
-140.9974229248201
 30
0.0
 10
94.06867673429534
 20
-140.9974229248201
 30
0.0
 10
94.06867673429534
 20
-140.9974229248201
 30
0.0
 10
94.07797849210552
 20
-140.8706434109629
 30
0.0
 10
94.08900279765831
 20
-140.7583332981438
 30
0.0
 10
94.17513018478955
 20
-140.6398220134512
 30
0.0
 10
94.29260794083658
 20
-140.4792805638385
 30
0.0
 10
94.49138995033549
 20
-140.4451741185345
 30
0.0
 10
94.615757897353
 20
-140.4451741185345
 30
0.0
 10
94.9120361090845
 20
-140.4451741185345
 30
0.0
 10
95.13355574878607
 20
-140.6294867269954
 30
0.0
 10
95.13355574878607
 20
-140.9023382894272
 30
0.0
 10
95.13355574878607
 20
-141.1307481200993
 30
0.0
 10
95.00918780176855
 20
-141.2299668700745
 30
0.0
 10
94.6791476542816
 20
-141.4563096434554
 30
0.0
  0
HATCH
  5
7D
330
76
100
AcDbEntity
  8
_U+30EC_U+30A4_U+30E4_U+30FC 1
 62
   179
420
  2234388
100
AcDbHatch
 10
0.0
 20
0.0
 30
0.0
210
0.0
220
0.0
230
1.0
  2
SOLID
 70
     1
 71
     0
 91
        1
 92
        1
 93
        1
 72
     4
 94
        3
 73
     0
 74
     1
 95
       44
 96
       40
 40
0.0
 40
0.0
 40
0.0
 40
0.0
 40
1.0
 40
1.0
 40
1.0
 40
2.0
 40
2.0
 40
2.0
 40
3.0
 40
3.0
 40
3.0
 40
4.0
 40
4.0
 40
4.0
 40
5.0
 40
5.0
 40
5.0
 40
6.0
 40
6.0
 40
6.0
 40
7.0
 40
7.0
 40
7.0
 40
8.0
 40
8.0
 40
8.0
 40
9.0
 40
9.0
 40
9.0
 40
10.0
 40
10.0
 40
10.0
 40
11.0
 40
11.0
 40
11.0
 40
12.0
 40
12.0
 40
12.0
 40
13.0
 40
13.0
 40
13.0
 40
13.0
 10
94.6791476542816
 20
-141.4563096434554
 10
94.44625919947872
 20
-141.6151285453254
 10
94.346695939955
 20
-141.6891980982583
 10
94.29501950767624
 20
-141.8328585799932
 10
94.29501950767624
 20
-141.8328585799932
 10
95.12666555781556
 20
-141.8328585799932
 10
95.12666555781556
 20
-141.8328585799932
 10
95.12666555781556
 20
-141.8328585799932
 10
95.12666555781556
 20
-142.0381862709141
 10
95.12666555781556
 20
-142.0381862709141
 10
95.12666555781556
 20
-142.0381862709141
 10
94.02802460756939
 20
-142.0381862709141
 10
94.02802460756939
 20
-142.0381862709141
 10
94.06213105287335
 20
-141.6805853595451
 10
94.13206649122394
 20
-141.60238169203
 10
94.54341089216277
 20
-141.3040364230073
 10
94.8169514736916
 20
-141.1052544135084
 10
94.8872314215907
 20
-141.0377305419975
 10
94.8872314215907
 20
-140.900271232136
 10
94.8872314215907
 20
-140.7817599474434
 10
94.81040579226962
 20
-140.6505018094554
 10
94.59991045812086
 20
-140.6505018094554
 10
94.3218912524612
 20
-140.6505018094554
 10
94.31293400419955
 20
-140.8809786974186
 10
94.30845538006872
 20
-140.9974229248201
 10
94.30845538006872
 20
-140.9974229248201
 10
94.06867673429534
 20
-140.9974229248201
 10
94.06867673429534
 20
-140.9974229248201
 10
94.07797849210552
 20
-140.8706434109629
 10
94.08900279765831
 20
-140.7583332981438
 10
94.17513018478955
 20
-140.6398220134512
 10
94.29260794083658
 20
-140.4792805638385
 10
94.49138995033549
 20
-140.4451741185345
 10
94.615757897353
 20
-140.4451741185345
 10
94.9120361090845
 20
-140.4451741185345
 10
95.13355574878607
 20
-140.6294867269954
 10
95.13355574878607
 20
-140.9023382894272
 10
95.13355574878607
 20
-141.1307481200993
 10
95.00918780176855
 20
-141.2299668700745
 10
94.6791476542816
 20
-141.4563096434554
 97
        0
 97
        0
 75
     2
 76
     1
 98
        0
  0
ENDBLK
  5
79
330
76
100
AcDbEntity
  8
0
100
AcDbBlockEnd
  0
BLOCK
  5
C8
330
C6
100
AcDbEntity
  8
0
100
AcDbBlockBegin
  2
block 6
 70
     0
 10
0.0
 20
0.0
 30
0.0
  3
block 6
  1

  0
SPLINE
  5
CA
330
C6
100
AcDbEntity
  8
_U+30EC_U+30A4_U+30E4_U+30FC 1
370
     0
100
AcDbSpline
210
0.0
220
0.0
230
1.0
 70
    11
 71
     3
 72
    26
 73
    22
 74
     0
 42
0.0000000001
 43
0.0000000001
 12
1.0
 22
0.0
 32
0.0
 13
1.0
 23
0.0
 33
0.0
 40
0.0
 40
0.0
 40
0.0
 40
0.0
 40
1.0
 40
1.0
 40
1.0
 40
2.0
 40
2.0
 40
2.0
 40
3.0
 40
3.0
 40
3.0
 40
4.0
 40
4.0
 40
4.0
 40
5.0
 40
5.0
 40
5.0
 40
6.0
 40
6.0
 40
6.0
 40
7.0
 40
7.0
 40
7.0
 40
7.0
 10
92.47049693868793
 20
-130.1112657009791
 30
0.0
 10
92.47049693868793
 20
-130.1112657009791
 30
0.0
 10
92.47049693868793
 20
-129.006768088408
 30
0.0
 10
92.47049693868793
 20
-129.006768088408
 30
0.0
 10
92.47049693868793
 20
-129.006768088408
 30
0.0
 10
92.140456791201
 20
-129.006768088408
 30
0.0
 10
92.140456791201
 20
-129.006768088408
 30
0.0
 10
92.140456791201
 20
-129.006768088408
 30
0.0
 10
92.140456791201
 20
-128.8586289825423
 30
0.0
 10
92.140456791201
 20
-128.8586289825423
 30
0.0
 10
92.47256399597909
 20
-128.8441595815042
 30
0.0
 10
92.51941729457849
 20
-128.6810343102777
 30
0.0
 10
92.54904511575162
 20
-128.5668293949416
 30
0.0
 10
92.54904511575162
 20
-128.5668293949416
 30
0.0
 10
92.69511716432622
 20
-128.5668293949416
 30
0.0
 10
92.69511716432622
 20
-128.5668293949416
 30
0.0
 10
92.69511716432622
 20
-128.5668293949416
 30
0.0
 10
92.69511716432622
 20
-130.1112657009791
 30
0.0
 10
92.69511716432622
 20
-130.1112657009791
 30
0.0
 10
92.69511716432622
 20
-130.1112657009791
 30
0.0
 10
92.47049693868793
 20
-130.1112657009791
 30
0.0
 10
92.47049693868793
 20
-130.1112657009791
 30
0.0
  0
HATCH
  5
CB
330
C6
100
AcDbEntity
  8
_U+30EC_U+30A4_U+30E4_U+30FC 1
 62
     7
420
 16777215
100
AcDbHatch
 10
0.0
 20
0.0
 30
0.0
210
0.0
220
0.0
230
1.0
  2
SOLID
 70
     1
 71
     0
 91
        1
 92
        1
 93
        1
 72
     4
 94
        3
 73
     0
 74
     1
 95
       26
 96
       22
 40
0.0
 40
0.0
 40
0.0
 40
0.0
 40
1.0
 40
1.0
 40
1.0
 40
2.0
 40
2.0
 40
2.0
 40
3.0
 40
3.0
 40
3.0
 40
4.0
 40
4.0
 40
4.0
 40
5.0
 40
5.0
 40
5.0
 40
6.0
 40
6.0
 40
6.0
 40
7.0
 40
7.0
 40
7.0
 40
7.0
 10
92.47049693868793
 20
-130.1112657009791
 10
92.47049693868793
 20
-130.1112657009791
 10
92.47049693868793
 20
-129.006768088408
 10
92.47049693868793
 20
-129.006768088408
 10
92.47049693868793
 20
-129.006768088408
 10
92.140456791201
 20
-129.006768088408
 10
92.140456791201
 20
-129.006768088408
 10
92.140456791201
 20
-129.006768088408
 10
92.140456791201
 20
-128.8586289825423
 10
92.140456791201
 20
-128.8586289825423
 10
92.47256399597909
 20
-128.8441595815042
 10
92.51941729457849
 20
-128.6810343102777
 10
92.54904511575162
 20
-128.5668293949416
 10
92.54904511575162
 20
-128.5668293949416
 10
92.69511716432622
 20
-128.5668293949416
 10
92.69511716432622
 20
-128.5668293949416
 10
92.69511716432622
 20
-128.5668293949416
 10
92.69511716432622
 20
-130.1112657009791
 10
92.69511716432622
 20
-130.1112657009791
 10
92.69511716432622
 20
-130.1112657009791
 10
92.47049693868793
 20
-130.1112657009791
 10
92.47049693868793
 20
-130.1112657009791
 97
        0
 97
        0
 75
     2
 76
     1
 98
        0
  0
ENDBLK
  5
C9
330
C6
100
AcDbEntity
  8
0
100
AcDbBlockEnd
  0
ENDSEC
  0
SECTION
  2
ENTITIES
  0
SPLINE
  5
41
330
1F
100
AcDbEntity
  8
_U+30EC_U+30A4_U+30E4_U+30FC 1
370
     0
100
AcDbSpline
210
0.0
220
0.0
230
1.0
 70
    11
 71
     3
 72
    65
 73
    61
 74
     0
 42
0.0000000001
 43
0.0000000001
 12
1.0
 22
0.0
 32
0.0
 13
1.0
 23
0.0
 33
0.0
 40
0.0
 40
0.0
 40
0.0
 40
0.0
 40
1.0
 40
1.0
 40
1.0
 40
2.0
 40
2.0
 40
2.0
 40
3.0
 40
3.0
 40
3.0
 40
4.0
 40
4.0
 40
4.0
 40
5.0
 40
5.0
 40
5.0
 40
6.0
 40
6.0
 40
6.0
 40
7.0
 40
7.0
 40
7.0
 40
8.0
 40
8.0
 40
8.0
 40
9.0
 40
9.0
 40
9.0
 40
10.0
 40
10.0
 40
10.0
 40
11.0
 40
11.0
 40
11.0
 40
12.0
 40
12.0
 40
12.0
 40
13.0
 40
13.0
 40
13.0
 40
14.0
 40
14.0
 40
14.0
 40
15.0
 40
15.0
 40
15.0
 40
16.0
 40
16.0
 40
16.0
 40
17.0
 40
17.0
 40
17.0
 40
18.0
 40
18.0
 40
18.0
 40
19.0
 40
19.0
 40
19.0
 40
20.0
 40
20.0
 40
20.0
 40
20.0
 10
100.1358285564333
 20
-122.0380394139348
 30
0.0
 10
100.2088535545703
 20
-122.0380394139348
 30
0.0
 10
100.2681202197249
 20
-121.9787727472831
 30
0.0
 10
100.2681202197249
 20
-121.9057477473012
 30
0.0
 10
100.2681202197249
 20
-121.9057477473012
 30
0.0
 10
100.2681202197249
 20
-121.406214414093
 30
0.0
 10
100.2681202197249
 20
-121.406214414093
 30
0.0
 10
100.2681202197249
 20
-121.0575641364024
 30
0.0
 10
99.98423994918953
 20
-120.7736838586954
 30
0.0
 10
99.63558968030657
 20
-120.7736838586954
 30
0.0
 10
99.63558968030657
 20
-120.7736838586954
 30
0.0
 10
88.63559079427324
 20
-120.7736838586954
 30
0.0
 10
88.63559079427324
 20
-120.7736838586954
 30
0.0
 10
88.28694052539028
 20
-120.7736838586954
 30
0.0
 10
88.00306025485489
 20
-121.0575641364024
 30
0.0
 10
88.00306025485489
 20
-121.406214414093
 30
0.0
 10
88.00306025485489
 20
-121.406214414093
 30
0.0
 10
88.00306025485489
 20
-121.9057477473012
 30
0.0
 10
88.00306025485489
 20
-121.9057477473012
 30
0.0
 10
88.00306025485489
 20
-121.9787727472831
 30
0.0
 10
88.06232692000954
 20
-122.0380394139348
 30
0.0
 10
88.13535191814651
 20
-122.0380394139348
 30
0.0
 10
88.13535191814651
 20
-122.0380394139348
 30
0.0
 10
93.50265400343746
 20
-122.0380394139348
 30
0.0
 10
93.50265400343746
 20
-122.0380394139348
 30
0.0
 10
93.50265400343746
 20
-122.0380394139348
 30
0.0
 10
93.50265400343746
 20
-134.7735288551956
 30
0.0
 10
93.50265400343746
 20
-134.7735288551956
 30
0.0
 10
93.50265400343746
 20
-134.7735288551956
 30
0.0
 10
88.13535191814651
 20
-134.7735288551956
 30
0.0
 10
88.13535191814651
 20
-134.7735288551956
 30
0.0
 10
88.06232692000954
 20
-134.7735288551956
 30
0.0
 10
88.00306025485489
 20
-134.8327602440698
 30
0.0
 10
88.00306025485489
 20
-134.9058205218292
 30
0.0
 10
88.00306025485489
 20
-134.9058205218292
 30
0.0
 10
88.00306025485489
 20
-135.4056713550376
 30
0.0
 10
88.00306025485489
 20
-135.4056713550376
 30
0.0
 10
88.00306025485489
 20
-135.7543216327279
 30
0.0
 10
88.28694052539028
 20
-136.0378491326572
 30
0.0
 10
88.63559079427324
 20
-136.0378491326572
 30
0.0
 10
88.63559079427324
 20
-136.0378491326572
 30
0.0
 10
99.63558968030657
 20
-136.0378491326572
 30
0.0
 10
99.63558968030657
 20
-136.0378491326572
 30
0.0
 10
99.98423994918953
 20
-136.0378491326572
 30
0.0
 10
100.2681202197249
 20
-135.7543216327279
 30
0.0
 10
100.2681202197249
 20
-135.4056713550376
 30
0.0
 10
100.2681202197249
 20
-135.4056713550376
 30
0.0
 10
100.2681202197249
 20
-134.9058205218292
 30
0.0
 10
100.2681202197249
 20
-134.9058205218292
 30
0.0
 10
100.2681202197249
 20
-134.8327602440698
 30
0.0
 10
100.2088535545703
 20
-134.7735288551956
 30
0.0
 10
100.1358285564333
 20
-134.7735288551956
 30
0.0
 10
100.1358285564333
 20
-134.7735288551956
 30
0.0
 10
94.76767980449729
 20
-134.7735288551956
 30
0.0
 10
94.76767980449729
 20
-134.7735288551956
 30
0.0
 10
94.76767980449729
 20
-134.7735288551956
 30
0.0
 10
94.76767980449729
 20
-122.0380394139348
 30
0.0
 10
94.76767980449729
 20
-122.0380394139348
 30
0.0
 10
94.76767980449729
 20
-122.0380394139348
 30
0.0
 10
100.1358285564333
 20
-122.0380394139348
 30
0.0
 10
100.1358285564333
 20
-122.0380394139348
 30
0.0
  0
HATCH
  5
42
330
1F
100
AcDbEntity
  8
_U+30EC_U+30A4_U+30E4_U+30FC 1
 62
     9
420
 13224394
100
AcDbHatch
 10
0.0
 20
0.0
 30
0.0
210
0.0
220
0.0
230
1.0
  2
SOLID
 70
     1
 71
     0
 91
        1
 92
        1
 93
        1
 72
     4
 94
        3
 73
     0
 74
     1
 95
       65
 96
       61
 40
0.0
 40
0.0
 40
0.0
 40
0.0
 40
1.0
 40
1.0
 40
1.0
 40
2.0
 40
2.0
 40
2.0
 40
3.0
 40
3.0
 40
3.0
 40
4.0
 40
4.0
 40
4.0
 40
5.0
 40
5.0
 40
5.0
 40
6.0
 40
6.0
 40
6.0
 40
7.0
 40
7.0
 40
7.0
 40
8.0
 40
8.0
 40
8.0
 40
9.0
 40
9.0
 40
9.0
 40
10.0
 40
10.0
 40
10.0
 40
11.0
 40
11.0
 40
11.0
 40
12.0
 40
12.0
 40
12.0
 40
13.0
 40
13.0
 40
13.0
 40
14.0
 40
14.0
 40
14.0
 40
15.0
 40
15.0
 40
15.0
 40
16.0
 40
16.0
 40
16.0
 40
17.0
 40
17.0
 40
17.0
 40
18.0
 40
18.0
 40
18.0
 40
19.0
 40
19.0
 40
19.0
 40
20.0
 40
20.0
 40
20.0
 40
20.0
 10
100.1358285564333
 20
-122.0380394139348
 10
100.2088535545703
 20
-122.0380394139348
 10
100.2681202197249
 20
-121.9787727472831
 10
100.2681202197249
 20
-121.9057477473012
 10
100.2681202197249
 20
-121.9057477473012
 10
100.2681202197249
 20
-121.406214414093
 10
100.2681202197249
 20
-121.406214414093
 10
100.2681202197249
 20
-121.0575641364024
 10
99.98423994918953
 20
-120.7736838586954
 10
99.63558968030657
 20
-120.7736838586954
 10
99.63558968030657
 20
-120.7736838586954
 10
88.63559079427324
 20
-120.7736838586954
 10
88.63559079427324
 20
-120.7736838586954
 10
88.28694052539028
 20
-120.7736838586954
 10
88.00306025485489
 20
-121.0575641364024
 10
88.00306025485489
 20
-121.406214414093
 10
88.00306025485489
 20
-121.406214414093
 10
88.00306025485489
 20
-121.9057477473012
 10
88.00306025485489
 20
-121.9057477473012
 10
88.00306025485489
 20
-121.9787727472831
 10
88.06232692000954
 20
-122.0380394139348
 10
88.13535191814651
 20
-122.0380394139348
 10
88.13535191814651
 20
-122.0380394139348
 10
93.50265400343746
 20
-122.0380394139348
 10
93.50265400343746
 20
-122.0380394139348
 10
93.50265400343746
 20
-122.0380394139348
 10
93.50265400343746
 20
-134.7735288551956
 10
93.50265400343746
 20
-134.7735288551956
 10
93.50265400343746
 20
-134.7735288551956
 10
88.13535191814651
 20
-134.7735288551956
 10
88.13535191814651
 20
-134.7735288551956
 10
88.06232692000954
 20
-134.7735288551956
 10
88.00306025485489
 20
-134.8327602440698
 10
88.00306025485489
 20
-134.9058205218292
 10
88.00306025485489
 20
-134.9058205218292
 10
88.00306025485489
 20
-135.4056713550376
 10
88.00306025485489
 20
-135.4056713550376
 10
88.00306025485489
 20
-135.7543216327279
 10
88.28694052539028
 20
-136.0378491326572
 10
88.63559079427324
 20
-136.0378491326572
 10
88.63559079427324
 20
-136.0378491326572
 10
99.63558968030657
 20
-136.0378491326572
 10
99.63558968030657
 20
-136.0378491326572
 10
99.98423994918953
 20
-136.0378491326572
 10
100.2681202197249
 20
-135.7543216327279
 10
100.2681202197249
 20
-135.4056713550376
 10
100.2681202197249
 20
-135.4056713550376
 10
100.2681202197249
 20
-134.9058205218292
 10
100.2681202197249
 20
-134.9058205218292
 10
100.2681202197249
 20
-134.8327602440698
 10
100.2088535545703
 20
-134.7735288551956
 10
100.1358285564333
 20
-134.7735288551956
 10
100.1358285564333
 20
-134.7735288551956
 10
94.76767980449729
 20
-134.7735288551956
 10
94.76767980449729
 20
-134.7735288551956
 10
94.76767980449729
 20
-134.7735288551956
 10
94.76767980449729
 20
-122.0380394139348
 10
94.76767980449729
 20
-122.0380394139348
 10
94.76767980449729
 20
-122.0380394139348
 10
100.1358285564333
 20
-122.0380394139348
 10
100.1358285564333
 20
-122.0380394139348
 97
        0
 97
        0
 75
     2
 76
     1
 98
        0
  0
SPLINE
  5
43
330
1F
100
AcDbEntity
  8
_U+30EC_U+30A4_U+30E4_U+30FC 1
 62
   179
420
  2234388
370
     9
100
AcDbSpline
210
0.0
220
0.0
230
1.0
 70
    11
 71
     3
 72
    17
 73
    13
 74
     0
 42
0.0000000001
 43
0.0000000001
 12
1.0
 22
0.0
 32
0.0
 13
1.0
 23
0.0
 33
0.0
 40
0.0
 40
0.0
 40
0.0
 40
0.0
 40
1.0
 40
1.0
 40
1.0
 40
2.0
 40
2.0
 40
2.0
 40
3.0
 40
3.0
 40
3.0
 40
4.0
 40
4.0
 40
4.0
 40
4.0
 10
100.3356444193603
 20
-117.6713560816932
 30
0.0
 10
100.3356444193603
 20
-117.6162521928183
 30
0.0
 10
100.2908743858111
 20
-117.5714494150516
 30
0.0
 10
100.2357352205511
 20
-117.5714494150516
 30
0.0
 10
100.180631333068
 20
-117.5714494150516
 30
0.0
 10
100.1358285564333
 20
-117.6162521928183
 30
0.0
 10
100.1358285564333
 20
-117.6713560816932
 30
0.0
 10
100.1358285564333
 20
-117.7264952483463
 30
0.0
 10
100.180631333068
 20
-117.7712627483349
 30
0.0
 10
100.2357352205511
 20
-117.7712627483349
 30
0.0
 10
100.2908743858111
 20
-117.7712627483349
 30
0.0
 10
100.3356444193603
 20
-117.7264952483463
 30
0.0
 10
100.3356444193603
 20
-117.6713560816932
 30
0.0
  0
SPLINE
  5
44
330
1F
100
AcDbEntity
  8
_U+30EC_U+30A4_U+30E4_U+30FC 1
 62
   179
420
  2234388
370
     9
100
AcDbSpline
210
0.0
220
0.0
230
1.0
 70
    11
 71
     3
 72
    17
 73
    13
 74
     0
 42
0.0000000001
 43
0.0000000001
 12
1.0
 22
0.0
 32
0.0
 13
1.0
 23
0.0
 33
0.0
 40
0.0
 40
0.0
 40
0.0
 40
0.0
 40
1.0
 40
1.0
 40
1.0
 40
2.0
 40
2.0
 40
2.0
 40
3.0
 40
3.0
 40
3.0
 40
4.0
 40
4.0
 40
4.0
 40
4.0
 10
88.33516524638219
 20
-117.6713560816932
 30
0.0
 10
88.33516524638219
 20
-117.6162521928183
 30
0.0
 10
88.29039997792738
 20
-117.5714494150516
 30
0.0
 10
88.23525858226435
 20
-117.5714494150516
 30
0.0
 10
88.18015469478128
 20
-117.5714494150516
 30
0.0
 10
88.13535191814651
 20
-117.6162521928183
 30
0.0
 10
88.13535191814651
 20
-117.6713560816932
 30
0.0
 10
88.13535191814651
 20
-117.7264952483463
 30
0.0
 10
88.18015469478128
 20
-117.7712627483349
 30
0.0
 10
88.23525858226435
 20
-117.7712627483349
 30
0.0
 10
88.29039997792738
 20
-117.7712627483349
 30
0.0
 10
88.33516524638219
 20
-117.7264952483463
 30
0.0
 10
88.33516524638219
 20
-117.6713560816932
 30
0.0
  0
SPLINE
  5
45
330
1F
100
AcDbEntity
  8
_U+30EC_U+30A4_U+30E4_U+30FC 1
 62
   179
420
  2234388
370
     9
100
AcDbSpline
210
0.0
220
0.0
230
1.0
 70
    11
 71
     3
 72
    17
 73
    13
 74
     0
 42
0.0000000001
 43
0.0000000001
 12
1.0
 22
0.0
 32
0.0
 13
1.0
 23
0.0
 33
0.0
 40
0.0
 40
0.0
 40
0.0
 40
0.0
 40
1.0
 40
1.0
 40
1.0
 40
2.0
 40
2.0
 40
2.0
 40
3.0
 40
3.0
 40
3.0
 40
4.0
 40
4.0
 40
4.0
 40
4.0
 10
85.38477893276392
 20
-134.9588430218157
 30
0.0
 10
85.38477893276392
 20
-135.0143349662465
 30
0.0
 10
85.34001143390603
 20
-135.0587849662355
 30
0.0
 10
85.28487226864608
 20
-135.0587849662355
 30
0.0
 10
85.22976838116301
 20
-135.0587849662355
 30
0.0
 10
85.18496560452824
 20
-135.0143349662465
 30
0.0
 10
85.18496560452824
 20
-134.9588430218157
 30
0.0
 10
85.18496560452824
 20
-134.9037391329408
 30
0.0
 10
85.22976838116301
 20
-134.8589363551741
 30
0.0
 10
85.28487226864608
 20
-134.8589363551741
 30
0.0
 10
85.34001143390603
 20
-134.8589363551741
 30
0.0
 10
85.38477893276392
 20
-134.9037391329408
 30
0.0
 10
85.38477893276392
 20
-134.9588430218157
 30
0.0
  0
SPLINE
  5
46
330
1F
100
AcDbEntity
  8
_U+30EC_U+30A4_U+30E4_U+30FC 1
 62
   179
420
  2234388
370
     9
100
AcDbSpline
210
0.0
220
0.0
230
1.0
 70
    11
 71
     3
 72
    17
 73
    13
 74
     0
 42
0.0000000001
 43
0.0000000001
 12
1.0
 22
0.0
 32
0.0
 13
1.0
 23
0.0
 33
0.0
 40
0.0
 40
0.0
 40
0.0
 40
0.0
 40
1.0
 40
1.0
 40
1.0
 40
2.0
 40
2.0
 40
2.0
 40
3.0
 40
3.0
 40
3.0
 40
4.0
 40
4.0
 40
4.0
 40
4.0
 10
85.38477893276392
 20
-135.958968021566
 30
0.0
 10
85.38477893276392
 20
-136.0144246882187
 30
0.0
 10
85.34001143390603
 20
-136.0592274659854
 30
0.0
 10
85.28487226864608
 20
-136.0592274659854
 30
0.0
 10
85.22976838116301
 20
-136.0592274659854
 30
0.0
 10
85.18496560452824
 20
-136.0144246882187
 30
0.0
 10
85.18496560452824
 20
-135.958968021566
 30
0.0
 10
85.18496560452824
 20
-135.9038641326904
 30
0.0
 10
85.22976838116301
 20
-135.8590613549244
 30
0.0
 10
85.28487226864608
 20
-135.8590613549244
 30
0.0
 10
85.34001143390603
 20
-135.8590613549244
 30
0.0
 10
85.38477893276392
 20
-135.9038641326904
 30
0.0
 10
85.38477893276392
 20
-135.958968021566
 30
0.0
  0
POLYLINE
  5
47
330
1F
100
AcDbEntity
  8
_U+30EC_U+30A4_U+30E4_U+30FC 1
 62
   179
420
  2234388
370
     9
100
AcDb2dPolyline
 66
     1
 10
0.0
 20
0.0
 30
0.0
  0
VERTEX
  5
48
330
47
100
AcDbEntity
  8
_U+30EC_U+30A4_U+30E4_U+30FC 1
 62
   179
420
  2234388
370
     9
100
AcDbVertex
100
AcDb2dVertex
 10
85.28487226864608
 20
-135.958968021566
 30
0.0
  0
VERTEX
  5
49
330
47
100
AcDbEntity
  8
_U+30EC_U+30A4_U+30E4_U+30FC 1
 62
   179
420
  2234388
370
     9
100
AcDbVertex
100
AcDb2dVertex
 10
85.28487226864608
 20
-121.8588988584242
 30
0.0
  0
SEQEND
  5
4A
330
47
100
AcDbEntity
  8
_U+30EC_U+30A4_U+30E4_U+30FC 1
 62
   179
420
  2234388
370
     9
  0
POLYLINE
  5
4B
330
1F
100
AcDbEntity
  8
_U+30EC_U+30A4_U+30E4_U+30FC 1
 62
   179
420
  2234388
370
     9
100
AcDb2dPolyline
 66
     1
 10
0.0
 20
0.0
 30
0.0
  0
VERTEX
  5
4C
330
4B
100
AcDbEntity
  8
_U+30EC_U+30A4_U+30E4_U+30FC 1
 62
   179
420
  2234388
370
     9
100
AcDbVertex
100
AcDb2dVertex
 10
84.15488979747434
 20
-135.958968021566
 30
0.0
  0
VERTEX
  5
4D
330
4B
100
AcDbEntity
  8
_U+30EC_U+30A4_U+30E4_U+30FC 1
 62
   179
420
  2234388
370
     9
100
AcDbVertex
100
AcDb2dVertex
 10
86.61470553390186
 20
-135.958968021566
 30
0.0
  0
SEQEND
  5
4E
330
4B
100
AcDbEntity
  8
_U+30EC_U+30A4_U+30E4_U+30FC 1
 62
   179
420
  2234388
370
     9
  0
POLYLINE
  5
4F
330
1F
100
AcDbEntity
  8
_U+30EC_U+30A4_U+30E4_U+30FC 1
 62
   179
420
  2234388
370
     9
100
AcDb2dPolyline
 66
     1
 10
0.0
 20
0.0
 30
0.0
  0
VERTEX
  5
50
330
4F
100
AcDbEntity
  8
_U+30EC_U+30A4_U+30E4_U+30FC 1
 62
   179
420
  2234388
370
     9
100
AcDbVertex
100
AcDb2dVertex
 10
84.15488979747434
 20
-134.9588430218157
 30
0.0
  0
VERTEX
  5
51
330
4F
100
AcDbEntity
  8
_U+30EC_U+30A4_U+30E4_U+30FC 1
 62
   179
420
  2234388
370
     9
100
AcDbVertex
100
AcDb2dVertex
 10
86.61470553390186
 20
-134.9588430218157
 30
0.0
  0
SEQEND
  5
52
330
4F
100
AcDbEntity
  8
_U+30EC_U+30A4_U+30E4_U+30FC 1
 62
   179
420
  2234388
370
     9
  0
SPLINE
  5
53
330
1F
100
AcDbEntity
  8
_U+30EC_U+30A4_U+30E4_U+30FC 1
 62
   179
420
  2234388
370
     9
100
AcDbSpline
210
0.0
220
0.0
230
1.0
 70
    11
 71
     3
 72
    17
 73
    13
 74
     0
 42
0.0000000001
 43
0.0000000001
 12
1.0
 22
0.0
 32
0.0
 13
1.0
 23
0.0
 33
0.0
 40
0.0
 40
0.0
 40
0.0
 40
0.0
 40
1.0
 40
1.0
 40
1.0
 40
2.0
 40
2.0
 40
2.0
 40
3.0
 40
3.0
 40
3.0
 40
4.0
 40
4.0
 40
4.0
 40
4.0
 10
85.38477893276392
 20
-121.9588055250659
 30
0.0
 10
85.38477893276392
 20
-122.0146149694963
 30
0.0
 10
85.34001143390603
 20
-122.0587121917075
 30
0.0
 10
85.28487226864608
 20
-122.0587121917075
 30
0.0
 10
85.22976838116301
 20
-122.0587121917075
 30
0.0
 10
85.18496560452824
 20
-122.0146149694963
 30
0.0
 10
85.18496560452824
 20
-121.9588055250659
 30
0.0
 10
85.18496560452824
 20
-121.9036663584131
 30
0.0
 10
85.22976838116301
 20
-121.8588988584242
 30
0.0
 10
85.28487226864608
 20
-121.8588988584242
 30
0.0
 10
85.34001143390603
 20
-121.8588988584242
 30
0.0
 10
85.38477893276392
 20
-121.9036663584131
 30
0.0
 10
85.38477893276392
 20
-121.9588055250659
 30
0.0
  0
POLYLINE
  5
54
330
1F
100
AcDbEntity
  8
_U+30EC_U+30A4_U+30E4_U+30FC 1
 62
   179
420
  2234388
370
     9
100
AcDb2dPolyline
 66
     1
 10
0.0
 20
0.0
 30
0.0
  0
VERTEX
  5
55
330
54
100
AcDbEntity
  8
_U+30EC_U+30A4_U+30E4_U+30FC 1
 62
   179
420
  2234388
370
     9
100
AcDbVertex
100
AcDb2dVertex
 10
84.15488979747434
 20
-121.9588055250659
 30
0.0
  0
VERTEX
  5
56
330
54
100
AcDbEntity
  8
_U+30EC_U+30A4_U+30E4_U+30FC 1
 62
   179
420
  2234388
370
     9
100
AcDbVertex
100
AcDb2dVertex
 10
86.61470553390186
 20
-121.9588055250659
 30
0.0
  0
SEQEND
  5
57
330
54
100
AcDbEntity
  8
_U+30EC_U+30A4_U+30E4_U+30FC 1
 62
   179
420
  2234388
370
     9
  0
INSERT
  5
59
330
1F
100
AcDbEntity
  8
_U+30EC_U+30A4_U+30E4_U+30FC 1
100
AcDbBlockReference
  2
block 2
 10
0.0
 20
0.0
 30
0.0
  0
INSERT
  5
5F
330
1F
100
AcDbEntity
  8
_U+30EC_U+30A4_U+30E4_U+30FC 1
100
AcDbBlockReference
  2
block 3
 10
0.0
 20
0.0
 30
0.0
  0
POLYLINE
  5
66
330
1F
100
AcDbEntity
  8
_U+30EC_U+30A4_U+30E4_U+30FC 1
 62
   179
420
  2234388
370
     9
100
AcDb2dPolyline
 66
     1
 10
0.0
 20
0.0
 30
0.0
  0
VERTEX
  5
67
330
66
100
AcDbEntity
  8
_U+30EC_U+30A4_U+30E4_U+30FC 1
 62
   179
420
  2234388
370
     9
100
AcDbVertex
100
AcDb2dVertex
 10
88.23525858226435
 20
-116.2113499709471
 30
0.0
  0
VERTEX
  5
68
330
66
100
AcDbEntity
  8
_U+30EC_U+30A4_U+30E4_U+30FC 1
 62
   179
420
  2234388
370
     9
100
AcDbVertex
100
AcDb2dVertex
 10
88.23525858226435
 20
-118.671833859221
 30
0.0
  0
SEQEND
  5
69
330
66
100
AcDbEntity
  8
_U+30EC_U+30A4_U+30E4_U+30FC 1
 62
   179
420
  2234388
370
     9
  0
POLYLINE
  5
6A
330
1F
100
AcDbEntity
  8
_U+30EC_U+30A4_U+30E4_U+30FC 1
 62
   179
420
  2234388
370
     9
100
AcDb2dPolyline
 66
     1
 10
0.0
 20
0.0
 30
0.0
  0
VERTEX
  5
6B
330
6A
100
AcDbEntity
  8
_U+30EC_U+30A4_U+30E4_U+30FC 1
 62
   179
420
  2234388
370
     9
100
AcDbVertex
100
AcDb2dVertex
 10
100.2357352205511
 20
-116.2113499709471
 30
0.0
  0
VERTEX
  5
6C
330
6A
100
AcDbEntity
  8
_U+30EC_U+30A4_U+30E4_U+30FC 1
 62
   179
420
  2234388
370
     9
100
AcDbVertex
100
AcDb2dVertex
 10
100.2357352205511
 20
-118.671833859221
 30
0.0
  0
SEQEND
  5
6D
330
6A
100
AcDbEntity
  8
_U+30EC_U+30A4_U+30E4_U+30FC 1
 62
   179
420
  2234388
370
     9
  0
INSERT
  5
6F
330
1F
100
AcDbEntity
  8
_U+30EC_U+30A4_U+30E4_U+30FC 1
100
AcDbBlockReference
  2
block 4
 10
0.0
 20
0.0
 30
0.0
  0
INSERT
  5
77
330
1F
100
AcDbEntity
  8
_U+30EC_U+30A4_U+30E4_U+30FC 1
100
AcDbBlockReference
  2
block 5
 10
0.0
 20
0.0
 30
0.0
  0
POLYLINE
  5
7E
330
1F
100
AcDbEntity
  8
_U+30EC_U+30A4_U+30E4_U+30FC 1
 62
   179
420
  2234388
370
     9
100
AcDb2dPolyline
 66
     1
 10
0.0
 20
0.0
 30
0.0
  0
VERTEX
  5
7F
330
7E
100
AcDbEntity
  8
_U+30EC_U+30A4_U+30E4_U+30FC 1
 62
   179
420
  2234388
370
     9
100
AcDbVertex
100
AcDb2dVertex
 10
100.2350649427904
 20
-117.6713560816932
 30
0.0
  0
VERTEX
  5
80
330
7E
100
AcDbEntity
  8
_U+30EC_U+30A4_U+30E4_U+30FC 1
 62
   179
420
  2234388
370
     9
100
AcDbVertex
100
AcDb2dVertex
 10
88.23525858226435
 20
-117.6713560816932
 30
0.0
  0
SEQEND
  5
81
330
7E
100
AcDbEntity
  8
_U+30EC_U+30A4_U+30E4_U+30FC 1
 62
   179
420
  2234388
370
     9
  0
SPLINE
  5
82
330
1F
100
AcDbEntity
  8
_U+30EC_U+30A4_U+30E4_U+30FC 1
 62
   179
420
  2234388
370
     9
100
AcDbSpline
210
0.0
220
0.0
230
1.0
 70
    11
 71
     3
 72
    17
 73
    13
 74
     0
 42
0.0000000001
 43
0.0000000001
 12
1.0
 22
0.0
 32
0.0
 13
1.0
 23
0.0
 33
0.0
 40
0.0
 40
0.0
 40
0.0
 40
0.0
 40
1.0
 40
1.0
 40
1.0
 40
2.0
 40
2.0
 40
2.0
 40
3.0
 40
3.0
 40
3.0
 40
4.0
 40
4.0
 40
4.0
 40
4.0
 10
100.3356444193603
 20
-139.019597465245
 30
0.0
 10
100.3356444193603
 20
-139.0747013541205
 30
0.0
 10
100.2908743858111
 20
-139.1195041318866
 30
0.0
 10
100.2357352205511
 20
-139.1195041318866
 30
0.0
 10
100.180631333068
 20
-139.1195041318866
 30
0.0
 10
100.1358285564333
 20
-139.0747013541205
 30
0.0
 10
100.1358285564333
 20
-139.019597465245
 30
0.0
 10
100.1358285564333
 20
-138.9644582985925
 30
0.0
 10
100.180631333068
 20
-138.9196907986033
 30
0.0
 10
100.2357352205511
 20
-138.9196907986033
 30
0.0
 10
100.2908743858111
 20
-138.9196907986033
 30
0.0
 10
100.3356444193603
 20
-138.9644582985925
 30
0.0
 10
100.3356444193603
 20
-139.019597465245
 30
0.0
  0
SPLINE
  5
83
330
1F
100
AcDbEntity
  8
_U+30EC_U+30A4_U+30E4_U+30FC 1
 62
   179
420
  2234388
370
     9
100
AcDbSpline
210
0.0
220
0.0
230
1.0
 70
    11
 71
     3
 72
    17
 73
    13
 74
     0
 42
0.0000000001
 43
0.0000000001
 12
1.0
 22
0.0
 32
0.0
 13
1.0
 23
0.0
 33
0.0
 40
0.0
 40
0.0
 40
0.0
 40
0.0
 40
1.0
 40
1.0
 40
1.0
 40
2.0
 40
2.0
 40
2.0
 40
3.0
 40
3.0
 40
3.0
 40
4.0
 40
4.0
 40
4.0
 40
4.0
 10
88.33516524638219
 20
-139.019597465245
 30
0.0
 10
88.33516524638219
 20
-139.0747013541205
 30
0.0
 10
88.29039997792738
 20
-139.1195041318866
 30
0.0
 10
88.23525858226435
 20
-139.1195041318866
 30
0.0
 10
88.18015469478128
 20
-139.1195041318866
 30
0.0
 10
88.13535191814651
 20
-139.0747013541205
 30
0.0
 10
88.13535191814651
 20
-139.019597465245
 30
0.0
 10
88.13535191814651
 20
-138.9644582985925
 30
0.0
 10
88.18015469478128
 20
-138.9196907986033
 30
0.0
 10
88.23525858226435
 20
-138.9196907986033
 30
0.0
 10
88.29039997792738
 20
-138.9196907986033
 30
0.0
 10
88.33516524638219
 20
-138.9644582985925
 30
0.0
 10
88.33516524638219
 20
-139.019597465245
 30
0.0
  0
POLYLINE
  5
84
330
1F
100
AcDbEntity
  8
_U+30EC_U+30A4_U+30E4_U+30FC 1
 62
   179
420
  2234388
370
     9
100
AcDb2dPolyline
 66
     1
 10
0.0
 20
0.0
 30
0.0
  0
VERTEX
  5
85
330
84
100
AcDbEntity
  8
_U+30EC_U+30A4_U+30E4_U+30FC 1
 62
   179
420
  2234388
370
     9
100
AcDbVertex
100
AcDb2dVertex
 10
88.23525858226435
 20
-140.4796388537687
 30
0.0
  0
VERTEX
  5
86
330
84
100
AcDbEntity
  8
_U+30EC_U+30A4_U+30E4_U+30FC 1
 62
   179
420
  2234388
370
     9
100
AcDbVertex
100
AcDb2dVertex
 10
88.23525858226435
 20
-138.0191549654951
 30
0.0
  0
SEQEND
  5
87
330
84
100
AcDbEntity
  8
_U+30EC_U+30A4_U+30E4_U+30FC 1
 62
   179
420
  2234388
370
     9
  0
POLYLINE
  5
88
330
1F
100
AcDbEntity
  8
_U+30EC_U+30A4_U+30E4_U+30FC 1
 62
   179
420
  2234388
370
     9
100
AcDb2dPolyline
 66
     1
 10
0.0
 20
0.0
 30
0.0
  0
VERTEX
  5
89
330
88
100
AcDbEntity
  8
_U+30EC_U+30A4_U+30E4_U+30FC 1
 62
   179
420
  2234388
370
     9
100
AcDbVertex
100
AcDb2dVertex
 10
100.2357352205511
 20
-140.4796388537687
 30
0.0
  0
VERTEX
  5
8A
330
88
100
AcDbEntity
  8
_U+30EC_U+30A4_U+30E4_U+30FC 1
 62
   179
420
  2234388
370
     9
100
AcDbVertex
100
AcDb2dVertex
 10
100.2357352205511
 20
-138.0191549654951
 30
0.0
  0
SEQEND
  5
8B
330
88
100
AcDbEntity
  8
_U+30EC_U+30A4_U+30E4_U+30FC 1
 62
   179
420
  2234388
370
     9
  0
POLYLINE
  5
8C
330
1F
100
AcDbEntity
  8
_U+30EC_U+30A4_U+30E4_U+30FC 1
 62
   179
420
  2234388
370
     9
100
AcDb2dPolyline
 66
     1
 10
0.0
 20
0.0
 30
0.0
  0
VERTEX
  5
8D
330
8C
100
AcDbEntity
  8
_U+30EC_U+30A4_U+30E4_U+30FC 1
 62
   179
420
  2234388
370
     9
100
AcDbVertex
100
AcDb2dVertex
 10
100.2350649427904
 20
-139.019597465245
 30
0.0
  0
VERTEX
  5
8E
330
8C
100
AcDbEntity
  8
_U+30EC_U+30A4_U+30E4_U+30FC 1
 62
   179
420
  2234388
370
     9
100
AcDbVertex
100
AcDb2dVertex
 10
88.23525858226435
 20
-139.019597465245
 30
0.0
  0
SEQEND
  5
8F
330
8C
100
AcDbEntity
  8
_U+30EC_U+30A4_U+30E4_U+30FC 1
 62
   179
420
  2234388
370
     9
  0
POLYLINE
  5
90
330
1F
100
AcDbEntity
  8
_U+30EC_U+30A4_U+30E4_U+30FC 1
 62
   179
420
  2234388
370
    25
100
AcDb2dPolyline
 66
     1
 10
0.0
 20
0.0
 30
0.0
  0
VERTEX
  5
91
330
90
100
AcDbEntity
  8
_U+30EC_U+30A4_U+30E4_U+30FC 1
 62
   179
420
  2234388
370
    25
100
AcDbVertex
100
AcDb2dVertex
 10
88.63559079427324
 20
-120.905975525329
 30
0.0
  0
VERTEX
  5
92
330
90
100
AcDbEntity
  8
_U+30EC_U+30A4_U+30E4_U+30FC 1
 62
   179
420
  2234388
370
    25
100
AcDbVertex
100
AcDb2dVertex
 10
99.63558968030657
 20
-120.905975525329
 30
0.0
  0
SEQEND
  5
93
330
90
100
AcDbEntity
  8
_U+30EC_U+30A4_U+30E4_U+30FC 1
 62
   179
420
  2234388
370
    25
  0
SPLINE
  5
94
330
1F
100
AcDbEntity
  8
_U+30EC_U+30A4_U+30E4_U+30FC 1
 62
   179
420
  2234388
370
    25
100
AcDbSpline
210
0.0
220
0.0
230
1.0
 70
     8
 71
     3
 72
     8
 73
     4
 74
     0
 42
0.0000000001
 43
0.0000000001
 12
1.0
 22
0.0
 32
0.0
 13
1.0
 23
0.0
 33
0.0
 40
0.0
 40
0.0
 40
0.0
 40
0.0
 40
1.0
 40
1.0
 40
1.0
 40
1.0
 10
100.1358285564333
 20
-121.406214414093
 30
0.0
 10
100.1358285564333
 20
-121.1299188586063
 30
0.0
 10
99.91188522881323
 20
-120.905975525329
 30
0.0
 10
99.63558968030657
 20
-120.905975525329
 30
0.0
  0
POLYLINE
  5
95
330
1F
100
AcDbEntity
  8
_U+30EC_U+30A4_U+30E4_U+30FC 1
 62
   179
420
  2234388
370
    25
100
AcDb2dPolyline
 66
     1
 10
0.0
 20
0.0
 30
0.0
  0
VERTEX
  5
96
330
95
100
AcDbEntity
  8
_U+30EC_U+30A4_U+30E4_U+30FC 1
 62
   179
420
  2234388
370
    25
100
AcDbVertex
100
AcDb2dVertex
 10
100.1358285564333
 20
-121.406214414093
 30
0.0
  0
VERTEX
  5
97
330
95
100
AcDbEntity
  8
_U+30EC_U+30A4_U+30E4_U+30FC 1
 62
   179
420
  2234388
370
    25
100
AcDbVertex
100
AcDb2dVertex
 10
100.1358285564333
 20
-121.9057477473012
 30
0.0
  0
SEQEND
  5
98
330
95
100
AcDbEntity
  8
_U+30EC_U+30A4_U+30E4_U+30FC 1
 62
   179
420
  2234388
370
    25
  0
POLYLINE
  5
99
330
1F
100
AcDbEntity
  8
_U+30EC_U+30A4_U+30E4_U+30FC 1
 62
   179
420
  2234388
370
    25
100
AcDb2dPolyline
 66
     1
 10
0.0
 20
0.0
 30
0.0
  0
VERTEX
  5
9A
330
99
100
AcDbEntity
  8
_U+30EC_U+30A4_U+30E4_U+30FC 1
 62
   179
420
  2234388
370
    25
100
AcDbVertex
100
AcDb2dVertex
 10
94.63538814120567
 20
-121.9057477473012
 30
0.0
  0
VERTEX
  5
9B
330
99
100
AcDbEntity
  8
_U+30EC_U+30A4_U+30E4_U+30FC 1
 62
   179
420
  2234388
370
    25
100
AcDbVertex
100
AcDb2dVertex
 10
100.1358285564333
 20
-121.9057477473012
 30
0.0
  0
SEQEND
  5
9C
330
99
100
AcDbEntity
  8
_U+30EC_U+30A4_U+30E4_U+30FC 1
 62
   179
420
  2234388
370
    25
  0
SPLINE
  5
9D
330
1F
100
AcDbEntity
  8
_U+30EC_U+30A4_U+30E4_U+30FC 1
 62
   179
420
  2234388
370
    25
100
AcDbSpline
210
0.0
220
0.0
230
1.0
 70
     8
 71
     3
 72
     8
 73
     4
 74
     0
 42
0.0000000001
 43
0.0000000001
 12
1.0
 22
0.0
 32
0.0
 13
1.0
 23
0.0
 33
0.0
 40
0.0
 40
0.0
 40
0.0
 40
0.0
 40
1.0
 40
1.0
 40
1.0
 40
1.0
 10
88.13535191814651
 20
-121.406214414093
 30
0.0
 10
88.13535191814651
 20
-121.1299188586063
 30
0.0
 10
88.35929524576657
 20
-120.905975525329
 30
0.0
 10
88.63559079427324
 20
-120.905975525329
 30
0.0
  0
POLYLINE
  5
9E
330
1F
100
AcDbEntity
  8
_U+30EC_U+30A4_U+30E4_U+30FC 1
 62
   179
420
  2234388
370
    25
100
AcDb2dPolyline
 66
     1
 10
0.0
 20
0.0
 30
0.0
  0
VERTEX
  5
9F
330
9E
100
AcDbEntity
  8
_U+30EC_U+30A4_U+30E4_U+30FC 1
 62
   179
420
  2234388
370
    25
100
AcDbVertex
100
AcDb2dVertex
 10
88.13535191814651
 20
-121.406214414093
 30
0.0
  0
VERTEX
  5
A0
330
9E
100
AcDbEntity
  8
_U+30EC_U+30A4_U+30E4_U+30FC 1
 62
   179
420
  2234388
370
    25
100
AcDbVertex
100
AcDb2dVertex
 10
88.13535191814651
 20
-121.9057477473012
 30
0.0
  0
SEQEND
  5
A1
330
9E
100
AcDbEntity
  8
_U+30EC_U+30A4_U+30E4_U+30FC 1
 62
   179
420
  2234388
370
    25
  0
POLYLINE
  5
A2
330
1F
100
AcDbEntity
  8
_U+30EC_U+30A4_U+30E4_U+30FC 1
 62
   179
420
  2234388
370
    25
100
AcDb2dPolyline
 66
     1
 10
0.0
 20
0.0
 30
0.0
  0
VERTEX
  5
A3
330
A2
100
AcDbEntity
  8
_U+30EC_U+30A4_U+30E4_U+30FC 1
 62
   179
420
  2234388
370
    25
100
AcDbVertex
100
AcDb2dVertex
 10
93.63494566672908
 20
-121.9057477473012
 30
0.0
  0
VERTEX
  5
A4
330
A2
100
AcDbEntity
  8
_U+30EC_U+30A4_U+30E4_U+30FC 1
 62
   179
420
  2234388
370
    25
100
AcDbVertex
100
AcDb2dVertex
 10
88.13535191814651
 20
-121.9057477473012
 30
0.0
  0
SEQEND
  5
A5
330
A2
100
AcDbEntity
  8
_U+30EC_U+30A4_U+30E4_U+30FC 1
 62
   179
420
  2234388
370
    25
  0
POLYLINE
  5
A6
330
1F
100
AcDbEntity
  8
_U+30EC_U+30A4_U+30E4_U+30FC 1
 62
   179
420
  2234388
370
    25
100
AcDb2dPolyline
 66
     1
 10
0.0
 20
0.0
 30
0.0
  0
VERTEX
  5
A7
330
A6
100
AcDbEntity
  8
_U+30EC_U+30A4_U+30E4_U+30FC 1
 62
   179
420
  2234388
370
    25
100
AcDbVertex
100
AcDb2dVertex
 10
88.63559079427324
 20
-135.9055574660236
 30
0.0
  0
VERTEX
  5
A8
330
A6
100
AcDbEntity
  8
_U+30EC_U+30A4_U+30E4_U+30FC 1
 62
   179
420
  2234388
370
    25
100
AcDbVertex
100
AcDb2dVertex
 10
99.63558968030657
 20
-135.9055574660236
 30
0.0
  0
SEQEND
  5
A9
330
A6
100
AcDbEntity
  8
_U+30EC_U+30A4_U+30E4_U+30FC 1
 62
   179
420
  2234388
370
    25
  0
SPLINE
  5
AA
330
1F
100
AcDbEntity
  8
_U+30EC_U+30A4_U+30E4_U+30FC 1
 62
   179
420
  2234388
370
    25
100
AcDbSpline
210
0.0
220
0.0
230
1.0
 70
     8
 71
     3
 72
     8
 73
     4
 74
     0
 42
0.0000000001
 43
0.0000000001
 12
1.0
 22
0.0
 32
0.0
 13
1.0
 23
0.0
 33
0.0
 40
0.0
 40
0.0
 40
0.0
 40
0.0
 40
1.0
 40
1.0
 40
1.0
 40
1.0
 10
100.1358285564333
 20
-135.4056713550376
 30
0.0
 10
100.1358285564333
 20
-135.6820021883016
 30
0.0
 10
99.91188522881323
 20
-135.9055574660236
 30
0.0
 10
99.63558968030657
 20
-135.9055574660236
 30
0.0
  0
POLYLINE
  5
AB
330
1F
100
AcDbEntity
  8
_U+30EC_U+30A4_U+30E4_U+30FC 1
 62
   179
420
  2234388
370
    25
100
AcDb2dPolyline
 66
     1
 10
0.0
 20
0.0
 30
0.0
  0
VERTEX
  5
AC
330
AB
100
AcDbEntity
  8
_U+30EC_U+30A4_U+30E4_U+30FC 1
 62
   179
420
  2234388
370
    25
100
AcDbVertex
100
AcDb2dVertex
 10
100.1358285564333
 20
-135.4056713550376
 30
0.0
  0
VERTEX
  5
AD
330
AB
100
AcDbEntity
  8
_U+30EC_U+30A4_U+30E4_U+30FC 1
 62
   179
420
  2234388
370
    25
100
AcDbVertex
100
AcDb2dVertex
 10
100.1358285564333
 20
-134.9058205218292
 30
0.0
  0
SEQEND
  5
AE
330
AB
100
AcDbEntity
  8
_U+30EC_U+30A4_U+30E4_U+30FC 1
 62
   179
420
  2234388
370
    25
  0
POLYLINE
  5
AF
330
1F
100
AcDbEntity
  8
_U+30EC_U+30A4_U+30E4_U+30FC 1
 62
   179
420
  2234388
370
    25
100
AcDb2dPolyline
 66
     1
 10
0.0
 20
0.0
 30
0.0
  0
VERTEX
  5
B0
330
AF
100
AcDbEntity
  8
_U+30EC_U+30A4_U+30E4_U+30FC 1
 62
   179
420
  2234388
370
    25
100
AcDbVertex
100
AcDb2dVertex
 10
94.63538814120567
 20
-134.9058205218292
 30
0.0
  0
VERTEX
  5
B1
330
AF
100
AcDbEntity
  8
_U+30EC_U+30A4_U+30E4_U+30FC 1
 62
   179
420
  2234388
370
    25
100
AcDbVertex
100
AcDb2dVertex
 10
100.1358285564333
 20
-134.9058205218292
 30
0.0
  0
SEQEND
  5
B2
330
AF
100
AcDbEntity
  8
_U+30EC_U+30A4_U+30E4_U+30FC 1
 62
   179
420
  2234388
370
    25
  0
SPLINE
  5
B3
330
1F
100
AcDbEntity
  8
_U+30EC_U+30A4_U+30E4_U+30FC 1
 62
   179
420
  2234388
370
    25
100
AcDbSpline
210
0.0
220
0.0
230
1.0
 70
     8
 71
     3
 72
     8
 73
     4
 74
     0
 42
0.0000000001
 43
0.0000000001
 12
1.0
 22
0.0
 32
0.0
 13
1.0
 23
0.0
 33
0.0
 40
0.0
 40
0.0
 40
0.0
 40
0.0
 40
1.0
 40
1.0
 40
1.0
 40
1.0
 10
88.13535191814651
 20
-135.4056713550376
 30
0.0
 10
88.13535191814651
 20
-135.6820021883016
 30
0.0
 10
88.35929524576657
 20
-135.9055574660236
 30
0.0
 10
88.63559079427324
 20
-135.9055574660236
 30
0.0
  0
POLYLINE
  5
B4
330
1F
100
AcDbEntity
  8
_U+30EC_U+30A4_U+30E4_U+30FC 1
 62
   179
420
  2234388
370
    25
100
AcDb2dPolyline
 66
     1
 10
0.0
 20
0.0
 30
0.0
  0
VERTEX
  5
B5
330
B4
100
AcDbEntity
  8
_U+30EC_U+30A4_U+30E4_U+30FC 1
 62
   179
420
  2234388
370
    25
100
AcDbVertex
100
AcDb2dVertex
 10
88.13535191814651
 20
-135.4056713550376
 30
0.0
  0
VERTEX
  5
B6
330
B4
100
AcDbEntity
  8
_U+30EC_U+30A4_U+30E4_U+30FC 1
 62
   179
420
  2234388
370
    25
100
AcDbVertex
100
AcDb2dVertex
 10
88.13535191814651
 20
-134.9058205218292
 30
0.0
  0
SEQEND
  5
B7
330
B4
100
AcDbEntity
  8
_U+30EC_U+30A4_U+30E4_U+30FC 1
 62
   179
420
  2234388
370
    25
  0
POLYLINE
  5
B8
330
1F
100
AcDbEntity
  8
_U+30EC_U+30A4_U+30E4_U+30FC 1
 62
   179
420
  2234388
370
    25
100
AcDb2dPolyline
 66
     1
 10
0.0
 20
0.0
 30
0.0
  0
VERTEX
  5
B9
330
B8
100
AcDbEntity
  8
_U+30EC_U+30A4_U+30E4_U+30FC 1
 62
   179
420
  2234388
370
    25
100
AcDbVertex
100
AcDb2dVertex
 10
93.63494566672908
 20
-134.9058205218292
 30
0.0
  0
VERTEX
  5
BA
330
B8
100
AcDbEntity
  8
_U+30EC_U+30A4_U+30E4_U+30FC 1
 62
   179
420
  2234388
370
    25
100
AcDbVertex
100
AcDb2dVertex
 10
88.13535191814651
 20
-134.9058205218292
 30
0.0
  0
SEQEND
  5
BB
330
B8
100
AcDbEntity
  8
_U+30EC_U+30A4_U+30E4_U+30FC 1
 62
   179
420
  2234388
370
    25
  0
POLYLINE
  5
BC
330
1F
100
AcDbEntity
  8
_U+30EC_U+30A4_U+30E4_U+30FC 1
 62
   179
420
  2234388
370
    25
100
AcDb2dPolyline
 66
     1
 10
0.0
 20
0.0
 30
0.0
  0
VERTEX
  5
BD
330
BC
100
AcDbEntity
  8
_U+30EC_U+30A4_U+30E4_U+30FC 1
 62
   179
420
  2234388
370
    25
100
AcDbVertex
100
AcDb2dVertex
 10
93.63494566672908
 20
-121.9057477473012
 30
0.0
  0
VERTEX
  5
BE
330
BC
100
AcDbEntity
  8
_U+30EC_U+30A4_U+30E4_U+30FC 1
 62
   179
420
  2234388
370
    25
100
AcDbVertex
100
AcDb2dVertex
 10
93.63494566672908
 20
-134.9058205218292
 30
0.0
  0
SEQEND
  5
BF
330
BC
100
AcDbEntity
  8
_U+30EC_U+30A4_U+30E4_U+30FC 1
 62
   179
420
  2234388
370
    25
  0
POLYLINE
  5
C0
330
1F
100
AcDbEntity
  8
_U+30EC_U+30A4_U+30E4_U+30FC 1
 62
   179
420
  2234388
370
    25
100
AcDb2dPolyline
 66
     1
 10
0.0
 20
0.0
 30
0.0
  0
VERTEX
  5
C1
330
C0
100
AcDbEntity
  8
_U+30EC_U+30A4_U+30E4_U+30FC 1
 62
   179
420
  2234388
370
    25
100
AcDbVertex
100
AcDb2dVertex
 10
94.63538814120567
 20
-121.9057477473012
 30
0.0
  0
VERTEX
  5
C2
330
C0
100
AcDbEntity
  8
_U+30EC_U+30A4_U+30E4_U+30FC 1
 62
   179
420
  2234388
370
    25
100
AcDbVertex
100
AcDb2dVertex
 10
94.63538814120567
 20
-134.9058205218292
 30
0.0
  0
SEQEND
  5
C3
330
C0
100
AcDbEntity
  8
_U+30EC_U+30A4_U+30E4_U+30FC 1
 62
   179
420
  2234388
370
    25
  0
SPLINE
  5
C4
330
1F
100
AcDbEntity
  8
_U+30EC_U+30A4_U+30E4_U+30FC 1
 62
     7
420
 16777215
370
     9
100
AcDbSpline
210
0.0
220
0.0
230
1.0
 70
    11
 71
     3
 72
    17
 73
    13
 74
     0
 42
0.0000000001
 43
0.0000000001
 12
1.0
 22
0.0
 32
0.0
 13
1.0
 23
0.0
 33
0.0
 40
0.0
 40
0.0
 40
0.0
 40
0.0
 40
1.0
 40
1.0
 40
1.0
 40
2.0
 40
2.0
 40
2.0
 40
3.0
 40
3.0
 40
3.0
 40
4.0
 40
4.0
 40
4.0
 40
4.0
 10
93.7469173305391
 20
-130.3472613563024
 30
0.0
 10
93.7469173305391
 20
-130.2921221896493
 30
0.0
 10
93.70211455390434
 20
-130.2473546896601
 30
0.0
 10
93.6466578886525
 20
-130.2473546896601
 30
0.0
 10
93.59151872339254
 20
-130.2473546896601
 30
0.0
 10
93.54675122453466
 20
-130.2921221896493
 30
0.0
 10
93.54675122453466
 20
-130.3472613563024
 30
0.0
 10
93.54675122453466
 20
-130.4023652451773
 30
0.0
 10
93.59151872339254
 20
-130.447168022944
 30
0.0
 10
93.6466578886525
 20
-130.447168022944
 30
0.0
 10
93.70211455390434
 20
-130.447168022944
 30
0.0
 10
93.7469173305391
 20
-130.4023652451773
 30
0.0
 10
93.7469173305391
 20
-130.3472613563024
 30
0.0
  0
SPLINE
  5
C5
330
1F
100
AcDbEntity
  8
_U+30EC_U+30A4_U+30E4_U+30FC 1
 62
     7
420
 16777215
370
     9
100
AcDbSpline
210
0.0
220
0.0
230
1.0
 70
    11
 71
     3
 72
    17
 73
    13
 74
     0
 42
0.0000000001
 43
0.0000000001
 12
1.0
 22
0.0
 32
0.0
 13
1.0
 23
0.0
 33
0.0
 40
0.0
 40
0.0
 40
0.0
 40
0.0
 40
1.0
 40
1.0
 40
1.0
 40
2.0
 40
2.0
 40
2.0
 40
3.0
 40
3.0
 40
3.0
 40
4.0
 40
4.0
 40
4.0
 40
4.0
 10
94.74665424947814
 20
-130.3472613563024
 30
0.0
 10
94.74665424947814
 20
-130.2921221896493
 30
0.0
 10
94.70188675062025
 20
-130.2473546896601
 30
0.0
 10
94.64643008536841
 20
-130.2473546896601
 30
0.0
 10
94.59129092010845
 20
-130.2473546896601
 30
0.0
 10
94.54652342125057
 20
-130.2921221896493
 30
0.0
 10
94.54652342125057
 20
-130.3472613563024
 30
0.0
 10
94.54652342125057
 20
-130.4023652451773
 30
0.0
 10
94.59129092010845
 20
-130.447168022944
 30
0.0
 10
94.64643008536841
 20
-130.447168022944
 30
0.0
 10
94.70188675062025
 20
-130.447168022944
 30
0.0
 10
94.74665424947814
 20
-130.4023652451773
 30
0.0
 10
94.74665424947814
 20
-130.3472613563024
 30
0.0
  0
INSERT
  5
C7
330
1F
100
AcDbEntity
  8
_U+30EC_U+30A4_U+30E4_U+30FC 1
100
AcDbBlockReference
  2
block 6
 10
0.0
 20
0.0
 30
0.0
  0
POLYLINE
  5
CC
330
1F
100
AcDbEntity
  8
_U+30EC_U+30A4_U+30E4_U+30FC 1
 62
     7
420
 16777215
370
     9
100
AcDb2dPolyline
 66
     1
 10
0.0
 20
0.0
 30
0.0
  0
VERTEX
  5
CD
330
CC
100
AcDbEntity
  8
_U+30EC_U+30A4_U+30E4_U+30FC 1
 62
     7
420
 16777215
370
     9
100
AcDbVertex
100
AcDb2dVertex
 10
95.5080192300541
 20
-130.3472613563024
 30
0.0
  0
VERTEX
  5
CE
330
CC
100
AcDbEntity
  8
_U+30EC_U+30A4_U+30E4_U+30FC 1
 62
     7
420
 16777215
370
     9
100
AcDbVertex
100
AcDb2dVertex
 10
91.66916210576929
 20
-130.3472613563024
 30
0.0
  0
SEQEND
  5
CF
330
CC
100
AcDbEntity
  8
_U+30EC_U+30A4_U+30E4_U+30FC 1
 62
     7
420
 16777215
370
     9
  0
ENDSEC
  0
SECTION
  2
OBJECTS
  0
DICTIONARY
  5
C
330
0
100
AcDbDictionary
281
     1
  3
ACAD_GROUP
350
D
  3
ACAD_LAYOUT
350
1A
  3
ACAD_MATERIAL
350
3B
  3
ACAD_MLEADERSTYLE
350
D1
  3
ACAD_MLINESTYLE
350
17
  3
ACAD_PLOTSETTINGS
350
19
  3
ACAD_PLOTSTYLENAME
350
E
  3
ACAD_TABLESTYLE
350
D0
  3
ACAD_VISUALSTYLE
350
2A
  0
SUN
  5
3F
330
29
100
AcDbSun
 90
        1
290
     0
 63
     7
421
 16777215
 40
1.0
291
     1
 91
  2455826
 92
 54000000
292
     0
 70
     2
 71
   256
280
     1
  0
DICTIONARY
  5
D
102
{ACAD_REACTORS
330
C
102
}
330
C
100
AcDbDictionary
281
     1
  0
DICTIONARY
  5
1A
102
{ACAD_REACTORS
330
C
102
}
330
C
100
AcDbDictionary
281
     1
  3
Layout1
350
1E
  3
Layout2
350
26
  3
Model
350
22
  0
DICTIONARY
  5
3B
102
{ACAD_REACTORS
330
C
102
}
330
C
100
AcDbDictionary
281
     1
  3
ByBlock
350
3D
  3
ByLayer
350
3C
  3
Global
350
3E
  0
DICTIONARY
  5
D1
102
{ACAD_REACTORS
330
C
102
}
330
C
100
AcDbDictionary
281
     1
  0
DICTIONARY
  5
17
102
{ACAD_REACTORS
330
C
102
}
330
C
100
AcDbDictionary
281
     1
  3
Standard
350
18
  0
DICTIONARY
  5
19
102
{ACAD_REACTORS
330
C
102
}
330
C
100
AcDbDictionary
281
     1
  0
ACDBDICTIONARYWDFLT
  5
E
102
{ACAD_REACTORS
330
C
102
}
330
C
100
AcDbDictionary
281
     1
  3
Normal
350
F
100
AcDbDictionaryWithDefault
340
F
  0
DICTIONARY
  5
D0
102
{ACAD_REACTORS
330
C
102
}
330
C
100
AcDbDictionary
281
     1
  0
DICTIONARY
  5
2A
102
{ACAD_REACTORS
330
C
102
}
330
C
100
AcDbDictionary
281
     1
  3
2dWireframe
350
2F
  3
3D Hidden
350
31
  3
3dWireframe
350
30
  3
Basic
350
32
  3
Brighten
350
36
  3
ColorChange
350
3A
  3
Conceptual
350
34
  3
Dim
350
35
  3
Facepattern
350
39
  3
Flat
350
2B
  3
FlatWithEdges
350
2C
  3
Gouraud
350
2D
  3
GouraudWithEdges
350
2E
  3
Linepattern
350
38
  3
Realistic
350
33
  3
Thicken
350
37
  0
LAYOUT
  5
1E
102
{ACAD_REACTORS
330
1A
102
}
330
1A
100
AcDbPlotSettings
  1

  2
none_device
  4

  6

 40
0.0
 41
0.0
 42
0.0
 43
0.0
 44
0.0
 45
0.0
 46
0.0
 47
0.0
 48
0.0
 49
0.0
140
0.0
141
0.0
142
1.0
143
1.0
 70
   688
 72
     0
 73
     0
 74
     5
  7

 75
    16
 76
     0
 77
     2
 78
   300
147
1.0
148
0.0
149
0.0
100
AcDbLayout
  1
Layout1
 70
     1
 71
     1
 10
0.0
 20
0.0
 11
12.0
 21
9.0
 12
0.0
 22
0.0
 32
0.0
 14
1.000000000000000E+20
 24
1.000000000000000E+20
 34
1.000000000000000E+20
 15
-1.000000000000000E+20
 25
-1.000000000000000E+20
 35
-1.000000000000000E+20
146
0.0
 13
0.0
 23
0.0
 33
0.0
 16
1.0
 26
0.0
 36
0.0
 17
0.0
 27
1.0
 37
0.0
 76
     0
330
1B
  0
LAYOUT
  5
26
102
{ACAD_REACTORS
330
1A
102
}
330
1A
100
AcDbPlotSettings
  1

  2
none_device
  4

  6

 40
0.0
 41
0.0
 42
0.0
 43
0.0
 44
0.0
 45
0.0
 46
0.0
 47
0.0
 48
0.0
 49
0.0
140
0.0
141
0.0
142
1.0
143
1.0
 70
   688
 72
     0
 73
     0
 74
     5
  7

 75
    16
 76
     0
 77
     2
 78
   300
147
1.0
148
0.0
149
0.0
100
AcDbLayout
  1
Layout2
 70
     1
 71
     2
 10
0.0
 20
0.0
 11
0.0
 21
0.0
 12
0.0
 22
0.0
 32
0.0
 14
0.0
 24
0.0
 34
0.0
 15
0.0
 25
0.0
 35
0.0
146
0.0
 13
0.0
 23
0.0
 33
0.0
 16
1.0
 26
0.0
 36
0.0
 17
0.0
 27
1.0
 37
0.0
 76
     0
330
23
  0
LAYOUT
  5
22
102
{ACAD_REACTORS
330
1A
102
}
330
1A
100
AcDbPlotSettings
  1

  2
none_device
  4

  6

 40
0.0
 41
0.0
 42
0.0
 43
0.0
 44
0.0
 45
0.0
 46
0.0
 47
0.0
 48
0.0
 49
0.0
140
0.0
141
0.0
142
1.0
143
1.0
 70
  1712
 72
     0
 73
     0
 74
     0
  7

 75
     0
 76
     0
 77
     2
 78
   300
147
1.0
148
0.0
149
0.0
100
AcDbLayout
  1
Model
 70
     1
 71
     0
 10
0.0
 20
0.0
 11
12.0
 21
9.0
 12
0.0
 22
0.0
 32
0.0
 14
1.000000000000000E+20
 24
1.000000000000000E+20
 34
1.000000000000000E+20
 15
-1.000000000000000E+20
 25
-1.000000000000000E+20
 35
-1.000000000000000E+20
146
0.0
 13
0.0
 23
0.0
 33
0.0
 16
1.0
 26
0.0
 36
0.0
 17
0.0
 27
1.0
 37
0.0
 76
     0
330
1F
331
29
  0
MATERIAL
  5
3D
102
{ACAD_REACTORS
330
3B
102
}
330
3B
100
AcDbMaterial
  1
ByBlock
 72
     1
 94
      127
  0
MATERIAL
  5
3C
102
{ACAD_REACTORS
330
3B
102
}
330
3B
100
AcDbMaterial
  1
ByLayer
 72
     1
 94
      127
  0
MATERIAL
  5
3E
102
{ACAD_REACTORS
330
3B
102
}
330
3B
100
AcDbMaterial
  1
Global
 72
     1
 94
      127
  0
MLINESTYLE
  5
18
102
{ACAD_REACTORS
330
17
102
}
330
17
100
AcDbMlineStyle
  2
Standard
 70
     0
  3

 62
   256
 51
90.0
 52
90.0
 71
     2
 49
0.5
 62
   256
  6
BYLAYER
 49
-0.5
 62
   256
  6
BYLAYER
  0
ACDBPLACEHOLDER
  5
F
102
{ACAD_REACTORS
330
E
102
}
330
E
  0
VISUALSTYLE
  5
2F
102
{ACAD_REACTORS
330
2A
102
}
330
2A
100
AcDbVisualStyle
  2
2dWireframe
 70
     4
177
     2
291
     0
 71
     0
176
     1
 72
     2
176
     1
 73
     0
176
     1
 90
        0
176
     1
 40
-0.6
176
     1
 41
-30.0
176
     1
 62
     5
 63
     7
421
 16777215
176
     1
 74
     1
176
     1
 91
        4
176
     1
 64
     7
176
     1
 65
   257
176
     1
 75
     1
176
     1
175
     1
176
     1
 42
1.0
176
     1
 92
        0
176
     1
 66
   257
176
     1
 43
1.0
176
     1
 76
     1
176
     1
 77
     6
176
     1
 78
     2
176
     1
 67
     7
176
     1
 79
     5
176
     1
170
     0
176
     1
171
     0
176
     1
290
     0
176
     1
 93
        1
176
     1
 44
0.0
176
     1
173
     0
176
     1
  0
VISUALSTYLE
  5
31
102
{ACAD_REACTORS
330
2A
102
}
330
2A
100
AcDbVisualStyle
  2
3D Hidden
 70
     6
177
     2
291
     0
 71
     1
176
     1
 72
     2
176
     1
 73
     2
176
     1
 90
        0
176
     1
 40
-0.6
176
     1
 41
-30.0
176
     1
 62
     5
 63
     7
421
 16777215
176
     1
 74
     2
176
     1
 91
        2
176
     1
 64
     7
176
     1
 65
   257
176
     1
 75
     2
176
     1
175
     1
176
     1
 42
40.0
176
     1
 92
        0
176
     1
 66
   257
176
     1
 43
1.0
176
     1
 76
     1
176
     1
 77
     6
176
     1
 78
     2
176
     1
 67
     7
176
     1
 79
     3
176
     1
170
     0
176
     1
171
     0
176
     1
290
     0
176
     1
 93
        1
176
     1
 44
0.0
176
     1
173
     0
176
     1
  0
VISUALSTYLE
  5
30
102
{ACAD_REACTORS
330
2A
102
}
330
2A
100
AcDbVisualStyle
  2
3dWireframe
 70
     5
177
     2
291
     0
 71
     0
176
     1
 72
     2
176
     1
 73
     0
176
     1
 90
        0
176
     1
 40
-0.6
176
     1
 41
-30.0
176
     1
 62
     5
 63
     7
421
 16777215
176
     1
 74
     1
176
     1
 91
        4
176
     1
 64
     7
176
     1
 65
   257
176
     1
 75
     1
176
     1
175
     1
176
     1
 42
1.0
176
     1
 92
        0
176
     1
 66
   257
176
     1
 43
1.0
176
     1
 76
     1
176
     1
 77
     6
176
     1
 78
     2
176
     1
 67
     7
176
     1
 79
     5
176
     1
170
     0
176
     1
171
     0
176
     1
290
     0
176
     1
 93
        1
176
     1
 44
0.0
176
     1
173
     0
176
     1
  0
VISUALSTYLE
  5
32
102
{ACAD_REACTORS
330
2A
102
}
330
2A
100
AcDbVisualStyle
  2
Basic
 70
     7
177
     2
291
     1
 71
     1
176
     1
 72
     0
176
     1
 73
     1
176
     1
 90
        0
176
     1
 40
-0.6
176
     1
 41
-30.0
176
     1
 62
     5
 63
     7
421
 16777215
176
     1
 74
     0
176
     1
 91
        4
176
     1
 64
     7
176
     1
 65
   257
176
     1
 75
     1
176
     1
175
     1
176
     1
 42
1.0
176
     1
 92
        8
176
     1
 66
     7
176
     1
 43
1.0
176
     1
 76
     1
176
     1
 77
     6
176
     1
 78
     2
176
     1
 67
     7
176
     1
 79
     5
176
     1
170
     0
176
     1
171
     0
176
     1
290
     0
176
     1
 93
        1
176
     1
 44
0.0
176
     1
173
     0
176
     1
  0
VISUALSTYLE
  5
36
102
{ACAD_REACTORS
330
2A
102
}
330
2A
100
AcDbVisualStyle
  2
Brighten
 70
    12
177
     2
291
     1
 71
     2
176
     1
 72
     2
176
     1
 73
     0
176
     1
 90
        0
176
     1
 40
-0.6
176
     1
 41
-30.0
176
     1
 62
     5
 63
     7
421
 16777215
176
     1
 74
     1
176
     1
 91
        4
176
     1
 64
     7
176
     1
 65
   257
176
     1
 75
     1
176
     1
175
     1
176
     1
 42
1.0
176
     1
 92
        8
176
     1
 66
     7
176
     1
 43
1.0
176
     1
 76
     1
176
     1
 77
     6
176
     1
 78
     2
176
     1
 67
     7
176
     1
 79
     5
176
     1
170
     0
176
     1
171
     0
176
     1
290
     0
176
     1
 93
        1
176
     1
 44
50.0
176
     1
173
     0
176
     1
  0
VISUALSTYLE
  5
3A
102
{ACAD_REACTORS
330
2A
102
}
330
2A
100
AcDbVisualStyle
  2
ColorChange
 70
    16
177
     2
291
     1
 71
     2
176
     1
 72
     2
176
     1
 73
     3
176
     1
 90
        0
176
     1
 40
-0.6
176
     1
 41
-30.0
176
     1
 62
     5
 63
     8
421
  8421504
176
     1
 74
     1
176
     1
 91
        4
176
     1
 64
     7
176
     1
 65
   257
176
     1
 75
     1
176
     1
175
     1
176
     1
 42
1.0
176
     1
 92
        8
176
     1
 66
     8
424
  8421504
176
     1
 43
1.0
176
     1
 76
     1
176
     1
 77
     6
176
     1
 78
     2
176
     1
 67
     7
176
     1
 79
     5
176
     1
170
     0
176
     1
171
     0
176
     1
290
     0
176
     1
 93
        1
176
     1
 44
0.0
176
     1
173
     0
176
     1
  0
VISUALSTYLE
  5
34
102
{ACAD_REACTORS
330
2A
102
}
330
2A
100
AcDbVisualStyle
  2
Conceptual
 70
     9
177
     2
291
     0
 71
     3
176
     1
 72
     2
176
     1
 73
     0
176
     1
 90
        0
176
     1
 40
-0.6
176
     1
 41
-30.0
176
     1
 62
     5
 63
     7
421
 16777215
176
     1
 74
     2
176
     1
 91
        2
176
     1
 64
     7
176
     1
 65
   257
176
     1
 75
     1
176
     1
175
     1
176
     1
 42
40.0
176
     1
 92
        8
176
     1
 66
     7
176
     1
 43
1.0
176
     1
 76
     1
176
     1
 77
     6
176
     1
 78
     2
176
     1
 67
     7
176
     1
 79
     3
176
     1
170
     0
176
     1
171
     0
176
     1
290
     0
176
     1
 93
        1
176
     1
 44
0.0
176
     1
173
     0
176
     1
  0
VISUALSTYLE
  5
35
102
{ACAD_REACTORS
330
2A
102
}
330
2A
100
AcDbVisualStyle
  2
Dim
 70
    11
177
     2
291
     1
 71
     2
176
     1
 72
     2
176
     1
 73
     0
176
     1
 90
        0
176
     1
 40
-0.6
176
     1
 41
-30.0
176
     1
 62
     5
 63
     7
421
 16777215
176
     1
 74
     1
176
     1
 91
        4
176
     1
 64
     7
176
     1
 65
   257
176
     1
 75
     1
176
     1
175
     1
176
     1
 42
1.0
176
     1
 92
        8
176
     1
 66
     7
176
     1
 43
1.0
176
     1
 76
     1
176
     1
 77
     6
176
     1
 78
     2
176
     1
 67
     7
176
     1
 79
     5
176
     1
170
     0
176
     1
171
     0
176
     1
290
     0
176
     1
 93
        1
176
     1
 44
-50.0
176
     1
173
     0
176
     1
  0
VISUALSTYLE
  5
39
102
{ACAD_REACTORS
330
2A
102
}
330
2A
100
AcDbVisualStyle
  2
Facepattern
 70
    15
177
     2
291
     1
 71
     2
176
     1
 72
     2
176
     1
 73
     0
176
     1
 90
        0
176
     1
 40
-0.6
176
     1
 41
-30.0
176
     1
 62
     5
 63
     7
421
 16777215
176
     1
 74
     1
176
     1
 91
        4
176
     1
 64
     7
176
     1
 65
   257
176
     1
 75
     1
176
     1
175
     1
176
     1
 42
1.0
176
     1
 92
        8
176
     1
 66
     7
176
     1
 43
1.0
176
     1
 76
     1
176
     1
 77
     6
176
     1
 78
     2
176
     1
 67
     7
176
     1
 79
     5
176
     1
170
     0
176
     1
171
     0
176
     1
290
     0
176
     1
 93
        1
176
     1
 44
0.0
176
     1
173
     0
176
     1
  0
VISUALSTYLE
  5
2B
102
{ACAD_REACTORS
330
2A
102
}
330
2A
100
AcDbVisualStyle
  2
Flat
 70
     0
177
     2
291
     1
 71
     2
176
     1
 72
     1
176
     1
 73
     1
176
     1
 90
        2
176
     1
 40
-0.6
176
     1
 41
30.0
176
     1
 62
     5
 63
     7
421
 16777215
176
     1
 74
     0
176
     1
 91
        4
176
     1
 64
     7
176
     1
 65
   257
176
     1
 75
     1
176
     1
175
     1
176
     1
 42
1.0
176
     1
 92
        8
176
     1
 66
     7
176
     1
 43
1.0
176
     1
 76
     1
176
     1
 77
     6
176
     1
 78
     2
176
     1
 67
     7
176
     1
 79
     5
176
     1
170
     0
176
     1
171
     0
176
     1
290
     0
176
     1
 93
       13
176
     1
 44
0.0
176
     1
173
     0
176
     1
  0
VISUALSTYLE
  5
2C
102
{ACAD_REACTORS
330
2A
102
}
330
2A
100
AcDbVisualStyle
  2
FlatWithEdges
 70
     1
177
     2
291
     1
 71
     2
176
     1
 72
     1
176
     1
 73
     1
176
     1
 90
        2
176
     1
 40
-0.6
176
     1
 41
30.0
176
     1
 62
     5
 63
     7
421
 16777215
176
     1
 74
     1
176
     1
 91
        4
176
     1
 64
     7
176
     1
 65
   257
176
     1
 75
     1
176
     1
175
     1
176
     1
 42
1.0
176
     1
 92
        0
176
     1
 66
   257
176
     1
 43
1.0
176
     1
 76
     1
176
     1
 77
     6
176
     1
 78
     2
176
     1
 67
     7
176
     1
 79
     5
176
     1
170
     0
176
     1
171
     0
176
     1
290
     0
176
     1
 93
       13
176
     1
 44
0.0
176
     1
173
     0
176
     1
  0
VISUALSTYLE
  5
2D
102
{ACAD_REACTORS
330
2A
102
}
330
2A
100
AcDbVisualStyle
  2
Gouraud
 70
     2
177
     2
291
     1
 71
     2
176
     1
 72
     2
176
     1
 73
     1
176
     1
 90
        2
176
     1
 40
-0.6
176
     1
 41
30.0
176
     1
 62
     5
 63
     7
421
 16777215
176
     1
 74
     0
176
     1
 91
        4
176
     1
 64
     7
176
     1
 65
   257
176
     1
 75
     1
176
     1
175
     1
176
     1
 42
1.0
176
     1
 92
        0
176
     1
 66
     7
176
     1
 43
1.0
176
     1
 76
     1
176
     1
 77
     6
176
     1
 78
     2
176
     1
 67
     7
176
     1
 79
     5
176
     1
170
     0
176
     1
171
     0
176
     1
290
     0
176
     1
 93
       13
176
     1
 44
0.0
176
     1
173
     0
176
     1
  0
VISUALSTYLE
  5
2E
102
{ACAD_REACTORS
330
2A
102
}
330
2A
100
AcDbVisualStyle
  2
GouraudWithEdges
 70
     3
177
     2
291
     1
 71
     2
176
     1
 72
     2
176
     1
 73
     1
176
     1
 90
        2
176
     1
 40
-0.6
176
     1
 41
30.0
176
     1
 62
     5
 63
     7
421
 16777215
176
     1
 74
     1
176
     1
 91
        4
176
     1
 64
     7
176
     1
 65
   257
176
     1
 75
     1
176
     1
175
     1
176
     1
 42
1.0
176
     1
 92
        0
176
     1
 66
   257
176
     1
 43
1.0
176
     1
 76
     1
176
     1
 77
     6
176
     1
 78
     2
176
     1
 67
     7
176
     1
 79
     5
176
     1
170
     0
176
     1
171
     0
176
     1
290
     0
176
     1
 93
       13
176
     1
 44
0.0
176
     1
173
     0
176
     1
  0
VISUALSTYLE
  5
38
102
{ACAD_REACTORS
330
2A
102
}
330
2A
100
AcDbVisualStyle
  2
Linepattern
 70
    14
177
     2
291
     1
 71
     2
176
     1
 72
     2
176
     1
 73
     0
176
     1
 90
        0
176
     1
 40
-0.6
176
     1
 41
-30.0
176
     1
 62
     5
 63
     7
421
 16777215
176
     1
 74
     1
176
     1
 91
        4
176
     1
 64
     7
176
     1
 65
   257
176
     1
 75
     7
176
     1
175
     7
176
     1
 42
1.0
176
     1
 92
        8
176
     1
 66
     7
176
     1
 43
1.0
176
     1
 76
     1
176
     1
 77
     6
176
     1
 78
     2
176
     1
 67
     7
176
     1
 79
     5
176
     1
170
     0
176
     1
171
     0
176
     1
290
     0
176
     1
 93
        1
176
     1
 44
0.0
176
     1
173
     0
176
     1
  0
VISUALSTYLE
  5
33
102
{ACAD_REACTORS
330
2A
102
}
330
2A
100
AcDbVisualStyle
  2
Realistic
 70
     8
177
     2
291
     0
 71
     2
176
     1
 72
     2
176
     1
 73
     0
176
     1
 90
        0
176
     1
 40
-0.6
176
     1
 41
-30.0
176
     1
 62
     5
 63
     7
421
 16777215
176
     1
 74
     1
176
     1
 91
        0
176
     1
 64
     7
176
     1
 65
   257
176
     1
 75
     1
176
     1
175
     1
176
     1
 42
1.0
176
     1
 92
        8
176
     1
 66
     8
424
  7895160
176
     1
 43
1.0
176
     1
 76
     1
176
     1
 77
     6
176
     1
 78
     2
176
     1
 67
     7
176
     1
 79
     5
176
     1
170
     0
176
     1
171
     0
176
     1
290
     0
176
     1
 93
       13
176
     1
 44
0.0
176
     1
173
     0
176
     1
  0
VISUALSTYLE
  5
37
102
{ACAD_REACTORS
330
2A
102
}
330
2A
100
AcDbVisualStyle
  2
Thicken
 70
    13
177
     2
291
     1
 71
     2
176
     1
 72
     2
176
     1
 73
     0
176
     1
 90
        0
176
     1
 40
-0.6
176
     1
 41
-30.0
176
     1
 62
     5
 63
     7
421
 16777215
176
     1
 74
     1
176
     1
 91
        4
176
     1
 64
     7
176
     1
 65
   257
176
     1
 75
     1
176
     1
175
     1
176
     1
 42
1.0
176
     1
 92
       12
176
     1
 66
     7
176
     1
 43
1.0
176
     1
 76
     1
176
     1
 77
     6
176
     1
 78
     2
176
     1
 67
     7
176
     1
 79
     5
176
     1
170
     0
176
     1
171
     0
176
     1
290
     0
176
     1
 93
        1
176
     1
 44
0.0
176
     1
173
     0
176
     1
  0
ENDSEC
  0
EOF
