  0
SECTION
  2
HEADER
  9
$ACADVER
  1
AC1024
  9
$ACADMAINTVER
 70
     6
  9
$DWGCODEPAGE
  3
UNDEFINED
  9
$INSBASE
 10
0.0
 20
0.0
 30
0.0
  9
$EXTMIN
 10
1.000000000000000E+20
 20
1.000000000000000E+20
 30
1.000000000000000E+20
  9
$EXTMAX
 10
-1.000000000000000E+20
 20
-1.000000000000000E+20
 30
-1.000000000000000E+20
  9
$LIMMIN
 10
0.0
 20
0.0
  9
$LIMMAX
 10
12.0
 20
9.0
  9
$ORTHOMODE
 70
     0
  9
$REGENMODE
 70
     1
  9
$FILLMODE
 70
     1
  9
$QTEXTMODE
 70
     0
  9
$MIRRTEXT
 70
     1
  9
$LTSCALE
 40
1.0
  9
$ATTMODE
 70
     1
  9
$TEXTSIZE
 40
0.2
  9
$TRACEWID
 40
0.05
  9
$TEXTSTYLE
  7
Standard
  9
$CLAYER
  8
0
  9
$CELTYPE
  6
ByLayer
  9
$CECOLOR
 62
   256
  9
$CELTSCALE
 40
1.0
  9
$DISPSILH
 70
     0
  9
$DIMSCALE
 40
1.0
  9
$DIMASZ
 40
0.18
  9
$DIMEXO
 40
0.0625
  9
$DIMDLI
 40
0.38
  9
$DIMRND
 40
0.0
  9
$DIMDLE
 40
0.0
  9
$DIMEXE
 40
0.18
  9
$DIMTP
 40
0.0
  9
$DIMTM
 40
0.0
  9
$DIMTXT
 40
0.18
  9
$DIMCEN
 40
0.09
  9
$DIMTSZ
 40
0.0
  9
$DIMTOL
 70
     0
  9
$DIMLIM
 70
     0
  9
$DIMTIH
 70
     1
  9
$DIMTOH
 70
     1
  9
$DIMSE1
 70
     0
  9
$DIMSE2
 70
     0
  9
$DIMTAD
 70
     0
  9
$DIMZIN
 70
     0
  9
$DIMBLK
  1

  9
$DIMASO
 70
     1
  9
$DIMSHO
 70
     1
  9
$DIMPOST
  1

  9
$DIMAPOST
  1

  9
$DIMALT
 70
     0
  9
$DIMALTD
 70
     2
  9
$DIMALTF
 40
25.4
  9
$DIMLFAC
 40
1.0
  9
$DIMTOFL
 70
     0
  9
$DIMTVP
 40
0.0
  9
$DIMTIX
 70
     0
  9
$DIMSOXD
 70
     0
  9
$DIMSAH
 70
     0
  9
$DIMBLK1
  1

  9
$DIMBLK2
  1

  9
$DIMSTYLE
  2
Standard
  9
$DIMCLRD
 70
     0
  9
$DIMCLRE
 70
     0
  9
$DIMCLRT
 70
     0
  9
$DIMTFAC
 40
1.0
  9
$DIMGAP
 40
0.09
  9
$DIMJUST
 70
     0
  9
$DIMSD1
 70
     0
  9
$DIMSD2
 70
     0
  9
$DIMTOLJ
 70
     1
  9
$DIMTZIN
 70
     0
  9
$DIMALTZ
 70
     0
  9
$DIMALTTZ
 70
     0
  9
$DIMUPT
 70
     0
  9
$DIMDEC
 70
     4
  9
$DIMTDEC
 70
     4
  9
$DIMALTU
 70
     2
  9
$DIMALTTD
 70
     2
  9
$DIMTXSTY
  7
Standard
  9
$DIMAUNIT
 70
     0
  9
$DIMADEC
 70
     0
  9
$DIMALTRND
 40
0.0
  9
$DIMAZIN
 70
     0
  9
$DIMDSEP
 70
    46
  9
$DIMATFIT
 70
     3
  9
$DIMFRAC
 70
     0
  9
$DIMLDRBLK
  1

  9
$DIMLUNIT
 70
     2
  9
$DIMLWD
 70
    -2
  9
$DIMLWE
 70
    -2
  9
$DIMTMOVE
 70
     0
  9
$DIMFXL
 40
1.0
  9
$DIMFXLON
 70
     0
  9
$DIMJOGANG
 40
0.7853981633974483
  9
$DIMTFILL
 70
     0
  9
$DIMTFILLCLR
 70
     0
  9
$DIMARCSYM
 70
     0
  9
$DIMLTYPE
  6

  9
$DIMLTEX1
  6

  9
$DIMLTEX2
  6

  9
$DIMTXTDIRECTION
 70
     0
  9
$LUNITS
 70
     2
  9
$LUPREC
 70
     4
  9
$SKETCHINC
 40
0.1
  9
$FILLETRAD
 40
0.5
  9
$AUNITS
 70
     0
  9
$AUPREC
 70
     0
  9
$MENU
  1
.
  9
$ELEVATION
 40
0.0
  9
$PELEVATION
 40
0.0
  9
$THICKNESS
 40
0.0
  9
$LIMCHECK
 70
     0
  9
$CHAMFERA
 40
0.5
  9
$CHAMFERB
 40
0.5
  9
$CHAMFERC
 40
1.0
  9
$CHAMFERD
 40
0.0
  9
$SKPOLY
 70
     0
  9
$TDCREATE
 40
2457917.621678229
  9
$TDUCREATE
 40
2457917.246678241
  9
$TDUPDATE
 40
2457917.621678229
  9
$TDUUPDATE
 40
2457917.246678241
  9
$TDINDWG
 40
0.0000000116
  9
$TDUSRTIMER
 40
0.0000000116
  9
$USRTIMER
 70
     1
  9
$ANGBASE
 50
0.0
  9
$ANGDIR
 70
     0
  9
$PDMODE
 70
     0
  9
$PDSIZE
 40
0.0
  9
$PLINEWID
 40
0.0
  9
$SPLFRAME
 70
     0
  9
$SPLINETYPE
 70
     6
  9
$SPLINESEGS
 70
     8
  9
$HANDSEED
  5
D3
  9
$SURFTAB1
 70
     6
  9
$SURFTAB2
 70
     6
  9
$SURFTYPE
 70
     6
  9
$SURFU
 70
     6
  9
$SURFV
 70
     6
  9
$UCSBASE
  2

  9
$UCSNAME
  2

  9
$UCSORG
 10
0.0
 20
0.0
 30
0.0
  9
$UCSXDIR
 10
1.0
 20
0.0
 30
0.0
  9
$UCSYDIR
 10
0.0
 20
1.0
 30
0.0
  9
$UCSORTHOREF
  2

  9
$UCSORTHOVIEW
 70
     0
  9
$UCSORGTOP
 10
0.0
 20
0.0
 30
0.0
  9
$UCSORGBOTTOM
 10
0.0
 20
0.0
 30
0.0
  9
$UCSORGLEFT
 10
0.0
 20
0.0
 30
0.0
  9
$UCSORGRIGHT
 10
0.0
 20
0.0
 30
0.0
  9
$UCSORGFRONT
 10
0.0
 20
0.0
 30
0.0
  9
$UCSORGBACK
 10
0.0
 20
0.0
 30
0.0
  9
$PUCSBASE
  2

  9
$PUCSNAME
  2

  9
$PUCSORG
 10
0.0
 20
0.0
 30
0.0
  9
$PUCSXDIR
 10
1.0
 20
0.0
 30
0.0
  9
$PUCSYDIR
 10
0.0
 20
1.0
 30
0.0
  9
$PUCSORTHOREF
  2

  9
$PUCSORTHOVIEW
 70
     0
  9
$PUCSORGTOP
 10
0.0
 20
0.0
 30
0.0
  9
$PUCSORGBOTTOM
 10
0.0
 20
0.0
 30
0.0
  9
$PUCSORGLEFT
 10
0.0
 20
0.0
 30
0.0
  9
$PUCSORGRIGHT
 10
0.0
 20
0.0
 30
0.0
  9
$PUCSORGFRONT
 10
0.0
 20
0.0
 30
0.0
  9
$PUCSORGBACK
 10
0.0
 20
0.0
 30
0.0
  9
$USERI1
 70
     0
  9
$USERI2
 70
     0
  9
$USERI3
 70
     0
  9
$USERI4
 70
     0
  9
$USERI5
 70
     0
  9
$USERR1
 40
0.0
  9
$USERR2
 40
0.0
  9
$USERR3
 40
0.0
  9
$USERR4
 40
0.0
  9
$USERR5
 40
0.0
  9
$WORLDVIEW
 70
     1
  9
$SHADEDGE
 70
     3
  9
$SHADEDIF
 70
    70
  9
$TILEMODE
 70
     1
  9
$MAXACTVP
 70
    64
  9
$PINSBASE
 10
0.0
 20
0.0
 30
0.0
  9
$PLIMCHECK
 70
     0
  9
$PEXTMIN
 10
1.000000000000000E+20
 20
1.000000000000000E+20
 30
1.000000000000000E+20
  9
$PEXTMAX
 10
-1.000000000000000E+20
 20
-1.000000000000000E+20
 30
-1.000000000000000E+20
  9
$PLIMMIN
 10
0.0
 20
0.0
  9
$PLIMMAX
 10
12.0
 20
9.0
  9
$UNITMODE
 70
     0
  9
$VISRETAIN
 70
     1
  9
$PLINEGEN
 70
     0
  9
$PSLTSCALE
 70
     1
  9
$TREEDEPTH
 70
  3020
  9
$CMLSTYLE
  2
Standard
  9
$CMLJUST
 70
     0
  9
$CMLSCALE
 40
1.0
  9
$PROXYGRAPHICS
 70
     1
  9
$MEASUREMENT
 70
     0
  9
$CELWEIGHT
370
    -1
  9
$ENDCAPS
280
     0
  9
$JOINSTYLE
280
     0
  9
$LWDISPLAY
290
     1
  9
$INSUNITS
 70
     1
  9
$HYPERLINKBASE
  1

  9
$STYLESHEET
  1

  9
$XEDIT
290
     1
  9
$CEPSNTYPE
380
     0
  9
$PSTYLEMODE
290
     1
  9
$FINGERPRINTGUID
  2
{B80C8507-036F-3253-E9C2-C77CFD6BC3D4}
  9
$VERSIONGUID
  2
{FAEB1C32-E019-11D5-929B-00C0DF256EC4}
  9
$EXTNAMES
290
     1
  9
$PSVPSCALE
 40
0.0
  9
$OLESTARTUP
290
     0
  9
$SORTENTS
280
   127
  9
$INDEXCTL
280
     0
  9
$HIDETEXT
280
     1
  9
$XCLIPFRAME
280
     2
  9
$HALOGAP
280
     0
  9
$OBSCOLOR
 70
   257
  9
$OBSLTYPE
280
     0
  9
$INTERSECTIONDISPLAY
280
     0
  9
$INTERSECTIONCOLOR
 70
   257
  9
$DIMASSOC
280
     2
  9
$PROJECTNAME
  1

  9
$CAMERADISPLAY
290
     0
  9
$LENSLENGTH
 40
50.0
  9
$CAMERAHEIGHT
 40
0.0
  9
$STEPSPERSEC
 40
2.0
  9
$STEPSIZE
 40
6.0
  9
$3DDWFPREC
 40
2.0
  9
$PSOLWIDTH
 40
0.25
  9
$PSOLHEIGHT
 40
4.0
  9
$LOFTANG1
 40
1.570796326794897
  9
$LOFTANG2
 40
1.570796326794897
  9
$LOFTMAG1
 40
0.0
  9
$LOFTMAG2
 40
0.0
  9
$LOFTPARAM
 70
     7
  9
$LOFTNORMALS
280
     1
  9
$LATITUDE
 40
37.795
  9
$LONGITUDE
 40
-122.394
  9
$NORTHDIRECTION
 40
0.0
  9
$TIMEZONE
 70
 -8000
  9
$LIGHTGLYPHDISPLAY
280
     1
  9
$TILEMODELIGHTSYNCH
280
     1
  9
$CMATERIAL
347
3C
  9
$SOLIDHIST
280
     1
  9
$SHOWHIST
280
     1
  9
$DWFFRAME
280
     2
  9
$DGNFRAME
280
     2
  9
$REALWORLDSCALE
290
     1
  9
$INTERFERECOLOR
 62
   256
  9
$CSHADOW
280
     0
  9
$SHADOWPLANELOCATION
 40
0.0
  0
ENDSEC
  0
SECTION
  2
CLASSES
  0
CLASS
  1
ACDBDICTIONARYWDFLT
  2
AcDbDictionaryWithDefault
  3
ObjectDBX Classes
 90
        0
 91
        4
280
     0
281
     0
  0
CLASS
  1
VISUALSTYLE
  2
AcDbVisualStyle
  3
ObjectDBX Classes
 90
     4095
 91
        4
280
     0
281
     0
  0
CLASS
  1
MATERIAL
  2
AcDbMaterial
  3
ObjectDBX Classes
 90
     1153
 91
        4
280
     0
281
     0
  0
CLASS
  1
SUN
  2
AcDbSun
  3
SCENEOE
 90
     1024
 91
        4
280
     0
281
     0
  0
ENDSEC
  0
SECTION
  2
TABLES
  0
TABLE
  2
VPORT
  5
8
330
0
100
AcDbSymbolTable
 70
     1
  0
VPORT
  5
29
330
8
100
AcDbSymbolTableRecord
100
AcDbViewportTableRecord
  2
*Active
 70
     0
 10
0.0
 20
0.0
 11
1.0
 21
1.0
 12
0.0
 22
0.0
 13
0.0
 23
0.0
 14
0.5
 24
0.5
 15
0.5
 25
0.5
 16
0.0
 26
0.0
 36
1.0
 17
91.00082462281999
 27
-128.4993055234307
 37
0.0
 40
256.9986110468615
 41
0.7081814508812795
 42
50.0
 43
0.0
 44
0.0
 50
0.0
 51
0.0
 71
     0
 72
   100
 73
     1
 74
     3
 75
     0
 76
     0
 77
     0
 78
     0
281
     0
 65
     1
110
0.0
120
0.0
130
0.0
111
1.0
121
0.0
131
0.0
112
0.0
122
1.0
132
0.0
 79
     0
146
0.0
 60
     3
 61
     5
292
     1
282
     1
141
0.0
142
0.0
 63
   250
361
3F
  0
ENDTAB
  0
TABLE
  2
LTYPE
  5
5
330
0
100
AcDbSymbolTable
 70
     1
  0
LTYPE
  5
14
330
5
100
AcDbSymbolTableRecord
100
AcDbLinetypeTableRecord
  2
ByBlock
 70
     0
  3

 72
    65
 73
     0
 40
0.0
  0
LTYPE
  5
15
330
5
100
AcDbSymbolTableRecord
100
AcDbLinetypeTableRecord
  2
ByLayer
 70
     0
  3

 72
    65
 73
     0
 40
0.0
  0
LTYPE
  5
16
330
5
100
AcDbSymbolTableRecord
100
AcDbLinetypeTableRecord
  2
Continuous
 70
     0
  3
Solid line
 72
    65
 73
     0
 40
0.0
  0
ENDTAB
  0
TABLE
  2
LAYER
  5
2
330
0
100
AcDbSymbolTable
 70
     2
  0
LAYER
  5
10
330
2
100
AcDbSymbolTableRecord
100
AcDbLayerTableRecord
  2
0
 70
     0
 62
     7
  6
Continuous
370
    -3
390
F
347
3E
  0
LAYER
  5
40
330
2
100
AcDbSymbolTableRecord
100
AcDbLayerTableRecord
  2
_U+30EC_U+30A4_U+30E4_U+30FC 1
 70
     0
 62
     7
  6
Continuous
370
    -3
390
F
347
3E
  0
ENDTAB
  0
TABLE
  2
STYLE
  5
3
330
0
100
AcDbSymbolTable
 70
     1
  0
STYLE
  5
11
330
3
100
AcDbSymbolTableRecord
100
AcDbTextStyleTableRecord
  2
Standard
 70
     0
 40
0.0
 41
1.0
 50
0.0
 71
     0
 42
0.2
  3
txt
  4

  0
ENDTAB
  0
TABLE
  2
VIEW
  5
6
330
0
100
AcDbSymbolTable
 70
     0
  0
ENDTAB
  0
TABLE
  2
UCS
  5
7
330
0
100
AcDbSymbolTable
 70
     0
  0
ENDTAB
  0
TABLE
  2
APPID
  5
9
330
0
100
AcDbSymbolTable
 70
     1
  0
APPID
  5
12
330
9
100
AcDbSymbolTableRecord
100
AcDbRegAppTableRecord
  2
ACAD
 70
     0
  0
ENDTAB
  0
TABLE
  2
DIMSTYLE
  5
A
330
0
100
AcDbSymbolTable
 70
     1
100
AcDbDimStyleTable
  0
DIMSTYLE
105
27
330
A
100
AcDbSymbolTableRecord
100
AcDbDimStyleTableRecord
  2
Standard
 70
     0
178
     0
340
11
  0
ENDTAB
  0
TABLE
  2
BLOCK_RECORD
  5
1
330
0
100
AcDbSymbolTable
 70
     6
  0
BLOCK_RECORD
  5
1F
330
1
100
AcDbSymbolTableRecord
100
AcDbBlockTableRecord
  2
*Model_Space
340
22
 70
     0
280
     1
281
     0
  0
BLOCK_RECORD
  5
1B
330
1
100
AcDbSymbolTableRecord
100
AcDbBlockTableRecord
  2
*Paper_Space
340
1E
 70
     0
280
     1
281
     0
  0
BLOCK_RECORD
  5
23
330
1
100
AcDbSymbolTableRecord
100
AcDbBlockTableRecord
  2
*Paper_Space0
340
26
 70
     0
280
     1
281
     0
  0
BLOCK_RECORD
  5
58
330
1
100
AcDbSymbolTableRecord
100
AcDbBlockTableRecord
  2
block 2
340
0
102
{BLKREFS
331
59
102
}
 70
     0
280
     1
281
     0
  0
BLOCK_RECORD
  5
5E
330
1
100
AcDbSymbolTableRecord
100
AcDbBlockTableRecord
  2
block 3
340
0
102
{BLKREFS
331
5F
102
}
 70
     0
280
     1
281
     0
  0
BLOCK_RECORD
  5
6F
330
1
100
AcDbSymbolTableRecord
100
AcDbBlockTableRecord
  2
block 4
340
0
102
{BLKREFS
331
70
102
}
 70
     0
280
     1
281
     0
  0
BLOCK_RECORD
  5
77
330
1
100
AcDbSymbolTableRecord
100
AcDbBlockTableRecord
  2
block 5
340
0
102
{BLKREFS
331
78
102
}
 70
     0
280
     1
281
     0
  0
BLOCK_RECORD
  5
C7
330
1
100
AcDbSymbolTableRecord
100
AcDbBlockTableRecord
  2
block 6
340
0
102
{BLKREFS
331
C8
102
}
 70
     0
280
     1
281
     0
  0
ENDTAB
  0
ENDSEC
  0
SECTION
  2
BLOCKS
  0
BLOCK
  5
20
330
1F
100
AcDbEntity
  8
0
100
AcDbBlockBegin
  2
*Model_Space
 70
     0
 10
0.0
 20
0.0
 30
0.0
  3
*Model_Space
  1

  0
ENDBLK
  5
21
330
1F
100
AcDbEntity
  8
0
100
AcDbBlockEnd
  0
BLOCK
  5
1C
330
1B
100
AcDbEntity
 67
     1
  8
0
100
AcDbBlockBegin
  2
*Paper_Space
 70
     0
 10
0.0
 20
0.0
 30
0.0
  3
*Paper_Space
  1

  0
ENDBLK
  5
1D
330
1B
100
AcDbEntity
 67
     1
  8
0
100
AcDbBlockEnd
  0
BLOCK
  5
24
330
23
100
AcDbEntity
  8
0
100
AcDbBlockBegin
  2
*Paper_Space0
 70
     0
 10
0.0
 20
0.0
 30
0.0
  3
*Paper_Space0
  1

  0
ENDBLK
  5
25
330
23
100
AcDbEntity
  8
0
100
AcDbBlockEnd
  0
BLOCK
  5
5A
330
58
100
AcDbEntity
  8
0
100
AcDbBlockBegin
  2
block 2
 70
     0
 10
0.0
 20
0.0
 30
0.0
  3
block 2
  1

  0
SPLINE
  5
5C
330
58
100
AcDbEntity
  8
_U+30EC_U+30A4_U+30E4_U+30FC 1
370
     0
100
AcDbSpline
210
0.0
220
0.0
230
1.0
 70
    11
 71
     3
 72
    26
 73
    22
 74
     0
 42
0.0000000001
 43
0.0000000001
 12
1.0
 22
0.0
 32
0.0
 13
1.0
 23
0.0
 33
0.0
 40
0.0
 40
0.0
 40
0.0
 40
0.0
 40
1.0
 40
1.0
 40
1.0
 40
2.0
 40
2.0
 40
2.0
 40
3.0
 40
3.0
 40
3.0
 40
4.0
 40
4.0
 40
4.0
 40
5.0
 40
5.0
 40
5.0
 40
6.0
 40
6.0
 40
6.0
 40
7.0
 40
7.0
 40
7.0
 40
7.0
 10
83.43297795223204
 20
-133.839203525568
 30
0.0
 10
83.43297795223204
 20
-133.839203525568
 30
0.0
 10
82.3286525944352
 20
-133.839203525568
 30
0.0
 10
82.3286525944352
 20
-133.839203525568
 30
0.0
 10
82.3286525944352
 20
-133.839203525568
 30
0.0
 10
82.3286525944352
 20
-134.1916367937091
 30
0.0
 10
82.3286525944352
 20
-134.1916367937091
 30
0.0
 10
82.3286525944352
 20
-134.1916367937091
 30
0.0
 10
82.18068574334372
 20
-134.1916367937091
 30
0.0
 10
82.18068574334372
 20
-134.1916367937091
 30
0.0
 10
82.16587183275715
 20
-133.8367919587283
 30
0.0
 10
82.00291881630483
 20
-133.7871825837407
 30
0.0
 10
81.8887139009688
 20
-133.7554877052764
 30
0.0
 10
81.8887139009688
 20
-133.7554877052764
 30
0.0
 10
81.8887139009688
 20
-133.5994248797946
 30
0.0
 10
81.8887139009688
 20
-133.5994248797946
 30
0.0
 10
81.8887139009688
 20
-133.5994248797946
 30
0.0
 10
83.43297795223204
 20
-133.5994248797946
 30
0.0
 10
83.43297795223204
 20
-133.5994248797946
 30
0.0
 10
83.43297795223204
 20
-133.5994248797946
 30
0.0
 10
83.43297795223204
 20
-133.839203525568
 30
0.0
 10
83.43297795223204
 20
-133.839203525568
 30
0.0
  0
HATCH
  5
5D
330
58
100
AcDbEntity
  8
_U+30EC_U+30A4_U+30E4_U+30FC 1
 62
   179
420
  2234388
100
AcDbHatch
 10
0.0
 20
0.0
 30
0.0
210
0.0
220
0.0
230
1.0
  2
SOLID
 70
     1
 71
     0
 91
        1
 92
        1
 93
        1
 72
     4
 94
        3
 73
     0
 74
     1
 95
       26
 96
       22
 40
0.0
 40
0.0
 40
0.0
 40
0.0
 40
1.0
 40
1.0
 40
1.0
 40
2.0
 40
2.0
 40
2.0
 40
3.0
 40
3.0
 40
3.0
 40
4.0
 40
4.0
 40
4.0
 40
5.0
 40
5.0
 40
5.0
 40
6.0
 40
6.0
 40
6.0
 40
7.0
 40
7.0
 40
7.0
 40
7.0
 10
83.43297795223204
 20
-133.839203525568
 10
83.43297795223204
 20
-133.839203525568
 10
82.3286525944352
 20
-133.839203525568
 10
82.3286525944352
 20
-133.839203525568
 10
82.3286525944352
 20
-133.839203525568
 10
82.3286525944352
 20
-134.1916367937091
 10
82.3286525944352
 20
-134.1916367937091
 10
82.3286525944352
 20
-134.1916367937091
 10
82.18068574334372
 20
-134.1916367937091
 10
82.18068574334372
 20
-134.1916367937091
 10
82.16587183275715
 20
-133.8367919587283
 10
82.00291881630483
 20
-133.7871825837407
 10
81.8887139009688
 20
-133.7554877052764
 10
81.8887139009688
 20
-133.7554877052764
 10
81.8887139009688
 20
-133.5994248797946
 10
81.8887139009688
 20
-133.5994248797946
 10
81.8887139009688
 20
-133.5994248797946
 10
83.43297795223204
 20
-133.5994248797946
 10
83.43297795223204
 20
-133.5994248797946
 10
83.43297795223204
 20
-133.5994248797946
 10
83.43297795223204
 20
-133.839203525568
 10
83.43297795223204
 20
-133.839203525568
 97
        0
 97
        0
 75
     2
 76
     1
 98
        0
  0
ENDBLK
  5
5B
330
58
100
AcDbEntity
  8
0
100
AcDbBlockEnd
  0
BLOCK
  5
60
330
5E
100
AcDbEntity
  8
0
100
AcDbBlockBegin
  2
block 3
 70
     0
 10
0.0
 20
0.0
 30
0.0
  3
block 3
  1

  0
SPLINE
  5
62
330
5E
100
AcDbEntity
  8
_U+30EC_U+30A4_U+30E4_U+30FC 1
370
     0
100
AcDbSpline
210
0.0
220
0.0
230
1.0
 70
    11
 71
     3
 72
    26
 73
    22
 74
     0
 42
0.0000000001
 43
0.0000000001
 12
1.0
 22
0.0
 32
0.0
 13
1.0
 23
0.0
 33
0.0
 40
0.0
 40
0.0
 40
0.0
 40
0.0
 40
1.0
 40
1.0
 40
1.0
 40
2.0
 40
2.0
 40
2.0
 40
3.0
 40
3.0
 40
3.0
 40
4.0
 40
4.0
 40
4.0
 40
5.0
 40
5.0
 40
5.0
 40
6.0
 40
6.0
 40
6.0
 40
7.0
 40
7.0
 40
7.0
 40
7.0
 10
83.43297795223204
 20
-129.0350178713871
 30
0.0
 10
83.43297795223204
 20
-129.0350178713871
 30
0.0
 10
82.3286525944352
 20
-129.0350178713871
 30
0.0
 10
82.3286525944352
 20
-129.0350178713871
 30
0.0
 10
82.3286525944352
 20
-129.0350178713871
 30
0.0
 10
82.3286525944352
 20
-129.3874511395281
 30
0.0
 10
82.3286525944352
 20
-129.3874511395281
 30
0.0
 10
82.3286525944352
 20
-129.3874511395281
 30
0.0
 10
82.18068574334372
 20
-129.3874511395281
 30
0.0
 10
82.18068574334372
 20
-129.3874511395281
 30
0.0
 10
82.16587183275715
 20
-129.0326063045474
 30
0.0
 10
82.00291881630483
 20
-128.9829969295598
 30
0.0
 10
81.8887139009688
 20
-128.9513020510955
 30
0.0
 10
81.8887139009688
 20
-128.9513020510955
 30
0.0
 10
81.8887139009688
 20
-128.7952392256137
 30
0.0
 10
81.8887139009688
 20
-128.7952392256137
 30
0.0
 10
81.8887139009688
 20
-128.7952392256137
 30
0.0
 10
83.43297795223204
 20
-128.7952392256137
 30
0.0
 10
83.43297795223204
 20
-128.7952392256137
 30
0.0
 10
83.43297795223204
 20
-128.7952392256137
 30
0.0
 10
83.43297795223204
 20
-129.0350178713871
 30
0.0
 10
83.43297795223204
 20
-129.0350178713871
 30
0.0
  0
HATCH
  5
63
330
5E
100
AcDbEntity
  8
_U+30EC_U+30A4_U+30E4_U+30FC 1
 62
   179
420
  2234388
100
AcDbHatch
 10
0.0
 20
0.0
 30
0.0
210
0.0
220
0.0
230
1.0
  2
SOLID
 70
     1
 71
     0
 91
        1
 92
        1
 93
        1
 72
     4
 94
        3
 73
     0
 74
     1
 95
       26
 96
       22
 40
0.0
 40
0.0
 40
0.0
 40
0.0
 40
1.0
 40
1.0
 40
1.0
 40
2.0
 40
2.0
 40
2.0
 40
3.0
 40
3.0
 40
3.0
 40
4.0
 40
4.0
 40
4.0
 40
5.0
 40
5.0
 40
5.0
 40
6.0
 40
6.0
 40
6.0
 40
7.0
 40
7.0
 40
7.0
 40
7.0
 10
83.43297795223204
 20
-129.0350178713871
 10
83.43297795223204
 20
-129.0350178713871
 10
82.3286525944352
 20
-129.0350178713871
 10
82.3286525944352
 20
-129.0350178713871
 10
82.3286525944352
 20
-129.0350178713871
 10
82.3286525944352
 20
-129.3874511395281
 10
82.3286525944352
 20
-129.3874511395281
 10
82.3286525944352
 20
-129.3874511395281
 10
82.18068574334372
 20
-129.3874511395281
 10
82.18068574334372
 20
-129.3874511395281
 10
82.16587183275715
 20
-129.0326063045474
 10
82.00291881630483
 20
-128.9829969295598
 10
81.8887139009688
 20
-128.9513020510955
 10
81.8887139009688
 20
-128.9513020510955
 10
81.8887139009688
 20
-128.7952392256137
 10
81.8887139009688
 20
-128.7952392256137
 10
81.8887139009688
 20
-128.7952392256137
 10
83.43297795223204
 20
-128.7952392256137
 10
83.43297795223204
 20
-128.7952392256137
 10
83.43297795223204
 20
-128.7952392256137
 10
83.43297795223204
 20
-129.0350178713871
 10
83.43297795223204
 20
-129.0350178713871
 97
        0
 97
        0
 75
     2
 76
     1
 98
        0
  0
SPLINE
  5
64
330
5E
100
AcDbEntity
  8
_U+30EC_U+30A4_U+30E4_U+30FC 1
370
     0
100
AcDbSpline
210
0.0
220
0.0
230
1.0
 70
    11
 71
     3
 72
    29
 73
    25
 74
     0
 42
0.0000000001
 43
0.0000000001
 12
1.0
 22
0.0
 32
0.0
 13
1.0
 23
0.0
 33
0.0
 40
0.0
 40
0.0
 40
0.0
 40
0.0
 40
1.0
 40
1.0
 40
1.0
 40
2.0
 40
2.0
 40
2.0
 40
3.0
 40
3.0
 40
3.0
 40
4.0
 40
4.0
 40
4.0
 40
5.0
 40
5.0
 40
5.0
 40
6.0
 40
6.0
 40
6.0
 40
7.0
 40
7.0
 40
7.0
 40
8.0
 40
8.0
 40
8.0
 40
8.0
 10
83.25521102519315
 20
-127.3000677850153
 30
0.0
 10
83.46467283069633
 20
-127.4153062289969
 30
0.0
 10
83.48379311063947
 20
-127.6008246208776
 30
0.0
 10
83.48379311063947
 20
-127.7250203131208
 30
0.0
 10
83.48379311063947
 20
-127.8969305778348
 30
0.0
 10
83.4372843215886
 20
-128.0483425244115
 30
0.0
 10
83.25521102519315
 20
-128.1501450960007
 30
0.0
 10
83.06056313027653
 20
-128.2609049158515
 30
0.0
 10
82.8237128156656
 20
-128.2812309792144
 30
0.0
 10
82.66075979921328
 20
-128.2812309792144
 30
0.0
 10
82.5169270627041
 20
-128.2812309792144
 30
0.0
 10
82.26526283750661
 20
-128.2631442279169
 30
0.0
 10
82.06630857323343
 20
-128.1501450960007
 30
0.0
 10
81.86322019437794
 20
-128.0349066520191
 30
0.0
 10
81.83996579985251
 20
-127.8629963873051
 30
0.0
 10
81.83996579985251
 20
-127.7250203131208
 30
0.0
 10
81.83996579985251
 20
-127.5555216152465
 30
0.0
 10
81.88440753161224
 20
-127.4018703566044
 30
0.0
 10
82.06630857323343
 20
-127.3000677850153
 30
0.0
 10
82.2588894108589
 20
-127.1937865892953
 30
0.0
 10
82.48729924153096
 20
-127.1689819018015
 30
0.0
 10
82.66075979921328
 20
-127.1689819018015
 30
0.0
 10
82.83215329960447
 20
-127.1689819018015
 30
0.0
 10
83.06280244234195
 20
-127.1915472772299
 30
0.0
 10
83.25521102519315
 20
-127.3000677850153
 30
0.0
  0
SPLINE
  5
65
330
5E
100
AcDbEntity
  8
_U+30EC_U+30A4_U+30E4_U+30FC 1
370
     0
100
AcDbSpline
210
0.0
220
0.0
230
1.0
 70
    11
 71
     3
 72
    17
 73
    13
 74
     0
 42
0.0000000001
 43
0.0000000001
 12
1.0
 22
0.0
 32
0.0
 13
1.0
 23
0.0
 33
0.0
 40
0.0
 40
0.0
 40
0.0
 40
0.0
 40
1.0
 40
1.0
 40
1.0
 40
2.0
 40
2.0
 40
2.0
 40
3.0
 40
3.0
 40
3.0
 40
4.0
 40
4.0
 40
4.0
 40
4.0
 10
82.03254663747798
 20
-127.7250203131208
 30
0.0
 10
82.03254663747798
 20
-127.9918429584534
 30
0.0
 10
82.31607799591404
 20
-128.0416245882153
 30
0.0
 10
82.66075979921328
 20
-128.0416245882153
 30
0.0
 10
82.98029240547021
 20
-128.0416245882153
 30
0.0
 10
83.28914521572285
 20
-128.0032117735548
 30
0.0
 10
83.28914521572285
 20
-127.7250203131208
 30
0.0
 10
83.28914521572285
 20
-127.4606092346279
 30
0.0
 10
83.00768091457795
 20
-127.4085882928006
 30
0.0
 10
82.66075979921328
 20
-127.4085882928006
 30
0.0
 10
82.34139944773062
 20
-127.4085882928006
 30
0.0
 10
82.03254663747798
 20
-127.4492404195266
 30
0.0
 10
82.03254663747798
 20
-127.7250203131208
 30
0.0
  0
HATCH
  5
66
330
5E
100
AcDbEntity
  8
_U+30EC_U+30A4_U+30E4_U+30FC 1
 62
   179
420
  2234388
100
AcDbHatch
 10
0.0
 20
0.0
 30
0.0
210
0.0
220
0.0
230
1.0
  2
SOLID
 70
     1
 71
     0
 91
        2
 92
        1
 93
        1
 72
     4
 94
        3
 73
     0
 74
     1
 95
       29
 96
       25
 40
0.0
 40
0.0
 40
0.0
 40
0.0
 40
1.0
 40
1.0
 40
1.0
 40
2.0
 40
2.0
 40
2.0
 40
3.0
 40
3.0
 40
3.0
 40
4.0
 40
4.0
 40
4.0
 40
5.0
 40
5.0
 40
5.0
 40
6.0
 40
6.0
 40
6.0
 40
7.0
 40
7.0
 40
7.0
 40
8.0
 40
8.0
 40
8.0
 40
8.0
 10
83.25521102519315
 20
-127.3000677850153
 10
83.46467283069633
 20
-127.4153062289969
 10
83.48379311063947
 20
-127.6008246208776
 10
83.48379311063947
 20
-127.7250203131208
 10
83.48379311063947
 20
-127.8969305778348
 10
83.4372843215886
 20
-128.0483425244115
 10
83.25521102519315
 20
-128.1501450960007
 10
83.06056313027653
 20
-128.2609049158515
 10
82.8237128156656
 20
-128.2812309792144
 10
82.66075979921328
 20
-128.2812309792144
 10
82.5169270627041
 20
-128.2812309792144
 10
82.26526283750661
 20
-128.2631442279169
 10
82.06630857323343
 20
-128.1501450960007
 10
81.86322019437794
 20
-128.0349066520191
 10
81.83996579985251
 20
-127.8629963873051
 10
81.83996579985251
 20
-127.7250203131208
 10
81.83996579985251
 20
-127.5555216152465
 10
81.88440753161224
 20
-127.4018703566044
 10
82.06630857323343
 20
-127.3000677850153
 10
82.2588894108589
 20
-127.1937865892953
 10
82.48729924153096
 20
-127.1689819018015
 10
82.66075979921328
 20
-127.1689819018015
 10
82.83215329960447
 20
-127.1689819018015
 10
83.06280244234195
 20
-127.1915472772299
 10
83.25521102519315
 20
-127.3000677850153
 97
        0
 97
        0
 92
        1
 93
        1
 72
     4
 94
        3
 73
     0
 74
     1
 95
       17
 96
       13
 40
0.0
 40
0.0
 40
0.0
 40
0.0
 40
1.0
 40
1.0
 40
1.0
 40
2.0
 40
2.0
 40
2.0
 40
3.0
 40
3.0
 40
3.0
 40
4.0
 40
4.0
 40
4.0
 40
4.0
 10
82.03254663747798
 20
-127.7250203131208
 10
82.03254663747798
 20
-127.9918429584534
 10
82.31607799591404
 20
-128.0416245882153
 10
82.66075979921328
 20
-128.0416245882153
 10
82.98029240547021
 20
-128.0416245882153
 10
83.28914521572285
 20
-128.0032117735548
 10
83.28914521572285
 20
-127.7250203131208
 10
83.28914521572285
 20
-127.4606092346279
 10
83.00768091457795
 20
-127.4085882928006
 10
82.66075979921328
 20
-127.4085882928006
 10
82.34139944773062
 20
-127.4085882928006
 10
82.03254663747798
 20
-127.4492404195266
 10
82.03254663747798
 20
-127.7250203131208
 97
        0
 97
        0
 75
     2
 76
     1
 98
        0
  0
ENDBLK
  5
61
330
5E
100
AcDbEntity
  8
0
100
AcDbBlockEnd
  0
BLOCK
  5
71
330
6F
100
AcDbEntity
  8
0
100
AcDbBlockBegin
  2
block 4
 70
     0
 10
0.0
 20
0.0
 30
0.0
  3
block 4
  1

  0
SPLINE
  5
73
330
6F
100
AcDbEntity
  8
_U+30EC_U+30A4_U+30E4_U+30FC 1
370
     0
100
AcDbSpline
210
0.0
220
0.0
230
1.0
 70
    11
 71
     3
 72
    26
 73
    22
 74
     0
 42
0.0000000001
 43
0.0000000001
 12
1.0
 22
0.0
 32
0.0
 13
1.0
 23
0.0
 33
0.0
 40
0.0
 40
0.0
 40
0.0
 40
0.0
 40
1.0
 40
1.0
 40
1.0
 40
2.0
 40
2.0
 40
2.0
 40
3.0
 40
3.0
 40
3.0
 40
4.0
 40
4.0
 40
4.0
 40
5.0
 40
5.0
 40
5.0
 40
6.0
 40
6.0
 40
6.0
 40
7.0
 40
7.0
 40
7.0
 40
7.0
 10
93.15951603573791
 20
-117.726836450603
 30
0.0
 10
93.15951603573791
 20
-117.726836450603
 30
0.0
 10
93.15951603573791
 20
-116.6225110928062
 30
0.0
 10
93.15951603573791
 20
-116.6225110928062
 30
0.0
 10
93.15951603573791
 20
-116.6225110928062
 30
0.0
 10
92.80708276759684
 20
-116.6225110928062
 30
0.0
 10
92.80708276759684
 20
-116.6225110928062
 30
0.0
 10
92.80708276759684
 20
-116.6225110928062
 30
0.0
 10
92.80708276759684
 20
-116.4745442417147
 30
0.0
 10
92.80708276759684
 20
-116.4745442417147
 30
0.0
 10
93.16192760257758
 20
-116.4597303311281
 30
0.0
 10
93.21153697756517
 20
-116.2967773146758
 30
0.0
 10
93.24323185602947
 20
-116.1825723993398
 30
0.0
 10
93.24323185602947
 20
-116.1825723993398
 30
0.0
 10
93.3992946815113
 20
-116.1825723993398
 30
0.0
 10
93.3992946815113
 20
-116.1825723993398
 30
0.0
 10
93.3992946815113
 20
-116.1825723993398
 30
0.0
 10
93.3992946815113
 20
-117.726836450603
 30
0.0
 10
93.3992946815113
 20
-117.726836450603
 30
0.0
 10
93.3992946815113
 20
-117.726836450603
 30
0.0
 10
93.15951603573791
 20
-117.726836450603
 30
0.0
 10
93.15951603573791
 20
-117.726836450603
 30
0.0
  0
HATCH
  5
74
330
6F
100
AcDbEntity
  8
_U+30EC_U+30A4_U+30E4_U+30FC 1
 62
   179
420
  2234388
100
AcDbHatch
 10
0.0
 20
0.0
 30
0.0
210
0.0
220
0.0
230
1.0
  2
SOLID
 70
     1
 71
     0
 91
        1
 92
        1
 93
        1
 72
     4
 94
        3
 73
     0
 74
     1
 95
       26
 96
       22
 40
0.0
 40
0.0
 40
0.0
 40
0.0
 40
1.0
 40
1.0
 40
1.0
 40
2.0
 40
2.0
 40
2.0
 40
3.0
 40
3.0
 40
3.0
 40
4.0
 40
4.0
 40
4.0
 40
5.0
 40
5.0
 40
5.0
 40
6.0
 40
6.0
 40
6.0
 40
7.0
 40
7.0
 40
7.0
 40
7.0
 10
93.15951603573791
 20
-117.726836450603
 10
93.15951603573791
 20
-117.726836450603
 10
93.15951603573791
 20
-116.6225110928062
 10
93.15951603573791
 20
-116.6225110928062
 10
93.15951603573791
 20
-116.6225110928062
 10
92.80708276759684
 20
-116.6225110928062
 10
92.80708276759684
 20
-116.6225110928062
 10
92.80708276759684
 20
-116.6225110928062
 10
92.80708276759684
 20
-116.4745442417147
 10
92.80708276759684
 20
-116.4745442417147
 10
93.16192760257758
 20
-116.4597303311281
 10
93.21153697756517
 20
-116.2967773146758
 10
93.24323185602947
 20
-116.1825723993398
 10
93.24323185602947
 20
-116.1825723993398
 10
93.3992946815113
 20
-116.1825723993398
 10
93.3992946815113
 20
-116.1825723993398
 10
93.3992946815113
 20
-116.1825723993398
 10
93.3992946815113
 20
-117.726836450603
 10
93.3992946815113
 20
-117.726836450603
 10
93.3992946815113
 20
-117.726836450603
 10
93.15951603573791
 20
-117.726836450603
 10
93.15951603573791
 20
-117.726836450603
 97
        0
 97
        0
 75
     2
 76
     1
 98
        0
  0
SPLINE
  5
75
330
6F
100
AcDbEntity
  8
_U+30EC_U+30A4_U+30E4_U+30FC 1
370
     0
100
AcDbSpline
210
0.0
220
0.0
230
1.0
 70
    11
 71
     3
 72
    44
 73
    40
 74
     0
 42
0.0000000001
 43
0.0000000001
 12
1.0
 22
0.0
 32
0.0
 13
1.0
 23
0.0
 33
0.0
 40
0.0
 40
0.0
 40
0.0
 40
0.0
 40
1.0
 40
1.0
 40
1.0
 40
2.0
 40
2.0
 40
2.0
 40
3.0
 40
3.0
 40
3.0
 40
4.0
 40
4.0
 40
4.0
 40
5.0
 40
5.0
 40
5.0
 40
6.0
 40
6.0
 40
6.0
 40
7.0
 40
7.0
 40
7.0
 40
8.0
 40
8.0
 40
8.0
 40
9.0
 40
9.0
 40
9.0
 40
10.0
 40
10.0
 40
10.0
 40
11.0
 40
11.0
 40
11.0
 40
12.0
 40
12.0
 40
12.0
 40
13.0
 40
13.0
 40
13.0
 40
13.0
 10
94.5689045987536
 20
-117.1449598231443
 30
0.0
 10
94.33601614395073
 20
-117.3037787250143
 30
0.0
 10
94.236452884427
 20
-117.3778482779472
 30
0.0
 10
94.18477645214826
 20
-117.5215087596821
 30
0.0
 10
94.18477645214826
 20
-117.5215087596821
 30
0.0
 10
95.01642250228757
 20
-117.5215087596821
 30
0.0
 10
95.01642250228757
 20
-117.5215087596821
 30
0.0
 10
95.01642250228757
 20
-117.5215087596821
 30
0.0
 10
95.01642250228757
 20
-117.726836450603
 30
0.0
 10
95.01642250228757
 20
-117.726836450603
 30
0.0
 10
95.01642250228757
 20
-117.726836450603
 30
0.0
 10
93.91778155204139
 20
-117.726836450603
 30
0.0
 10
93.91778155204139
 20
-117.726836450603
 30
0.0
 10
93.95188799734537
 20
-117.3692355392341
 30
0.0
 10
94.02182343569594
 20
-117.2910318717189
 30
0.0
 10
94.43316783663477
 20
-116.9926866026963
 30
0.0
 10
94.7067084181636
 20
-116.7939045931974
 30
0.0
 10
94.7769883660627
 20
-116.7262084669122
 30
0.0
 10
94.7769883660627
 20
-116.5887491570507
 30
0.0
 10
94.7769883660627
 20
-116.4702378723581
 30
0.0
 10
94.70016273674163
 20
-116.3391519891444
 30
0.0
 10
94.48966740259287
 20
-116.3391519891444
 30
0.0
 10
94.2116481969332
 20
-116.3391519891444
 30
0.0
 10
94.20269094867156
 20
-116.5696288771076
 30
0.0
 10
94.19821232454073
 20
-116.686073104509
 30
0.0
 10
94.19821232454073
 20
-116.686073104509
 30
0.0
 10
93.95843367876734
 20
-116.686073104509
 30
0.0
 10
93.95843367876734
 20
-116.686073104509
 30
0.0
 10
93.96773543657751
 20
-116.5591213358776
 30
0.0
 10
93.97875974213031
 20
-116.4469834778327
 30
0.0
 10
94.06488712926156
 20
-116.3284721931401
 30
0.0
 10
94.18236488530857
 20
-116.1677584887532
 30
0.0
 10
94.3811468948075
 20
-116.1338242982235
 30
0.0
 10
94.50551484182502
 20
-116.1338242982235
 30
0.0
 10
94.8017930535565
 20
-116.1338242982235
 30
0.0
 10
95.02331269325806
 20
-116.3179646519101
 30
0.0
 10
95.02331269325806
 20
-116.5908162143419
 30
0.0
 10
95.02331269325806
 20
-116.8192260450139
 30
0.0
 10
94.89894474624055
 20
-116.9186170497634
 30
0.0
 10
94.5689045987536
 20
-117.1449598231443
 30
0.0
  0
HATCH
  5
76
330
6F
100
AcDbEntity
  8
_U+30EC_U+30A4_U+30E4_U+30FC 1
 62
   179
420
  2234388
100
AcDbHatch
 10
0.0
 20
0.0
 30
0.0
210
0.0
220
0.0
230
1.0
  2
SOLID
 70
     1
 71
     0
 91
        1
 92
        1
 93
        1
 72
     4
 94
        3
 73
     0
 74
     1
 95
       44
 96
       40
 40
0.0
 40
0.0
 40
0.0
 40
0.0
 40
1.0
 40
1.0
 40
1.0
 40
2.0
 40
2.0
 40
2.0
 40
3.0
 40
3.0
 40
3.0
 40
4.0
 40
4.0
 40
4.0
 40
5.0
 40
5.0
 40
5.0
 40
6.0
 40
6.0
 40
6.0
 40
7.0
 40
7.0
 40
7.0
 40
8.0
 40
8.0
 40
8.0
 40
9.0
 40
9.0
 40
9.0
 40
10.0
 40
10.0
 40
10.0
 40
11.0
 40
11.0
 40
11.0
 40
12.0
 40
12.0
 40
12.0
 40
13.0
 40
13.0
 40
13.0
 40
13.0
 10
94.5689045987536
 20
-117.1449598231443
 10
94.33601614395073
 20
-117.3037787250143
 10
94.236452884427
 20
-117.3778482779472
 10
94.18477645214826
 20
-117.5215087596821
 10
94.18477645214826
 20
-117.5215087596821
 10
95.01642250228757
 20
-117.5215087596821
 10
95.01642250228757
 20
-117.5215087596821
 10
95.01642250228757
 20
-117.5215087596821
 10
95.01642250228757
 20
-117.726836450603
 10
95.01642250228757
 20
-117.726836450603
 10
95.01642250228757
 20
-117.726836450603
 10
93.91778155204139
 20
-117.726836450603
 10
93.91778155204139
 20
-117.726836450603
 10
93.95188799734537
 20
-117.3692355392341
 10
94.02182343569594
 20
-117.2910318717189
 10
94.43316783663477
 20
-116.9926866026963
 10
94.7067084181636
 20
-116.7939045931974
 10
94.7769883660627
 20
-116.7262084669122
 10
94.7769883660627
 20
-116.5887491570507
 10
94.7769883660627
 20
-116.4702378723581
 10
94.70016273674163
 20
-116.3391519891444
 10
94.48966740259287
 20
-116.3391519891444
 10
94.2116481969332
 20
-116.3391519891444
 10
94.20269094867156
 20
-116.5696288771076
 10
94.19821232454073
 20
-116.686073104509
 10
94.19821232454073
 20
-116.686073104509
 10
93.95843367876734
 20
-116.686073104509
 10
93.95843367876734
 20
-116.686073104509
 10
93.96773543657751
 20
-116.5591213358776
 10
93.97875974213031
 20
-116.4469834778327
 10
94.06488712926156
 20
-116.3284721931401
 10
94.18236488530857
 20
-116.1677584887532
 10
94.3811468948075
 20
-116.1338242982235
 10
94.50551484182502
 20
-116.1338242982235
 10
94.8017930535565
 20
-116.1338242982235
 10
95.02331269325806
 20
-116.3179646519101
 10
95.02331269325806
 20
-116.5908162143419
 10
95.02331269325806
 20
-116.8192260450139
 10
94.89894474624055
 20
-116.9186170497634
 10
94.5689045987536
 20
-117.1449598231443
 97
        0
 97
        0
 75
     2
 76
     1
 98
        0
  0
ENDBLK
  5
72
330
6F
100
AcDbEntity
  8
0
100
AcDbBlockEnd
  0
BLOCK
  5
79
330
77
100
AcDbEntity
  8
0
100
AcDbBlockBegin
  2
block 5
 70
     0
 10
0.0
 20
0.0
 30
0.0
  3
block 5
  1

  0
SPLINE
  5
7B
330
77
100
AcDbEntity
  8
_U+30EC_U+30A4_U+30E4_U+30FC 1
370
     0
100
AcDbSpline
210
0.0
220
0.0
230
1.0
 70
    11
 71
     3
 72
    26
 73
    22
 74
     0
 42
0.0000000001
 43
0.0000000001
 12
1.0
 22
0.0
 32
0.0
 13
1.0
 23
0.0
 33
0.0
 40
0.0
 40
0.0
 40
0.0
 40
0.0
 40
1.0
 40
1.0
 40
1.0
 40
2.0
 40
2.0
 40
2.0
 40
3.0
 40
3.0
 40
3.0
 40
4.0
 40
4.0
 40
4.0
 40
5.0
 40
5.0
 40
5.0
 40
6.0
 40
6.0
 40
6.0
 40
7.0
 40
7.0
 40
7.0
 40
7.0
 10
93.15951603573791
 20
-140.3945312149014
 30
0.0
 10
93.15951603573791
 20
-140.3945312149014
 30
0.0
 10
93.15951603573791
 20
-139.2903781118788
 30
0.0
 10
93.15951603573791
 20
-139.2903781118788
 30
0.0
 10
93.15951603573791
 20
-139.2903781118788
 30
0.0
 10
92.80708276759684
 20
-139.2903781118788
 30
0.0
 10
92.80708276759684
 20
-139.2903781118788
 30
0.0
 10
92.80708276759684
 20
-139.2903781118788
 30
0.0
 10
92.80708276759684
 20
-139.1422390060131
 30
0.0
 10
92.80708276759684
 20
-139.1422390060131
 30
0.0
 10
93.16192760257758
 20
-139.1274250954265
 30
0.0
 10
93.21153697756517
 20
-138.9644720789742
 30
0.0
 10
93.24323185602947
 20
-138.8504394184124
 30
0.0
 10
93.24323185602947
 20
-138.8504394184124
 30
0.0
 10
93.3992946815113
 20
-138.8504394184124
 30
0.0
 10
93.3992946815113
 20
-138.8504394184124
 30
0.0
 10
93.3992946815113
 20
-138.8504394184124
 30
0.0
 10
93.3992946815113
 20
-140.3945312149014
 30
0.0
 10
93.3992946815113
 20
-140.3945312149014
 30
0.0
 10
93.3992946815113
 20
-140.3945312149014
 30
0.0
 10
93.15951603573791
 20
-140.3945312149014
 30
0.0
 10
93.15951603573791
 20
-140.3945312149014
 30
0.0
  0
HATCH
  5
7C
330
77
100
AcDbEntity
  8
_U+30EC_U+30A4_U+30E4_U+30FC 1
 62
   179
420
  2234388
100
AcDbHatch
 10
0.0
 20
0.0
 30
0.0
210
0.0
220
0.0
230
1.0
  2
SOLID
 70
     1
 71
     0
 91
        1
 92
        1
 93
        1
 72
     4
 94
        3
 73
     0
 74
     1
 95
       26
 96
       22
 40
0.0
 40
0.0
 40
0.0
 40
0.0
 40
1.0
 40
1.0
 40
1.0
 40
2.0
 40
2.0
 40
2.0
 40
3.0
 40
3.0
 40
3.0
 40
4.0
 40
4.0
 40
4.0
 40
5.0
 40
5.0
 40
5.0
 40
6.0
 40
6.0
 40
6.0
 40
7.0
 40
7.0
 40
7.0
 40
7.0
 10
93.15951603573791
 20
-140.3945312149014
 10
93.15951603573791
 20
-140.3945312149014
 10
93.15951603573791
 20
-139.2903781118788
 10
93.15951603573791
 20
-139.2903781118788
 10
93.15951603573791
 20
-139.2903781118788
 10
92.80708276759684
 20
-139.2903781118788
 10
92.80708276759684
 20
-139.2903781118788
 10
92.80708276759684
 20
-139.2903781118788
 10
92.80708276759684
 20
-139.1422390060131
 10
92.80708276759684
 20
-139.1422390060131
 10
93.16192760257758
 20
-139.1274250954265
 10
93.21153697756517
 20
-138.9644720789742
 10
93.24323185602947
 20
-138.8504394184124
 10
93.24323185602947
 20
-138.8504394184124
 10
93.3992946815113
 20
-138.8504394184124
 10
93.3992946815113
 20
-138.8504394184124
 10
93.3992946815113
 20
-138.8504394184124
 10
93.3992946815113
 20
-140.3945312149014
 10
93.3992946815113
 20
-140.3945312149014
 10
93.3992946815113
 20
-140.3945312149014
 10
93.15951603573791
 20
-140.3945312149014
 10
93.15951603573791
 20
-140.3945312149014
 97
        0
 97
        0
 75
     2
 76
     1
 98
        0
  0
SPLINE
  5
7D
330
77
100
AcDbEntity
  8
_U+30EC_U+30A4_U+30E4_U+30FC 1
370
     0
100
AcDbSpline
210
0.0
220
0.0
230
1.0
 70
    11
 71
     3
 72
    44
 73
    40
 74
     0
 42
0.0000000001
 43
0.0000000001
 12
1.0
 22
0.0
 32
0.0
 13
1.0
 23
0.0
 33
0.0
 40
0.0
 40
0.0
 40
0.0
 40
0.0
 40
1.0
 40
1.0
 40
1.0
 40
2.0
 40
2.0
 40
2.0
 40
3.0
 40
3.0
 40
3.0
 40
4.0
 40
4.0
 40
4.0
 40
5.0
 40
5.0
 40
5.0
 40
6.0
 40
6.0
 40
6.0
 40
7.0
 40
7.0
 40
7.0
 40
8.0
 40
8.0
 40
8.0
 40
9.0
 40
9.0
 40
9.0
 40
10.0
 40
10.0
 40
10.0
 40
11.0
 40
11.0
 40
11.0
 40
12.0
 40
12.0
 40
12.0
 40
13.0
 40
13.0
 40
13.0
 40
13.0
 10
94.5689045987536
 20
-139.8126545874427
 30
0.0
 10
94.33601614395073
 20
-139.9714734893127
 30
0.0
 10
94.236452884427
 20
-140.0455430422456
 30
0.0
 10
94.18477645214826
 20
-140.1892035239805
 30
0.0
 10
94.18477645214826
 20
-140.1892035239805
 30
0.0
 10
95.01642250228757
 20
-140.1892035239805
 30
0.0
 10
95.01642250228757
 20
-140.1892035239805
 30
0.0
 10
95.01642250228757
 20
-140.1892035239805
 30
0.0
 10
95.01642250228757
 20
-140.3945312149014
 30
0.0
 10
95.01642250228757
 20
-140.3945312149014
 30
0.0
 10
95.01642250228757
 20
-140.3945312149014
 30
0.0
 10
93.91778155204139
 20
-140.3945312149014
 30
0.0
 10
93.91778155204139
 20
-140.3945312149014
 30
0.0
 10
93.95188799734537
 20
-140.0369303035324
 30
0.0
 10
94.02182343569594
 20
-139.9587266360173
 30
0.0
 10
94.43316783663477
 20
-139.6603813669946
 30
0.0
 10
94.7067084181636
 20
-139.4615993574957
 30
0.0
 10
94.7769883660627
 20
-139.3940754859848
 30
0.0
 10
94.7769883660627
 20
-139.2566161761233
 30
0.0
 10
94.7769883660627
 20
-139.1381048914308
 30
0.0
 10
94.70016273674163
 20
-139.0068467534427
 30
0.0
 10
94.48966740259287
 20
-139.0068467534427
 30
0.0
 10
94.2116481969332
 20
-139.0068467534427
 30
0.0
 10
94.20269094867156
 20
-139.237323641406
 30
0.0
 10
94.19821232454073
 20
-139.3537678688074
 30
0.0
 10
94.19821232454073
 20
-139.3537678688074
 30
0.0
 10
93.95843367876734
 20
-139.3537678688074
 30
0.0
 10
93.95843367876734
 20
-139.3537678688074
 30
0.0
 10
93.96773543657751
 20
-139.2269883549502
 30
0.0
 10
93.97875974213031
 20
-139.114678242131
 30
0.0
 10
94.06488712926156
 20
-138.9961669574385
 30
0.0
 10
94.18236488530857
 20
-138.8356255078258
 30
0.0
 10
94.3811468948075
 20
-138.8015190625219
 30
0.0
 10
94.50551484182502
 20
-138.8015190625219
 30
0.0
 10
94.8017930535565
 20
-138.8015190625219
 30
0.0
 10
95.02331269325806
 20
-138.9858316709827
 30
0.0
 10
95.02331269325806
 20
-139.2586832334145
 30
0.0
 10
95.02331269325806
 20
-139.4870930640866
 30
0.0
 10
94.89894474624055
 20
-139.5863118140618
 30
0.0
 10
94.5689045987536
 20
-139.8126545874427
 30
0.0
  0
HATCH
  5
7E
330
77
100
AcDbEntity
  8
_U+30EC_U+30A4_U+30E4_U+30FC 1
 62
   179
420
  2234388
100
AcDbHatch
 10
0.0
 20
0.0
 30
0.0
210
0.0
220
0.0
230
1.0
  2
SOLID
 70
     1
 71
     0
 91
        1
 92
        1
 93
        1
 72
     4
 94
        3
 73
     0
 74
     1
 95
       44
 96
       40
 40
0.0
 40
0.0
 40
0.0
 40
0.0
 40
1.0
 40
1.0
 40
1.0
 40
2.0
 40
2.0
 40
2.0
 40
3.0
 40
3.0
 40
3.0
 40
4.0
 40
4.0
 40
4.0
 40
5.0
 40
5.0
 40
5.0
 40
6.0
 40
6.0
 40
6.0
 40
7.0
 40
7.0
 40
7.0
 40
8.0
 40
8.0
 40
8.0
 40
9.0
 40
9.0
 40
9.0
 40
10.0
 40
10.0
 40
10.0
 40
11.0
 40
11.0
 40
11.0
 40
12.0
 40
12.0
 40
12.0
 40
13.0
 40
13.0
 40
13.0
 40
13.0
 10
94.5689045987536
 20
-139.8126545874427
 10
94.33601614395073
 20
-139.9714734893127
 10
94.236452884427
 20
-140.0455430422456
 10
94.18477645214826
 20
-140.1892035239805
 10
94.18477645214826
 20
-140.1892035239805
 10
95.01642250228757
 20
-140.1892035239805
 10
95.01642250228757
 20
-140.1892035239805
 10
95.01642250228757
 20
-140.1892035239805
 10
95.01642250228757
 20
-140.3945312149014
 10
95.01642250228757
 20
-140.3945312149014
 10
95.01642250228757
 20
-140.3945312149014
 10
93.91778155204139
 20
-140.3945312149014
 10
93.91778155204139
 20
-140.3945312149014
 10
93.95188799734537
 20
-140.0369303035324
 10
94.02182343569594
 20
-139.9587266360173
 10
94.43316783663477
 20
-139.6603813669946
 10
94.7067084181636
 20
-139.4615993574957
 10
94.7769883660627
 20
-139.3940754859848
 10
94.7769883660627
 20
-139.2566161761233
 10
94.7769883660627
 20
-139.1381048914308
 10
94.70016273674163
 20
-139.0068467534427
 10
94.48966740259287
 20
-139.0068467534427
 10
94.2116481969332
 20
-139.0068467534427
 10
94.20269094867156
 20
-139.237323641406
 10
94.19821232454073
 20
-139.3537678688074
 10
94.19821232454073
 20
-139.3537678688074
 10
93.95843367876734
 20
-139.3537678688074
 10
93.95843367876734
 20
-139.3537678688074
 10
93.96773543657751
 20
-139.2269883549502
 10
93.97875974213031
 20
-139.114678242131
 10
94.06488712926156
 20
-138.9961669574385
 10
94.18236488530857
 20
-138.8356255078258
 10
94.3811468948075
 20
-138.8015190625219
 10
94.50551484182502
 20
-138.8015190625219
 10
94.8017930535565
 20
-138.8015190625219
 10
95.02331269325806
 20
-138.9858316709827
 10
95.02331269325806
 20
-139.2586832334145
 10
95.02331269325806
 20
-139.4870930640866
 10
94.89894474624055
 20
-139.5863118140618
 10
94.5689045987536
 20
-139.8126545874427
 97
        0
 97
        0
 75
     2
 76
     1
 98
        0
  0
ENDBLK
  5
7A
330
77
100
AcDbEntity
  8
0
100
AcDbBlockEnd
  0
BLOCK
  5
C9
330
C7
100
AcDbEntity
  8
0
100
AcDbBlockBegin
  2
block 6
 70
     0
 10
0.0
 20
0.0
 30
0.0
  3
block 6
  1

  0
SPLINE
  5
CB
330
C7
100
AcDbEntity
  8
_U+30EC_U+30A4_U+30E4_U+30FC 1
370
     0
100
AcDbSpline
210
0.0
220
0.0
230
1.0
 70
    11
 71
     3
 72
    26
 73
    22
 74
     0
 42
0.0000000001
 43
0.0000000001
 12
1.0
 22
0.0
 32
0.0
 13
1.0
 23
0.0
 33
0.0
 40
0.0
 40
0.0
 40
0.0
 40
0.0
 40
1.0
 40
1.0
 40
1.0
 40
2.0
 40
2.0
 40
2.0
 40
3.0
 40
3.0
 40
3.0
 40
4.0
 40
4.0
 40
4.0
 40
5.0
 40
5.0
 40
5.0
 40
6.0
 40
6.0
 40
6.0
 40
7.0
 40
7.0
 40
7.0
 40
7.0
 10
92.35611976857764
 20
-128.8107421552973
 30
0.0
 10
92.35611976857764
 20
-128.8107421552973
 30
0.0
 10
92.35611976857764
 20
-127.7065890522748
 30
0.0
 10
92.35611976857764
 20
-127.7065890522748
 30
0.0
 10
92.35611976857764
 20
-127.7065890522748
 30
0.0
 10
92.0260796210907
 20
-127.7065890522748
 30
0.0
 10
92.0260796210907
 20
-127.7065890522748
 30
0.0
 10
92.0260796210907
 20
-127.7065890522748
 30
0.0
 10
92.0260796210907
 20
-127.558449946409
 30
0.0
 10
92.0260796210907
 20
-127.558449946409
 30
0.0
 10
92.35818682586878
 20
-127.5438082905967
 30
0.0
 10
92.40504012446819
 20
-127.3808552741444
 30
0.0
 10
92.43466794564134
 20
-127.2666503588083
 30
0.0
 10
92.43466794564134
 20
-127.2666503588083
 30
0.0
 10
92.58073999421593
 20
-127.2666503588083
 30
0.0
 10
92.58073999421593
 20
-127.2666503588083
 30
0.0
 10
92.58073999421593
 20
-127.2666503588083
 30
0.0
 10
92.58073999421593
 20
-128.8107421552973
 30
0.0
 10
92.58073999421593
 20
-128.8107421552973
 30
0.0
 10
92.58073999421593
 20
-128.8107421552973
 30
0.0
 10
92.35611976857764
 20
-128.8107421552973
 30
0.0
 10
92.35611976857764
 20
-128.8107421552973
 30
0.0
  0
HATCH
  5
CC
330
C7
100
AcDbEntity
  8
_U+30EC_U+30A4_U+30E4_U+30FC 1
 62
     7
420
 16777215
100
AcDbHatch
 10
0.0
 20
0.0
 30
0.0
210
0.0
220
0.0
230
1.0
  2
SOLID
 70
     1
 71
     0
 91
        1
 92
        1
 93
        1
 72
     4
 94
        3
 73
     0
 74
     1
 95
       26
 96
       22
 40
0.0
 40
0.0
 40
0.0
 40
0.0
 40
1.0
 40
1.0
 40
1.0
 40
2.0
 40
2.0
 40
2.0
 40
3.0
 40
3.0
 40
3.0
 40
4.0
 40
4.0
 40
4.0
 40
5.0
 40
5.0
 40
5.0
 40
6.0
 40
6.0
 40
6.0
 40
7.0
 40
7.0
 40
7.0
 40
7.0
 10
92.35611976857764
 20
-128.8107421552973
 10
92.35611976857764
 20
-128.8107421552973
 10
92.35611976857764
 20
-127.7065890522748
 10
92.35611976857764
 20
-127.7065890522748
 10
92.35611976857764
 20
-127.7065890522748
 10
92.0260796210907
 20
-127.7065890522748
 10
92.0260796210907
 20
-127.7065890522748
 10
92.0260796210907
 20
-127.7065890522748
 10
92.0260796210907
 20
-127.558449946409
 10
92.0260796210907
 20
-127.558449946409
 10
92.35818682586878
 20
-127.5438082905967
 10
92.40504012446819
 20
-127.3808552741444
 10
92.43466794564134
 20
-127.2666503588083
 10
92.43466794564134
 20
-127.2666503588083
 10
92.58073999421593
 20
-127.2666503588083
 10
92.58073999421593
 20
-127.2666503588083
 10
92.58073999421593
 20
-127.2666503588083
 10
92.58073999421593
 20
-128.8107421552973
 10
92.58073999421593
 20
-128.8107421552973
 10
92.58073999421593
 20
-128.8107421552973
 10
92.35611976857764
 20
-128.8107421552973
 10
92.35611976857764
 20
-128.8107421552973
 97
        0
 97
        0
 75
     2
 76
     1
 98
        0
  0
ENDBLK
  5
CA
330
C7
100
AcDbEntity
  8
0
100
AcDbBlockEnd
  0
ENDSEC
  0
SECTION
  2
ENTITIES
  0
SPLINE
  5
41
330
1F
100
AcDbEntity
  8
_U+30EC_U+30A4_U+30E4_U+30FC 1
370
     0
100
AcDbSpline
210
0.0
220
0.0
230
1.0
 70
    11
 71
     3
 72
    65
 73
    61
 74
     0
 42
0.0000000001
 43
0.0000000001
 12
1.0
 22
0.0
 32
0.0
 13
1.0
 23
0.0
 33
0.0
 40
0.0
 40
0.0
 40
0.0
 40
0.0
 40
1.0
 40
1.0
 40
1.0
 40
2.0
 40
2.0
 40
2.0
 40
3.0
 40
3.0
 40
3.0
 40
4.0
 40
4.0
 40
4.0
 40
5.0
 40
5.0
 40
5.0
 40
6.0
 40
6.0
 40
6.0
 40
7.0
 40
7.0
 40
7.0
 40
8.0
 40
8.0
 40
8.0
 40
9.0
 40
9.0
 40
9.0
 40
10.0
 40
10.0
 40
10.0
 40
11.0
 40
11.0
 40
11.0
 40
12.0
 40
12.0
 40
12.0
 40
13.0
 40
13.0
 40
13.0
 40
14.0
 40
14.0
 40
14.0
 40
15.0
 40
15.0
 40
15.0
 40
16.0
 40
16.0
 40
16.0
 40
17.0
 40
17.0
 40
17.0
 40
18.0
 40
18.0
 40
18.0
 40
19.0
 40
19.0
 40
19.0
 40
20.0
 40
20.0
 40
20.0
 40
20.0
 10
99.5260521831011
 20
-122.1300085805787
 30
0.0
 10
99.5260521831011
 20
-122.1300085805787
 30
0.0
 10
88.52587690818339
 20
-122.1300085805787
 30
0.0
 10
88.52587690818339
 20
-122.1300085805787
 30
0.0
 10
88.17687386153165
 20
-122.1300085805787
 30
0.0
 10
87.89334636876504
 20
-122.4138888582854
 30
0.0
 10
87.89334636876504
 20
-122.762539135976
 30
0.0
 10
87.89334636876504
 20
-122.762539135976
 30
0.0
 10
87.89334636876504
 20
-123.2620724691845
 30
0.0
 10
87.89334636876504
 20
-123.2620724691845
 30
0.0
 10
87.89334636876504
 20
-123.3350974691664
 30
0.0
 10
87.95261303391968
 20
-123.3943641358181
 30
0.0
 10
88.02563803205666
 20
-123.3943641358181
 30
0.0
 10
88.02563803205666
 20
-123.3943641358181
 30
0.0
 10
93.3930812284551
 20
-123.3943641358181
 30
0.0
 10
93.3930812284551
 20
-123.3943641358181
 30
0.0
 10
93.3930812284551
 20
-123.3943641358181
 30
0.0
 10
93.3930812284551
 20
-133.1298666333843
 30
0.0
 10
93.3930812284551
 20
-133.1298666333843
 30
0.0
 10
93.3930812284551
 20
-133.1298666333843
 30
0.0
 10
88.02563803205666
 20
-133.1298666333843
 30
0.0
 10
88.02563803205666
 20
-133.1298666333843
 30
0.0
 10
87.95261303391968
 20
-133.1298666333843
 30
0.0
 10
87.89334636876504
 20
-133.1890980222585
 30
0.0
 10
87.89334636876504
 20
-133.2621583000179
 30
0.0
 10
87.89334636876504
 20
-133.2621583000179
 30
0.0
 10
87.89334636876504
 20
-133.7620444110038
 30
0.0
 10
87.89334636876504
 20
-133.7620444110038
 30
0.0
 10
87.89334636876504
 20
-134.1106946886948
 30
0.0
 10
88.17687386153165
 20
-134.3942221886234
 30
0.0
 10
88.52587690818339
 20
-134.3942221886234
 30
0.0
 10
88.52587690818339
 20
-134.3942221886234
 30
0.0
 10
99.5260521831011
 20
-134.3942221886234
 30
0.0
 10
99.5260521831011
 20
-134.3942221886234
 30
0.0
 10
99.87470245198406
 20
-134.3942221886234
 30
0.0
 10
100.1585827225195
 20
-134.1106946886948
 30
0.0
 10
100.1585827225195
 20
-133.7620444110038
 30
0.0
 10
100.1585827225195
 20
-133.7620444110038
 30
0.0
 10
100.1585827225195
 20
-133.2621583000179
 30
0.0
 10
100.1585827225195
 20
-133.2621583000179
 30
0.0
 10
100.1585827225195
 20
-133.1890980222585
 30
0.0
 10
100.0993160573648
 20
-133.1298666333843
 30
0.0
 10
100.0262910592278
 20
-133.1298666333843
 30
0.0
 10
100.0262910592278
 20
-133.1298666333843
 30
0.0
 10
94.65814230729183
 20
-133.1298666333843
 30
0.0
 10
94.65814230729183
 20
-133.1298666333843
 30
0.0
 10
94.65814230729183
 20
-133.1298666333843
 30
0.0
 10
94.65814230729183
 20
-123.3943641358181
 30
0.0
 10
94.65814230729183
 20
-123.3943641358181
 30
0.0
 10
94.65814230729183
 20
-123.3943641358181
 30
0.0
 10
100.0262910592278
 20
-123.3943641358181
 30
0.0
 10
100.0262910592278
 20
-123.3943641358181
 30
0.0
 10
100.0993160573648
 20
-123.3943641358181
 30
0.0
 10
100.1585827225195
 20
-123.3350974691664
 30
0.0
 10
100.1585827225195
 20
-123.2620724691845
 30
0.0
 10
100.1585827225195
 20
-123.2620724691845
 30
0.0
 10
100.1585827225195
 20
-122.762539135976
 30
0.0
 10
100.1585827225195
 20
-122.762539135976
 30
0.0
 10
100.1585827225195
 20
-122.4138888582854
 30
0.0
 10
99.87470245198406
 20
-122.1300085805787
 30
0.0
 10
99.5260521831011
 20
-122.1300085805787
 30
0.0
  0
HATCH
  5
42
330
1F
100
AcDbEntity
  8
_U+30EC_U+30A4_U+30E4_U+30FC 1
 62
     9
420
 13224394
100
AcDbHatch
 10
0.0
 20
0.0
 30
0.0
210
0.0
220
0.0
230
1.0
  2
SOLID
 70
     1
 71
     0
 91
        1
 92
        1
 93
        1
 72
     4
 94
        3
 73
     0
 74
     1
 95
       65
 96
       61
 40
0.0
 40
0.0
 40
0.0
 40
0.0
 40
1.0
 40
1.0
 40
1.0
 40
2.0
 40
2.0
 40
2.0
 40
3.0
 40
3.0
 40
3.0
 40
4.0
 40
4.0
 40
4.0
 40
5.0
 40
5.0
 40
5.0
 40
6.0
 40
6.0
 40
6.0
 40
7.0
 40
7.0
 40
7.0
 40
8.0
 40
8.0
 40
8.0
 40
9.0
 40
9.0
 40
9.0
 40
10.0
 40
10.0
 40
10.0
 40
11.0
 40
11.0
 40
11.0
 40
12.0
 40
12.0
 40
12.0
 40
13.0
 40
13.0
 40
13.0
 40
14.0
 40
14.0
 40
14.0
 40
15.0
 40
15.0
 40
15.0
 40
16.0
 40
16.0
 40
16.0
 40
17.0
 40
17.0
 40
17.0
 40
18.0
 40
18.0
 40
18.0
 40
19.0
 40
19.0
 40
19.0
 40
20.0
 40
20.0
 40
20.0
 40
20.0
 10
99.5260521831011
 20
-122.1300085805787
 10
99.5260521831011
 20
-122.1300085805787
 10
88.52587690818339
 20
-122.1300085805787
 10
88.52587690818339
 20
-122.1300085805787
 10
88.17687386153165
 20
-122.1300085805787
 10
87.89334636876504
 20
-122.4138888582854
 10
87.89334636876504
 20
-122.762539135976
 10
87.89334636876504
 20
-122.762539135976
 10
87.89334636876504
 20
-123.2620724691845
 10
87.89334636876504
 20
-123.2620724691845
 10
87.89334636876504
 20
-123.3350974691664
 10
87.95261303391968
 20
-123.3943641358181
 10
88.02563803205666
 20
-123.3943641358181
 10
88.02563803205666
 20
-123.3943641358181
 10
93.3930812284551
 20
-123.3943641358181
 10
93.3930812284551
 20
-123.3943641358181
 10
93.3930812284551
 20
-123.3943641358181
 10
93.3930812284551
 20
-133.1298666333843
 10
93.3930812284551
 20
-133.1298666333843
 10
93.3930812284551
 20
-133.1298666333843
 10
88.02563803205666
 20
-133.1298666333843
 10
88.02563803205666
 20
-133.1298666333843
 10
87.95261303391968
 20
-133.1298666333843
 10
87.89334636876504
 20
-133.1890980222585
 10
87.89334636876504
 20
-133.2621583000179
 10
87.89334636876504
 20
-133.2621583000179
 10
87.89334636876504
 20
-133.7620444110038
 10
87.89334636876504
 20
-133.7620444110038
 10
87.89334636876504
 20
-134.1106946886948
 10
88.17687386153165
 20
-134.3942221886234
 10
88.52587690818339
 20
-134.3942221886234
 10
88.52587690818339
 20
-134.3942221886234
 10
99.5260521831011
 20
-134.3942221886234
 10
99.5260521831011
 20
-134.3942221886234
 10
99.87470245198406
 20
-134.3942221886234
 10
100.1585827225195
 20
-134.1106946886948
 10
100.1585827225195
 20
-133.7620444110038
 10
100.1585827225195
 20
-133.7620444110038
 10
100.1585827225195
 20
-133.2621583000179
 10
100.1585827225195
 20
-133.2621583000179
 10
100.1585827225195
 20
-133.1890980222585
 10
100.0993160573648
 20
-133.1298666333843
 10
100.0262910592278
 20
-133.1298666333843
 10
100.0262910592278
 20
-133.1298666333843
 10
94.65814230729183
 20
-133.1298666333843
 10
94.65814230729183
 20
-133.1298666333843
 10
94.65814230729183
 20
-133.1298666333843
 10
94.65814230729183
 20
-123.3943641358181
 10
94.65814230729183
 20
-123.3943641358181
 10
94.65814230729183
 20
-123.3943641358181
 10
100.0262910592278
 20
-123.3943641358181
 10
100.0262910592278
 20
-123.3943641358181
 10
100.0993160573648
 20
-123.3943641358181
 10
100.1585827225195
 20
-123.3350974691664
 10
100.1585827225195
 20
-123.2620724691845
 10
100.1585827225195
 20
-123.2620724691845
 10
100.1585827225195
 20
-122.762539135976
 10
100.1585827225195
 20
-122.762539135976
 10
100.1585827225195
 20
-122.4138888582854
 10
99.87470245198406
 20
-122.1300085805787
 10
99.5260521831011
 20
-122.1300085805787
 97
        0
 97
        0
 75
     2
 76
     1
 98
        0
  0
SPLINE
  5
43
330
1F
100
AcDbEntity
  8
_U+30EC_U+30A4_U+30E4_U+30FC 1
 62
   179
420
  2234388
370
     9
100
AcDbSpline
210
0.0
220
0.0
230
1.0
 70
    11
 71
     3
 72
    17
 73
    13
 74
     0
 42
0.0000000001
 43
0.0000000001
 12
1.0
 22
0.0
 32
0.0
 13
1.0
 23
0.0
 33
0.0
 40
0.0
 40
0.0
 40
0.0
 40
0.0
 40
1.0
 40
1.0
 40
1.0
 40
2.0
 40
2.0
 40
2.0
 40
3.0
 40
3.0
 40
3.0
 40
4.0
 40
4.0
 40
4.0
 40
4.0
 10
100.2261043874635
 20
-119.0277160813541
 30
0.0
 10
100.2261043874635
 20
-118.9725769147013
 30
0.0
 10
100.1813016108287
 20
-118.9278094147125
 30
0.0
 10
100.1261977233457
 20
-118.9278094147125
 30
0.0
 10
100.0710610860931
 20
-118.9278094147125
 30
0.0
 10
100.0262910592278
 20
-118.9725769147013
 30
0.0
 10
100.0262910592278
 20
-119.0277160813541
 30
0.0
 10
100.0262910592278
 20
-119.0828199702293
 30
0.0
 10
100.0710610860931
 20
-119.1276227479957
 30
0.0
 10
100.1261977233457
 20
-119.1276227479957
 30
0.0
 10
100.1813016108287
 20
-119.1276227479957
 30
0.0
 10
100.2261043874635
 20
-119.0828199702293
 30
0.0
 10
100.2261043874635
 20
-119.0277160813541
 30
0.0
  0
SPLINE
  5
44
330
1F
100
AcDbEntity
  8
_U+30EC_U+30A4_U+30E4_U+30FC 1
 62
   179
420
  2234388
370
     9
100
AcDbSpline
210
0.0
220
0.0
230
1.0
 70
    11
 71
     3
 72
    17
 73
    13
 74
     0
 42
0.0000000001
 43
0.0000000001
 12
1.0
 22
0.0
 32
0.0
 13
1.0
 23
0.0
 33
0.0
 40
0.0
 40
0.0
 40
0.0
 40
0.0
 40
1.0
 40
1.0
 40
1.0
 40
2.0
 40
2.0
 40
2.0
 40
3.0
 40
3.0
 40
3.0
 40
4.0
 40
4.0
 40
4.0
 40
4.0
 10
88.22545136029233
 20
-119.0277160813541
 30
0.0
 10
88.22545136029233
 20
-118.9725769147013
 30
0.0
 10
88.18064858365757
 20
-118.9278094147125
 30
0.0
 10
88.1255446961745
 20
-118.9278094147125
 30
0.0
 10
88.07040553091454
 20
-118.9278094147125
 30
0.0
 10
88.02563803205666
 20
-118.9725769147013
 30
0.0
 10
88.02563803205666
 20
-119.0277160813541
 30
0.0
 10
88.02563803205666
 20
-119.0828199702293
 30
0.0
 10
88.07040553091454
 20
-119.1276227479957
 30
0.0
 10
88.1255446961745
 20
-119.1276227479957
 30
0.0
 10
88.18064858365757
 20
-119.1276227479957
 30
0.0
 10
88.22545136029233
 20
-119.0828199702293
 30
0.0
 10
88.22545136029233
 20
-119.0277160813541
 30
0.0
  0
SPLINE
  5
45
330
1F
100
AcDbEntity
  8
_U+30EC_U+30A4_U+30E4_U+30FC 1
 62
   179
420
  2234388
370
     9
100
AcDbSpline
210
0.0
220
0.0
230
1.0
 70
    11
 71
     3
 72
    17
 73
    13
 74
     0
 42
0.0000000001
 43
0.0000000001
 12
1.0
 22
0.0
 32
0.0
 13
1.0
 23
0.0
 33
0.0
 40
0.0
 40
0.0
 40
0.0
 40
0.0
 40
1.0
 40
1.0
 40
1.0
 40
2.0
 40
2.0
 40
2.0
 40
3.0
 40
3.0
 40
3.0
 40
4.0
 40
4.0
 40
4.0
 40
4.0
 10
85.27506504667407
 20
-133.3152160777825
 30
0.0
 10
85.27506504667407
 20
-133.3706727444352
 30
0.0
 10
85.23029754781618
 20
-133.4151227444242
 30
0.0
 10
85.17515838255623
 20
-133.4151227444242
 30
0.0
 10
85.12005449507316
 20
-133.4151227444242
 30
0.0
 10
85.0752517184384
 20
-133.3706727444352
 30
0.0
 10
85.0752517184384
 20
-133.3152160777825
 30
0.0
 10
85.0752517184384
 20
-133.2600769111295
 30
0.0
 10
85.12005449507316
 20
-133.2153094111409
 30
0.0
 10
85.17515838255623
 20
-133.2153094111409
 30
0.0
 10
85.23029754781618
 20
-133.2153094111409
 30
0.0
 10
85.27506504667407
 20
-133.2600769111295
 30
0.0
 10
85.27506504667407
 20
-133.3152160777825
 30
0.0
  0
SPLINE
  5
46
330
1F
100
AcDbEntity
  8
_U+30EC_U+30A4_U+30E4_U+30FC 1
 62
   179
420
  2234388
370
     9
100
AcDbSpline
210
0.0
220
0.0
230
1.0
 70
    11
 71
     3
 72
    17
 73
    13
 74
     0
 42
0.0000000001
 43
0.0000000001
 12
1.0
 22
0.0
 32
0.0
 13
1.0
 23
0.0
 33
0.0
 40
0.0
 40
0.0
 40
0.0
 40
0.0
 40
1.0
 40
1.0
 40
1.0
 40
2.0
 40
2.0
 40
2.0
 40
3.0
 40
3.0
 40
3.0
 40
4.0
 40
4.0
 40
4.0
 40
4.0
 10
85.27506504667407
 20
-134.3153057997547
 30
0.0
 10
85.27506504667407
 20
-134.3707977441849
 30
0.0
 10
85.23029754781618
 20
-134.4155652441741
 30
0.0
 10
85.17515838255623
 20
-134.4155652441741
 30
0.0
 10
85.12005449507316
 20
-134.4155652441741
 30
0.0
 10
85.0752517184384
 20
-134.3707977441849
 30
0.0
 10
85.0752517184384
 20
-134.3153057997547
 30
0.0
 10
85.0752517184384
 20
-134.2602019108791
 30
0.0
 10
85.12005449507316
 20
-134.215399133113
 30
0.0
 10
85.17515838255623
 20
-134.215399133113
 30
0.0
 10
85.23029754781618
 20
-134.215399133113
 30
0.0
 10
85.27506504667407
 20
-134.2602019108791
 30
0.0
 10
85.27506504667407
 20
-134.3153057997547
 30
0.0
  0
POLYLINE
  5
47
330
1F
100
AcDbEntity
  8
_U+30EC_U+30A4_U+30E4_U+30FC 1
 62
   179
420
  2234388
370
     9
100
AcDb2dPolyline
 66
     1
 10
0.0
 20
0.0
 30
0.0
  0
VERTEX
  5
48
330
47
100
AcDbEntity
  8
_U+30EC_U+30A4_U+30E4_U+30FC 1
 62
   179
420
  2234388
370
     9
100
AcDbVertex
100
AcDb2dVertex
 10
85.17515838255623
 20
-134.3153057997547
 30
0.0
  0
VERTEX
  5
49
330
47
100
AcDbEntity
  8
_U+30EC_U+30A4_U+30E4_U+30FC 1
 62
   179
420
  2234388
370
     9
100
AcDbVertex
100
AcDb2dVertex
 10
85.17515838255623
 20
-123.2152235803073
 30
0.0
  0
SEQEND
  5
4A
330
47
100
AcDbEntity
  8
_U+30EC_U+30A4_U+30E4_U+30FC 1
 62
   179
420
  2234388
370
     9
  0
POLYLINE
  5
4B
330
1F
100
AcDbEntity
  8
_U+30EC_U+30A4_U+30E4_U+30FC 1
 62
   179
420
  2234388
370
     9
100
AcDb2dPolyline
 66
     1
 10
0.0
 20
0.0
 30
0.0
  0
VERTEX
  5
4C
330
4B
100
AcDbEntity
  8
_U+30EC_U+30A4_U+30E4_U+30FC 1
 62
   179
420
  2234388
370
     9
100
AcDbVertex
100
AcDb2dVertex
 10
84.04517591138449
 20
-134.3153057997547
 30
0.0
  0
VERTEX
  5
4D
330
4B
100
AcDbEntity
  8
_U+30EC_U+30A4_U+30E4_U+30FC 1
 62
   179
420
  2234388
370
     9
100
AcDbVertex
100
AcDb2dVertex
 10
86.50495418196364
 20
-134.3153057997547
 30
0.0
  0
SEQEND
  5
4E
330
4B
100
AcDbEntity
  8
_U+30EC_U+30A4_U+30E4_U+30FC 1
 62
   179
420
  2234388
370
     9
  0
POLYLINE
  5
4F
330
1F
100
AcDbEntity
  8
_U+30EC_U+30A4_U+30E4_U+30FC 1
 62
   179
420
  2234388
370
     9
100
AcDb2dPolyline
 66
     1
 10
0.0
 20
0.0
 30
0.0
  0
VERTEX
  5
50
330
4F
100
AcDbEntity
  8
_U+30EC_U+30A4_U+30E4_U+30FC 1
 62
   179
420
  2234388
370
     9
100
AcDbVertex
100
AcDb2dVertex
 10
84.04517591138449
 20
-133.3152160777825
 30
0.0
  0
VERTEX
  5
51
330
4F
100
AcDbEntity
  8
_U+30EC_U+30A4_U+30E4_U+30FC 1
 62
   179
420
  2234388
370
     9
100
AcDbVertex
100
AcDb2dVertex
 10
86.50495418196364
 20
-133.3152160777825
 30
0.0
  0
SEQEND
  5
52
330
4F
100
AcDbEntity
  8
_U+30EC_U+30A4_U+30E4_U+30FC 1
 62
   179
420
  2234388
370
     9
  0
SPLINE
  5
53
330
1F
100
AcDbEntity
  8
_U+30EC_U+30A4_U+30E4_U+30FC 1
 62
   179
420
  2234388
370
     9
100
AcDbSpline
210
0.0
220
0.0
230
1.0
 70
    11
 71
     3
 72
    17
 73
    13
 74
     0
 42
0.0000000001
 43
0.0000000001
 12
1.0
 22
0.0
 32
0.0
 13
1.0
 23
0.0
 33
0.0
 40
0.0
 40
0.0
 40
0.0
 40
0.0
 40
1.0
 40
1.0
 40
1.0
 40
2.0
 40
2.0
 40
2.0
 40
3.0
 40
3.0
 40
3.0
 40
4.0
 40
4.0
 40
4.0
 40
4.0
 10
85.27506504667407
 20
-123.3151302469489
 30
0.0
 10
85.27506504667407
 20
-123.3709396913796
 30
0.0
 10
85.23029754781618
 20
-123.4150369135909
 30
0.0
 10
85.17515838255623
 20
-123.4150369135909
 30
0.0
 10
85.12005449507316
 20
-123.4150369135909
 30
0.0
 10
85.0752517184384
 20
-123.3709396913796
 30
0.0
 10
85.0752517184384
 20
-123.3151302469489
 30
0.0
 10
85.0752517184384
 20
-123.2599910802961
 30
0.0
 10
85.12005449507316
 20
-123.2152235803073
 30
0.0
 10
85.17515838255623
 20
-123.2152235803073
 30
0.0
 10
85.23029754781618
 20
-123.2152235803073
 30
0.0
 10
85.27506504667407
 20
-123.2599910802961
 30
0.0
 10
85.27506504667407
 20
-123.3151302469489
 30
0.0
  0
POLYLINE
  5
54
330
1F
100
AcDbEntity
  8
_U+30EC_U+30A4_U+30E4_U+30FC 1
 62
   179
420
  2234388
370
     9
100
AcDb2dPolyline
 66
     1
 10
0.0
 20
0.0
 30
0.0
  0
VERTEX
  5
55
330
54
100
AcDbEntity
  8
_U+30EC_U+30A4_U+30E4_U+30FC 1
 62
   179
420
  2234388
370
     9
100
AcDbVertex
100
AcDb2dVertex
 10
84.04517591138449
 20
-123.3151302469489
 30
0.0
  0
VERTEX
  5
56
330
54
100
AcDbEntity
  8
_U+30EC_U+30A4_U+30E4_U+30FC 1
 62
   179
420
  2234388
370
     9
100
AcDbVertex
100
AcDb2dVertex
 10
86.50495418196364
 20
-123.3151302469489
 30
0.0
  0
SEQEND
  5
57
330
54
100
AcDbEntity
  8
_U+30EC_U+30A4_U+30E4_U+30FC 1
 62
   179
420
  2234388
370
     9
  0
INSERT
  5
59
330
1F
100
AcDbEntity
  8
_U+30EC_U+30A4_U+30E4_U+30FC 1
100
AcDbBlockReference
  2
block 2
 10
0.0
 20
0.0
 30
0.0
  0
INSERT
  5
5F
330
1F
100
AcDbEntity
  8
_U+30EC_U+30A4_U+30E4_U+30FC 1
100
AcDbBlockReference
  2
block 3
 10
0.0
 20
0.0
 30
0.0
  0
POLYLINE
  5
67
330
1F
100
AcDbEntity
  8
_U+30EC_U+30A4_U+30E4_U+30FC 1
 62
   179
420
  2234388
370
     9
100
AcDb2dPolyline
 66
     1
 10
0.0
 20
0.0
 30
0.0
  0
VERTEX
  5
68
330
67
100
AcDbEntity
  8
_U+30EC_U+30A4_U+30E4_U+30FC 1
 62
   179
420
  2234388
370
     9
100
AcDbVertex
100
AcDb2dVertex
 10
88.1255446961745
 20
-117.5676746928304
 30
0.0
  0
VERTEX
  5
69
330
67
100
AcDbEntity
  8
_U+30EC_U+30A4_U+30E4_U+30FC 1
 62
   179
420
  2234388
370
     9
100
AcDbVertex
100
AcDb2dVertex
 10
88.1255446961745
 20
-120.028158581104
 30
0.0
  0
SEQEND
  5
6A
330
67
100
AcDbEntity
  8
_U+30EC_U+30A4_U+30E4_U+30FC 1
 62
   179
420
  2234388
370
     9
  0
POLYLINE
  5
6B
330
1F
100
AcDbEntity
  8
_U+30EC_U+30A4_U+30E4_U+30FC 1
 62
   179
420
  2234388
370
     9
100
AcDb2dPolyline
 66
     1
 10
0.0
 20
0.0
 30
0.0
  0
VERTEX
  5
6C
330
6B
100
AcDbEntity
  8
_U+30EC_U+30A4_U+30E4_U+30FC 1
 62
   179
420
  2234388
370
     9
100
AcDbVertex
100
AcDb2dVertex
 10
100.1261977233457
 20
-117.5676746928304
 30
0.0
  0
VERTEX
  5
6D
330
6B
100
AcDbEntity
  8
_U+30EC_U+30A4_U+30E4_U+30FC 1
 62
   179
420
  2234388
370
     9
100
AcDbVertex
100
AcDb2dVertex
 10
100.1261977233457
 20
-120.028158581104
 30
0.0
  0
SEQEND
  5
6E
330
6B
100
AcDbEntity
  8
_U+30EC_U+30A4_U+30E4_U+30FC 1
 62
   179
420
  2234388
370
     9
  0
INSERT
  5
70
330
1F
100
AcDbEntity
  8
_U+30EC_U+30A4_U+30E4_U+30FC 1
100
AcDbBlockReference
  2
block 4
 10
0.0
 20
0.0
 30
0.0
  0
INSERT
  5
78
330
1F
100
AcDbEntity
  8
_U+30EC_U+30A4_U+30E4_U+30FC 1
100
AcDbBlockReference
  2
block 5
 10
0.0
 20
0.0
 30
0.0
  0
POLYLINE
  5
7F
330
1F
100
AcDbEntity
  8
_U+30EC_U+30A4_U+30E4_U+30FC 1
 62
   179
420
  2234388
370
     9
100
AcDb2dPolyline
 66
     1
 10
0.0
 20
0.0
 30
0.0
  0
VERTEX
  5
80
330
7F
100
AcDbEntity
  8
_U+30EC_U+30A4_U+30E4_U+30FC 1
 62
   179
420
  2234388
370
     9
100
AcDbVertex
100
AcDb2dVertex
 10
100.1254921678081
 20
-119.0277160813541
 30
0.0
  0
VERTEX
  5
81
330
7F
100
AcDbEntity
  8
_U+30EC_U+30A4_U+30E4_U+30FC 1
 62
   179
420
  2234388
370
     9
100
AcDbVertex
100
AcDb2dVertex
 10
88.1255446961745
 20
-119.0277160813541
 30
0.0
  0
SEQEND
  5
82
330
7F
100
AcDbEntity
  8
_U+30EC_U+30A4_U+30E4_U+30FC 1
 62
   179
420
  2234388
370
     9
  0
SPLINE
  5
83
330
1F
100
AcDbEntity
  8
_U+30EC_U+30A4_U+30E4_U+30FC 1
 62
   179
420
  2234388
370
     9
100
AcDbSpline
210
0.0
220
0.0
230
1.0
 70
    11
 71
     3
 72
    17
 73
    13
 74
     0
 42
0.0000000001
 43
0.0000000001
 12
1.0
 22
0.0
 32
0.0
 13
1.0
 23
0.0
 33
0.0
 40
0.0
 40
0.0
 40
0.0
 40
0.0
 40
1.0
 40
1.0
 40
1.0
 40
2.0
 40
2.0
 40
2.0
 40
3.0
 40
3.0
 40
3.0
 40
4.0
 40
4.0
 40
4.0
 40
4.0
 10
100.2261043874635
 20
-137.3759352434336
 30
0.0
 10
100.2261043874635
 20
-137.4310744100867
 30
0.0
 10
100.1813016108287
 20
-137.4758419100753
 30
0.0
 10
100.1261977233457
 20
-137.4758419100753
 30
0.0
 10
100.0710610860931
 20
-137.4758419100753
 30
0.0
 10
100.0262910592278
 20
-137.4310744100867
 30
0.0
 10
100.0262910592278
 20
-137.3759352434336
 30
0.0
 10
100.0262910592278
 20
-137.3208313545587
 30
0.0
 10
100.0710610860931
 20
-137.276028576792
 30
0.0
 10
100.1261977233457
 20
-137.276028576792
 30
0.0
 10
100.1813016108287
 20
-137.276028576792
 30
0.0
 10
100.2261043874635
 20
-137.3208313545587
 30
0.0
 10
100.2261043874635
 20
-137.3759352434336
 30
0.0
  0
SPLINE
  5
84
330
1F
100
AcDbEntity
  8
_U+30EC_U+30A4_U+30E4_U+30FC 1
 62
   179
420
  2234388
370
     9
100
AcDbSpline
210
0.0
220
0.0
230
1.0
 70
    11
 71
     3
 72
    17
 73
    13
 74
     0
 42
0.0000000001
 43
0.0000000001
 12
1.0
 22
0.0
 32
0.0
 13
1.0
 23
0.0
 33
0.0
 40
0.0
 40
0.0
 40
0.0
 40
0.0
 40
1.0
 40
1.0
 40
1.0
 40
2.0
 40
2.0
 40
2.0
 40
3.0
 40
3.0
 40
3.0
 40
4.0
 40
4.0
 40
4.0
 40
4.0
 10
88.22545136029233
 20
-137.3759352434336
 30
0.0
 10
88.22545136029233
 20
-137.4310744100867
 30
0.0
 10
88.18064858365757
 20
-137.4758419100753
 30
0.0
 10
88.1255446961745
 20
-137.4758419100753
 30
0.0
 10
88.07040553091454
 20
-137.4758419100753
 30
0.0
 10
88.02563803205666
 20
-137.4310744100867
 30
0.0
 10
88.02563803205666
 20
-137.3759352434336
 30
0.0
 10
88.02563803205666
 20
-137.3208313545587
 30
0.0
 10
88.07040553091454
 20
-137.276028576792
 30
0.0
 10
88.1255446961745
 20
-137.276028576792
 30
0.0
 10
88.18064858365757
 20
-137.276028576792
 30
0.0
 10
88.22545136029233
 20
-137.3208313545587
 30
0.0
 10
88.22545136029233
 20
-137.3759352434336
 30
0.0
  0
POLYLINE
  5
85
330
1F
100
AcDbEntity
  8
_U+30EC_U+30A4_U+30E4_U+30FC 1
 62
   179
420
  2234388
370
     9
100
AcDb2dPolyline
 66
     1
 10
0.0
 20
0.0
 30
0.0
  0
VERTEX
  5
86
330
85
100
AcDbEntity
  8
_U+30EC_U+30A4_U+30E4_U+30FC 1
 62
   179
420
  2234388
370
     9
100
AcDbVertex
100
AcDb2dVertex
 10
88.1255446961745
 20
-138.835976631958
 30
0.0
  0
VERTEX
  5
87
330
85
100
AcDbEntity
  8
_U+30EC_U+30A4_U+30E4_U+30FC 1
 62
   179
420
  2234388
370
     9
100
AcDbVertex
100
AcDb2dVertex
 10
88.1255446961745
 20
-136.3754927436837
 30
0.0
  0
SEQEND
  5
88
330
85
100
AcDbEntity
  8
_U+30EC_U+30A4_U+30E4_U+30FC 1
 62
   179
420
  2234388
370
     9
  0
POLYLINE
  5
89
330
1F
100
AcDbEntity
  8
_U+30EC_U+30A4_U+30E4_U+30FC 1
 62
   179
420
  2234388
370
     9
100
AcDb2dPolyline
 66
     1
 10
0.0
 20
0.0
 30
0.0
  0
VERTEX
  5
8A
330
89
100
AcDbEntity
  8
_U+30EC_U+30A4_U+30E4_U+30FC 1
 62
   179
420
  2234388
370
     9
100
AcDbVertex
100
AcDb2dVertex
 10
100.1261977233457
 20
-138.835976631958
 30
0.0
  0
VERTEX
  5
8B
330
89
100
AcDbEntity
  8
_U+30EC_U+30A4_U+30E4_U+30FC 1
 62
   179
420
  2234388
370
     9
100
AcDbVertex
100
AcDb2dVertex
 10
100.1261977233457
 20
-136.3754927436837
 30
0.0
  0
SEQEND
  5
8C
330
89
100
AcDbEntity
  8
_U+30EC_U+30A4_U+30E4_U+30FC 1
 62
   179
420
  2234388
370
     9
  0
POLYLINE
  5
8D
330
1F
100
AcDbEntity
  8
_U+30EC_U+30A4_U+30E4_U+30FC 1
 62
   179
420
  2234388
370
     9
100
AcDb2dPolyline
 66
     1
 10
0.0
 20
0.0
 30
0.0
  0
VERTEX
  5
8E
330
8D
100
AcDbEntity
  8
_U+30EC_U+30A4_U+30E4_U+30FC 1
 62
   179
420
  2234388
370
     9
100
AcDbVertex
100
AcDb2dVertex
 10
100.1254921678081
 20
-137.3759352434336
 30
0.0
  0
VERTEX
  5
8F
330
8D
100
AcDbEntity
  8
_U+30EC_U+30A4_U+30E4_U+30FC 1
 62
   179
420
  2234388
370
     9
100
AcDbVertex
100
AcDb2dVertex
 10
88.1255446961745
 20
-137.3759352434336
 30
0.0
  0
SEQEND
  5
90
330
8D
100
AcDbEntity
  8
_U+30EC_U+30A4_U+30E4_U+30FC 1
 62
   179
420
  2234388
370
     9
  0
POLYLINE
  5
91
330
1F
100
AcDbEntity
  8
_U+30EC_U+30A4_U+30E4_U+30FC 1
 62
   179
420
  2234388
370
    25
100
AcDb2dPolyline
 66
     1
 10
0.0
 20
0.0
 30
0.0
  0
VERTEX
  5
92
330
91
100
AcDbEntity
  8
_U+30EC_U+30A4_U+30E4_U+30FC 1
 62
   179
420
  2234388
370
    25
100
AcDbVertex
100
AcDb2dVertex
 10
88.52587690818339
 20
-122.2623002472123
 30
0.0
  0
VERTEX
  5
93
330
91
100
AcDbEntity
  8
_U+30EC_U+30A4_U+30E4_U+30FC 1
 62
   179
420
  2234388
370
    25
100
AcDbVertex
100
AcDb2dVertex
 10
99.5260521831011
 20
-122.2623002472123
 30
0.0
  0
SEQEND
  5
94
330
91
100
AcDbEntity
  8
_U+30EC_U+30A4_U+30E4_U+30FC 1
 62
   179
420
  2234388
370
    25
  0
SPLINE
  5
95
330
1F
100
AcDbEntity
  8
_U+30EC_U+30A4_U+30E4_U+30FC 1
 62
   179
420
  2234388
370
    25
100
AcDbSpline
210
0.0
220
0.0
230
1.0
 70
     8
 71
     3
 72
     8
 73
     4
 74
     0
 42
0.0000000001
 43
0.0000000001
 12
1.0
 22
0.0
 32
0.0
 13
1.0
 23
0.0
 33
0.0
 40
0.0
 40
0.0
 40
0.0
 40
0.0
 40
1.0
 40
1.0
 40
1.0
 40
1.0
 10
100.0262910592278
 20
-122.762539135976
 30
0.0
 10
100.0262910592278
 20
-122.4862435804896
 30
0.0
 10
99.80234773160777
 20
-122.2623002472123
 30
0.0
 10
99.5260521831011
 20
-122.2623002472123
 30
0.0
  0
POLYLINE
  5
96
330
1F
100
AcDbEntity
  8
_U+30EC_U+30A4_U+30E4_U+30FC 1
 62
   179
420
  2234388
370
    25
100
AcDb2dPolyline
 66
     1
 10
0.0
 20
0.0
 30
0.0
  0
VERTEX
  5
97
330
96
100
AcDbEntity
  8
_U+30EC_U+30A4_U+30E4_U+30FC 1
 62
   179
420
  2234388
370
    25
100
AcDbVertex
100
AcDb2dVertex
 10
100.0262910592278
 20
-122.762539135976
 30
0.0
  0
VERTEX
  5
98
330
96
100
AcDbEntity
  8
_U+30EC_U+30A4_U+30E4_U+30FC 1
 62
   179
420
  2234388
370
    25
100
AcDbVertex
100
AcDb2dVertex
 10
100.0262910592278
 20
-123.2620724691845
 30
0.0
  0
SEQEND
  5
99
330
96
100
AcDbEntity
  8
_U+30EC_U+30A4_U+30E4_U+30FC 1
 62
   179
420
  2234388
370
    25
  0
POLYLINE
  5
9A
330
1F
100
AcDbEntity
  8
_U+30EC_U+30A4_U+30E4_U+30FC 1
 62
   179
420
  2234388
370
    25
100
AcDb2dPolyline
 66
     1
 10
0.0
 20
0.0
 30
0.0
  0
VERTEX
  5
9B
330
9A
100
AcDbEntity
  8
_U+30EC_U+30A4_U+30E4_U+30FC 1
 62
   179
420
  2234388
370
    25
100
AcDbVertex
100
AcDb2dVertex
 10
94.5258506440002
 20
-123.2620724691845
 30
0.0
  0
VERTEX
  5
9C
330
9A
100
AcDbEntity
  8
_U+30EC_U+30A4_U+30E4_U+30FC 1
 62
   179
420
  2234388
370
    25
100
AcDbVertex
100
AcDb2dVertex
 10
100.0262910592278
 20
-123.2620724691845
 30
0.0
  0
SEQEND
  5
9D
330
9A
100
AcDbEntity
  8
_U+30EC_U+30A4_U+30E4_U+30FC 1
 62
   179
420
  2234388
370
    25
  0
SPLINE
  5
9E
330
1F
100
AcDbEntity
  8
_U+30EC_U+30A4_U+30E4_U+30FC 1
 62
   179
420
  2234388
370
    25
100
AcDbSpline
210
0.0
220
0.0
230
1.0
 70
     8
 71
     3
 72
     8
 73
     4
 74
     0
 42
0.0000000001
 43
0.0000000001
 12
1.0
 22
0.0
 32
0.0
 13
1.0
 23
0.0
 33
0.0
 40
0.0
 40
0.0
 40
0.0
 40
0.0
 40
1.0
 40
1.0
 40
1.0
 40
1.0
 10
88.02563803205666
 20
-122.762539135976
 30
0.0
 10
88.02563803205666
 20
-122.4862435804896
 30
0.0
 10
88.24958135967672
 20
-122.2623002472123
 30
0.0
 10
88.52587690818339
 20
-122.2623002472123
 30
0.0
  0
POLYLINE
  5
9F
330
1F
100
AcDbEntity
  8
_U+30EC_U+30A4_U+30E4_U+30FC 1
 62
   179
420
  2234388
370
    25
100
AcDb2dPolyline
 66
     1
 10
0.0
 20
0.0
 30
0.0
  0
VERTEX
  5
A0
330
9F
100
AcDbEntity
  8
_U+30EC_U+30A4_U+30E4_U+30FC 1
 62
   179
420
  2234388
370
    25
100
AcDbVertex
100
AcDb2dVertex
 10
88.02563803205666
 20
-122.762539135976
 30
0.0
  0
VERTEX
  5
A1
330
9F
100
AcDbEntity
  8
_U+30EC_U+30A4_U+30E4_U+30FC 1
 62
   179
420
  2234388
370
    25
100
AcDbVertex
100
AcDb2dVertex
 10
88.02563803205666
 20
-123.2620724691845
 30
0.0
  0
SEQEND
  5
A2
330
9F
100
AcDbEntity
  8
_U+30EC_U+30A4_U+30E4_U+30FC 1
 62
   179
420
  2234388
370
    25
  0
POLYLINE
  5
A3
330
1F
100
AcDbEntity
  8
_U+30EC_U+30A4_U+30E4_U+30FC 1
 62
   179
420
  2234388
370
    25
100
AcDb2dPolyline
 66
     1
 10
0.0
 20
0.0
 30
0.0
  0
VERTEX
  5
A4
330
A3
100
AcDbEntity
  8
_U+30EC_U+30A4_U+30E4_U+30FC 1
 62
   179
420
  2234388
370
    25
100
AcDbVertex
100
AcDb2dVertex
 10
93.52537289174673
 20
-123.2620724691845
 30
0.0
  0
VERTEX
  5
A5
330
A3
100
AcDbEntity
  8
_U+30EC_U+30A4_U+30E4_U+30FC 1
 62
   179
420
  2234388
370
    25
100
AcDbVertex
100
AcDb2dVertex
 10
88.02563803205666
 20
-123.2620724691845
 30
0.0
  0
SEQEND
  5
A6
330
A3
100
AcDbEntity
  8
_U+30EC_U+30A4_U+30E4_U+30FC 1
 62
   179
420
  2234388
370
    25
  0
POLYLINE
  5
A7
330
1F
100
AcDbEntity
  8
_U+30EC_U+30A4_U+30E4_U+30FC 1
 62
   179
420
  2234388
370
    25
100
AcDb2dPolyline
 66
     1
 10
0.0
 20
0.0
 30
0.0
  0
VERTEX
  5
A8
330
A7
100
AcDbEntity
  8
_U+30EC_U+30A4_U+30E4_U+30FC 1
 62
   179
420
  2234388
370
    25
100
AcDbVertex
100
AcDb2dVertex
 10
88.52587690818339
 20
-134.2619305219898
 30
0.0
  0
VERTEX
  5
A9
330
A7
100
AcDbEntity
  8
_U+30EC_U+30A4_U+30E4_U+30FC 1
 62
   179
420
  2234388
370
    25
100
AcDbVertex
100
AcDb2dVertex
 10
99.5260521831011
 20
-134.2619305219898
 30
0.0
  0
SEQEND
  5
AA
330
A7
100
AcDbEntity
  8
_U+30EC_U+30A4_U+30E4_U+30FC 1
 62
   179
420
  2234388
370
    25
  0
SPLINE
  5
AB
330
1F
100
AcDbEntity
  8
_U+30EC_U+30A4_U+30E4_U+30FC 1
 62
   179
420
  2234388
370
    25
100
AcDbSpline
210
0.0
220
0.0
230
1.0
 70
     8
 71
     3
 72
     8
 73
     4
 74
     0
 42
0.0000000001
 43
0.0000000001
 12
1.0
 22
0.0
 32
0.0
 13
1.0
 23
0.0
 33
0.0
 40
0.0
 40
0.0
 40
0.0
 40
0.0
 40
1.0
 40
1.0
 40
1.0
 40
1.0
 10
100.0262910592278
 20
-133.7620444110038
 30
0.0
 10
100.0262910592278
 20
-134.0383399664902
 30
0.0
 10
99.80234773160777
 20
-134.2619305219898
 30
0.0
 10
99.5260521831011
 20
-134.2619305219898
 30
0.0
  0
POLYLINE
  5
AC
330
1F
100
AcDbEntity
  8
_U+30EC_U+30A4_U+30E4_U+30FC 1
 62
   179
420
  2234388
370
    25
100
AcDb2dPolyline
 66
     1
 10
0.0
 20
0.0
 30
0.0
  0
VERTEX
  5
AD
330
AC
100
AcDbEntity
  8
_U+30EC_U+30A4_U+30E4_U+30FC 1
 62
   179
420
  2234388
370
    25
100
AcDbVertex
100
AcDb2dVertex
 10
100.0262910592278
 20
-133.7620444110038
 30
0.0
  0
VERTEX
  5
AE
330
AC
100
AcDbEntity
  8
_U+30EC_U+30A4_U+30E4_U+30FC 1
 62
   179
420
  2234388
370
    25
100
AcDbVertex
100
AcDb2dVertex
 10
100.0262910592278
 20
-133.2621583000179
 30
0.0
  0
SEQEND
  5
AF
330
AC
100
AcDbEntity
  8
_U+30EC_U+30A4_U+30E4_U+30FC 1
 62
   179
420
  2234388
370
    25
  0
POLYLINE
  5
B0
330
1F
100
AcDbEntity
  8
_U+30EC_U+30A4_U+30E4_U+30FC 1
 62
   179
420
  2234388
370
    25
100
AcDb2dPolyline
 66
     1
 10
0.0
 20
0.0
 30
0.0
  0
VERTEX
  5
B1
330
B0
100
AcDbEntity
  8
_U+30EC_U+30A4_U+30E4_U+30FC 1
 62
   179
420
  2234388
370
    25
100
AcDbVertex
100
AcDb2dVertex
 10
94.5258506440002
 20
-133.2621583000179
 30
0.0
  0
VERTEX
  5
B2
330
B0
100
AcDbEntity
  8
_U+30EC_U+30A4_U+30E4_U+30FC 1
 62
   179
420
  2234388
370
    25
100
AcDbVertex
100
AcDb2dVertex
 10
100.0262910592278
 20
-133.2621583000179
 30
0.0
  0
SEQEND
  5
B3
330
B0
100
AcDbEntity
  8
_U+30EC_U+30A4_U+30E4_U+30FC 1
 62
   179
420
  2234388
370
    25
  0
SPLINE
  5
B4
330
1F
100
AcDbEntity
  8
_U+30EC_U+30A4_U+30E4_U+30FC 1
 62
   179
420
  2234388
370
    25
100
AcDbSpline
210
0.0
220
0.0
230
1.0
 70
     8
 71
     3
 72
     8
 73
     4
 74
     0
 42
0.0000000001
 43
0.0000000001
 12
1.0
 22
0.0
 32
0.0
 13
1.0
 23
0.0
 33
0.0
 40
0.0
 40
0.0
 40
0.0
 40
0.0
 40
1.0
 40
1.0
 40
1.0
 40
1.0
 10
88.02563803205666
 20
-133.7620444110038
 30
0.0
 10
88.02563803205666
 20
-134.0383399664902
 30
0.0
 10
88.24958135967672
 20
-134.2619305219898
 30
0.0
 10
88.52587690818339
 20
-134.2619305219898
 30
0.0
  0
POLYLINE
  5
B5
330
1F
100
AcDbEntity
  8
_U+30EC_U+30A4_U+30E4_U+30FC 1
 62
   179
420
  2234388
370
    25
100
AcDb2dPolyline
 66
     1
 10
0.0
 20
0.0
 30
0.0
  0
VERTEX
  5
B6
330
B5
100
AcDbEntity
  8
_U+30EC_U+30A4_U+30E4_U+30FC 1
 62
   179
420
  2234388
370
    25
100
AcDbVertex
100
AcDb2dVertex
 10
88.02563803205666
 20
-133.7620444110038
 30
0.0
  0
VERTEX
  5
B7
330
B5
100
AcDbEntity
  8
_U+30EC_U+30A4_U+30E4_U+30FC 1
 62
   179
420
  2234388
370
    25
100
AcDbVertex
100
AcDb2dVertex
 10
88.02563803205666
 20
-133.2621583000179
 30
0.0
  0
SEQEND
  5
B8
330
B5
100
AcDbEntity
  8
_U+30EC_U+30A4_U+30E4_U+30FC 1
 62
   179
420
  2234388
370
    25
  0
POLYLINE
  5
B9
330
1F
100
AcDbEntity
  8
_U+30EC_U+30A4_U+30E4_U+30FC 1
 62
   179
420
  2234388
370
    25
100
AcDb2dPolyline
 66
     1
 10
0.0
 20
0.0
 30
0.0
  0
VERTEX
  5
BA
330
B9
100
AcDbEntity
  8
_U+30EC_U+30A4_U+30E4_U+30FC 1
 62
   179
420
  2234388
370
    25
100
AcDbVertex
100
AcDb2dVertex
 10
93.52537289174673
 20
-133.2621583000179
 30
0.0
  0
VERTEX
  5
BB
330
B9
100
AcDbEntity
  8
_U+30EC_U+30A4_U+30E4_U+30FC 1
 62
   179
420
  2234388
370
    25
100
AcDbVertex
100
AcDb2dVertex
 10
88.02563803205666
 20
-133.2621583000179
 30
0.0
  0
SEQEND
  5
BC
330
B9
100
AcDbEntity
  8
_U+30EC_U+30A4_U+30E4_U+30FC 1
 62
   179
420
  2234388
370
    25
  0
POLYLINE
  5
BD
330
1F
100
AcDbEntity
  8
_U+30EC_U+30A4_U+30E4_U+30FC 1
 62
   179
420
  2234388
370
    25
100
AcDb2dPolyline
 66
     1
 10
0.0
 20
0.0
 30
0.0
  0
VERTEX
  5
BE
330
BD
100
AcDbEntity
  8
_U+30EC_U+30A4_U+30E4_U+30FC 1
 62
   179
420
  2234388
370
    25
100
AcDbVertex
100
AcDb2dVertex
 10
93.52537289174673
 20
-123.2620724691845
 30
0.0
  0
VERTEX
  5
BF
330
BD
100
AcDbEntity
  8
_U+30EC_U+30A4_U+30E4_U+30FC 1
 62
   179
420
  2234388
370
    25
100
AcDbVertex
100
AcDb2dVertex
 10
93.52537289174673
 20
-133.2621583000179
 30
0.0
  0
SEQEND
  5
C0
330
BD
100
AcDbEntity
  8
_U+30EC_U+30A4_U+30E4_U+30FC 1
 62
   179
420
  2234388
370
    25
  0
POLYLINE
  5
C1
330
1F
100
AcDbEntity
  8
_U+30EC_U+30A4_U+30E4_U+30FC 1
 62
   179
420
  2234388
370
    25
100
AcDb2dPolyline
 66
     1
 10
0.0
 20
0.0
 30
0.0
  0
VERTEX
  5
C2
330
C1
100
AcDbEntity
  8
_U+30EC_U+30A4_U+30E4_U+30FC 1
 62
   179
420
  2234388
370
    25
100
AcDbVertex
100
AcDb2dVertex
 10
94.5258506440002
 20
-123.2620724691845
 30
0.0
  0
VERTEX
  5
C3
330
C1
100
AcDbEntity
  8
_U+30EC_U+30A4_U+30E4_U+30FC 1
 62
   179
420
  2234388
370
    25
100
AcDbVertex
100
AcDb2dVertex
 10
94.5258506440002
 20
-133.2621583000179
 30
0.0
  0
SEQEND
  5
C4
330
C1
100
AcDbEntity
  8
_U+30EC_U+30A4_U+30E4_U+30FC 1
 62
   179
420
  2234388
370
    25
  0
SPLINE
  5
C5
330
1F
100
AcDbEntity
  8
_U+30EC_U+30A4_U+30E4_U+30FC 1
 62
     7
420
 16777215
370
     9
100
AcDbSpline
210
0.0
220
0.0
230
1.0
 70
    11
 71
     3
 72
    17
 73
    13
 74
     0
 42
0.0000000001
 43
0.0000000001
 12
1.0
 22
0.0
 32
0.0
 13
1.0
 23
0.0
 33
0.0
 40
0.0
 40
0.0
 40
0.0
 40
0.0
 40
1.0
 40
1.0
 40
1.0
 40
2.0
 40
2.0
 40
2.0
 40
3.0
 40
3.0
 40
3.0
 40
4.0
 40
4.0
 40
4.0
 40
4.0
 10
93.63184122236383
 20
-129.0474163566272
 30
0.0
 10
93.63184122236383
 20
-128.9923124677516
 30
0.0
 10
93.58703844572906
 20
-128.9475096899855
 30
0.0
 10
93.531934558246
 20
-128.9475096899855
 30
0.0
 10
93.47679539298605
 20
-128.9475096899855
 30
0.0
 10
93.43202789412817
 20
-128.9923124677516
 30
0.0
 10
93.43202789412817
 20
-129.0474163566272
 30
0.0
 10
93.43202789412817
 20
-129.1025555232796
 30
0.0
 10
93.47679539298605
 20
-129.1473230232688
 30
0.0
 10
93.531934558246
 20
-129.1473230232688
 30
0.0
 10
93.58703844572906
 20
-129.1473230232688
 30
0.0
 10
93.63184122236383
 20
-129.1025555232796
 30
0.0
 10
93.63184122236383
 20
-129.0474163566272
 30
0.0
  0
SPLINE
  5
C6
330
1F
100
AcDbEntity
  8
_U+30EC_U+30A4_U+30E4_U+30FC 1
 62
     7
420
 16777215
370
     9
100
AcDbSpline
210
0.0
220
0.0
230
1.0
 70
    11
 71
     3
 72
    17
 73
    13
 74
     0
 42
0.0000000001
 43
0.0000000001
 12
1.0
 22
0.0
 32
0.0
 13
1.0
 23
0.0
 33
0.0
 40
0.0
 40
0.0
 40
0.0
 40
0.0
 40
1.0
 40
1.0
 40
1.0
 40
2.0
 40
2.0
 40
2.0
 40
3.0
 40
3.0
 40
3.0
 40
4.0
 40
4.0
 40
4.0
 40
4.0
 10
94.63161341907974
 20
-129.0474163566272
 30
0.0
 10
94.63161341907974
 20
-128.9923124677516
 30
0.0
 10
94.58681064244497
 20
-128.9475096899855
 30
0.0
 10
94.5317067549619
 20
-128.9475096899855
 30
0.0
 10
94.47656758970196
 20
-128.9475096899855
 30
0.0
 10
94.43180009084408
 20
-128.9923124677516
 30
0.0
 10
94.43180009084408
 20
-129.0474163566272
 30
0.0
 10
94.43180009084408
 20
-129.1025555232796
 30
0.0
 10
94.47656758970196
 20
-129.1473230232688
 30
0.0
 10
94.5317067549619
 20
-129.1473230232688
 30
0.0
 10
94.58681064244497
 20
-129.1473230232688
 30
0.0
 10
94.63161341907974
 20
-129.1025555232796
 30
0.0
 10
94.63161341907974
 20
-129.0474163566272
 30
0.0
  0
INSERT
  5
C8
330
1F
100
AcDbEntity
  8
_U+30EC_U+30A4_U+30E4_U+30FC 1
100
AcDbBlockReference
  2
block 6
 10
0.0
 20
0.0
 30
0.0
  0
POLYLINE
  5
CD
330
1F
100
AcDbEntity
  8
_U+30EC_U+30A4_U+30E4_U+30FC 1
 62
     7
420
 16777215
370
     9
100
AcDb2dPolyline
 66
     1
 10
0.0
 20
0.0
 30
0.0
  0
VERTEX
  5
CE
330
CD
100
AcDbEntity
  8
_U+30EC_U+30A4_U+30E4_U+30FC 1
 62
     7
420
 16777215
370
     9
100
AcDbVertex
100
AcDb2dVertex
 10
95.3929783996557
 20
-129.0474163566272
 30
0.0
  0
VERTEX
  5
CF
330
CD
100
AcDbEntity
  8
_U+30EC_U+30A4_U+30E4_U+30FC 1
 62
     7
420
 16777215
370
     9
100
AcDbVertex
100
AcDb2dVertex
 10
91.554085997594
 20
-129.0474163566272
 30
0.0
  0
SEQEND
  5
D0
330
CD
100
AcDbEntity
  8
_U+30EC_U+30A4_U+30E4_U+30FC 1
 62
     7
420
 16777215
370
     9
  0
ENDSEC
  0
SECTION
  2
OBJECTS
  0
DICTIONARY
  5
C
330
0
100
AcDbDictionary
281
     1
  3
ACAD_GROUP
350
D
  3
ACAD_LAYOUT
350
1A
  3
ACAD_MATERIAL
350
3B
  3
ACAD_MLEADERSTYLE
350
D2
  3
ACAD_MLINESTYLE
350
17
  3
ACAD_PLOTSETTINGS
350
19
  3
ACAD_PLOTSTYLENAME
350
E
  3
ACAD_TABLESTYLE
350
D1
  3
ACAD_VISUALSTYLE
350
2A
  0
SUN
  5
3F
330
29
100
AcDbSun
 90
        1
290
     0
 63
     7
421
 16777215
 40
1.0
291
     1
 91
  2455826
 92
 54000000
292
     0
 70
     2
 71
   256
280
     1
  0
DICTIONARY
  5
D
102
{ACAD_REACTORS
330
C
102
}
330
C
100
AcDbDictionary
281
     1
  0
DICTIONARY
  5
1A
102
{ACAD_REACTORS
330
C
102
}
330
C
100
AcDbDictionary
281
     1
  3
Layout1
350
1E
  3
Layout2
350
26
  3
Model
350
22
  0
DICTIONARY
  5
3B
102
{ACAD_REACTORS
330
C
102
}
330
C
100
AcDbDictionary
281
     1
  3
ByBlock
350
3D
  3
ByLayer
350
3C
  3
Global
350
3E
  0
DICTIONARY
  5
D2
102
{ACAD_REACTORS
330
C
102
}
330
C
100
AcDbDictionary
281
     1
  0
DICTIONARY
  5
17
102
{ACAD_REACTORS
330
C
102
}
330
C
100
AcDbDictionary
281
     1
  3
Standard
350
18
  0
DICTIONARY
  5
19
102
{ACAD_REACTORS
330
C
102
}
330
C
100
AcDbDictionary
281
     1
  0
ACDBDICTIONARYWDFLT
  5
E
102
{ACAD_REACTORS
330
C
102
}
330
C
100
AcDbDictionary
281
     1
  3
Normal
350
F
100
AcDbDictionaryWithDefault
340
F
  0
DICTIONARY
  5
D1
102
{ACAD_REACTORS
330
C
102
}
330
C
100
AcDbDictionary
281
     1
  0
DICTIONARY
  5
2A
102
{ACAD_REACTORS
330
C
102
}
330
C
100
AcDbDictionary
281
     1
  3
2dWireframe
350
2F
  3
3D Hidden
350
31
  3
3dWireframe
350
30
  3
Basic
350
32
  3
Brighten
350
36
  3
ColorChange
350
3A
  3
Conceptual
350
34
  3
Dim
350
35
  3
Facepattern
350
39
  3
Flat
350
2B
  3
FlatWithEdges
350
2C
  3
Gouraud
350
2D
  3
GouraudWithEdges
350
2E
  3
Linepattern
350
38
  3
Realistic
350
33
  3
Thicken
350
37
  0
LAYOUT
  5
1E
102
{ACAD_REACTORS
330
1A
102
}
330
1A
100
AcDbPlotSettings
  1

  2
none_device
  4

  6

 40
0.0
 41
0.0
 42
0.0
 43
0.0
 44
0.0
 45
0.0
 46
0.0
 47
0.0
 48
0.0
 49
0.0
140
0.0
141
0.0
142
1.0
143
1.0
 70
   688
 72
     0
 73
     0
 74
     5
  7

 75
    16
 76
     0
 77
     2
 78
   300
147
1.0
148
0.0
149
0.0
100
AcDbLayout
  1
Layout1
 70
     1
 71
     1
 10
0.0
 20
0.0
 11
12.0
 21
9.0
 12
0.0
 22
0.0
 32
0.0
 14
1.000000000000000E+20
 24
1.000000000000000E+20
 34
1.000000000000000E+20
 15
-1.000000000000000E+20
 25
-1.000000000000000E+20
 35
-1.000000000000000E+20
146
0.0
 13
0.0
 23
0.0
 33
0.0
 16
1.0
 26
0.0
 36
0.0
 17
0.0
 27
1.0
 37
0.0
 76
     0
330
1B
  0
LAYOUT
  5
26
102
{ACAD_REACTORS
330
1A
102
}
330
1A
100
AcDbPlotSettings
  1

  2
none_device
  4

  6

 40
0.0
 41
0.0
 42
0.0
 43
0.0
 44
0.0
 45
0.0
 46
0.0
 47
0.0
 48
0.0
 49
0.0
140
0.0
141
0.0
142
1.0
143
1.0
 70
   688
 72
     0
 73
     0
 74
     5
  7

 75
    16
 76
     0
 77
     2
 78
   300
147
1.0
148
0.0
149
0.0
100
AcDbLayout
  1
Layout2
 70
     1
 71
     2
 10
0.0
 20
0.0
 11
0.0
 21
0.0
 12
0.0
 22
0.0
 32
0.0
 14
0.0
 24
0.0
 34
0.0
 15
0.0
 25
0.0
 35
0.0
146
0.0
 13
0.0
 23
0.0
 33
0.0
 16
1.0
 26
0.0
 36
0.0
 17
0.0
 27
1.0
 37
0.0
 76
     0
330
23
  0
LAYOUT
  5
22
102
{ACAD_REACTORS
330
1A
102
}
330
1A
100
AcDbPlotSettings
  1

  2
none_device
  4

  6

 40
0.0
 41
0.0
 42
0.0
 43
0.0
 44
0.0
 45
0.0
 46
0.0
 47
0.0
 48
0.0
 49
0.0
140
0.0
141
0.0
142
1.0
143
1.0
 70
  1712
 72
     0
 73
     0
 74
     0
  7

 75
     0
 76
     0
 77
     2
 78
   300
147
1.0
148
0.0
149
0.0
100
AcDbLayout
  1
Model
 70
     1
 71
     0
 10
0.0
 20
0.0
 11
12.0
 21
9.0
 12
0.0
 22
0.0
 32
0.0
 14
1.000000000000000E+20
 24
1.000000000000000E+20
 34
1.000000000000000E+20
 15
-1.000000000000000E+20
 25
-1.000000000000000E+20
 35
-1.000000000000000E+20
146
0.0
 13
0.0
 23
0.0
 33
0.0
 16
1.0
 26
0.0
 36
0.0
 17
0.0
 27
1.0
 37
0.0
 76
     0
330
1F
331
29
  0
MATERIAL
  5
3D
102
{ACAD_REACTORS
330
3B
102
}
330
3B
100
AcDbMaterial
  1
ByBlock
 72
     1
 94
      127
  0
MATERIAL
  5
3C
102
{ACAD_REACTORS
330
3B
102
}
330
3B
100
AcDbMaterial
  1
ByLayer
 72
     1
 94
      127
  0
MATERIAL
  5
3E
102
{ACAD_REACTORS
330
3B
102
}
330
3B
100
AcDbMaterial
  1
Global
 72
     1
 94
      127
  0
MLINESTYLE
  5
18
102
{ACAD_REACTORS
330
17
102
}
330
17
100
AcDbMlineStyle
  2
Standard
 70
     0
  3

 62
   256
 51
90.0
 52
90.0
 71
     2
 49
0.5
 62
   256
  6
BYLAYER
 49
-0.5
 62
   256
  6
BYLAYER
  0
ACDBPLACEHOLDER
  5
F
102
{ACAD_REACTORS
330
E
102
}
330
E
  0
VISUALSTYLE
  5
2F
102
{ACAD_REACTORS
330
2A
102
}
330
2A
100
AcDbVisualStyle
  2
2dWireframe
 70
     4
177
     2
291
     0
 71
     0
176
     1
 72
     2
176
     1
 73
     0
176
     1
 90
        0
176
     1
 40
-0.6
176
     1
 41
-30.0
176
     1
 62
     5
 63
     7
421
 16777215
176
     1
 74
     1
176
     1
 91
        4
176
     1
 64
     7
176
     1
 65
   257
176
     1
 75
     1
176
     1
175
     1
176
     1
 42
1.0
176
     1
 92
        0
176
     1
 66
   257
176
     1
 43
1.0
176
     1
 76
     1
176
     1
 77
     6
176
     1
 78
     2
176
     1
 67
     7
176
     1
 79
     5
176
     1
170
     0
176
     1
171
     0
176
     1
290
     0
176
     1
 93
        1
176
     1
 44
0.0
176
     1
173
     0
176
     1
  0
VISUALSTYLE
  5
31
102
{ACAD_REACTORS
330
2A
102
}
330
2A
100
AcDbVisualStyle
  2
3D Hidden
 70
     6
177
     2
291
     0
 71
     1
176
     1
 72
     2
176
     1
 73
     2
176
     1
 90
        0
176
     1
 40
-0.6
176
     1
 41
-30.0
176
     1
 62
     5
 63
     7
421
 16777215
176
     1
 74
     2
176
     1
 91
        2
176
     1
 64
     7
176
     1
 65
   257
176
     1
 75
     2
176
     1
175
     1
176
     1
 42
40.0
176
     1
 92
        0
176
     1
 66
   257
176
     1
 43
1.0
176
     1
 76
     1
176
     1
 77
     6
176
     1
 78
     2
176
     1
 67
     7
176
     1
 79
     3
176
     1
170
     0
176
     1
171
     0
176
     1
290
     0
176
     1
 93
        1
176
     1
 44
0.0
176
     1
173
     0
176
     1
  0
VISUALSTYLE
  5
30
102
{ACAD_REACTORS
330
2A
102
}
330
2A
100
AcDbVisualStyle
  2
3dWireframe
 70
     5
177
     2
291
     0
 71
     0
176
     1
 72
     2
176
     1
 73
     0
176
     1
 90
        0
176
     1
 40
-0.6
176
     1
 41
-30.0
176
     1
 62
     5
 63
     7
421
 16777215
176
     1
 74
     1
176
     1
 91
        4
176
     1
 64
     7
176
     1
 65
   257
176
     1
 75
     1
176
     1
175
     1
176
     1
 42
1.0
176
     1
 92
        0
176
     1
 66
   257
176
     1
 43
1.0
176
     1
 76
     1
176
     1
 77
     6
176
     1
 78
     2
176
     1
 67
     7
176
     1
 79
     5
176
     1
170
     0
176
     1
171
     0
176
     1
290
     0
176
     1
 93
        1
176
     1
 44
0.0
176
     1
173
     0
176
     1
  0
VISUALSTYLE
  5
32
102
{ACAD_REACTORS
330
2A
102
}
330
2A
100
AcDbVisualStyle
  2
Basic
 70
     7
177
     2
291
     1
 71
     1
176
     1
 72
     0
176
     1
 73
     1
176
     1
 90
        0
176
     1
 40
-0.6
176
     1
 41
-30.0
176
     1
 62
     5
 63
     7
421
 16777215
176
     1
 74
     0
176
     1
 91
        4
176
     1
 64
     7
176
     1
 65
   257
176
     1
 75
     1
176
     1
175
     1
176
     1
 42
1.0
176
     1
 92
        8
176
     1
 66
     7
176
     1
 43
1.0
176
     1
 76
     1
176
     1
 77
     6
176
     1
 78
     2
176
     1
 67
     7
176
     1
 79
     5
176
     1
170
     0
176
     1
171
     0
176
     1
290
     0
176
     1
 93
        1
176
     1
 44
0.0
176
     1
173
     0
176
     1
  0
VISUALSTYLE
  5
36
102
{ACAD_REACTORS
330
2A
102
}
330
2A
100
AcDbVisualStyle
  2
Brighten
 70
    12
177
     2
291
     1
 71
     2
176
     1
 72
     2
176
     1
 73
     0
176
     1
 90
        0
176
     1
 40
-0.6
176
     1
 41
-30.0
176
     1
 62
     5
 63
     7
421
 16777215
176
     1
 74
     1
176
     1
 91
        4
176
     1
 64
     7
176
     1
 65
   257
176
     1
 75
     1
176
     1
175
     1
176
     1
 42
1.0
176
     1
 92
        8
176
     1
 66
     7
176
     1
 43
1.0
176
     1
 76
     1
176
     1
 77
     6
176
     1
 78
     2
176
     1
 67
     7
176
     1
 79
     5
176
     1
170
     0
176
     1
171
     0
176
     1
290
     0
176
     1
 93
        1
176
     1
 44
50.0
176
     1
173
     0
176
     1
  0
VISUALSTYLE
  5
3A
102
{ACAD_REACTORS
330
2A
102
}
330
2A
100
AcDbVisualStyle
  2
ColorChange
 70
    16
177
     2
291
     1
 71
     2
176
     1
 72
     2
176
     1
 73
     3
176
     1
 90
        0
176
     1
 40
-0.6
176
     1
 41
-30.0
176
     1
 62
     5
 63
     8
421
  8421504
176
     1
 74
     1
176
     1
 91
        4
176
     1
 64
     7
176
     1
 65
   257
176
     1
 75
     1
176
     1
175
     1
176
     1
 42
1.0
176
     1
 92
        8
176
     1
 66
     8
424
  8421504
176
     1
 43
1.0
176
     1
 76
     1
176
     1
 77
     6
176
     1
 78
     2
176
     1
 67
     7
176
     1
 79
     5
176
     1
170
     0
176
     1
171
     0
176
     1
290
     0
176
     1
 93
        1
176
     1
 44
0.0
176
     1
173
     0
176
     1
  0
VISUALSTYLE
  5
34
102
{ACAD_REACTORS
330
2A
102
}
330
2A
100
AcDbVisualStyle
  2
Conceptual
 70
     9
177
     2
291
     0
 71
     3
176
     1
 72
     2
176
     1
 73
     0
176
     1
 90
        0
176
     1
 40
-0.6
176
     1
 41
-30.0
176
     1
 62
     5
 63
     7
421
 16777215
176
     1
 74
     2
176
     1
 91
        2
176
     1
 64
     7
176
     1
 65
   257
176
     1
 75
     1
176
     1
175
     1
176
     1
 42
40.0
176
     1
 92
        8
176
     1
 66
     7
176
     1
 43
1.0
176
     1
 76
     1
176
     1
 77
     6
176
     1
 78
     2
176
     1
 67
     7
176
     1
 79
     3
176
     1
170
     0
176
     1
171
     0
176
     1
290
     0
176
     1
 93
        1
176
     1
 44
0.0
176
     1
173
     0
176
     1
  0
VISUALSTYLE
  5
35
102
{ACAD_REACTORS
330
2A
102
}
330
2A
100
AcDbVisualStyle
  2
Dim
 70
    11
177
     2
291
     1
 71
     2
176
     1
 72
     2
176
     1
 73
     0
176
     1
 90
        0
176
     1
 40
-0.6
176
     1
 41
-30.0
176
     1
 62
     5
 63
     7
421
 16777215
176
     1
 74
     1
176
     1
 91
        4
176
     1
 64
     7
176
     1
 65
   257
176
     1
 75
     1
176
     1
175
     1
176
     1
 42
1.0
176
     1
 92
        8
176
     1
 66
     7
176
     1
 43
1.0
176
     1
 76
     1
176
     1
 77
     6
176
     1
 78
     2
176
     1
 67
     7
176
     1
 79
     5
176
     1
170
     0
176
     1
171
     0
176
     1
290
     0
176
     1
 93
        1
176
     1
 44
-50.0
176
     1
173
     0
176
     1
  0
VISUALSTYLE
  5
39
102
{ACAD_REACTORS
330
2A
102
}
330
2A
100
AcDbVisualStyle
  2
Facepattern
 70
    15
177
     2
291
     1
 71
     2
176
     1
 72
     2
176
     1
 73
     0
176
     1
 90
        0
176
     1
 40
-0.6
176
     1
 41
-30.0
176
     1
 62
     5
 63
     7
421
 16777215
176
     1
 74
     1
176
     1
 91
        4
176
     1
 64
     7
176
     1
 65
   257
176
     1
 75
     1
176
     1
175
     1
176
     1
 42
1.0
176
     1
 92
        8
176
     1
 66
     7
176
     1
 43
1.0
176
     1
 76
     1
176
     1
 77
     6
176
     1
 78
     2
176
     1
 67
     7
176
     1
 79
     5
176
     1
170
     0
176
     1
171
     0
176
     1
290
     0
176
     1
 93
        1
176
     1
 44
0.0
176
     1
173
     0
176
     1
  0
VISUALSTYLE
  5
2B
102
{ACAD_REACTORS
330
2A
102
}
330
2A
100
AcDbVisualStyle
  2
Flat
 70
     0
177
     2
291
     1
 71
     2
176
     1
 72
     1
176
     1
 73
     1
176
     1
 90
        2
176
     1
 40
-0.6
176
     1
 41
30.0
176
     1
 62
     5
 63
     7
421
 16777215
176
     1
 74
     0
176
     1
 91
        4
176
     1
 64
     7
176
     1
 65
   257
176
     1
 75
     1
176
     1
175
     1
176
     1
 42
1.0
176
     1
 92
        8
176
     1
 66
     7
176
     1
 43
1.0
176
     1
 76
     1
176
     1
 77
     6
176
     1
 78
     2
176
     1
 67
     7
176
     1
 79
     5
176
     1
170
     0
176
     1
171
     0
176
     1
290
     0
176
     1
 93
       13
176
     1
 44
0.0
176
     1
173
     0
176
     1
  0
VISUALSTYLE
  5
2C
102
{ACAD_REACTORS
330
2A
102
}
330
2A
100
AcDbVisualStyle
  2
FlatWithEdges
 70
     1
177
     2
291
     1
 71
     2
176
     1
 72
     1
176
     1
 73
     1
176
     1
 90
        2
176
     1
 40
-0.6
176
     1
 41
30.0
176
     1
 62
     5
 63
     7
421
 16777215
176
     1
 74
     1
176
     1
 91
        4
176
     1
 64
     7
176
     1
 65
   257
176
     1
 75
     1
176
     1
175
     1
176
     1
 42
1.0
176
     1
 92
        0
176
     1
 66
   257
176
     1
 43
1.0
176
     1
 76
     1
176
     1
 77
     6
176
     1
 78
     2
176
     1
 67
     7
176
     1
 79
     5
176
     1
170
     0
176
     1
171
     0
176
     1
290
     0
176
     1
 93
       13
176
     1
 44
0.0
176
     1
173
     0
176
     1
  0
VISUALSTYLE
  5
2D
102
{ACAD_REACTORS
330
2A
102
}
330
2A
100
AcDbVisualStyle
  2
Gouraud
 70
     2
177
     2
291
     1
 71
     2
176
     1
 72
     2
176
     1
 73
     1
176
     1
 90
        2
176
     1
 40
-0.6
176
     1
 41
30.0
176
     1
 62
     5
 63
     7
421
 16777215
176
     1
 74
     0
176
     1
 91
        4
176
     1
 64
     7
176
     1
 65
   257
176
     1
 75
     1
176
     1
175
     1
176
     1
 42
1.0
176
     1
 92
        0
176
     1
 66
     7
176
     1
 43
1.0
176
     1
 76
     1
176
     1
 77
     6
176
     1
 78
     2
176
     1
 67
     7
176
     1
 79
     5
176
     1
170
     0
176
     1
171
     0
176
     1
290
     0
176
     1
 93
       13
176
     1
 44
0.0
176
     1
173
     0
176
     1
  0
VISUALSTYLE
  5
2E
102
{ACAD_REACTORS
330
2A
102
}
330
2A
100
AcDbVisualStyle
  2
GouraudWithEdges
 70
     3
177
     2
291
     1
 71
     2
176
     1
 72
     2
176
     1
 73
     1
176
     1
 90
        2
176
     1
 40
-0.6
176
     1
 41
30.0
176
     1
 62
     5
 63
     7
421
 16777215
176
     1
 74
     1
176
     1
 91
        4
176
     1
 64
     7
176
     1
 65
   257
176
     1
 75
     1
176
     1
175
     1
176
     1
 42
1.0
176
     1
 92
        0
176
     1
 66
   257
176
     1
 43
1.0
176
     1
 76
     1
176
     1
 77
     6
176
     1
 78
     2
176
     1
 67
     7
176
     1
 79
     5
176
     1
170
     0
176
     1
171
     0
176
     1
290
     0
176
     1
 93
       13
176
     1
 44
0.0
176
     1
173
     0
176
     1
  0
VISUALSTYLE
  5
38
102
{ACAD_REACTORS
330
2A
102
}
330
2A
100
AcDbVisualStyle
  2
Linepattern
 70
    14
177
     2
291
     1
 71
     2
176
     1
 72
     2
176
     1
 73
     0
176
     1
 90
        0
176
     1
 40
-0.6
176
     1
 41
-30.0
176
     1
 62
     5
 63
     7
421
 16777215
176
     1
 74
     1
176
     1
 91
        4
176
     1
 64
     7
176
     1
 65
   257
176
     1
 75
     7
176
     1
175
     7
176
     1
 42
1.0
176
     1
 92
        8
176
     1
 66
     7
176
     1
 43
1.0
176
     1
 76
     1
176
     1
 77
     6
176
     1
 78
     2
176
     1
 67
     7
176
     1
 79
     5
176
     1
170
     0
176
     1
171
     0
176
     1
290
     0
176
     1
 93
        1
176
     1
 44
0.0
176
     1
173
     0
176
     1
  0
VISUALSTYLE
  5
33
102
{ACAD_REACTORS
330
2A
102
}
330
2A
100
AcDbVisualStyle
  2
Realistic
 70
     8
177
     2
291
     0
 71
     2
176
     1
 72
     2
176
     1
 73
     0
176
     1
 90
        0
176
     1
 40
-0.6
176
     1
 41
-30.0
176
     1
 62
     5
 63
     7
421
 16777215
176
     1
 74
     1
176
     1
 91
        0
176
     1
 64
     7
176
     1
 65
   257
176
     1
 75
     1
176
     1
175
     1
176
     1
 42
1.0
176
     1
 92
        8
176
     1
 66
     8
424
  7895160
176
     1
 43
1.0
176
     1
 76
     1
176
     1
 77
     6
176
     1
 78
     2
176
     1
 67
     7
176
     1
 79
     5
176
     1
170
     0
176
     1
171
     0
176
     1
290
     0
176
     1
 93
       13
176
     1
 44
0.0
176
     1
173
     0
176
     1
  0
VISUALSTYLE
  5
37
102
{ACAD_REACTORS
330
2A
102
}
330
2A
100
AcDbVisualStyle
  2
Thicken
 70
    13
177
     2
291
     1
 71
     2
176
     1
 72
     2
176
     1
 73
     0
176
     1
 90
        0
176
     1
 40
-0.6
176
     1
 41
-30.0
176
     1
 62
     5
 63
     7
421
 16777215
176
     1
 74
     1
176
     1
 91
        4
176
     1
 64
     7
176
     1
 65
   257
176
     1
 75
     1
176
     1
175
     1
176
     1
 42
1.0
176
     1
 92
       12
176
     1
 66
     7
176
     1
 43
1.0
176
     1
 76
     1
176
     1
 77
     6
176
     1
 78
     2
176
     1
 67
     7
176
     1
 79
     5
176
     1
170
     0
176
     1
171
     0
176
     1
290
     0
176
     1
 93
        1
176
     1
 44
0.0
176
     1
173
     0
176
     1
  0
ENDSEC
  0
EOF
