  0
SECTION
  2
HEADER
  9
$ACADVER
  1
AC1024
  9
$ACADMAINTVER
 70
     6
  9
$DWGCODEPAGE
  3
UNDEFINED
  9
$INSBASE
 10
0.0
 20
0.0
 30
0.0
  9
$EXTMIN
 10
1.000000000000000E+20
 20
1.000000000000000E+20
 30
1.000000000000000E+20
  9
$EXTMAX
 10
-1.000000000000000E+20
 20
-1.000000000000000E+20
 30
-1.000000000000000E+20
  9
$LIMMIN
 10
0.0
 20
0.0
  9
$LIMMAX
 10
12.0
 20
9.0
  9
$ORTHOMODE
 70
     0
  9
$REGENMODE
 70
     1
  9
$FILLMODE
 70
     1
  9
$QTEXTMODE
 70
     0
  9
$MIRRTEXT
 70
     1
  9
$LTSCALE
 40
1.0
  9
$ATTMODE
 70
     1
  9
$TEXTSIZE
 40
0.2
  9
$TRACEWID
 40
0.05
  9
$TEXTSTYLE
  7
Standard
  9
$CLAYER
  8
0
  9
$CELTYPE
  6
ByLayer
  9
$CECOLOR
 62
   256
  9
$CELTSCALE
 40
1.0
  9
$DISPSILH
 70
     0
  9
$DIMSCALE
 40
1.0
  9
$DIMASZ
 40
0.18
  9
$DIMEXO
 40
0.0625
  9
$DIMDLI
 40
0.38
  9
$DIMRND
 40
0.0
  9
$DIMDLE
 40
0.0
  9
$DIMEXE
 40
0.18
  9
$DIMTP
 40
0.0
  9
$DIMTM
 40
0.0
  9
$DIMTXT
 40
0.18
  9
$DIMCEN
 40
0.09
  9
$DIMTSZ
 40
0.0
  9
$DIMTOL
 70
     0
  9
$DIMLIM
 70
     0
  9
$DIMTIH
 70
     1
  9
$DIMTOH
 70
     1
  9
$DIMSE1
 70
     0
  9
$DIMSE2
 70
     0
  9
$DIMTAD
 70
     0
  9
$DIMZIN
 70
     0
  9
$DIMBLK
  1

  9
$DIMASO
 70
     1
  9
$DIMSHO
 70
     1
  9
$DIMPOST
  1

  9
$DIMAPOST
  1

  9
$DIMALT
 70
     0
  9
$DIMALTD
 70
     2
  9
$DIMALTF
 40
25.4
  9
$DIMLFAC
 40
1.0
  9
$DIMTOFL
 70
     0
  9
$DIMTVP
 40
0.0
  9
$DIMTIX
 70
     0
  9
$DIMSOXD
 70
     0
  9
$DIMSAH
 70
     0
  9
$DIMBLK1
  1

  9
$DIMBLK2
  1

  9
$DIMSTYLE
  2
Standard
  9
$DIMCLRD
 70
     0
  9
$DIMCLRE
 70
     0
  9
$DIMCLRT
 70
     0
  9
$DIMTFAC
 40
1.0
  9
$DIMGAP
 40
0.09
  9
$DIMJUST
 70
     0
  9
$DIMSD1
 70
     0
  9
$DIMSD2
 70
     0
  9
$DIMTOLJ
 70
     1
  9
$DIMTZIN
 70
     0
  9
$DIMALTZ
 70
     0
  9
$DIMALTTZ
 70
     0
  9
$DIMUPT
 70
     0
  9
$DIMDEC
 70
     4
  9
$DIMTDEC
 70
     4
  9
$DIMALTU
 70
     2
  9
$DIMALTTD
 70
     2
  9
$DIMTXSTY
  7
Standard
  9
$DIMAUNIT
 70
     0
  9
$DIMADEC
 70
     0
  9
$DIMALTRND
 40
0.0
  9
$DIMAZIN
 70
     0
  9
$DIMDSEP
 70
    46
  9
$DIMATFIT
 70
     3
  9
$DIMFRAC
 70
     0
  9
$DIMLDRBLK
  1

  9
$DIMLUNIT
 70
     2
  9
$DIMLWD
 70
    -2
  9
$DIMLWE
 70
    -2
  9
$DIMTMOVE
 70
     0
  9
$DIMFXL
 40
1.0
  9
$DIMFXLON
 70
     0
  9
$DIMJOGANG
 40
0.7853981633974483
  9
$DIMTFILL
 70
     0
  9
$DIMTFILLCLR
 70
     0
  9
$DIMARCSYM
 70
     0
  9
$DIMLTYPE
  6

  9
$DIMLTEX1
  6

  9
$DIMLTEX2
  6

  9
$DIMTXTDIRECTION
 70
     0
  9
$LUNITS
 70
     2
  9
$LUPREC
 70
     4
  9
$SKETCHINC
 40
0.1
  9
$FILLETRAD
 40
0.5
  9
$AUNITS
 70
     0
  9
$AUPREC
 70
     0
  9
$MENU
  1
.
  9
$ELEVATION
 40
0.0
  9
$PELEVATION
 40
0.0
  9
$THICKNESS
 40
0.0
  9
$LIMCHECK
 70
     0
  9
$CHAMFERA
 40
0.5
  9
$CHAMFERB
 40
0.5
  9
$CHAMFERC
 40
1.0
  9
$CHAMFERD
 40
0.0
  9
$SKPOLY
 70
     0
  9
$TDCREATE
 40
2457917.621655081
  9
$TDUCREATE
 40
2457917.246655093
  9
$TDUPDATE
 40
2457917.621655081
  9
$TDUUPDATE
 40
2457917.246655093
  9
$TDINDWG
 40
0.0000000116
  9
$TDUSRTIMER
 40
0.0000000116
  9
$USRTIMER
 70
     1
  9
$ANGBASE
 50
0.0
  9
$ANGDIR
 70
     0
  9
$PDMODE
 70
     0
  9
$PDSIZE
 40
0.0
  9
$PLINEWID
 40
0.0
  9
$SPLFRAME
 70
     0
  9
$SPLINETYPE
 70
     6
  9
$SPLINESEGS
 70
     8
  9
$HANDSEED
  5
DB
  9
$SURFTAB1
 70
     6
  9
$SURFTAB2
 70
     6
  9
$SURFTYPE
 70
     6
  9
$SURFU
 70
     6
  9
$SURFV
 70
     6
  9
$UCSBASE
  2

  9
$UCSNAME
  2

  9
$UCSORG
 10
0.0
 20
0.0
 30
0.0
  9
$UCSXDIR
 10
1.0
 20
0.0
 30
0.0
  9
$UCSYDIR
 10
0.0
 20
1.0
 30
0.0
  9
$UCSORTHOREF
  2

  9
$UCSORTHOVIEW
 70
     0
  9
$UCSORGTOP
 10
0.0
 20
0.0
 30
0.0
  9
$UCSORGBOTTOM
 10
0.0
 20
0.0
 30
0.0
  9
$UCSORGLEFT
 10
0.0
 20
0.0
 30
0.0
  9
$UCSORGRIGHT
 10
0.0
 20
0.0
 30
0.0
  9
$UCSORGFRONT
 10
0.0
 20
0.0
 30
0.0
  9
$UCSORGBACK
 10
0.0
 20
0.0
 30
0.0
  9
$PUCSBASE
  2

  9
$PUCSNAME
  2

  9
$PUCSORG
 10
0.0
 20
0.0
 30
0.0
  9
$PUCSXDIR
 10
1.0
 20
0.0
 30
0.0
  9
$PUCSYDIR
 10
0.0
 20
1.0
 30
0.0
  9
$PUCSORTHOREF
  2

  9
$PUCSORTHOVIEW
 70
     0
  9
$PUCSORGTOP
 10
0.0
 20
0.0
 30
0.0
  9
$PUCSORGBOTTOM
 10
0.0
 20
0.0
 30
0.0
  9
$PUCSORGLEFT
 10
0.0
 20
0.0
 30
0.0
  9
$PUCSORGRIGHT
 10
0.0
 20
0.0
 30
0.0
  9
$PUCSORGFRONT
 10
0.0
 20
0.0
 30
0.0
  9
$PUCSORGBACK
 10
0.0
 20
0.0
 30
0.0
  9
$USERI1
 70
     0
  9
$USERI2
 70
     0
  9
$USERI3
 70
     0
  9
$USERI4
 70
     0
  9
$USERI5
 70
     0
  9
$USERR1
 40
0.0
  9
$USERR2
 40
0.0
  9
$USERR3
 40
0.0
  9
$USERR4
 40
0.0
  9
$USERR5
 40
0.0
  9
$WORLDVIEW
 70
     1
  9
$SHADEDGE
 70
     3
  9
$SHADEDIF
 70
    70
  9
$TILEMODE
 70
     1
  9
$MAXACTVP
 70
    64
  9
$PINSBASE
 10
0.0
 20
0.0
 30
0.0
  9
$PLIMCHECK
 70
     0
  9
$PEXTMIN
 10
1.000000000000000E+20
 20
1.000000000000000E+20
 30
1.000000000000000E+20
  9
$PEXTMAX
 10
-1.000000000000000E+20
 20
-1.000000000000000E+20
 30
-1.000000000000000E+20
  9
$PLIMMIN
 10
0.0
 20
0.0
  9
$PLIMMAX
 10
12.0
 20
9.0
  9
$UNITMODE
 70
     0
  9
$VISRETAIN
 70
     1
  9
$PLINEGEN
 70
     0
  9
$PSLTSCALE
 70
     1
  9
$TREEDEPTH
 70
  3020
  9
$CMLSTYLE
  2
Standard
  9
$CMLJUST
 70
     0
  9
$CMLSCALE
 40
1.0
  9
$PROXYGRAPHICS
 70
     1
  9
$MEASUREMENT
 70
     0
  9
$CELWEIGHT
370
    -1
  9
$ENDCAPS
280
     0
  9
$JOINSTYLE
280
     0
  9
$LWDISPLAY
290
     1
  9
$INSUNITS
 70
     1
  9
$HYPERLINKBASE
  1

  9
$STYLESHEET
  1

  9
$XEDIT
290
     1
  9
$CEPSNTYPE
380
     0
  9
$PSTYLEMODE
290
     1
  9
$FINGERPRINTGUID
  2
{5B442996-FAD5-EAF6-B0A7-B0F40E2DBF52}
  9
$VERSIONGUID
  2
{FAEB1C32-E019-11D5-929B-00C0DF256EC4}
  9
$EXTNAMES
290
     1
  9
$PSVPSCALE
 40
0.0
  9
$OLESTARTUP
290
     0
  9
$SORTENTS
280
   127
  9
$INDEXCTL
280
     0
  9
$HIDETEXT
280
     1
  9
$XCLIPFRAME
280
     2
  9
$HALOGAP
280
     0
  9
$OBSCOLOR
 70
   257
  9
$OBSLTYPE
280
     0
  9
$INTERSECTIONDISPLAY
280
     0
  9
$INTERSECTIONCOLOR
 70
   257
  9
$DIMASSOC
280
     2
  9
$PROJECTNAME
  1

  9
$CAMERADISPLAY
290
     0
  9
$LENSLENGTH
 40
50.0
  9
$CAMERAHEIGHT
 40
0.0
  9
$STEPSPERSEC
 40
2.0
  9
$STEPSIZE
 40
6.0
  9
$3DDWFPREC
 40
2.0
  9
$PSOLWIDTH
 40
0.25
  9
$PSOLHEIGHT
 40
4.0
  9
$LOFTANG1
 40
1.570796326794897
  9
$LOFTANG2
 40
1.570796326794897
  9
$LOFTMAG1
 40
0.0
  9
$LOFTMAG2
 40
0.0
  9
$LOFTPARAM
 70
     7
  9
$LOFTNORMALS
280
     1
  9
$LATITUDE
 40
37.795
  9
$LONGITUDE
 40
-122.394
  9
$NORTHDIRECTION
 40
0.0
  9
$TIMEZONE
 70
 -8000
  9
$LIGHTGLYPHDISPLAY
280
     1
  9
$TILEMODELIGHTSYNCH
280
     1
  9
$CMATERIAL
347
3C
  9
$SOLIDHIST
280
     1
  9
$SHOWHIST
280
     1
  9
$DWFFRAME
280
     2
  9
$DGNFRAME
280
     2
  9
$REALWORLDSCALE
290
     1
  9
$INTERFERECOLOR
 62
   256
  9
$CSHADOW
280
     0
  9
$SHADOWPLANELOCATION
 40
0.0
  0
ENDSEC
  0
SECTION
  2
CLASSES
  0
CLASS
  1
ACDBDICTIONARYWDFLT
  2
AcDbDictionaryWithDefault
  3
ObjectDBX Classes
 90
        0
 91
        4
280
     0
281
     0
  0
CLASS
  1
VISUALSTYLE
  2
AcDbVisualStyle
  3
ObjectDBX Classes
 90
     4095
 91
        4
280
     0
281
     0
  0
CLASS
  1
MATERIAL
  2
AcDbMaterial
  3
ObjectDBX Classes
 90
     1153
 91
        4
280
     0
281
     0
  0
CLASS
  1
SUN
  2
AcDbSun
  3
SCENEOE
 90
     1024
 91
        4
280
     0
281
     0
  0
ENDSEC
  0
SECTION
  2
TABLES
  0
TABLE
  2
VPORT
  5
8
330
0
100
AcDbSymbolTable
 70
     1
  0
VPORT
  5
29
330
8
100
AcDbSymbolTableRecord
100
AcDbViewportTableRecord
  2
*Active
 70
     0
 10
0.0
 20
0.0
 11
1.0
 21
1.0
 12
0.0
 22
0.0
 13
0.0
 23
0.0
 14
0.5
 24
0.5
 15
0.5
 25
0.5
 16
0.0
 26
0.0
 36
1.0
 17
91.00082462281999
 27
-128.4993055234307
 37
0.0
 40
256.9986110468615
 41
0.7081814508812795
 42
50.0
 43
0.0
 44
0.0
 50
0.0
 51
0.0
 71
     0
 72
   100
 73
     1
 74
     3
 75
     0
 76
     0
 77
     0
 78
     0
281
     0
 65
     1
110
0.0
120
0.0
130
0.0
111
1.0
121
0.0
131
0.0
112
0.0
122
1.0
132
0.0
 79
     0
146
0.0
 60
     3
 61
     5
292
     1
282
     1
141
0.0
142
0.0
 63
   250
361
3F
  0
ENDTAB
  0
TABLE
  2
LTYPE
  5
5
330
0
100
AcDbSymbolTable
 70
     1
  0
LTYPE
  5
14
330
5
100
AcDbSymbolTableRecord
100
AcDbLinetypeTableRecord
  2
ByBlock
 70
     0
  3

 72
    65
 73
     0
 40
0.0
  0
LTYPE
  5
15
330
5
100
AcDbSymbolTableRecord
100
AcDbLinetypeTableRecord
  2
ByLayer
 70
     0
  3

 72
    65
 73
     0
 40
0.0
  0
LTYPE
  5
16
330
5
100
AcDbSymbolTableRecord
100
AcDbLinetypeTableRecord
  2
Continuous
 70
     0
  3
Solid line
 72
    65
 73
     0
 40
0.0
  0
ENDTAB
  0
TABLE
  2
LAYER
  5
2
330
0
100
AcDbSymbolTable
 70
     2
  0
LAYER
  5
10
330
2
100
AcDbSymbolTableRecord
100
AcDbLayerTableRecord
  2
0
 70
     0
 62
     7
  6
Continuous
370
    -3
390
F
347
3E
  0
LAYER
  5
40
330
2
100
AcDbSymbolTableRecord
100
AcDbLayerTableRecord
  2
_U+30EC_U+30A4_U+30E4_U+30FC 1
 70
     0
 62
     7
  6
Continuous
370
    -3
390
F
347
3E
  0
ENDTAB
  0
TABLE
  2
STYLE
  5
3
330
0
100
AcDbSymbolTable
 70
     1
  0
STYLE
  5
11
330
3
100
AcDbSymbolTableRecord
100
AcDbTextStyleTableRecord
  2
Standard
 70
     0
 40
0.0
 41
1.0
 50
0.0
 71
     0
 42
0.2
  3
txt
  4

  0
ENDTAB
  0
TABLE
  2
VIEW
  5
6
330
0
100
AcDbSymbolTable
 70
     0
  0
ENDTAB
  0
TABLE
  2
UCS
  5
7
330
0
100
AcDbSymbolTable
 70
     0
  0
ENDTAB
  0
TABLE
  2
APPID
  5
9
330
0
100
AcDbSymbolTable
 70
     1
  0
APPID
  5
12
330
9
100
AcDbSymbolTableRecord
100
AcDbRegAppTableRecord
  2
ACAD
 70
     0
  0
ENDTAB
  0
TABLE
  2
DIMSTYLE
  5
A
330
0
100
AcDbSymbolTable
 70
     1
100
AcDbDimStyleTable
  0
DIMSTYLE
105
27
330
A
100
AcDbSymbolTableRecord
100
AcDbDimStyleTableRecord
  2
Standard
 70
     0
178
     0
340
11
  0
ENDTAB
  0
TABLE
  2
BLOCK_RECORD
  5
1
330
0
100
AcDbSymbolTable
 70
     6
  0
BLOCK_RECORD
  5
1F
330
1
100
AcDbSymbolTableRecord
100
AcDbBlockTableRecord
  2
*Model_Space
340
22
 70
     0
280
     1
281
     0
  0
BLOCK_RECORD
  5
1B
330
1
100
AcDbSymbolTableRecord
100
AcDbBlockTableRecord
  2
*Paper_Space
340
1E
 70
     0
280
     1
281
     0
  0
BLOCK_RECORD
  5
23
330
1
100
AcDbSymbolTableRecord
100
AcDbBlockTableRecord
  2
*Paper_Space0
340
26
 70
     0
280
     1
281
     0
  0
BLOCK_RECORD
  5
58
330
1
100
AcDbSymbolTableRecord
100
AcDbBlockTableRecord
  2
block 2
340
0
102
{BLKREFS
331
59
102
}
 70
     0
280
     1
281
     0
  0
BLOCK_RECORD
  5
5E
330
1
100
AcDbSymbolTableRecord
100
AcDbBlockTableRecord
  2
block 3
340
0
102
{BLKREFS
331
5F
102
}
 70
     0
280
     1
281
     0
  0
BLOCK_RECORD
  5
77
330
1
100
AcDbSymbolTableRecord
100
AcDbBlockTableRecord
  2
block 4
340
0
102
{BLKREFS
331
78
102
}
 70
     0
280
     1
281
     0
  0
BLOCK_RECORD
  5
7F
330
1
100
AcDbSymbolTableRecord
100
AcDbBlockTableRecord
  2
block 5
340
0
102
{BLKREFS
331
80
102
}
 70
     0
280
     1
281
     0
  0
BLOCK_RECORD
  5
CF
330
1
100
AcDbSymbolTableRecord
100
AcDbBlockTableRecord
  2
block 6
340
0
102
{BLKREFS
331
D0
102
}
 70
     0
280
     1
281
     0
  0
ENDTAB
  0
ENDSEC
  0
SECTION
  2
BLOCKS
  0
BLOCK
  5
20
330
1F
100
AcDbEntity
  8
0
100
AcDbBlockBegin
  2
*Model_Space
 70
     0
 10
0.0
 20
0.0
 30
0.0
  3
*Model_Space
  1

  0
ENDBLK
  5
21
330
1F
100
AcDbEntity
  8
0
100
AcDbBlockEnd
  0
BLOCK
  5
1C
330
1B
100
AcDbEntity
 67
     1
  8
0
100
AcDbBlockBegin
  2
*Paper_Space
 70
     0
 10
0.0
 20
0.0
 30
0.0
  3
*Paper_Space
  1

  0
ENDBLK
  5
1D
330
1B
100
AcDbEntity
 67
     1
  8
0
100
AcDbBlockEnd
  0
BLOCK
  5
24
330
23
100
AcDbEntity
  8
0
100
AcDbBlockBegin
  2
*Paper_Space0
 70
     0
 10
0.0
 20
0.0
 30
0.0
  3
*Paper_Space0
  1

  0
ENDBLK
  5
25
330
23
100
AcDbEntity
  8
0
100
AcDbBlockEnd
  0
BLOCK
  5
5A
330
58
100
AcDbEntity
  8
0
100
AcDbBlockBegin
  2
block 2
 70
     0
 10
0.0
 20
0.0
 30
0.0
  3
block 2
  1

  0
SPLINE
  5
5C
330
58
100
AcDbEntity
  8
_U+30EC_U+30A4_U+30E4_U+30FC 1
370
     0
100
AcDbSpline
210
0.0
220
0.0
230
1.0
 70
    11
 71
     3
 72
    26
 73
    22
 74
     0
 42
0.0000000001
 43
0.0000000001
 12
1.0
 22
0.0
 32
0.0
 13
1.0
 23
0.0
 33
0.0
 40
0.0
 40
0.0
 40
0.0
 40
0.0
 40
1.0
 40
1.0
 40
1.0
 40
2.0
 40
2.0
 40
2.0
 40
3.0
 40
3.0
 40
3.0
 40
4.0
 40
4.0
 40
4.0
 40
5.0
 40
5.0
 40
5.0
 40
6.0
 40
6.0
 40
6.0
 40
7.0
 40
7.0
 40
7.0
 40
7.0
 10
83.65845945174163
 20
-132.0753146371201
 30
0.0
 10
83.65845945174163
 20
-132.0753146371201
 30
0.0
 10
82.55413409394481
 20
-132.0753146371201
 30
0.0
 10
82.55413409394481
 20
-132.0753146371201
 30
0.0
 10
82.55413409394481
 20
-132.0753146371201
 30
0.0
 10
82.55413409394481
 20
-132.4277479052611
 30
0.0
 10
82.55413409394481
 20
-132.4277479052611
 30
0.0
 10
82.55413409394481
 20
-132.4277479052611
 30
0.0
 10
82.40599498807906
 20
-132.4277479052611
 30
0.0
 10
82.40599498807906
 20
-132.4277479052611
 30
0.0
 10
82.39135333226675
 20
-132.0729030702804
 30
0.0
 10
82.22840031581443
 20
-132.0232936952928
 30
0.0
 10
82.1141954004784
 20
-131.9915988168285
 30
0.0
 10
82.1141954004784
 20
-131.9915988168285
 30
0.0
 10
82.1141954004784
 20
-131.8355359913467
 30
0.0
 10
82.1141954004784
 20
-131.8355359913467
 30
0.0
 10
82.1141954004784
 20
-131.8355359913467
 30
0.0
 10
83.65845945174163
 20
-131.8355359913467
 30
0.0
 10
83.65845945174163
 20
-131.8355359913467
 30
0.0
 10
83.65845945174163
 20
-131.8355359913467
 30
0.0
 10
83.65845945174163
 20
-132.0753146371201
 30
0.0
 10
83.65845945174163
 20
-132.0753146371201
 30
0.0
  0
HATCH
  5
5D
330
58
100
AcDbEntity
  8
_U+30EC_U+30A4_U+30E4_U+30FC 1
 62
   179
420
  2234388
100
AcDbHatch
 10
0.0
 20
0.0
 30
0.0
210
0.0
220
0.0
230
1.0
  2
SOLID
 70
     1
 71
     0
 91
        1
 92
        1
 93
        1
 72
     4
 94
        3
 73
     0
 74
     1
 95
       26
 96
       22
 40
0.0
 40
0.0
 40
0.0
 40
0.0
 40
1.0
 40
1.0
 40
1.0
 40
2.0
 40
2.0
 40
2.0
 40
3.0
 40
3.0
 40
3.0
 40
4.0
 40
4.0
 40
4.0
 40
5.0
 40
5.0
 40
5.0
 40
6.0
 40
6.0
 40
6.0
 40
7.0
 40
7.0
 40
7.0
 40
7.0
 10
83.65845945174163
 20
-132.0753146371201
 10
83.65845945174163
 20
-132.0753146371201
 10
82.55413409394481
 20
-132.0753146371201
 10
82.55413409394481
 20
-132.0753146371201
 10
82.55413409394481
 20
-132.0753146371201
 10
82.55413409394481
 20
-132.4277479052611
 10
82.55413409394481
 20
-132.4277479052611
 10
82.55413409394481
 20
-132.4277479052611
 10
82.40599498807906
 20
-132.4277479052611
 10
82.40599498807906
 20
-132.4277479052611
 10
82.39135333226675
 20
-132.0729030702804
 10
82.22840031581443
 20
-132.0232936952928
 10
82.1141954004784
 20
-131.9915988168285
 10
82.1141954004784
 20
-131.9915988168285
 10
82.1141954004784
 20
-131.8355359913467
 10
82.1141954004784
 20
-131.8355359913467
 10
82.1141954004784
 20
-131.8355359913467
 10
83.65845945174163
 20
-131.8355359913467
 10
83.65845945174163
 20
-131.8355359913467
 10
83.65845945174163
 20
-131.8355359913467
 10
83.65845945174163
 20
-132.0753146371201
 10
83.65845945174163
 20
-132.0753146371201
 97
        0
 97
        0
 75
     2
 76
     1
 98
        0
  0
ENDBLK
  5
5B
330
58
100
AcDbEntity
  8
0
100
AcDbBlockEnd
  0
BLOCK
  5
60
330
5E
100
AcDbEntity
  8
0
100
AcDbBlockBegin
  2
block 3
 70
     0
 10
0.0
 20
0.0
 30
0.0
  3
block 3
  1

  0
SPLINE
  5
62
330
5E
100
AcDbEntity
  8
_U+30EC_U+30A4_U+30E4_U+30FC 1
370
     0
100
AcDbSpline
210
0.0
220
0.0
230
1.0
 70
    11
 71
     3
 72
    32
 73
    28
 74
     0
 42
0.0000000001
 43
0.0000000001
 12
1.0
 22
0.0
 32
0.0
 13
1.0
 23
0.0
 33
0.0
 40
0.0
 40
0.0
 40
0.0
 40
0.0
 40
1.0
 40
1.0
 40
1.0
 40
2.0
 40
2.0
 40
2.0
 40
3.0
 40
3.0
 40
3.0
 40
4.0
 40
4.0
 40
4.0
 40
5.0
 40
5.0
 40
5.0
 40
6.0
 40
6.0
 40
6.0
 40
7.0
 40
7.0
 40
7.0
 40
8.0
 40
8.0
 40
8.0
 40
9.0
 40
9.0
 40
9.0
 40
9.0
 10
83.70927461014908
 20
-128.9506130319985
 30
0.0
 10
83.70927461014908
 20
-129.502172819187
 30
0.0
 10
83.15495874657238
 20
-129.5111300674486
 30
0.0
 10
82.94136282648688
 20
-129.5111300674486
 30
0.0
 10
82.7107136837494
 20
-129.5111300674486
 30
0.0
 10
82.06338024207096
 20
-129.4908040040856
 30
0.0
 10
82.06338024207096
 20
-128.909616395724
 30
0.0
 10
82.06338024207096
 20
-128.7242702586175
 30
0.0
 10
82.13314342564728
 20
-128.46209849219
 30
0.0
 10
82.46525063042536
 20
-128.4214463654641
 30
0.0
 10
82.46525063042536
 20
-128.4214463654641
 30
0.0
 10
82.46525063042536
 20
-128.6496839413619
 30
0.0
 10
82.46525063042536
 20
-128.6496839413619
 30
0.0
 10
82.40823430014447
 20
-128.6610527564632
 30
0.0
 10
82.26009519427873
 20
-128.6949869469929
 30
0.0
 10
82.26009519427873
 20
-128.9120279625637
 30
0.0
 10
82.26009519427873
 20
-129.2241536135273
 30
0.0
 10
82.58806828447452
 20
-129.2668727975444
 30
0.0
 10
82.79322372062114
 20
-129.2806531794854
 30
0.0
 10
82.71502005310597
 20
-129.1810899199617
 30
0.0
 10
82.65576441075967
 20
-129.1087429147714
 30
0.0
 10
82.65576441075967
 20
-128.9140950198548
 30
0.0
 10
82.65576441075967
 20
-128.7220309465521
 30
0.0
 10
82.76359589944799
 20
-128.3987087352614
 30
0.0
 10
83.16977265715894
 20
-128.3987087352614
 30
0.0
 10
83.48913300864162
 20
-128.3987087352614
 30
0.0
 10
83.70927461014908
 20
-128.6112711267014
 30
0.0
 10
83.70927461014908
 20
-128.9506130319985
 30
0.0
  0
SPLINE
  5
63
330
5E
100
AcDbEntity
  8
_U+30EC_U+30A4_U+30E4_U+30FC 1
370
     0
100
AcDbSpline
210
0.0
220
0.0
230
1.0
 70
    11
 71
     3
 72
    17
 73
    13
 74
     0
 42
0.0000000001
 43
0.0000000001
 12
1.0
 22
0.0
 32
0.0
 13
1.0
 23
0.0
 33
0.0
 40
0.0
 40
0.0
 40
0.0
 40
0.0
 40
1.0
 40
1.0
 40
1.0
 40
2.0
 40
2.0
 40
2.0
 40
3.0
 40
3.0
 40
3.0
 40
4.0
 40
4.0
 40
4.0
 40
4.0
 10
82.85041230567629
 20
-128.9323540259266
 30
0.0
 10
82.85041230567629
 20
-129.212784798426
 30
0.0
 10
83.06194116847063
 20
-129.2534369251519
 30
0.0
 10
83.17821314109781
 20
-129.2534369251519
 30
0.0
 10
83.35374075607129
 20
-129.2534369251519
 30
0.0
 10
83.51669377252361
 20
-129.1518066083371
 30
0.0
 10
83.51669377252361
 20
-128.9550916561293
 30
0.0
 10
83.51669377252361
 20
-128.8262450849809
 30
0.0
 10
83.45743813017731
 20
-128.6384873810348
 30
0.0
 10
83.1718397144501
 20
-128.6384873810348
 30
0.0
 10
82.94756399836034
 20
-128.6384873810348
 30
0.0
 10
82.85041230567629
 20
-128.7876600155462
 30
0.0
 10
82.85041230567629
 20
-128.9323540259266
 30
0.0
  0
HATCH
  5
64
330
5E
100
AcDbEntity
  8
_U+30EC_U+30A4_U+30E4_U+30FC 1
 62
   179
420
  2234388
100
AcDbHatch
 10
0.0
 20
0.0
 30
0.0
210
0.0
220
0.0
230
1.0
  2
SOLID
 70
     1
 71
     0
 91
        2
 92
        1
 93
        1
 72
     4
 94
        3
 73
     0
 74
     1
 95
       32
 96
       28
 40
0.0
 40
0.0
 40
0.0
 40
0.0
 40
1.0
 40
1.0
 40
1.0
 40
2.0
 40
2.0
 40
2.0
 40
3.0
 40
3.0
 40
3.0
 40
4.0
 40
4.0
 40
4.0
 40
5.0
 40
5.0
 40
5.0
 40
6.0
 40
6.0
 40
6.0
 40
7.0
 40
7.0
 40
7.0
 40
8.0
 40
8.0
 40
8.0
 40
9.0
 40
9.0
 40
9.0
 40
9.0
 10
83.70927461014908
 20
-128.9506130319985
 10
83.70927461014908
 20
-129.502172819187
 10
83.15495874657238
 20
-129.5111300674486
 10
82.94136282648688
 20
-129.5111300674486
 10
82.7107136837494
 20
-129.5111300674486
 10
82.06338024207096
 20
-129.4908040040856
 10
82.06338024207096
 20
-128.909616395724
 10
82.06338024207096
 20
-128.7242702586175
 10
82.13314342564728
 20
-128.46209849219
 10
82.46525063042536
 20
-128.4214463654641
 10
82.46525063042536
 20
-128.4214463654641
 10
82.46525063042536
 20
-128.6496839413619
 10
82.46525063042536
 20
-128.6496839413619
 10
82.40823430014447
 20
-128.6610527564632
 10
82.26009519427873
 20
-128.6949869469929
 10
82.26009519427873
 20
-128.9120279625637
 10
82.26009519427873
 20
-129.2241536135273
 10
82.58806828447452
 20
-129.2668727975444
 10
82.79322372062114
 20
-129.2806531794854
 10
82.71502005310597
 20
-129.1810899199617
 10
82.65576441075967
 20
-129.1087429147714
 10
82.65576441075967
 20
-128.9140950198548
 10
82.65576441075967
 20
-128.7220309465521
 10
82.76359589944799
 20
-128.3987087352614
 10
83.16977265715894
 20
-128.3987087352614
 10
83.48913300864162
 20
-128.3987087352614
 10
83.70927461014908
 20
-128.6112711267014
 10
83.70927461014908
 20
-128.9506130319985
 97
        0
 97
        0
 92
        1
 93
        1
 72
     4
 94
        3
 73
     0
 74
     1
 95
       17
 96
       13
 40
0.0
 40
0.0
 40
0.0
 40
0.0
 40
1.0
 40
1.0
 40
1.0
 40
2.0
 40
2.0
 40
2.0
 40
3.0
 40
3.0
 40
3.0
 40
4.0
 40
4.0
 40
4.0
 40
4.0
 10
82.85041230567629
 20
-128.9323540259266
 10
82.85041230567629
 20
-129.212784798426
 10
83.06194116847063
 20
-129.2534369251519
 10
83.17821314109781
 20
-129.2534369251519
 10
83.35374075607129
 20
-129.2534369251519
 10
83.51669377252361
 20
-129.1518066083371
 10
83.51669377252361
 20
-128.9550916561293
 10
83.51669377252361
 20
-128.8262450849809
 10
83.45743813017731
 20
-128.6384873810348
 10
83.1718397144501
 20
-128.6384873810348
 10
82.94756399836034
 20
-128.6384873810348
 10
82.85041230567629
 20
-128.7876600155462
 10
82.85041230567629
 20
-128.9323540259266
 97
        0
 97
        0
 75
     2
 76
     1
 98
        0
  0
POLYLINE
  5
65
330
5E
100
AcDbEntity
  8
_U+30EC_U+30A4_U+30E4_U+30FC 1
370
     0
100
AcDb2dPolyline
 66
     1
 10
0.0
 20
0.0
 30
0.0
  0
VERTEX
  5
66
330
65
100
AcDbEntity
  8
_U+30EC_U+30A4_U+30E4_U+30FC 1
370
     0
100
AcDbVertex
100
AcDb2dVertex
 10
83.65845945174163
 20
-128.1673705734269
 30
0.0
  0
VERTEX
  5
67
330
65
100
AcDbEntity
  8
_U+30EC_U+30A4_U+30E4_U+30FC 1
370
     0
100
AcDbVertex
100
AcDb2dVertex
 10
83.40679522654413
 20
-128.1673705734269
 30
0.0
  0
VERTEX
  5
68
330
65
100
AcDbEntity
  8
_U+30EC_U+30A4_U+30E4_U+30FC 1
370
     0
100
AcDbVertex
100
AcDb2dVertex
 10
83.40679522654413
 20
-127.8984808708032
 30
0.0
  0
VERTEX
  5
69
330
65
100
AcDbEntity
  8
_U+30EC_U+30A4_U+30E4_U+30FC 1
370
     0
100
AcDbVertex
100
AcDb2dVertex
 10
83.65845945174163
 20
-127.8984808708032
 30
0.0
  0
VERTEX
  5
6A
330
65
100
AcDbEntity
  8
_U+30EC_U+30A4_U+30E4_U+30FC 1
370
     0
100
AcDbVertex
100
AcDb2dVertex
 10
83.65845945174163
 20
-128.1673705734269
 30
0.0
  0
SEQEND
  5
6B
330
65
100
AcDbEntity
  8
_U+30EC_U+30A4_U+30E4_U+30FC 1
370
     0
  0
HATCH
  5
6C
330
5E
100
AcDbEntity
  8
_U+30EC_U+30A4_U+30E4_U+30FC 1
 62
   179
420
  2234388
100
AcDbHatch
 10
0.0
 20
0.0
 30
0.0
210
0.0
220
0.0
230
1.0
  2
SOLID
 70
     1
 71
     0
 91
        1
 92
        1
 93
        4
 72
     1
 10
83.65845945174163
 20
-128.1673705734269
 11
83.40679522654413
 21
-128.1673705734269
 72
     1
 10
83.40679522654413
 20
-128.1673705734269
 11
83.40679522654413
 21
-127.8984808708032
 72
     1
 10
83.40679522654413
 20
-127.8984808708032
 11
83.65845945174163
 21
-127.8984808708032
 72
     1
 10
83.65845945174163
 20
-127.8984808708032
 11
83.65845945174163
 21
-128.1673705734269
 97
        0
 75
     2
 76
     1
 98
        0
  0
SPLINE
  5
6D
330
5E
100
AcDbEntity
  8
_U+30EC_U+30A4_U+30E4_U+30FC 1
370
     0
100
AcDbSpline
210
0.0
220
0.0
230
1.0
 70
    11
 71
     3
 72
    53
 73
    49
 74
     0
 42
0.0000000001
 43
0.0000000001
 12
1.0
 22
0.0
 32
0.0
 13
1.0
 23
0.0
 33
0.0
 40
0.0
 40
0.0
 40
0.0
 40
0.0
 40
1.0
 40
1.0
 40
1.0
 40
2.0
 40
2.0
 40
2.0
 40
3.0
 40
3.0
 40
3.0
 40
4.0
 40
4.0
 40
4.0
 40
5.0
 40
5.0
 40
5.0
 40
6.0
 40
6.0
 40
6.0
 40
7.0
 40
7.0
 40
7.0
 40
8.0
 40
8.0
 40
8.0
 40
9.0
 40
9.0
 40
9.0
 40
10.0
 40
10.0
 40
10.0
 40
11.0
 40
11.0
 40
11.0
 40
12.0
 40
12.0
 40
12.0
 40
13.0
 40
13.0
 40
13.0
 40
14.0
 40
14.0
 40
14.0
 40
15.0
 40
15.0
 40
15.0
 40
16.0
 40
16.0
 40
16.0
 40
16.0
 10
83.70927461014908
 20
-127.1316026157865
 30
0.0
 10
83.70927461014908
 20
-127.2153184360781
 30
0.0
 10
83.69239364227136
 20
-127.3238389438635
 30
0.0
 10
83.62883163056848
 20
-127.4323594516489
 30
0.0
 10
83.51876082981475
 20
-127.6177055887553
 30
0.0
 10
83.387674946601
 20
-127.6402709641837
 30
0.0
 10
83.27984345791268
 20
-127.6607692823209
 30
0.0
 10
83.27984345791268
 20
-127.6607692823209
 30
0.0
 10
83.27984345791268
 20
-127.4232299486129
 30
0.0
 10
83.27984345791268
 20
-127.4232299486129
 30
0.0
 10
83.4786254674116
 20
-127.3644910705894
 30
0.0
 10
83.50825328858474
 20
-127.2289265632449
 30
0.0
 10
83.50825328858474
 20
-127.1293633037211
 30
0.0
 10
83.50825328858474
 20
-126.9801906692098
 30
0.0
 10
83.40886228383529
 20
-126.8174099075318
 30
0.0
 10
83.17614608380666
 20
-126.8174099075318
 30
0.0
 10
82.9201754892526
 20
-126.8174099075318
 30
0.0
 10
82.85041230567629
 20
-127.0096462356087
 30
0.0
 10
82.85041230567629
 20
-127.138492806757
 30
0.0
 10
82.85041230567629
 20
-127.1724269972868
 30
0.0
 10
82.85041230567629
 20
-127.3238389438635
 30
0.0
 10
82.9794311315989
 20
-127.4187513244821
 30
0.0
 10
82.9794311315989
 20
-127.4187513244821
 30
0.0
 10
82.96031085165576
 20
-127.6065090284282
 30
0.0
 10
82.96031085165576
 20
-127.6065090284282
 30
0.0
 10
82.96031085165576
 20
-127.6065090284282
 30
0.0
 10
82.1141954004784
 20
-127.4774902025056
 30
0.0
 10
82.1141954004784
 20
-127.4774902025056
 30
0.0
 10
82.1141954004784
 20
-127.4774902025056
 30
0.0
 10
82.1141954004784
 20
-126.6454996428178
 30
0.0
 10
82.1141954004784
 20
-126.6454996428178
 30
0.0
 10
82.1141954004784
 20
-126.6454996428178
 30
0.0
 10
82.30884329539502
 20
-126.6454996428178
 30
0.0
 10
82.30884329539502
 20
-126.6454996428178
 30
0.0
 10
82.30884329539502
 20
-126.6454996428178
 30
0.0
 10
82.30884329539502
 20
-127.3035128805005
 30
0.0
 10
82.30884329539502
 20
-127.3035128805005
 30
0.0
 10
82.30884329539502
 20
-127.3035128805005
 30
0.0
 10
82.7319010209837
 20
-127.3736205736253
 30
0.0
 10
82.7319010209837
 20
-127.3736205736253
 30
0.0
 10
82.69796683045398
 20
-127.3079915046313
 30
0.0
 10
82.65783146805083
 20
-127.2197970602089
 30
0.0
 10
82.65783146805083
 20
-127.093189801126
 30
0.0
 10
82.65783146805083
 20
-126.8218885316626
 30
0.0
 10
82.84403887902857
 20
-126.5686740134967
 30
0.0
 10
83.15702580386352
 20
-126.5686740134967
 30
0.0
 10
83.4744913528293
 20
-126.5686740134967
 30
0.0
 10
83.70927461014908
 20
-126.8082804044958
 30
0.0
 10
83.70927461014908
 20
-127.1316026157865
 30
0.0
  0
HATCH
  5
6E
330
5E
100
AcDbEntity
  8
_U+30EC_U+30A4_U+30E4_U+30FC 1
 62
   179
420
  2234388
100
AcDbHatch
 10
0.0
 20
0.0
 30
0.0
210
0.0
220
0.0
230
1.0
  2
SOLID
 70
     1
 71
     0
 91
        1
 92
        1
 93
        1
 72
     4
 94
        3
 73
     0
 74
     1
 95
       53
 96
       49
 40
0.0
 40
0.0
 40
0.0
 40
0.0
 40
1.0
 40
1.0
 40
1.0
 40
2.0
 40
2.0
 40
2.0
 40
3.0
 40
3.0
 40
3.0
 40
4.0
 40
4.0
 40
4.0
 40
5.0
 40
5.0
 40
5.0
 40
6.0
 40
6.0
 40
6.0
 40
7.0
 40
7.0
 40
7.0
 40
8.0
 40
8.0
 40
8.0
 40
9.0
 40
9.0
 40
9.0
 40
10.0
 40
10.0
 40
10.0
 40
11.0
 40
11.0
 40
11.0
 40
12.0
 40
12.0
 40
12.0
 40
13.0
 40
13.0
 40
13.0
 40
14.0
 40
14.0
 40
14.0
 40
15.0
 40
15.0
 40
15.0
 40
16.0
 40
16.0
 40
16.0
 40
16.0
 10
83.70927461014908
 20
-127.1316026157865
 10
83.70927461014908
 20
-127.2153184360781
 10
83.69239364227136
 20
-127.3238389438635
 10
83.62883163056848
 20
-127.4323594516489
 10
83.51876082981475
 20
-127.6177055887553
 10
83.387674946601
 20
-127.6402709641837
 10
83.27984345791268
 20
-127.6607692823209
 10
83.27984345791268
 20
-127.6607692823209
 10
83.27984345791268
 20
-127.4232299486129
 10
83.27984345791268
 20
-127.4232299486129
 10
83.4786254674116
 20
-127.3644910705894
 10
83.50825328858474
 20
-127.2289265632449
 10
83.50825328858474
 20
-127.1293633037211
 10
83.50825328858474
 20
-126.9801906692098
 10
83.40886228383529
 20
-126.8174099075318
 10
83.17614608380666
 20
-126.8174099075318
 10
82.9201754892526
 20
-126.8174099075318
 10
82.85041230567629
 20
-127.0096462356087
 10
82.85041230567629
 20
-127.138492806757
 10
82.85041230567629
 20
-127.1724269972868
 10
82.85041230567629
 20
-127.3238389438635
 10
82.9794311315989
 20
-127.4187513244821
 10
82.9794311315989
 20
-127.4187513244821
 10
82.96031085165576
 20
-127.6065090284282
 10
82.96031085165576
 20
-127.6065090284282
 10
82.96031085165576
 20
-127.6065090284282
 10
82.1141954004784
 20
-127.4774902025056
 10
82.1141954004784
 20
-127.4774902025056
 10
82.1141954004784
 20
-127.4774902025056
 10
82.1141954004784
 20
-126.6454996428178
 10
82.1141954004784
 20
-126.6454996428178
 10
82.1141954004784
 20
-126.6454996428178
 10
82.30884329539502
 20
-126.6454996428178
 10
82.30884329539502
 20
-126.6454996428178
 10
82.30884329539502
 20
-126.6454996428178
 10
82.30884329539502
 20
-127.3035128805005
 10
82.30884329539502
 20
-127.3035128805005
 10
82.30884329539502
 20
-127.3035128805005
 10
82.7319010209837
 20
-127.3736205736253
 10
82.7319010209837
 20
-127.3736205736253
 10
82.69796683045398
 20
-127.3079915046313
 10
82.65783146805083
 20
-127.2197970602089
 10
82.65783146805083
 20
-127.093189801126
 10
82.65783146805083
 20
-126.8218885316626
 10
82.84403887902857
 20
-126.5686740134967
 10
83.15702580386352
 20
-126.5686740134967
 10
83.4744913528293
 20
-126.5686740134967
 10
83.70927461014908
 20
-126.8082804044958
 10
83.70927461014908
 20
-127.1316026157865
 97
        0
 97
        0
 75
     2
 76
     1
 98
        0
  0
ENDBLK
  5
61
330
5E
100
AcDbEntity
  8
0
100
AcDbBlockEnd
  0
BLOCK
  5
79
330
77
100
AcDbEntity
  8
0
100
AcDbBlockBegin
  2
block 4
 70
     0
 10
0.0
 20
0.0
 30
0.0
  3
block 4
  1

  0
SPLINE
  5
7B
330
77
100
AcDbEntity
  8
_U+30EC_U+30A4_U+30E4_U+30FC 1
370
     0
100
AcDbSpline
210
0.0
220
0.0
230
1.0
 70
    11
 71
     3
 72
    26
 73
    22
 74
     0
 42
0.0000000001
 43
0.0000000001
 12
1.0
 22
0.0
 32
0.0
 13
1.0
 23
0.0
 33
0.0
 40
0.0
 40
0.0
 40
0.0
 40
0.0
 40
1.0
 40
1.0
 40
1.0
 40
2.0
 40
2.0
 40
2.0
 40
3.0
 40
3.0
 40
3.0
 40
4.0
 40
4.0
 40
4.0
 40
5.0
 40
5.0
 40
5.0
 40
6.0
 40
6.0
 40
6.0
 40
7.0
 40
7.0
 40
7.0
 40
7.0
 10
93.38516979002176
 20
-119.4628200656204
 30
0.0
 10
93.38516979002176
 20
-119.4628200656204
 30
0.0
 10
93.38516979002176
 20
-118.3584947078236
 30
0.0
 10
93.38516979002176
 20
-118.3584947078236
 30
0.0
 10
93.38516979002176
 20
-118.3584947078236
 30
0.0
 10
93.03273652188071
 20
-118.3584947078236
 30
0.0
 10
93.03273652188071
 20
-118.3584947078236
 30
0.0
 10
93.03273652188071
 20
-118.3584947078236
 30
0.0
 10
93.03273652188071
 20
-118.2105278567321
 30
0.0
 10
93.03273652188071
 20
-118.2105278567321
 30
0.0
 10
93.38758135686145
 20
-118.1957139461455
 30
0.0
 10
93.43719073184904
 20
-118.0327609296932
 30
0.0
 10
93.46888561031334
 20
-117.9185560143572
 30
0.0
 10
93.46888561031334
 20
-117.9185560143572
 30
0.0
 10
93.62494843579516
 20
-117.9185560143572
 30
0.0
 10
93.62494843579516
 20
-117.9185560143572
 30
0.0
 10
93.62494843579516
 20
-117.9185560143572
 30
0.0
 10
93.62494843579516
 20
-119.4628200656204
 30
0.0
 10
93.62494843579516
 20
-119.4628200656204
 30
0.0
 10
93.62494843579516
 20
-119.4628200656204
 30
0.0
 10
93.38516979002176
 20
-119.4628200656204
 30
0.0
 10
93.38516979002176
 20
-119.4628200656204
 30
0.0
  0
HATCH
  5
7C
330
77
100
AcDbEntity
  8
_U+30EC_U+30A4_U+30E4_U+30FC 1
 62
   179
420
  2234388
100
AcDbHatch
 10
0.0
 20
0.0
 30
0.0
210
0.0
220
0.0
230
1.0
  2
SOLID
 70
     1
 71
     0
 91
        1
 92
        1
 93
        1
 72
     4
 94
        3
 73
     0
 74
     1
 95
       26
 96
       22
 40
0.0
 40
0.0
 40
0.0
 40
0.0
 40
1.0
 40
1.0
 40
1.0
 40
2.0
 40
2.0
 40
2.0
 40
3.0
 40
3.0
 40
3.0
 40
4.0
 40
4.0
 40
4.0
 40
5.0
 40
5.0
 40
5.0
 40
6.0
 40
6.0
 40
6.0
 40
7.0
 40
7.0
 40
7.0
 40
7.0
 10
93.38516979002176
 20
-119.4628200656204
 10
93.38516979002176
 20
-119.4628200656204
 10
93.38516979002176
 20
-118.3584947078236
 10
93.38516979002176
 20
-118.3584947078236
 10
93.38516979002176
 20
-118.3584947078236
 10
93.03273652188071
 20
-118.3584947078236
 10
93.03273652188071
 20
-118.3584947078236
 10
93.03273652188071
 20
-118.3584947078236
 10
93.03273652188071
 20
-118.2105278567321
 10
93.03273652188071
 20
-118.2105278567321
 10
93.38758135686145
 20
-118.1957139461455
 10
93.43719073184904
 20
-118.0327609296932
 10
93.46888561031334
 20
-117.9185560143572
 10
93.46888561031334
 20
-117.9185560143572
 10
93.62494843579516
 20
-117.9185560143572
 10
93.62494843579516
 20
-117.9185560143572
 10
93.62494843579516
 20
-117.9185560143572
 10
93.62494843579516
 20
-119.4628200656204
 10
93.62494843579516
 20
-119.4628200656204
 10
93.62494843579516
 20
-119.4628200656204
 10
93.38516979002176
 20
-119.4628200656204
 10
93.38516979002176
 20
-119.4628200656204
 97
        0
 97
        0
 75
     2
 76
     1
 98
        0
  0
SPLINE
  5
7D
330
77
100
AcDbEntity
  8
_U+30EC_U+30A4_U+30E4_U+30FC 1
370
     0
100
AcDbSpline
210
0.0
220
0.0
230
1.0
 70
    11
 71
     3
 72
    44
 73
    40
 74
     0
 42
0.0000000001
 43
0.0000000001
 12
1.0
 22
0.0
 32
0.0
 13
1.0
 23
0.0
 33
0.0
 40
0.0
 40
0.0
 40
0.0
 40
0.0
 40
1.0
 40
1.0
 40
1.0
 40
2.0
 40
2.0
 40
2.0
 40
3.0
 40
3.0
 40
3.0
 40
4.0
 40
4.0
 40
4.0
 40
5.0
 40
5.0
 40
5.0
 40
6.0
 40
6.0
 40
6.0
 40
7.0
 40
7.0
 40
7.0
 40
8.0
 40
8.0
 40
8.0
 40
9.0
 40
9.0
 40
9.0
 40
10.0
 40
10.0
 40
10.0
 40
11.0
 40
11.0
 40
11.0
 40
12.0
 40
12.0
 40
12.0
 40
13.0
 40
13.0
 40
13.0
 40
13.0
 10
94.79455835303747
 20
-118.8809434381617
 30
0.0
 10
94.56166989823458
 20
-119.0397623400317
 30
0.0
 10
94.46210663871086
 20
-119.1138318929646
 30
0.0
 10
94.41043020643212
 20
-119.2574923746995
 30
0.0
 10
94.41043020643212
 20
-119.2574923746995
 30
0.0
 10
95.24207625657142
 20
-119.2574923746995
 30
0.0
 10
95.24207625657142
 20
-119.2574923746995
 30
0.0
 10
95.24207625657142
 20
-119.2574923746995
 30
0.0
 10
95.24207625657142
 20
-119.4628200656204
 30
0.0
 10
95.24207625657142
 20
-119.4628200656204
 30
0.0
 10
95.24207625657142
 20
-119.4628200656204
 30
0.0
 10
94.14343530632526
 20
-119.4628200656204
 30
0.0
 10
94.14343530632526
 20
-119.4628200656204
 30
0.0
 10
94.17754175162924
 20
-119.1052191542515
 30
0.0
 10
94.2474771899798
 20
-119.0270154867363
 30
0.0
 10
94.65882159091863
 20
-118.7286702177137
 30
0.0
 10
94.93236217244747
 20
-118.5298882082148
 30
0.0
 10
95.00264212034656
 20
-118.4621920819296
 30
0.0
 10
95.00264212034656
 20
-118.3247327720681
 30
0.0
 10
95.00264212034656
 20
-118.2062214873755
 30
0.0
 10
94.9258164910255
 20
-118.0751356041618
 30
0.0
 10
94.71532115687673
 20
-118.0751356041618
 30
0.0
 10
94.43730195121707
 20
-118.0751356041618
 30
0.0
 10
94.42834470295541
 20
-118.305612492125
 30
0.0
 10
94.42386607882459
 20
-118.4220567195264
 30
0.0
 10
94.42386607882459
 20
-118.4220567195264
 30
0.0
 10
94.1840874330512
 20
-118.4220567195264
 30
0.0
 10
94.1840874330512
 20
-118.4220567195264
 30
0.0
 10
94.19338919086138
 20
-118.295104950895
 30
0.0
 10
94.20441349641418
 20
-118.1829670928501
 30
0.0
 10
94.29054088354542
 20
-118.0644558081575
 30
0.0
 10
94.40801863959244
 20
-117.9037421037706
 30
0.0
 10
94.60680064909135
 20
-117.8698079132409
 30
0.0
 10
94.73116859610887
 20
-117.8698079132409
 30
0.0
 10
95.02744680784036
 20
-117.8698079132409
 30
0.0
 10
95.24896644754193
 20
-118.0539482669275
 30
0.0
 10
95.24896644754193
 20
-118.3267998293593
 30
0.0
 10
95.24896644754193
 20
-118.5552096600313
 30
0.0
 10
95.12459850052441
 20
-118.6546006647808
 30
0.0
 10
94.79455835303747
 20
-118.8809434381617
 30
0.0
  0
HATCH
  5
7E
330
77
100
AcDbEntity
  8
_U+30EC_U+30A4_U+30E4_U+30FC 1
 62
   179
420
  2234388
100
AcDbHatch
 10
0.0
 20
0.0
 30
0.0
210
0.0
220
0.0
230
1.0
  2
SOLID
 70
     1
 71
     0
 91
        1
 92
        1
 93
        1
 72
     4
 94
        3
 73
     0
 74
     1
 95
       44
 96
       40
 40
0.0
 40
0.0
 40
0.0
 40
0.0
 40
1.0
 40
1.0
 40
1.0
 40
2.0
 40
2.0
 40
2.0
 40
3.0
 40
3.0
 40
3.0
 40
4.0
 40
4.0
 40
4.0
 40
5.0
 40
5.0
 40
5.0
 40
6.0
 40
6.0
 40
6.0
 40
7.0
 40
7.0
 40
7.0
 40
8.0
 40
8.0
 40
8.0
 40
9.0
 40
9.0
 40
9.0
 40
10.0
 40
10.0
 40
10.0
 40
11.0
 40
11.0
 40
11.0
 40
12.0
 40
12.0
 40
12.0
 40
13.0
 40
13.0
 40
13.0
 40
13.0
 10
94.79455835303747
 20
-118.8809434381617
 10
94.56166989823458
 20
-119.0397623400317
 10
94.46210663871086
 20
-119.1138318929646
 10
94.41043020643212
 20
-119.2574923746995
 10
94.41043020643212
 20
-119.2574923746995
 10
95.24207625657142
 20
-119.2574923746995
 10
95.24207625657142
 20
-119.2574923746995
 10
95.24207625657142
 20
-119.2574923746995
 10
95.24207625657142
 20
-119.4628200656204
 10
95.24207625657142
 20
-119.4628200656204
 10
95.24207625657142
 20
-119.4628200656204
 10
94.14343530632526
 20
-119.4628200656204
 10
94.14343530632526
 20
-119.4628200656204
 10
94.17754175162924
 20
-119.1052191542515
 10
94.2474771899798
 20
-119.0270154867363
 10
94.65882159091863
 20
-118.7286702177137
 10
94.93236217244747
 20
-118.5298882082148
 10
95.00264212034656
 20
-118.4621920819296
 10
95.00264212034656
 20
-118.3247327720681
 10
95.00264212034656
 20
-118.2062214873755
 10
94.9258164910255
 20
-118.0751356041618
 10
94.71532115687673
 20
-118.0751356041618
 10
94.43730195121707
 20
-118.0751356041618
 10
94.42834470295541
 20
-118.305612492125
 10
94.42386607882459
 20
-118.4220567195264
 10
94.42386607882459
 20
-118.4220567195264
 10
94.1840874330512
 20
-118.4220567195264
 10
94.1840874330512
 20
-118.4220567195264
 10
94.19338919086138
 20
-118.295104950895
 10
94.20441349641418
 20
-118.1829670928501
 10
94.29054088354542
 20
-118.0644558081575
 10
94.40801863959244
 20
-117.9037421037706
 10
94.60680064909135
 20
-117.8698079132409
 10
94.73116859610887
 20
-117.8698079132409
 10
95.02744680784036
 20
-117.8698079132409
 10
95.24896644754193
 20
-118.0539482669275
 10
95.24896644754193
 20
-118.3267998293593
 10
95.24896644754193
 20
-118.5552096600313
 10
95.12459850052441
 20
-118.6546006647808
 10
94.79455835303747
 20
-118.8809434381617
 97
        0
 97
        0
 75
     2
 76
     1
 98
        0
  0
ENDBLK
  5
7A
330
77
100
AcDbEntity
  8
0
100
AcDbBlockEnd
  0
BLOCK
  5
81
330
7F
100
AcDbEntity
  8
0
100
AcDbBlockBegin
  2
block 5
 70
     0
 10
0.0
 20
0.0
 30
0.0
  3
block 5
  1

  0
SPLINE
  5
83
330
7F
100
AcDbEntity
  8
_U+30EC_U+30A4_U+30E4_U+30FC 1
370
     0
100
AcDbSpline
210
0.0
220
0.0
230
1.0
 70
    11
 71
     3
 72
    26
 73
    22
 74
     0
 42
0.0000000001
 43
0.0000000001
 12
1.0
 22
0.0
 32
0.0
 13
1.0
 23
0.0
 33
0.0
 40
0.0
 40
0.0
 40
0.0
 40
0.0
 40
1.0
 40
1.0
 40
1.0
 40
2.0
 40
2.0
 40
2.0
 40
3.0
 40
3.0
 40
3.0
 40
4.0
 40
4.0
 40
4.0
 40
5.0
 40
5.0
 40
5.0
 40
6.0
 40
6.0
 40
6.0
 40
7.0
 40
7.0
 40
7.0
 40
7.0
 10
93.38516979002176
 20
-138.6306423264535
 30
0.0
 10
93.38516979002176
 20
-138.6306423264535
 30
0.0
 10
93.38516979002176
 20
-137.5264892234309
 30
0.0
 10
93.38516979002176
 20
-137.5264892234309
 30
0.0
 10
93.38516979002176
 20
-137.5264892234309
 30
0.0
 10
93.03273652188071
 20
-137.5264892234309
 30
0.0
 10
93.03273652188071
 20
-137.5264892234309
 30
0.0
 10
93.03273652188071
 20
-137.5264892234309
 30
0.0
 10
93.03273652188071
 20
-137.3783501175651
 30
0.0
 10
93.03273652188071
 20
-137.3783501175651
 30
0.0
 10
93.38758135686145
 20
-137.3635362069786
 30
0.0
 10
93.43719073184904
 20
-137.2005831905263
 30
0.0
 10
93.46888561031334
 20
-137.0865505299645
 30
0.0
 10
93.46888561031334
 20
-137.0865505299645
 30
0.0
 10
93.62494843579516
 20
-137.0865505299645
 30
0.0
 10
93.62494843579516
 20
-137.0865505299645
 30
0.0
 10
93.62494843579516
 20
-137.0865505299645
 30
0.0
 10
93.62494843579516
 20
-138.6306423264535
 30
0.0
 10
93.62494843579516
 20
-138.6306423264535
 30
0.0
 10
93.62494843579516
 20
-138.6306423264535
 30
0.0
 10
93.38516979002176
 20
-138.6306423264535
 30
0.0
 10
93.38516979002176
 20
-138.6306423264535
 30
0.0
  0
HATCH
  5
84
330
7F
100
AcDbEntity
  8
_U+30EC_U+30A4_U+30E4_U+30FC 1
 62
   179
420
  2234388
100
AcDbHatch
 10
0.0
 20
0.0
 30
0.0
210
0.0
220
0.0
230
1.0
  2
SOLID
 70
     1
 71
     0
 91
        1
 92
        1
 93
        1
 72
     4
 94
        3
 73
     0
 74
     1
 95
       26
 96
       22
 40
0.0
 40
0.0
 40
0.0
 40
0.0
 40
1.0
 40
1.0
 40
1.0
 40
2.0
 40
2.0
 40
2.0
 40
3.0
 40
3.0
 40
3.0
 40
4.0
 40
4.0
 40
4.0
 40
5.0
 40
5.0
 40
5.0
 40
6.0
 40
6.0
 40
6.0
 40
7.0
 40
7.0
 40
7.0
 40
7.0
 10
93.38516979002176
 20
-138.6306423264535
 10
93.38516979002176
 20
-138.6306423264535
 10
93.38516979002176
 20
-137.5264892234309
 10
93.38516979002176
 20
-137.5264892234309
 10
93.38516979002176
 20
-137.5264892234309
 10
93.03273652188071
 20
-137.5264892234309
 10
93.03273652188071
 20
-137.5264892234309
 10
93.03273652188071
 20
-137.5264892234309
 10
93.03273652188071
 20
-137.3783501175651
 10
93.03273652188071
 20
-137.3783501175651
 10
93.38758135686145
 20
-137.3635362069786
 10
93.43719073184904
 20
-137.2005831905263
 10
93.46888561031334
 20
-137.0865505299645
 10
93.46888561031334
 20
-137.0865505299645
 10
93.62494843579516
 20
-137.0865505299645
 10
93.62494843579516
 20
-137.0865505299645
 10
93.62494843579516
 20
-137.0865505299645
 10
93.62494843579516
 20
-138.6306423264535
 10
93.62494843579516
 20
-138.6306423264535
 10
93.62494843579516
 20
-138.6306423264535
 10
93.38516979002176
 20
-138.6306423264535
 10
93.38516979002176
 20
-138.6306423264535
 97
        0
 97
        0
 75
     2
 76
     1
 98
        0
  0
SPLINE
  5
85
330
7F
100
AcDbEntity
  8
_U+30EC_U+30A4_U+30E4_U+30FC 1
370
     0
100
AcDbSpline
210
0.0
220
0.0
230
1.0
 70
    11
 71
     3
 72
    44
 73
    40
 74
     0
 42
0.0000000001
 43
0.0000000001
 12
1.0
 22
0.0
 32
0.0
 13
1.0
 23
0.0
 33
0.0
 40
0.0
 40
0.0
 40
0.0
 40
0.0
 40
1.0
 40
1.0
 40
1.0
 40
2.0
 40
2.0
 40
2.0
 40
3.0
 40
3.0
 40
3.0
 40
4.0
 40
4.0
 40
4.0
 40
5.0
 40
5.0
 40
5.0
 40
6.0
 40
6.0
 40
6.0
 40
7.0
 40
7.0
 40
7.0
 40
8.0
 40
8.0
 40
8.0
 40
9.0
 40
9.0
 40
9.0
 40
10.0
 40
10.0
 40
10.0
 40
11.0
 40
11.0
 40
11.0
 40
12.0
 40
12.0
 40
12.0
 40
13.0
 40
13.0
 40
13.0
 40
13.0
 10
94.79455835303747
 20
-138.0487656989948
 30
0.0
 10
94.56166989823458
 20
-138.2075846008648
 30
0.0
 10
94.46210663871086
 20
-138.2816541537977
 30
0.0
 10
94.41043020643212
 20
-138.4253146355326
 30
0.0
 10
94.41043020643212
 20
-138.4253146355326
 30
0.0
 10
95.24207625657142
 20
-138.4253146355326
 30
0.0
 10
95.24207625657142
 20
-138.4253146355326
 30
0.0
 10
95.24207625657142
 20
-138.4253146355326
 30
0.0
 10
95.24207625657142
 20
-138.6306423264535
 30
0.0
 10
95.24207625657142
 20
-138.6306423264535
 30
0.0
 10
95.24207625657142
 20
-138.6306423264535
 30
0.0
 10
94.14343530632526
 20
-138.6306423264535
 30
0.0
 10
94.14343530632526
 20
-138.6306423264535
 30
0.0
 10
94.17754175162924
 20
-138.2730414150845
 30
0.0
 10
94.2474771899798
 20
-138.1948377475694
 30
0.0
 10
94.65882159091863
 20
-137.8964924785467
 30
0.0
 10
94.93236217244747
 20
-137.6977104690478
 30
0.0
 10
95.00264212034656
 20
-137.6301865975369
 30
0.0
 10
95.00264212034656
 20
-137.4927272876754
 30
0.0
 10
95.00264212034656
 20
-137.3742160029828
 30
0.0
 10
94.9258164910255
 20
-137.2429578649948
 30
0.0
 10
94.71532115687673
 20
-137.2429578649948
 30
0.0
 10
94.43730195121707
 20
-137.2429578649948
 30
0.0
 10
94.42834470295541
 20
-137.473434752958
 30
0.0
 10
94.42386607882459
 20
-137.5898789803595
 30
0.0
 10
94.42386607882459
 20
-137.5898789803595
 30
0.0
 10
94.1840874330512
 20
-137.5898789803595
 30
0.0
 10
94.1840874330512
 20
-137.5898789803595
 30
0.0
 10
94.19338919086138
 20
-137.4630994665023
 30
0.0
 10
94.20441349641418
 20
-137.3507893536832
 30
0.0
 10
94.29054088354542
 20
-137.2322780689906
 30
0.0
 10
94.40801863959244
 20
-137.0717366193779
 30
0.0
 10
94.60680064909135
 20
-137.0376301740739
 30
0.0
 10
94.73116859610887
 20
-137.0376301740739
 30
0.0
 10
95.02744680784036
 20
-137.0376301740739
 30
0.0
 10
95.24896644754193
 20
-137.2219427825348
 30
0.0
 10
95.24896644754193
 20
-137.4947943449666
 30
0.0
 10
95.24896644754193
 20
-137.7232041756386
 30
0.0
 10
95.12459850052441
 20
-137.8224229256138
 30
0.0
 10
94.79455835303747
 20
-138.0487656989948
 30
0.0
  0
HATCH
  5
86
330
7F
100
AcDbEntity
  8
_U+30EC_U+30A4_U+30E4_U+30FC 1
 62
   179
420
  2234388
100
AcDbHatch
 10
0.0
 20
0.0
 30
0.0
210
0.0
220
0.0
230
1.0
  2
SOLID
 70
     1
 71
     0
 91
        1
 92
        1
 93
        1
 72
     4
 94
        3
 73
     0
 74
     1
 95
       44
 96
       40
 40
0.0
 40
0.0
 40
0.0
 40
0.0
 40
1.0
 40
1.0
 40
1.0
 40
2.0
 40
2.0
 40
2.0
 40
3.0
 40
3.0
 40
3.0
 40
4.0
 40
4.0
 40
4.0
 40
5.0
 40
5.0
 40
5.0
 40
6.0
 40
6.0
 40
6.0
 40
7.0
 40
7.0
 40
7.0
 40
8.0
 40
8.0
 40
8.0
 40
9.0
 40
9.0
 40
9.0
 40
10.0
 40
10.0
 40
10.0
 40
11.0
 40
11.0
 40
11.0
 40
12.0
 40
12.0
 40
12.0
 40
13.0
 40
13.0
 40
13.0
 40
13.0
 10
94.79455835303747
 20
-138.0487656989948
 10
94.56166989823458
 20
-138.2075846008648
 10
94.46210663871086
 20
-138.2816541537977
 10
94.41043020643212
 20
-138.4253146355326
 10
94.41043020643212
 20
-138.4253146355326
 10
95.24207625657142
 20
-138.4253146355326
 10
95.24207625657142
 20
-138.4253146355326
 10
95.24207625657142
 20
-138.4253146355326
 10
95.24207625657142
 20
-138.6306423264535
 10
95.24207625657142
 20
-138.6306423264535
 10
95.24207625657142
 20
-138.6306423264535
 10
94.14343530632526
 20
-138.6306423264535
 10
94.14343530632526
 20
-138.6306423264535
 10
94.17754175162924
 20
-138.2730414150845
 10
94.2474771899798
 20
-138.1948377475694
 10
94.65882159091863
 20
-137.8964924785467
 10
94.93236217244747
 20
-137.6977104690478
 10
95.00264212034656
 20
-137.6301865975369
 10
95.00264212034656
 20
-137.4927272876754
 10
95.00264212034656
 20
-137.3742160029828
 10
94.9258164910255
 20
-137.2429578649948
 10
94.71532115687673
 20
-137.2429578649948
 10
94.43730195121707
 20
-137.2429578649948
 10
94.42834470295541
 20
-137.473434752958
 10
94.42386607882459
 20
-137.5898789803595
 10
94.42386607882459
 20
-137.5898789803595
 10
94.1840874330512
 20
-137.5898789803595
 10
94.1840874330512
 20
-137.5898789803595
 10
94.19338919086138
 20
-137.4630994665023
 10
94.20441349641418
 20
-137.3507893536832
 10
94.29054088354542
 20
-137.2322780689906
 10
94.40801863959244
 20
-137.0717366193779
 10
94.60680064909135
 20
-137.0376301740739
 10
94.73116859610887
 20
-137.0376301740739
 10
95.02744680784036
 20
-137.0376301740739
 10
95.24896644754193
 20
-137.2219427825348
 10
95.24896644754193
 20
-137.4947943449666
 10
95.24896644754193
 20
-137.7232041756386
 10
95.12459850052441
 20
-137.8224229256138
 10
94.79455835303747
 20
-138.0487656989948
 97
        0
 97
        0
 75
     2
 76
     1
 98
        0
  0
ENDBLK
  5
82
330
7F
100
AcDbEntity
  8
0
100
AcDbBlockEnd
  0
BLOCK
  5
D1
330
CF
100
AcDbEntity
  8
0
100
AcDbBlockBegin
  2
block 6
 70
     0
 10
0.0
 20
0.0
 30
0.0
  3
block 6
  1

  0
SPLINE
  5
D3
330
CF
100
AcDbEntity
  8
_U+30EC_U+30A4_U+30E4_U+30FC 1
370
     0
100
AcDbSpline
210
0.0
220
0.0
230
1.0
 70
    11
 71
     3
 72
    26
 73
    22
 74
     0
 42
0.0000000001
 43
0.0000000001
 12
1.0
 22
0.0
 32
0.0
 13
1.0
 23
0.0
 33
0.0
 40
0.0
 40
0.0
 40
0.0
 40
0.0
 40
1.0
 40
1.0
 40
1.0
 40
2.0
 40
2.0
 40
2.0
 40
3.0
 40
3.0
 40
3.0
 40
4.0
 40
4.0
 40
4.0
 40
5.0
 40
5.0
 40
5.0
 40
6.0
 40
6.0
 40
6.0
 40
7.0
 40
7.0
 40
7.0
 40
7.0
 10
92.56971568866314
 20
-129.0942735137334
 30
0.0
 10
92.56971568866314
 20
-129.0942735137334
 30
0.0
 10
92.56971568866314
 20
-127.9897759011623
 30
0.0
 10
92.56971568866314
 20
-127.9897759011623
 30
0.0
 10
92.56971568866314
 20
-127.9897759011623
 30
0.0
 10
92.2396755411762
 20
-127.9897759011623
 30
0.0
 10
92.2396755411762
 20
-127.9897759011623
 30
0.0
 10
92.2396755411762
 20
-127.9897759011623
 30
0.0
 10
92.2396755411762
 20
-127.8416367952965
 30
0.0
 10
92.2396755411762
 20
-127.8416367952965
 30
0.0
 10
92.57178274595428
 20
-127.8269951394842
 30
0.0
 10
92.61863604455368
 20
-127.6640421230319
 30
0.0
 10
92.64826386572683
 20
-127.5498372076959
 30
0.0
 10
92.64826386572683
 20
-127.5498372076959
 30
0.0
 10
92.79433591430141
 20
-127.5498372076959
 30
0.0
 10
92.79433591430141
 20
-127.5498372076959
 30
0.0
 10
92.79433591430141
 20
-127.5498372076959
 30
0.0
 10
92.79433591430141
 20
-129.0942735137334
 30
0.0
 10
92.79433591430141
 20
-129.0942735137334
 30
0.0
 10
92.79433591430141
 20
-129.0942735137334
 30
0.0
 10
92.56971568866314
 20
-129.0942735137334
 30
0.0
 10
92.56971568866314
 20
-129.0942735137334
 30
0.0
  0
HATCH
  5
D4
330
CF
100
AcDbEntity
  8
_U+30EC_U+30A4_U+30E4_U+30FC 1
 62
     7
420
 16777215
100
AcDbHatch
 10
0.0
 20
0.0
 30
0.0
210
0.0
220
0.0
230
1.0
  2
SOLID
 70
     1
 71
     0
 91
        1
 92
        1
 93
        1
 72
     4
 94
        3
 73
     0
 74
     1
 95
       26
 96
       22
 40
0.0
 40
0.0
 40
0.0
 40
0.0
 40
1.0
 40
1.0
 40
1.0
 40
2.0
 40
2.0
 40
2.0
 40
3.0
 40
3.0
 40
3.0
 40
4.0
 40
4.0
 40
4.0
 40
5.0
 40
5.0
 40
5.0
 40
6.0
 40
6.0
 40
6.0
 40
7.0
 40
7.0
 40
7.0
 40
7.0
 10
92.56971568866314
 20
-129.0942735137334
 10
92.56971568866314
 20
-129.0942735137334
 10
92.56971568866314
 20
-127.9897759011623
 10
92.56971568866314
 20
-127.9897759011623
 10
92.56971568866314
 20
-127.9897759011623
 10
92.2396755411762
 20
-127.9897759011623
 10
92.2396755411762
 20
-127.9897759011623
 10
92.2396755411762
 20
-127.9897759011623
 10
92.2396755411762
 20
-127.8416367952965
 10
92.2396755411762
 20
-127.8416367952965
 10
92.57178274595428
 20
-127.8269951394842
 10
92.61863604455368
 20
-127.6640421230319
 10
92.64826386572683
 20
-127.5498372076959
 10
92.64826386572683
 20
-127.5498372076959
 10
92.79433591430141
 20
-127.5498372076959
 10
92.79433591430141
 20
-127.5498372076959
 10
92.79433591430141
 20
-127.5498372076959
 10
92.79433591430141
 20
-129.0942735137334
 10
92.79433591430141
 20
-129.0942735137334
 10
92.79433591430141
 20
-129.0942735137334
 10
92.56971568866314
 20
-129.0942735137334
 10
92.56971568866314
 20
-129.0942735137334
 97
        0
 97
        0
 75
     2
 76
     1
 98
        0
  0
ENDBLK
  5
D2
330
CF
100
AcDbEntity
  8
0
100
AcDbBlockEnd
  0
ENDSEC
  0
SECTION
  2
ENTITIES
  0
SPLINE
  5
41
330
1F
100
AcDbEntity
  8
_U+30EC_U+30A4_U+30E4_U+30FC 1
370
     0
100
AcDbSpline
210
0.0
220
0.0
230
1.0
 70
    11
 71
     3
 72
    65
 73
    61
 74
     0
 42
0.0000000001
 43
0.0000000001
 12
1.0
 22
0.0
 32
0.0
 13
1.0
 23
0.0
 33
0.0
 40
0.0
 40
0.0
 40
0.0
 40
0.0
 40
1.0
 40
1.0
 40
1.0
 40
2.0
 40
2.0
 40
2.0
 40
3.0
 40
3.0
 40
3.0
 40
4.0
 40
4.0
 40
4.0
 40
5.0
 40
5.0
 40
5.0
 40
6.0
 40
6.0
 40
6.0
 40
7.0
 40
7.0
 40
7.0
 40
8.0
 40
8.0
 40
8.0
 40
9.0
 40
9.0
 40
9.0
 40
10.0
 40
10.0
 40
10.0
 40
11.0
 40
11.0
 40
11.0
 40
12.0
 40
12.0
 40
12.0
 40
13.0
 40
13.0
 40
13.0
 40
14.0
 40
14.0
 40
14.0
 40
15.0
 40
15.0
 40
15.0
 40
16.0
 40
16.0
 40
16.0
 40
17.0
 40
17.0
 40
17.0
 40
18.0
 40
18.0
 40
18.0
 40
19.0
 40
19.0
 40
19.0
 40
20.0
 40
20.0
 40
20.0
 40
20.0
 10
99.75137134401939
 20
-123.8663455245889
 30
0.0
 10
99.75137134401939
 20
-123.8663455245889
 30
0.0
 10
88.7511607913248
 20
-123.8663455245889
 30
0.0
 10
88.7511607913248
 20
-123.8663455245889
 30
0.0
 10
88.40236941133433
 20
-123.8663455245889
 30
0.0
 10
88.11866552968333
 20
-124.1498730245181
 30
0.0
 10
88.11866552968333
 20
-124.4985233022087
 30
0.0
 10
88.11866552968333
 20
-124.4985233022087
 30
0.0
 10
88.11866552968333
 20
-124.998409413195
 30
0.0
 10
88.11866552968333
 20
-124.998409413195
 30
0.0
 10
88.11866552968333
 20
-125.0714344131765
 30
0.0
 10
88.1778969170611
 20
-125.1307010798286
 30
0.0
 10
88.25095719297495
 20
-125.1307010798286
 30
0.0
 10
88.25095719297495
 20
-125.1307010798286
 30
0.0
 10
93.61875553215094
 20
-125.1307010798286
 30
0.0
 10
93.61875553215094
 20
-125.1307010798286
 30
0.0
 10
93.61875553215094
 20
-125.1307010798286
 30
0.0
 10
93.61875553215094
 20
-131.3659777449364
 30
0.0
 10
93.61875553215094
 20
-131.3659777449364
 30
0.0
 10
93.61875553215094
 20
-131.3659777449364
 30
0.0
 10
88.25095719297495
 20
-131.3659777449364
 30
0.0
 10
88.25095719297495
 20
-131.3659777449364
 30
0.0
 10
88.1778969170611
 20
-131.3659777449364
 30
0.0
 10
88.11866552968333
 20
-131.4252091338106
 30
0.0
 10
88.11866552968333
 20
-131.49826941157
 30
0.0
 10
88.11866552968333
 20
-131.49826941157
 30
0.0
 10
88.11866552968333
 20
-131.9981555225559
 30
0.0
 10
88.11866552968333
 20
-131.9981555225559
 30
0.0
 10
88.11866552968333
 20
-132.3468058002468
 30
0.0
 10
88.40236941133433
 20
-132.6303333001754
 30
0.0
 10
88.7511607913248
 20
-132.6303333001754
 30
0.0
 10
88.7511607913248
 20
-132.6303333001754
 30
0.0
 10
99.75137134401939
 20
-132.6303333001754
 30
0.0
 10
99.75137134401939
 20
-132.6303333001754
 30
0.0
 10
100.0999888638638
 20
-132.6303333001754
 30
0.0
 10
100.3838666056609
 20
-132.3468058002468
 30
0.0
 10
100.3838666056609
 20
-131.9981555225559
 30
0.0
 10
100.3838666056609
 20
-131.9981555225559
 30
0.0
 10
100.3838666056609
 20
-131.49826941157
 30
0.0
 10
100.3838666056609
 20
-131.49826941157
 30
0.0
 10
100.3838666056609
 20
-131.4252091338106
 30
0.0
 10
100.3246352182831
 20
-131.3659777449364
 30
0.0
 10
100.2515749423692
 20
-131.3659777449364
 30
0.0
 10
100.2515749423692
 20
-131.3659777449364
 30
0.0
 10
94.88342619043324
 20
-131.3659777449364
 30
0.0
 10
94.88342619043324
 20
-131.3659777449364
 30
0.0
 10
94.88342619043324
 20
-131.3659777449364
 30
0.0
 10
94.88342619043324
 20
-125.1307010798286
 30
0.0
 10
94.88342619043324
 20
-125.1307010798286
 30
0.0
 10
94.88342619043324
 20
-125.1307010798286
 30
0.0
 10
100.2515749423692
 20
-125.1307010798286
 30
0.0
 10
100.2515749423692
 20
-125.1307010798286
 30
0.0
 10
100.3246352182831
 20
-125.1307010798286
 30
0.0
 10
100.3838666056609
 20
-125.0714344131765
 30
0.0
 10
100.3838666056609
 20
-124.998409413195
 30
0.0
 10
100.3838666056609
 20
-124.998409413195
 30
0.0
 10
100.3838666056609
 20
-124.4985233022087
 30
0.0
 10
100.3838666056609
 20
-124.4985233022087
 30
0.0
 10
100.3838666056609
 20
-124.1498730245181
 30
0.0
 10
100.0999888638638
 20
-123.8663455245889
 30
0.0
 10
99.75137134401939
 20
-123.8663455245889
 30
0.0
  0
HATCH
  5
42
330
1F
100
AcDbEntity
  8
_U+30EC_U+30A4_U+30E4_U+30FC 1
 62
     9
420
 13224394
100
AcDbHatch
 10
0.0
 20
0.0
 30
0.0
210
0.0
220
0.0
230
1.0
  2
SOLID
 70
     1
 71
     0
 91
        1
 92
        1
 93
        1
 72
     4
 94
        3
 73
     0
 74
     1
 95
       65
 96
       61
 40
0.0
 40
0.0
 40
0.0
 40
0.0
 40
1.0
 40
1.0
 40
1.0
 40
2.0
 40
2.0
 40
2.0
 40
3.0
 40
3.0
 40
3.0
 40
4.0
 40
4.0
 40
4.0
 40
5.0
 40
5.0
 40
5.0
 40
6.0
 40
6.0
 40
6.0
 40
7.0
 40
7.0
 40
7.0
 40
8.0
 40
8.0
 40
8.0
 40
9.0
 40
9.0
 40
9.0
 40
10.0
 40
10.0
 40
10.0
 40
11.0
 40
11.0
 40
11.0
 40
12.0
 40
12.0
 40
12.0
 40
13.0
 40
13.0
 40
13.0
 40
14.0
 40
14.0
 40
14.0
 40
15.0
 40
15.0
 40
15.0
 40
16.0
 40
16.0
 40
16.0
 40
17.0
 40
17.0
 40
17.0
 40
18.0
 40
18.0
 40
18.0
 40
19.0
 40
19.0
 40
19.0
 40
20.0
 40
20.0
 40
20.0
 40
20.0
 10
99.75137134401939
 20
-123.8663455245889
 10
99.75137134401939
 20
-123.8663455245889
 10
88.7511607913248
 20
-123.8663455245889
 10
88.7511607913248
 20
-123.8663455245889
 10
88.40236941133433
 20
-123.8663455245889
 10
88.11866552968333
 20
-124.1498730245181
 10
88.11866552968333
 20
-124.4985233022087
 10
88.11866552968333
 20
-124.4985233022087
 10
88.11866552968333
 20
-124.998409413195
 10
88.11866552968333
 20
-124.998409413195
 10
88.11866552968333
 20
-125.0714344131765
 10
88.1778969170611
 20
-125.1307010798286
 10
88.25095719297495
 20
-125.1307010798286
 10
88.25095719297495
 20
-125.1307010798286
 10
93.61875553215094
 20
-125.1307010798286
 10
93.61875553215094
 20
-125.1307010798286
 10
93.61875553215094
 20
-125.1307010798286
 10
93.61875553215094
 20
-131.3659777449364
 10
93.61875553215094
 20
-131.3659777449364
 10
93.61875553215094
 20
-131.3659777449364
 10
88.25095719297495
 20
-131.3659777449364
 10
88.25095719297495
 20
-131.3659777449364
 10
88.1778969170611
 20
-131.3659777449364
 10
88.11866552968333
 20
-131.4252091338106
 10
88.11866552968333
 20
-131.49826941157
 10
88.11866552968333
 20
-131.49826941157
 10
88.11866552968333
 20
-131.9981555225559
 10
88.11866552968333
 20
-131.9981555225559
 10
88.11866552968333
 20
-132.3468058002468
 10
88.40236941133433
 20
-132.6303333001754
 10
88.7511607913248
 20
-132.6303333001754
 10
88.7511607913248
 20
-132.6303333001754
 10
99.75137134401939
 20
-132.6303333001754
 10
99.75137134401939
 20
-132.6303333001754
 10
100.0999888638638
 20
-132.6303333001754
 10
100.3838666056609
 20
-132.3468058002468
 10
100.3838666056609
 20
-131.9981555225559
 10
100.3838666056609
 20
-131.9981555225559
 10
100.3838666056609
 20
-131.49826941157
 10
100.3838666056609
 20
-131.49826941157
 10
100.3838666056609
 20
-131.4252091338106
 10
100.3246352182831
 20
-131.3659777449364
 10
100.2515749423692
 20
-131.3659777449364
 10
100.2515749423692
 20
-131.3659777449364
 10
94.88342619043324
 20
-131.3659777449364
 10
94.88342619043324
 20
-131.3659777449364
 10
94.88342619043324
 20
-131.3659777449364
 10
94.88342619043324
 20
-125.1307010798286
 10
94.88342619043324
 20
-125.1307010798286
 10
94.88342619043324
 20
-125.1307010798286
 10
100.2515749423692
 20
-125.1307010798286
 10
100.2515749423692
 20
-125.1307010798286
 10
100.3246352182831
 20
-125.1307010798286
 10
100.3838666056609
 20
-125.0714344131765
 10
100.3838666056609
 20
-124.998409413195
 10
100.3838666056609
 20
-124.998409413195
 10
100.3838666056609
 20
-124.4985233022087
 10
100.3838666056609
 20
-124.4985233022087
 10
100.3838666056609
 20
-124.1498730245181
 10
100.0999888638638
 20
-123.8663455245889
 10
99.75137134401939
 20
-123.8663455245889
 97
        0
 97
        0
 75
     2
 76
     1
 98
        0
  0
SPLINE
  5
43
330
1F
100
AcDbEntity
  8
_U+30EC_U+30A4_U+30E4_U+30FC 1
 62
   179
420
  2234388
370
     9
100
AcDbSpline
210
0.0
220
0.0
230
1.0
 70
    11
 71
     3
 72
    17
 73
    13
 74
     0
 42
0.0000000001
 43
0.0000000001
 12
1.0
 22
0.0
 32
0.0
 13
1.0
 23
0.0
 33
0.0
 40
0.0
 40
0.0
 40
0.0
 40
0.0
 40
1.0
 40
1.0
 40
1.0
 40
2.0
 40
2.0
 40
2.0
 40
3.0
 40
3.0
 40
3.0
 40
4.0
 40
4.0
 40
4.0
 40
4.0
 10
100.4513882706049
 20
-120.7640177475867
 30
0.0
 10
100.4513882706049
 20
-120.7089138587118
 30
0.0
 10
100.406620771747
 20
-120.6641110809451
 30
0.0
 10
100.3514816064871
 20
-120.6641110809451
 30
0.0
 10
100.296377719004
 20
-120.6641110809451
 30
0.0
 10
100.2515749423692
 20
-120.7089138587118
 30
0.0
 10
100.2515749423692
 20
-120.7640177475867
 30
0.0
 10
100.2515749423692
 20
-120.8191569142398
 30
0.0
 10
100.296377719004
 20
-120.8639244142284
 30
0.0
 10
100.3514816064871
 20
-120.8639244142284
 30
0.0
 10
100.406620771747
 20
-120.8639244142284
 30
0.0
 10
100.4513882706049
 20
-120.8191569142398
 30
0.0
 10
100.4513882706049
 20
-120.7640177475867
 30
0.0
  0
SPLINE
  5
44
330
1F
100
AcDbEntity
  8
_U+30EC_U+30A4_U+30E4_U+30FC 1
 62
   179
420
  2234388
370
     9
100
AcDbSpline
210
0.0
220
0.0
230
1.0
 70
    11
 71
     3
 72
    17
 73
    13
 74
     0
 42
0.0000000001
 43
0.0000000001
 12
1.0
 22
0.0
 32
0.0
 13
1.0
 23
0.0
 33
0.0
 40
0.0
 40
0.0
 40
0.0
 40
0.0
 40
1.0
 40
1.0
 40
1.0
 40
2.0
 40
2.0
 40
2.0
 40
3.0
 40
3.0
 40
3.0
 40
4.0
 40
4.0
 40
4.0
 40
4.0
 10
88.45077052121063
 20
-120.7640177475867
 30
0.0
 10
88.45077052121063
 20
-120.7089138587118
 30
0.0
 10
88.40596774457586
 20
-120.6641110809451
 30
0.0
 10
88.35086385709279
 20
-120.6641110809451
 30
0.0
 10
88.29572469183285
 20
-120.6641110809451
 30
0.0
 10
88.25095719297495
 20
-120.7089138587118
 30
0.0
 10
88.25095719297495
 20
-120.7640177475867
 30
0.0
 10
88.25095719297495
 20
-120.8191569142398
 30
0.0
 10
88.29572469183285
 20
-120.8639244142284
 30
0.0
 10
88.35086385709279
 20
-120.8639244142284
 30
0.0
 10
88.40596774457586
 20
-120.8639244142284
 30
0.0
 10
88.45077052121063
 20
-120.8191569142398
 30
0.0
 10
88.45077052121063
 20
-120.7640177475867
 30
0.0
  0
SPLINE
  5
45
330
1F
100
AcDbEntity
  8
_U+30EC_U+30A4_U+30E4_U+30FC 1
 62
   179
420
  2234388
370
     9
100
AcDbSpline
210
0.0
220
0.0
230
1.0
 70
    11
 71
     3
 72
    17
 73
    13
 74
     0
 42
0.0000000001
 43
0.0000000001
 12
1.0
 22
0.0
 32
0.0
 13
1.0
 23
0.0
 33
0.0
 40
0.0
 40
0.0
 40
0.0
 40
0.0
 40
1.0
 40
1.0
 40
1.0
 40
2.0
 40
2.0
 40
2.0
 40
3.0
 40
3.0
 40
3.0
 40
4.0
 40
4.0
 40
4.0
 40
4.0
 10
85.50038420759236
 20
-131.5513271893346
 30
0.0
 10
85.50038420759236
 20
-131.6067838559873
 30
0.0
 10
85.4555814309576
 20
-131.6512338559763
 30
0.0
 10
85.40047754347452
 20
-131.6512338559763
 30
0.0
 10
85.34533837821458
 20
-131.6512338559763
 30
0.0
 10
85.3005708793567
 20
-131.6067838559873
 30
0.0
 10
85.3005708793567
 20
-131.5513271893346
 30
0.0
 10
85.3005708793567
 20
-131.4961880226815
 30
0.0
 10
85.34533837821458
 20
-131.451420522693
 30
0.0
 10
85.40047754347452
 20
-131.451420522693
 30
0.0
 10
85.4555814309576
 20
-131.451420522693
 30
0.0
 10
85.50038420759236
 20
-131.4961880226815
 30
0.0
 10
85.50038420759236
 20
-131.5513271893346
 30
0.0
  0
SPLINE
  5
46
330
1F
100
AcDbEntity
  8
_U+30EC_U+30A4_U+30E4_U+30FC 1
 62
   179
420
  2234388
370
     9
100
AcDbSpline
210
0.0
220
0.0
230
1.0
 70
    11
 71
     3
 72
    17
 73
    13
 74
     0
 42
0.0000000001
 43
0.0000000001
 12
1.0
 22
0.0
 32
0.0
 13
1.0
 23
0.0
 33
0.0
 40
0.0
 40
0.0
 40
0.0
 40
0.0
 40
1.0
 40
1.0
 40
1.0
 40
2.0
 40
2.0
 40
2.0
 40
3.0
 40
3.0
 40
3.0
 40
4.0
 40
4.0
 40
4.0
 40
4.0
 10
85.50038420759236
 20
-132.5514169113068
 30
0.0
 10
85.50038420759236
 20
-132.606908855737
 30
0.0
 10
85.4555814309576
 20
-132.6516763557262
 30
0.0
 10
85.40047754347452
 20
-132.6516763557262
 30
0.0
 10
85.34533837821458
 20
-132.6516763557262
 30
0.0
 10
85.3005708793567
 20
-132.606908855737
 30
0.0
 10
85.3005708793567
 20
-132.5514169113068
 30
0.0
 10
85.3005708793567
 20
-132.4963130224312
 30
0.0
 10
85.34533837821458
 20
-132.4515102446651
 30
0.0
 10
85.40047754347452
 20
-132.4515102446651
 30
0.0
 10
85.4555814309576
 20
-132.4515102446651
 30
0.0
 10
85.50038420759236
 20
-132.4963130224312
 30
0.0
 10
85.50038420759236
 20
-132.5514169113068
 30
0.0
  0
POLYLINE
  5
47
330
1F
100
AcDbEntity
  8
_U+30EC_U+30A4_U+30E4_U+30FC 1
 62
   179
420
  2234388
370
     9
100
AcDb2dPolyline
 66
     1
 10
0.0
 20
0.0
 30
0.0
  0
VERTEX
  5
48
330
47
100
AcDbEntity
  8
_U+30EC_U+30A4_U+30E4_U+30FC 1
 62
   179
420
  2234388
370
     9
100
AcDbVertex
100
AcDb2dVertex
 10
85.40047754347452
 20
-132.5514169113068
 30
0.0
  0
VERTEX
  5
49
330
47
100
AcDbEntity
  8
_U+30EC_U+30A4_U+30E4_U+30FC 1
 62
   179
420
  2234388
370
     9
100
AcDbVertex
100
AcDb2dVertex
 10
85.40047754347452
 20
-124.9515605243177
 30
0.0
  0
SEQEND
  5
4A
330
47
100
AcDbEntity
  8
_U+30EC_U+30A4_U+30E4_U+30FC 1
 62
   179
420
  2234388
370
     9
  0
POLYLINE
  5
4B
330
1F
100
AcDbEntity
  8
_U+30EC_U+30A4_U+30E4_U+30FC 1
 62
   179
420
  2234388
370
     9
100
AcDb2dPolyline
 66
     1
 10
0.0
 20
0.0
 30
0.0
  0
VERTEX
  5
4C
330
4B
100
AcDbEntity
  8
_U+30EC_U+30A4_U+30E4_U+30FC 1
 62
   179
420
  2234388
370
     9
100
AcDbVertex
100
AcDb2dVertex
 10
84.27049720115474
 20
-132.5514169113068
 30
0.0
  0
VERTEX
  5
4D
330
4B
100
AcDbEntity
  8
_U+30EC_U+30A4_U+30E4_U+30FC 1
 62
   179
420
  2234388
370
     9
100
AcDbVertex
100
AcDb2dVertex
 10
86.73027334288194
 20
-132.5514169113068
 30
0.0
  0
SEQEND
  5
4E
330
4B
100
AcDbEntity
  8
_U+30EC_U+30A4_U+30E4_U+30FC 1
 62
   179
420
  2234388
370
     9
  0
POLYLINE
  5
4F
330
1F
100
AcDbEntity
  8
_U+30EC_U+30A4_U+30E4_U+30FC 1
 62
   179
420
  2234388
370
     9
100
AcDb2dPolyline
 66
     1
 10
0.0
 20
0.0
 30
0.0
  0
VERTEX
  5
50
330
4F
100
AcDbEntity
  8
_U+30EC_U+30A4_U+30E4_U+30FC 1
 62
   179
420
  2234388
370
     9
100
AcDbVertex
100
AcDb2dVertex
 10
84.27049720115474
 20
-131.5513271893346
 30
0.0
  0
VERTEX
  5
51
330
4F
100
AcDbEntity
  8
_U+30EC_U+30A4_U+30E4_U+30FC 1
 62
   179
420
  2234388
370
     9
100
AcDbVertex
100
AcDb2dVertex
 10
86.73027334288194
 20
-131.5513271893346
 30
0.0
  0
SEQEND
  5
52
330
4F
100
AcDbEntity
  8
_U+30EC_U+30A4_U+30E4_U+30FC 1
 62
   179
420
  2234388
370
     9
  0
SPLINE
  5
53
330
1F
100
AcDbEntity
  8
_U+30EC_U+30A4_U+30E4_U+30FC 1
 62
   179
420
  2234388
370
     9
100
AcDbSpline
210
0.0
220
0.0
230
1.0
 70
    11
 71
     3
 72
    17
 73
    13
 74
     0
 42
0.0000000001
 43
0.0000000001
 12
1.0
 22
0.0
 32
0.0
 13
1.0
 23
0.0
 33
0.0
 40
0.0
 40
0.0
 40
0.0
 40
0.0
 40
1.0
 40
1.0
 40
1.0
 40
2.0
 40
2.0
 40
2.0
 40
3.0
 40
3.0
 40
3.0
 40
4.0
 40
4.0
 40
4.0
 40
4.0
 10
85.50038420759236
 20
-125.0514671909593
 30
0.0
 10
85.50038420759236
 20
-125.106923857612
 30
0.0
 10
85.4555814309576
 20
-125.151373857601
 30
0.0
 10
85.40047754347452
 20
-125.151373857601
 30
0.0
 10
85.34533837821458
 20
-125.151373857601
 30
0.0
 10
85.3005708793567
 20
-125.106923857612
 30
0.0
 10
85.3005708793567
 20
-125.0514671909593
 30
0.0
 10
85.3005708793567
 20
-124.9963280243066
 30
0.0
 10
85.34533837821458
 20
-124.9515605243177
 30
0.0
 10
85.40047754347452
 20
-124.9515605243177
 30
0.0
 10
85.4555814309576
 20
-124.9515605243177
 30
0.0
 10
85.50038420759236
 20
-124.9963280243066
 30
0.0
 10
85.50038420759236
 20
-125.0514671909593
 30
0.0
  0
POLYLINE
  5
54
330
1F
100
AcDbEntity
  8
_U+30EC_U+30A4_U+30E4_U+30FC 1
 62
   179
420
  2234388
370
     9
100
AcDb2dPolyline
 66
     1
 10
0.0
 20
0.0
 30
0.0
  0
VERTEX
  5
55
330
54
100
AcDbEntity
  8
_U+30EC_U+30A4_U+30E4_U+30FC 1
 62
   179
420
  2234388
370
     9
100
AcDbVertex
100
AcDb2dVertex
 10
84.27049720115474
 20
-125.0514671909593
 30
0.0
  0
VERTEX
  5
56
330
54
100
AcDbEntity
  8
_U+30EC_U+30A4_U+30E4_U+30FC 1
 62
   179
420
  2234388
370
     9
100
AcDbVertex
100
AcDb2dVertex
 10
86.73027334288194
 20
-125.0514671909593
 30
0.0
  0
SEQEND
  5
57
330
54
100
AcDbEntity
  8
_U+30EC_U+30A4_U+30E4_U+30FC 1
 62
   179
420
  2234388
370
     9
  0
INSERT
  5
59
330
1F
100
AcDbEntity
  8
_U+30EC_U+30A4_U+30E4_U+30FC 1
100
AcDbBlockReference
  2
block 2
 10
0.0
 20
0.0
 30
0.0
  0
INSERT
  5
5F
330
1F
100
AcDbEntity
  8
_U+30EC_U+30A4_U+30E4_U+30FC 1
100
AcDbBlockReference
  2
block 3
 10
0.0
 20
0.0
 30
0.0
  0
POLYLINE
  5
6F
330
1F
100
AcDbEntity
  8
_U+30EC_U+30A4_U+30E4_U+30FC 1
 62
   179
420
  2234388
370
     9
100
AcDb2dPolyline
 66
     1
 10
0.0
 20
0.0
 30
0.0
  0
VERTEX
  5
70
330
6F
100
AcDbEntity
  8
_U+30EC_U+30A4_U+30E4_U+30FC 1
 62
   179
420
  2234388
370
     9
100
AcDbVertex
100
AcDb2dVertex
 10
88.35086385709279
 20
-119.3040116368405
 30
0.0
  0
VERTEX
  5
71
330
6F
100
AcDbEntity
  8
_U+30EC_U+30A4_U+30E4_U+30FC 1
 62
   179
420
  2234388
370
     9
100
AcDbVertex
100
AcDb2dVertex
 10
88.35086385709279
 20
-121.7644955251145
 30
0.0
  0
SEQEND
  5
72
330
6F
100
AcDbEntity
  8
_U+30EC_U+30A4_U+30E4_U+30FC 1
 62
   179
420
  2234388
370
     9
  0
POLYLINE
  5
73
330
1F
100
AcDbEntity
  8
_U+30EC_U+30A4_U+30E4_U+30FC 1
 62
   179
420
  2234388
370
     9
100
AcDb2dPolyline
 66
     1
 10
0.0
 20
0.0
 30
0.0
  0
VERTEX
  5
74
330
73
100
AcDbEntity
  8
_U+30EC_U+30A4_U+30E4_U+30FC 1
 62
   179
420
  2234388
370
     9
100
AcDbVertex
100
AcDb2dVertex
 10
100.3514816064871
 20
-119.3040116368405
 30
0.0
  0
VERTEX
  5
75
330
73
100
AcDbEntity
  8
_U+30EC_U+30A4_U+30E4_U+30FC 1
 62
   179
420
  2234388
370
     9
100
AcDbVertex
100
AcDb2dVertex
 10
100.3514816064871
 20
-121.7644955251145
 30
0.0
  0
SEQEND
  5
76
330
73
100
AcDbEntity
  8
_U+30EC_U+30A4_U+30E4_U+30FC 1
 62
   179
420
  2234388
370
     9
  0
INSERT
  5
78
330
1F
100
AcDbEntity
  8
_U+30EC_U+30A4_U+30E4_U+30FC 1
100
AcDbBlockReference
  2
block 4
 10
0.0
 20
0.0
 30
0.0
  0
INSERT
  5
80
330
1F
100
AcDbEntity
  8
_U+30EC_U+30A4_U+30E4_U+30FC 1
100
AcDbBlockReference
  2
block 5
 10
0.0
 20
0.0
 30
0.0
  0
POLYLINE
  5
87
330
1F
100
AcDbEntity
  8
_U+30EC_U+30A4_U+30E4_U+30FC 1
 62
   179
420
  2234388
370
     9
100
AcDb2dPolyline
 66
     1
 10
0.0
 20
0.0
 30
0.0
  0
VERTEX
  5
88
330
87
100
AcDbEntity
  8
_U+30EC_U+30A4_U+30E4_U+30FC 1
 62
   179
420
  2234388
370
     9
100
AcDbVertex
100
AcDb2dVertex
 10
100.3511666415786
 20
-120.7640177475867
 30
0.0
  0
VERTEX
  5
89
330
87
100
AcDbEntity
  8
_U+30EC_U+30A4_U+30E4_U+30FC 1
 62
   179
420
  2234388
370
     9
100
AcDbVertex
100
AcDb2dVertex
 10
88.35086385709279
 20
-120.7640177475867
 30
0.0
  0
SEQEND
  5
8A
330
87
100
AcDbEntity
  8
_U+30EC_U+30A4_U+30E4_U+30FC 1
 62
   179
420
  2234388
370
     9
  0
SPLINE
  5
8B
330
1F
100
AcDbEntity
  8
_U+30EC_U+30A4_U+30E4_U+30FC 1
 62
   179
420
  2234388
370
     9
100
AcDbSpline
210
0.0
220
0.0
230
1.0
 70
    11
 71
     3
 72
    17
 73
    13
 74
     0
 42
0.0000000001
 43
0.0000000001
 12
1.0
 22
0.0
 32
0.0
 13
1.0
 23
0.0
 33
0.0
 40
0.0
 40
0.0
 40
0.0
 40
0.0
 40
1.0
 40
1.0
 40
1.0
 40
2.0
 40
2.0
 40
2.0
 40
3.0
 40
3.0
 40
3.0
 40
4.0
 40
4.0
 40
4.0
 40
4.0
 10
100.4513882706049
 20
-135.611693577208
 30
0.0
 10
100.4513882706049
 20
-135.6668327438611
 30
0.0
 10
100.406620771747
 20
-135.7116002438496
 30
0.0
 10
100.3514816064871
 20
-135.7116002438496
 30
0.0
 10
100.296377719004
 20
-135.7116002438496
 30
0.0
 10
100.2515749423692
 20
-135.6668327438611
 30
0.0
 10
100.2515749423692
 20
-135.611693577208
 30
0.0
 10
100.2515749423692
 20
-135.556589688333
 30
0.0
 10
100.296377719004
 20
-135.5117869105663
 30
0.0
 10
100.3514816064871
 20
-135.5117869105663
 30
0.0
 10
100.406620771747
 20
-135.5117869105663
 30
0.0
 10
100.4513882706049
 20
-135.556589688333
 30
0.0
 10
100.4513882706049
 20
-135.611693577208
 30
0.0
  0
SPLINE
  5
8C
330
1F
100
AcDbEntity
  8
_U+30EC_U+30A4_U+30E4_U+30FC 1
 62
   179
420
  2234388
370
     9
100
AcDbSpline
210
0.0
220
0.0
230
1.0
 70
    11
 71
     3
 72
    17
 73
    13
 74
     0
 42
0.0000000001
 43
0.0000000001
 12
1.0
 22
0.0
 32
0.0
 13
1.0
 23
0.0
 33
0.0
 40
0.0
 40
0.0
 40
0.0
 40
0.0
 40
1.0
 40
1.0
 40
1.0
 40
2.0
 40
2.0
 40
2.0
 40
3.0
 40
3.0
 40
3.0
 40
4.0
 40
4.0
 40
4.0
 40
4.0
 10
88.45077052121063
 20
-135.611693577208
 30
0.0
 10
88.45077052121063
 20
-135.6668327438611
 30
0.0
 10
88.40596774457586
 20
-135.7116002438496
 30
0.0
 10
88.35086385709279
 20
-135.7116002438496
 30
0.0
 10
88.29572469183285
 20
-135.7116002438496
 30
0.0
 10
88.25095719297495
 20
-135.6668327438611
 30
0.0
 10
88.25095719297495
 20
-135.611693577208
 30
0.0
 10
88.25095719297495
 20
-135.556589688333
 30
0.0
 10
88.29572469183285
 20
-135.5117869105663
 30
0.0
 10
88.35086385709279
 20
-135.5117869105663
 30
0.0
 10
88.40596774457586
 20
-135.5117869105663
 30
0.0
 10
88.45077052121063
 20
-135.556589688333
 30
0.0
 10
88.45077052121063
 20
-135.611693577208
 30
0.0
  0
POLYLINE
  5
8D
330
1F
100
AcDbEntity
  8
_U+30EC_U+30A4_U+30E4_U+30FC 1
 62
   179
420
  2234388
370
     9
100
AcDb2dPolyline
 66
     1
 10
0.0
 20
0.0
 30
0.0
  0
VERTEX
  5
8E
330
8D
100
AcDbEntity
  8
_U+30EC_U+30A4_U+30E4_U+30FC 1
 62
   179
420
  2234388
370
     9
100
AcDbVertex
100
AcDb2dVertex
 10
88.35086385709279
 20
-137.0717349657323
 30
0.0
  0
VERTEX
  5
8F
330
8D
100
AcDbEntity
  8
_U+30EC_U+30A4_U+30E4_U+30FC 1
 62
   179
420
  2234388
370
     9
100
AcDbVertex
100
AcDb2dVertex
 10
88.35086385709279
 20
-134.6112510774581
 30
0.0
  0
SEQEND
  5
90
330
8D
100
AcDbEntity
  8
_U+30EC_U+30A4_U+30E4_U+30FC 1
 62
   179
420
  2234388
370
     9
  0
POLYLINE
  5
91
330
1F
100
AcDbEntity
  8
_U+30EC_U+30A4_U+30E4_U+30FC 1
 62
   179
420
  2234388
370
     9
100
AcDb2dPolyline
 66
     1
 10
0.0
 20
0.0
 30
0.0
  0
VERTEX
  5
92
330
91
100
AcDbEntity
  8
_U+30EC_U+30A4_U+30E4_U+30FC 1
 62
   179
420
  2234388
370
     9
100
AcDbVertex
100
AcDb2dVertex
 10
100.3514816064871
 20
-137.0717349657323
 30
0.0
  0
VERTEX
  5
93
330
91
100
AcDbEntity
  8
_U+30EC_U+30A4_U+30E4_U+30FC 1
 62
   179
420
  2234388
370
     9
100
AcDbVertex
100
AcDb2dVertex
 10
100.3514816064871
 20
-134.6112510774581
 30
0.0
  0
SEQEND
  5
94
330
91
100
AcDbEntity
  8
_U+30EC_U+30A4_U+30E4_U+30FC 1
 62
   179
420
  2234388
370
     9
  0
POLYLINE
  5
95
330
1F
100
AcDbEntity
  8
_U+30EC_U+30A4_U+30E4_U+30FC 1
 62
   179
420
  2234388
370
     9
100
AcDb2dPolyline
 66
     1
 10
0.0
 20
0.0
 30
0.0
  0
VERTEX
  5
96
330
95
100
AcDbEntity
  8
_U+30EC_U+30A4_U+30E4_U+30FC 1
 62
   179
420
  2234388
370
     9
100
AcDbVertex
100
AcDb2dVertex
 10
100.3511666415786
 20
-135.611693577208
 30
0.0
  0
VERTEX
  5
97
330
95
100
AcDbEntity
  8
_U+30EC_U+30A4_U+30E4_U+30FC 1
 62
   179
420
  2234388
370
     9
100
AcDbVertex
100
AcDb2dVertex
 10
88.35086385709279
 20
-135.611693577208
 30
0.0
  0
SEQEND
  5
98
330
95
100
AcDbEntity
  8
_U+30EC_U+30A4_U+30E4_U+30FC 1
 62
   179
420
  2234388
370
     9
  0
POLYLINE
  5
99
330
1F
100
AcDbEntity
  8
_U+30EC_U+30A4_U+30E4_U+30FC 1
 62
   179
420
  2234388
370
    25
100
AcDb2dPolyline
 66
     1
 10
0.0
 20
0.0
 30
0.0
  0
VERTEX
  5
9A
330
99
100
AcDbEntity
  8
_U+30EC_U+30A4_U+30E4_U+30FC 1
 62
   179
420
  2234388
370
    25
100
AcDbVertex
100
AcDb2dVertex
 10
88.7511607913248
 20
-123.9986371912225
 30
0.0
  0
VERTEX
  5
9B
330
99
100
AcDbEntity
  8
_U+30EC_U+30A4_U+30E4_U+30FC 1
 62
   179
420
  2234388
370
    25
100
AcDbVertex
100
AcDb2dVertex
 10
99.75137134401939
 20
-123.9986371912225
 30
0.0
  0
SEQEND
  5
9C
330
99
100
AcDbEntity
  8
_U+30EC_U+30A4_U+30E4_U+30FC 1
 62
   179
420
  2234388
370
    25
  0
SPLINE
  5
9D
330
1F
100
AcDbEntity
  8
_U+30EC_U+30A4_U+30E4_U+30FC 1
 62
   179
420
  2234388
370
    25
100
AcDbSpline
210
0.0
220
0.0
230
1.0
 70
     8
 71
     3
 72
     8
 73
     4
 74
     0
 42
0.0000000001
 43
0.0000000001
 12
1.0
 22
0.0
 32
0.0
 13
1.0
 23
0.0
 33
0.0
 40
0.0
 40
0.0
 40
0.0
 40
0.0
 40
1.0
 40
1.0
 40
1.0
 40
1.0
 10
100.2515749423692
 20
-124.4985233022087
 30
0.0
 10
100.2515749423692
 20
-124.2222277467223
 30
0.0
 10
100.0276694194374
 20
-123.9986371912225
 30
0.0
 10
99.75137134401939
 20
-123.9986371912225
 30
0.0
  0
POLYLINE
  5
9E
330
1F
100
AcDbEntity
  8
_U+30EC_U+30A4_U+30E4_U+30FC 1
 62
   179
420
  2234388
370
    25
100
AcDb2dPolyline
 66
     1
 10
0.0
 20
0.0
 30
0.0
  0
VERTEX
  5
9F
330
9E
100
AcDbEntity
  8
_U+30EC_U+30A4_U+30E4_U+30FC 1
 62
   179
420
  2234388
370
    25
100
AcDbVertex
100
AcDb2dVertex
 10
100.2515749423692
 20
-124.4985233022087
 30
0.0
  0
VERTEX
  5
A0
330
9E
100
AcDbEntity
  8
_U+30EC_U+30A4_U+30E4_U+30FC 1
 62
   179
420
  2234388
370
    25
100
AcDbVertex
100
AcDb2dVertex
 10
100.2515749423692
 20
-124.998409413195
 30
0.0
  0
SEQEND
  5
A1
330
9E
100
AcDbEntity
  8
_U+30EC_U+30A4_U+30E4_U+30FC 1
 62
   179
420
  2234388
370
    25
  0
POLYLINE
  5
A2
330
1F
100
AcDbEntity
  8
_U+30EC_U+30A4_U+30E4_U+30FC 1
 62
   179
420
  2234388
370
    25
100
AcDb2dPolyline
 66
     1
 10
0.0
 20
0.0
 30
0.0
  0
VERTEX
  5
A3
330
A2
100
AcDbEntity
  8
_U+30EC_U+30A4_U+30E4_U+30FC 1
 62
   179
420
  2234388
370
    25
100
AcDbVertex
100
AcDb2dVertex
 10
94.7514873049104
 20
-124.998409413195
 30
0.0
  0
VERTEX
  5
A4
330
A2
100
AcDbEntity
  8
_U+30EC_U+30A4_U+30E4_U+30FC 1
 62
   179
420
  2234388
370
    25
100
AcDbVertex
100
AcDb2dVertex
 10
100.2515749423692
 20
-124.998409413195
 30
0.0
  0
SEQEND
  5
A5
330
A2
100
AcDbEntity
  8
_U+30EC_U+30A4_U+30E4_U+30FC 1
 62
   179
420
  2234388
370
    25
  0
SPLINE
  5
A6
330
1F
100
AcDbEntity
  8
_U+30EC_U+30A4_U+30E4_U+30FC 1
 62
   179
420
  2234388
370
    25
100
AcDbSpline
210
0.0
220
0.0
230
1.0
 70
     8
 71
     3
 72
     8
 73
     4
 74
     0
 42
0.0000000001
 43
0.0000000001
 12
1.0
 22
0.0
 32
0.0
 13
1.0
 23
0.0
 33
0.0
 40
0.0
 40
0.0
 40
0.0
 40
0.0
 40
1.0
 40
1.0
 40
1.0
 40
1.0
 10
88.25095719297495
 20
-124.4985233022087
 30
0.0
 10
88.25095719297495
 20
-124.2222277467223
 30
0.0
 10
88.47486524281814
 20
-123.9986371912225
 30
0.0
 10
88.7511607913248
 20
-123.9986371912225
 30
0.0
  0
POLYLINE
  5
A7
330
1F
100
AcDbEntity
  8
_U+30EC_U+30A4_U+30E4_U+30FC 1
 62
   179
420
  2234388
370
    25
100
AcDb2dPolyline
 66
     1
 10
0.0
 20
0.0
 30
0.0
  0
VERTEX
  5
A8
330
A7
100
AcDbEntity
  8
_U+30EC_U+30A4_U+30E4_U+30FC 1
 62
   179
420
  2234388
370
    25
100
AcDbVertex
100
AcDb2dVertex
 10
88.25095719297495
 20
-124.4985233022087
 30
0.0
  0
VERTEX
  5
A9
330
A7
100
AcDbEntity
  8
_U+30EC_U+30A4_U+30E4_U+30FC 1
 62
   179
420
  2234388
370
    25
100
AcDbVertex
100
AcDb2dVertex
 10
88.25095719297495
 20
-124.998409413195
 30
0.0
  0
SEQEND
  5
AA
330
A7
100
AcDbEntity
  8
_U+30EC_U+30A4_U+30E4_U+30FC 1
 62
   179
420
  2234388
370
    25
  0
POLYLINE
  5
AB
330
1F
100
AcDbEntity
  8
_U+30EC_U+30A4_U+30E4_U+30FC 1
 62
   179
420
  2234388
370
    25
100
AcDb2dPolyline
 66
     1
 10
0.0
 20
0.0
 30
0.0
  0
VERTEX
  5
AC
330
AB
100
AcDbEntity
  8
_U+30EC_U+30A4_U+30E4_U+30FC 1
 62
   179
420
  2234388
370
    25
100
AcDbVertex
100
AcDb2dVertex
 10
93.75104719878453
 20
-124.998409413195
 30
0.0
  0
VERTEX
  5
AD
330
AB
100
AcDbEntity
  8
_U+30EC_U+30A4_U+30E4_U+30FC 1
 62
   179
420
  2234388
370
    25
100
AcDbVertex
100
AcDb2dVertex
 10
88.25095719297495
 20
-124.998409413195
 30
0.0
  0
SEQEND
  5
AE
330
AB
100
AcDbEntity
  8
_U+30EC_U+30A4_U+30E4_U+30FC 1
 62
   179
420
  2234388
370
    25
  0
POLYLINE
  5
AF
330
1F
100
AcDbEntity
  8
_U+30EC_U+30A4_U+30E4_U+30FC 1
 62
   179
420
  2234388
370
    25
100
AcDb2dPolyline
 66
     1
 10
0.0
 20
0.0
 30
0.0
  0
VERTEX
  5
B0
330
AF
100
AcDbEntity
  8
_U+30EC_U+30A4_U+30E4_U+30FC 1
 62
   179
420
  2234388
370
    25
100
AcDbVertex
100
AcDb2dVertex
 10
88.7511607913248
 20
-132.4980416335418
 30
0.0
  0
VERTEX
  5
B1
330
AF
100
AcDbEntity
  8
_U+30EC_U+30A4_U+30E4_U+30FC 1
 62
   179
420
  2234388
370
    25
100
AcDbVertex
100
AcDb2dVertex
 10
99.75137134401939
 20
-132.4980416335418
 30
0.0
  0
SEQEND
  5
B2
330
AF
100
AcDbEntity
  8
_U+30EC_U+30A4_U+30E4_U+30FC 1
 62
   179
420
  2234388
370
    25
  0
SPLINE
  5
B3
330
1F
100
AcDbEntity
  8
_U+30EC_U+30A4_U+30E4_U+30FC 1
 62
   179
420
  2234388
370
    25
100
AcDbSpline
210
0.0
220
0.0
230
1.0
 70
     8
 71
     3
 72
     8
 73
     4
 74
     0
 42
0.0000000001
 43
0.0000000001
 12
1.0
 22
0.0
 32
0.0
 13
1.0
 23
0.0
 33
0.0
 40
0.0
 40
0.0
 40
0.0
 40
0.0
 40
1.0
 40
1.0
 40
1.0
 40
1.0
 10
100.2515749423692
 20
-131.9981555225559
 30
0.0
 10
100.2515749423692
 20
-132.2744510780423
 30
0.0
 10
100.0276694194374
 20
-132.4980416335418
 30
0.0
 10
99.75137134401939
 20
-132.4980416335418
 30
0.0
  0
POLYLINE
  5
B4
330
1F
100
AcDbEntity
  8
_U+30EC_U+30A4_U+30E4_U+30FC 1
 62
   179
420
  2234388
370
    25
100
AcDb2dPolyline
 66
     1
 10
0.0
 20
0.0
 30
0.0
  0
VERTEX
  5
B5
330
B4
100
AcDbEntity
  8
_U+30EC_U+30A4_U+30E4_U+30FC 1
 62
   179
420
  2234388
370
    25
100
AcDbVertex
100
AcDb2dVertex
 10
100.2515749423692
 20
-131.9981555225559
 30
0.0
  0
VERTEX
  5
B6
330
B4
100
AcDbEntity
  8
_U+30EC_U+30A4_U+30E4_U+30FC 1
 62
   179
420
  2234388
370
    25
100
AcDbVertex
100
AcDb2dVertex
 10
100.2515749423692
 20
-131.49826941157
 30
0.0
  0
SEQEND
  5
B7
330
B4
100
AcDbEntity
  8
_U+30EC_U+30A4_U+30E4_U+30FC 1
 62
   179
420
  2234388
370
    25
  0
POLYLINE
  5
B8
330
1F
100
AcDbEntity
  8
_U+30EC_U+30A4_U+30E4_U+30FC 1
 62
   179
420
  2234388
370
    25
100
AcDb2dPolyline
 66
     1
 10
0.0
 20
0.0
 30
0.0
  0
VERTEX
  5
B9
330
B8
100
AcDbEntity
  8
_U+30EC_U+30A4_U+30E4_U+30FC 1
 62
   179
420
  2234388
370
    25
100
AcDbVertex
100
AcDb2dVertex
 10
94.7514873049104
 20
-131.49826941157
 30
0.0
  0
VERTEX
  5
BA
330
B8
100
AcDbEntity
  8
_U+30EC_U+30A4_U+30E4_U+30FC 1
 62
   179
420
  2234388
370
    25
100
AcDbVertex
100
AcDb2dVertex
 10
100.2515749423692
 20
-131.49826941157
 30
0.0
  0
SEQEND
  5
BB
330
B8
100
AcDbEntity
  8
_U+30EC_U+30A4_U+30E4_U+30FC 1
 62
   179
420
  2234388
370
    25
  0
SPLINE
  5
BC
330
1F
100
AcDbEntity
  8
_U+30EC_U+30A4_U+30E4_U+30FC 1
 62
   179
420
  2234388
370
    25
100
AcDbSpline
210
0.0
220
0.0
230
1.0
 70
     8
 71
     3
 72
     8
 73
     4
 74
     0
 42
0.0000000001
 43
0.0000000001
 12
1.0
 22
0.0
 32
0.0
 13
1.0
 23
0.0
 33
0.0
 40
0.0
 40
0.0
 40
0.0
 40
0.0
 40
1.0
 40
1.0
 40
1.0
 40
1.0
 10
88.25095719297495
 20
-131.9981555225559
 30
0.0
 10
88.25095719297495
 20
-132.2744510780423
 30
0.0
 10
88.47486524281814
 20
-132.4980416335418
 30
0.0
 10
88.7511607913248
 20
-132.4980416335418
 30
0.0
  0
POLYLINE
  5
BD
330
1F
100
AcDbEntity
  8
_U+30EC_U+30A4_U+30E4_U+30FC 1
 62
   179
420
  2234388
370
    25
100
AcDb2dPolyline
 66
     1
 10
0.0
 20
0.0
 30
0.0
  0
VERTEX
  5
BE
330
BD
100
AcDbEntity
  8
_U+30EC_U+30A4_U+30E4_U+30FC 1
 62
   179
420
  2234388
370
    25
100
AcDbVertex
100
AcDb2dVertex
 10
88.25095719297495
 20
-131.9981555225559
 30
0.0
  0
VERTEX
  5
BF
330
BD
100
AcDbEntity
  8
_U+30EC_U+30A4_U+30E4_U+30FC 1
 62
   179
420
  2234388
370
    25
100
AcDbVertex
100
AcDb2dVertex
 10
88.25095719297495
 20
-131.49826941157
 30
0.0
  0
SEQEND
  5
C0
330
BD
100
AcDbEntity
  8
_U+30EC_U+30A4_U+30E4_U+30FC 1
 62
   179
420
  2234388
370
    25
  0
POLYLINE
  5
C1
330
1F
100
AcDbEntity
  8
_U+30EC_U+30A4_U+30E4_U+30FC 1
 62
   179
420
  2234388
370
    25
100
AcDb2dPolyline
 66
     1
 10
0.0
 20
0.0
 30
0.0
  0
VERTEX
  5
C2
330
C1
100
AcDbEntity
  8
_U+30EC_U+30A4_U+30E4_U+30FC 1
 62
   179
420
  2234388
370
    25
100
AcDbVertex
100
AcDb2dVertex
 10
93.75104719878453
 20
-131.49826941157
 30
0.0
  0
VERTEX
  5
C3
330
C1
100
AcDbEntity
  8
_U+30EC_U+30A4_U+30E4_U+30FC 1
 62
   179
420
  2234388
370
    25
100
AcDbVertex
100
AcDb2dVertex
 10
88.25095719297495
 20
-131.49826941157
 30
0.0
  0
SEQEND
  5
C4
330
C1
100
AcDbEntity
  8
_U+30EC_U+30A4_U+30E4_U+30FC 1
 62
   179
420
  2234388
370
    25
  0
POLYLINE
  5
C5
330
1F
100
AcDbEntity
  8
_U+30EC_U+30A4_U+30E4_U+30FC 1
 62
   179
420
  2234388
370
    25
100
AcDb2dPolyline
 66
     1
 10
0.0
 20
0.0
 30
0.0
  0
VERTEX
  5
C6
330
C5
100
AcDbEntity
  8
_U+30EC_U+30A4_U+30E4_U+30FC 1
 62
   179
420
  2234388
370
    25
100
AcDbVertex
100
AcDb2dVertex
 10
93.75104719878453
 20
-124.998409413195
 30
0.0
  0
VERTEX
  5
C7
330
C5
100
AcDbEntity
  8
_U+30EC_U+30A4_U+30E4_U+30FC 1
 62
   179
420
  2234388
370
    25
100
AcDbVertex
100
AcDb2dVertex
 10
93.75104719878453
 20
-131.49826941157
 30
0.0
  0
SEQEND
  5
C8
330
C5
100
AcDbEntity
  8
_U+30EC_U+30A4_U+30E4_U+30FC 1
 62
   179
420
  2234388
370
    25
  0
POLYLINE
  5
C9
330
1F
100
AcDbEntity
  8
_U+30EC_U+30A4_U+30E4_U+30FC 1
 62
   179
420
  2234388
370
    25
100
AcDb2dPolyline
 66
     1
 10
0.0
 20
0.0
 30
0.0
  0
VERTEX
  5
CA
330
C9
100
AcDbEntity
  8
_U+30EC_U+30A4_U+30E4_U+30FC 1
 62
   179
420
  2234388
370
    25
100
AcDbVertex
100
AcDb2dVertex
 10
94.75113452714162
 20
-124.998409413195
 30
0.0
  0
VERTEX
  5
CB
330
C9
100
AcDbEntity
  8
_U+30EC_U+30A4_U+30E4_U+30FC 1
 62
   179
420
  2234388
370
    25
100
AcDbVertex
100
AcDb2dVertex
 10
94.75113452714162
 20
-131.49826941157
 30
0.0
  0
SEQEND
  5
CC
330
C9
100
AcDbEntity
  8
_U+30EC_U+30A4_U+30E4_U+30FC 1
 62
   179
420
  2234388
370
    25
  0
SPLINE
  5
CD
330
1F
100
AcDbEntity
  8
_U+30EC_U+30A4_U+30E4_U+30FC 1
 62
     7
420
 16777215
370
     9
100
AcDbSpline
210
0.0
220
0.0
230
1.0
 70
    11
 71
     3
 72
    17
 73
    13
 74
     0
 42
0.0000000001
 43
0.0000000001
 12
1.0
 22
0.0
 32
0.0
 13
1.0
 23
0.0
 33
0.0
 40
0.0
 40
0.0
 40
0.0
 40
0.0
 40
1.0
 40
1.0
 40
1.0
 40
2.0
 40
2.0
 40
2.0
 40
3.0
 40
3.0
 40
3.0
 40
4.0
 40
4.0
 40
4.0
 40
4.0
 10
93.8461184391194
 20
-129.3305910787787
 30
0.0
 10
93.8461184391194
 20
-129.2754871899031
 30
0.0
 10
93.8013509402615
 20
-129.230684412137
 30
0.0
 10
93.74585899723277
 20
-129.230684412137
 30
0.0
 10
93.6907551097497
 20
-129.230684412137
 30
0.0
 10
93.64595233311493
 20
-129.2754871899031
 30
0.0
 10
93.64595233311493
 20
-129.3305910787787
 30
0.0
 10
93.64595233311493
 20
-129.3857302454311
 30
0.0
 10
93.6907551097497
 20
-129.4304977454203
 30
0.0
 10
93.74585899723277
 20
-129.4304977454203
 30
0.0
 10
93.8013509402615
 20
-129.4304977454203
 30
0.0
 10
93.8461184391194
 20
-129.3857302454311
 30
0.0
 10
93.8461184391194
 20
-129.3305910787787
 30
0.0
  0
SPLINE
  5
CE
330
1F
100
AcDbEntity
  8
_U+30EC_U+30A4_U+30E4_U+30FC 1
 62
     7
420
 16777215
370
     9
100
AcDbSpline
210
0.0
220
0.0
230
1.0
 70
    11
 71
     3
 72
    17
 73
    13
 74
     0
 42
0.0000000001
 43
0.0000000001
 12
1.0
 22
0.0
 32
0.0
 13
1.0
 23
0.0
 33
0.0
 40
0.0
 40
0.0
 40
0.0
 40
0.0
 40
1.0
 40
1.0
 40
1.0
 40
2.0
 40
2.0
 40
2.0
 40
3.0
 40
3.0
 40
3.0
 40
4.0
 40
4.0
 40
4.0
 40
4.0
 10
94.8458906358353
 20
-129.3305910787787
 30
0.0
 10
94.8458906358353
 20
-129.2754871899031
 30
0.0
 10
94.80108785920054
 20
-129.230684412137
 30
0.0
 10
94.74563119394868
 20
-129.230684412137
 30
0.0
 10
94.69052730646561
 20
-129.230684412137
 30
0.0
 10
94.64572452983084
 20
-129.2754871899031
 30
0.0
 10
94.64572452983084
 20
-129.3305910787787
 30
0.0
 10
94.64572452983084
 20
-129.3857302454311
 30
0.0
 10
94.69052730646561
 20
-129.4304977454203
 30
0.0
 10
94.74563119394868
 20
-129.4304977454203
 30
0.0
 10
94.80108785920054
 20
-129.4304977454203
 30
0.0
 10
94.8458906358353
 20
-129.3857302454311
 30
0.0
 10
94.8458906358353
 20
-129.3305910787787
 30
0.0
  0
INSERT
  5
D0
330
1F
100
AcDbEntity
  8
_U+30EC_U+30A4_U+30E4_U+30FC 1
100
AcDbBlockReference
  2
block 6
 10
0.0
 20
0.0
 30
0.0
  0
POLYLINE
  5
D5
330
1F
100
AcDbEntity
  8
_U+30EC_U+30A4_U+30E4_U+30FC 1
 62
     7
420
 16777215
370
     9
100
AcDb2dPolyline
 66
     1
 10
0.0
 20
0.0
 30
0.0
  0
VERTEX
  5
D6
330
D5
100
AcDbEntity
  8
_U+30EC_U+30A4_U+30E4_U+30FC 1
 62
     7
420
 16777215
370
     9
100
AcDbVertex
100
AcDb2dVertex
 10
95.60725561641125
 20
-129.3305910787787
 30
0.0
  0
VERTEX
  5
D7
330
D5
100
AcDbEntity
  8
_U+30EC_U+30A4_U+30E4_U+30FC 1
 62
     7
420
 16777215
370
     9
100
AcDbVertex
100
AcDb2dVertex
 10
91.76839849212644
 20
-129.3305910787787
 30
0.0
  0
SEQEND
  5
D8
330
D5
100
AcDbEntity
  8
_U+30EC_U+30A4_U+30E4_U+30FC 1
 62
     7
420
 16777215
370
     9
  0
ENDSEC
  0
SECTION
  2
OBJECTS
  0
DICTIONARY
  5
C
330
0
100
AcDbDictionary
281
     1
  3
ACAD_GROUP
350
D
  3
ACAD_LAYOUT
350
1A
  3
ACAD_MATERIAL
350
3B
  3
ACAD_MLEADERSTYLE
350
DA
  3
ACAD_MLINESTYLE
350
17
  3
ACAD_PLOTSETTINGS
350
19
  3
ACAD_PLOTSTYLENAME
350
E
  3
ACAD_TABLESTYLE
350
D9
  3
ACAD_VISUALSTYLE
350
2A
  0
SUN
  5
3F
330
29
100
AcDbSun
 90
        1
290
     0
 63
     7
421
 16777215
 40
1.0
291
     1
 91
  2455826
 92
 54000000
292
     0
 70
     2
 71
   256
280
     1
  0
DICTIONARY
  5
D
102
{ACAD_REACTORS
330
C
102
}
330
C
100
AcDbDictionary
281
     1
  0
DICTIONARY
  5
1A
102
{ACAD_REACTORS
330
C
102
}
330
C
100
AcDbDictionary
281
     1
  3
Layout1
350
1E
  3
Layout2
350
26
  3
Model
350
22
  0
DICTIONARY
  5
3B
102
{ACAD_REACTORS
330
C
102
}
330
C
100
AcDbDictionary
281
     1
  3
ByBlock
350
3D
  3
ByLayer
350
3C
  3
Global
350
3E
  0
DICTIONARY
  5
DA
102
{ACAD_REACTORS
330
C
102
}
330
C
100
AcDbDictionary
281
     1
  0
DICTIONARY
  5
17
102
{ACAD_REACTORS
330
C
102
}
330
C
100
AcDbDictionary
281
     1
  3
Standard
350
18
  0
DICTIONARY
  5
19
102
{ACAD_REACTORS
330
C
102
}
330
C
100
AcDbDictionary
281
     1
  0
ACDBDICTIONARYWDFLT
  5
E
102
{ACAD_REACTORS
330
C
102
}
330
C
100
AcDbDictionary
281
     1
  3
Normal
350
F
100
AcDbDictionaryWithDefault
340
F
  0
DICTIONARY
  5
D9
102
{ACAD_REACTORS
330
C
102
}
330
C
100
AcDbDictionary
281
     1
  0
DICTIONARY
  5
2A
102
{ACAD_REACTORS
330
C
102
}
330
C
100
AcDbDictionary
281
     1
  3
2dWireframe
350
2F
  3
3D Hidden
350
31
  3
3dWireframe
350
30
  3
Basic
350
32
  3
Brighten
350
36
  3
ColorChange
350
3A
  3
Conceptual
350
34
  3
Dim
350
35
  3
Facepattern
350
39
  3
Flat
350
2B
  3
FlatWithEdges
350
2C
  3
Gouraud
350
2D
  3
GouraudWithEdges
350
2E
  3
Linepattern
350
38
  3
Realistic
350
33
  3
Thicken
350
37
  0
LAYOUT
  5
1E
102
{ACAD_REACTORS
330
1A
102
}
330
1A
100
AcDbPlotSettings
  1

  2
none_device
  4

  6

 40
0.0
 41
0.0
 42
0.0
 43
0.0
 44
0.0
 45
0.0
 46
0.0
 47
0.0
 48
0.0
 49
0.0
140
0.0
141
0.0
142
1.0
143
1.0
 70
   688
 72
     0
 73
     0
 74
     5
  7

 75
    16
 76
     0
 77
     2
 78
   300
147
1.0
148
0.0
149
0.0
100
AcDbLayout
  1
Layout1
 70
     1
 71
     1
 10
0.0
 20
0.0
 11
12.0
 21
9.0
 12
0.0
 22
0.0
 32
0.0
 14
1.000000000000000E+20
 24
1.000000000000000E+20
 34
1.000000000000000E+20
 15
-1.000000000000000E+20
 25
-1.000000000000000E+20
 35
-1.000000000000000E+20
146
0.0
 13
0.0
 23
0.0
 33
0.0
 16
1.0
 26
0.0
 36
0.0
 17
0.0
 27
1.0
 37
0.0
 76
     0
330
1B
  0
LAYOUT
  5
26
102
{ACAD_REACTORS
330
1A
102
}
330
1A
100
AcDbPlotSettings
  1

  2
none_device
  4

  6

 40
0.0
 41
0.0
 42
0.0
 43
0.0
 44
0.0
 45
0.0
 46
0.0
 47
0.0
 48
0.0
 49
0.0
140
0.0
141
0.0
142
1.0
143
1.0
 70
   688
 72
     0
 73
     0
 74
     5
  7

 75
    16
 76
     0
 77
     2
 78
   300
147
1.0
148
0.0
149
0.0
100
AcDbLayout
  1
Layout2
 70
     1
 71
     2
 10
0.0
 20
0.0
 11
0.0
 21
0.0
 12
0.0
 22
0.0
 32
0.0
 14
0.0
 24
0.0
 34
0.0
 15
0.0
 25
0.0
 35
0.0
146
0.0
 13
0.0
 23
0.0
 33
0.0
 16
1.0
 26
0.0
 36
0.0
 17
0.0
 27
1.0
 37
0.0
 76
     0
330
23
  0
LAYOUT
  5
22
102
{ACAD_REACTORS
330
1A
102
}
330
1A
100
AcDbPlotSettings
  1

  2
none_device
  4

  6

 40
0.0
 41
0.0
 42
0.0
 43
0.0
 44
0.0
 45
0.0
 46
0.0
 47
0.0
 48
0.0
 49
0.0
140
0.0
141
0.0
142
1.0
143
1.0
 70
  1712
 72
     0
 73
     0
 74
     0
  7

 75
     0
 76
     0
 77
     2
 78
   300
147
1.0
148
0.0
149
0.0
100
AcDbLayout
  1
Model
 70
     1
 71
     0
 10
0.0
 20
0.0
 11
12.0
 21
9.0
 12
0.0
 22
0.0
 32
0.0
 14
1.000000000000000E+20
 24
1.000000000000000E+20
 34
1.000000000000000E+20
 15
-1.000000000000000E+20
 25
-1.000000000000000E+20
 35
-1.000000000000000E+20
146
0.0
 13
0.0
 23
0.0
 33
0.0
 16
1.0
 26
0.0
 36
0.0
 17
0.0
 27
1.0
 37
0.0
 76
     0
330
1F
331
29
  0
MATERIAL
  5
3D
102
{ACAD_REACTORS
330
3B
102
}
330
3B
100
AcDbMaterial
  1
ByBlock
 72
     1
 94
      127
  0
MATERIAL
  5
3C
102
{ACAD_REACTORS
330
3B
102
}
330
3B
100
AcDbMaterial
  1
ByLayer
 72
     1
 94
      127
  0
MATERIAL
  5
3E
102
{ACAD_REACTORS
330
3B
102
}
330
3B
100
AcDbMaterial
  1
Global
 72
     1
 94
      127
  0
MLINESTYLE
  5
18
102
{ACAD_REACTORS
330
17
102
}
330
17
100
AcDbMlineStyle
  2
Standard
 70
     0
  3

 62
   256
 51
90.0
 52
90.0
 71
     2
 49
0.5
 62
   256
  6
BYLAYER
 49
-0.5
 62
   256
  6
BYLAYER
  0
ACDBPLACEHOLDER
  5
F
102
{ACAD_REACTORS
330
E
102
}
330
E
  0
VISUALSTYLE
  5
2F
102
{ACAD_REACTORS
330
2A
102
}
330
2A
100
AcDbVisualStyle
  2
2dWireframe
 70
     4
177
     2
291
     0
 71
     0
176
     1
 72
     2
176
     1
 73
     0
176
     1
 90
        0
176
     1
 40
-0.6
176
     1
 41
-30.0
176
     1
 62
     5
 63
     7
421
 16777215
176
     1
 74
     1
176
     1
 91
        4
176
     1
 64
     7
176
     1
 65
   257
176
     1
 75
     1
176
     1
175
     1
176
     1
 42
1.0
176
     1
 92
        0
176
     1
 66
   257
176
     1
 43
1.0
176
     1
 76
     1
176
     1
 77
     6
176
     1
 78
     2
176
     1
 67
     7
176
     1
 79
     5
176
     1
170
     0
176
     1
171
     0
176
     1
290
     0
176
     1
 93
        1
176
     1
 44
0.0
176
     1
173
     0
176
     1
  0
VISUALSTYLE
  5
31
102
{ACAD_REACTORS
330
2A
102
}
330
2A
100
AcDbVisualStyle
  2
3D Hidden
 70
     6
177
     2
291
     0
 71
     1
176
     1
 72
     2
176
     1
 73
     2
176
     1
 90
        0
176
     1
 40
-0.6
176
     1
 41
-30.0
176
     1
 62
     5
 63
     7
421
 16777215
176
     1
 74
     2
176
     1
 91
        2
176
     1
 64
     7
176
     1
 65
   257
176
     1
 75
     2
176
     1
175
     1
176
     1
 42
40.0
176
     1
 92
        0
176
     1
 66
   257
176
     1
 43
1.0
176
     1
 76
     1
176
     1
 77
     6
176
     1
 78
     2
176
     1
 67
     7
176
     1
 79
     3
176
     1
170
     0
176
     1
171
     0
176
     1
290
     0
176
     1
 93
        1
176
     1
 44
0.0
176
     1
173
     0
176
     1
  0
VISUALSTYLE
  5
30
102
{ACAD_REACTORS
330
2A
102
}
330
2A
100
AcDbVisualStyle
  2
3dWireframe
 70
     5
177
     2
291
     0
 71
     0
176
     1
 72
     2
176
     1
 73
     0
176
     1
 90
        0
176
     1
 40
-0.6
176
     1
 41
-30.0
176
     1
 62
     5
 63
     7
421
 16777215
176
     1
 74
     1
176
     1
 91
        4
176
     1
 64
     7
176
     1
 65
   257
176
     1
 75
     1
176
     1
175
     1
176
     1
 42
1.0
176
     1
 92
        0
176
     1
 66
   257
176
     1
 43
1.0
176
     1
 76
     1
176
     1
 77
     6
176
     1
 78
     2
176
     1
 67
     7
176
     1
 79
     5
176
     1
170
     0
176
     1
171
     0
176
     1
290
     0
176
     1
 93
        1
176
     1
 44
0.0
176
     1
173
     0
176
     1
  0
VISUALSTYLE
  5
32
102
{ACAD_REACTORS
330
2A
102
}
330
2A
100
AcDbVisualStyle
  2
Basic
 70
     7
177
     2
291
     1
 71
     1
176
     1
 72
     0
176
     1
 73
     1
176
     1
 90
        0
176
     1
 40
-0.6
176
     1
 41
-30.0
176
     1
 62
     5
 63
     7
421
 16777215
176
     1
 74
     0
176
     1
 91
        4
176
     1
 64
     7
176
     1
 65
   257
176
     1
 75
     1
176
     1
175
     1
176
     1
 42
1.0
176
     1
 92
        8
176
     1
 66
     7
176
     1
 43
1.0
176
     1
 76
     1
176
     1
 77
     6
176
     1
 78
     2
176
     1
 67
     7
176
     1
 79
     5
176
     1
170
     0
176
     1
171
     0
176
     1
290
     0
176
     1
 93
        1
176
     1
 44
0.0
176
     1
173
     0
176
     1
  0
VISUALSTYLE
  5
36
102
{ACAD_REACTORS
330
2A
102
}
330
2A
100
AcDbVisualStyle
  2
Brighten
 70
    12
177
     2
291
     1
 71
     2
176
     1
 72
     2
176
     1
 73
     0
176
     1
 90
        0
176
     1
 40
-0.6
176
     1
 41
-30.0
176
     1
 62
     5
 63
     7
421
 16777215
176
     1
 74
     1
176
     1
 91
        4
176
     1
 64
     7
176
     1
 65
   257
176
     1
 75
     1
176
     1
175
     1
176
     1
 42
1.0
176
     1
 92
        8
176
     1
 66
     7
176
     1
 43
1.0
176
     1
 76
     1
176
     1
 77
     6
176
     1
 78
     2
176
     1
 67
     7
176
     1
 79
     5
176
     1
170
     0
176
     1
171
     0
176
     1
290
     0
176
     1
 93
        1
176
     1
 44
50.0
176
     1
173
     0
176
     1
  0
VISUALSTYLE
  5
3A
102
{ACAD_REACTORS
330
2A
102
}
330
2A
100
AcDbVisualStyle
  2
ColorChange
 70
    16
177
     2
291
     1
 71
     2
176
     1
 72
     2
176
     1
 73
     3
176
     1
 90
        0
176
     1
 40
-0.6
176
     1
 41
-30.0
176
     1
 62
     5
 63
     8
421
  8421504
176
     1
 74
     1
176
     1
 91
        4
176
     1
 64
     7
176
     1
 65
   257
176
     1
 75
     1
176
     1
175
     1
176
     1
 42
1.0
176
     1
 92
        8
176
     1
 66
     8
424
  8421504
176
     1
 43
1.0
176
     1
 76
     1
176
     1
 77
     6
176
     1
 78
     2
176
     1
 67
     7
176
     1
 79
     5
176
     1
170
     0
176
     1
171
     0
176
     1
290
     0
176
     1
 93
        1
176
     1
 44
0.0
176
     1
173
     0
176
     1
  0
VISUALSTYLE
  5
34
102
{ACAD_REACTORS
330
2A
102
}
330
2A
100
AcDbVisualStyle
  2
Conceptual
 70
     9
177
     2
291
     0
 71
     3
176
     1
 72
     2
176
     1
 73
     0
176
     1
 90
        0
176
     1
 40
-0.6
176
     1
 41
-30.0
176
     1
 62
     5
 63
     7
421
 16777215
176
     1
 74
     2
176
     1
 91
        2
176
     1
 64
     7
176
     1
 65
   257
176
     1
 75
     1
176
     1
175
     1
176
     1
 42
40.0
176
     1
 92
        8
176
     1
 66
     7
176
     1
 43
1.0
176
     1
 76
     1
176
     1
 77
     6
176
     1
 78
     2
176
     1
 67
     7
176
     1
 79
     3
176
     1
170
     0
176
     1
171
     0
176
     1
290
     0
176
     1
 93
        1
176
     1
 44
0.0
176
     1
173
     0
176
     1
  0
VISUALSTYLE
  5
35
102
{ACAD_REACTORS
330
2A
102
}
330
2A
100
AcDbVisualStyle
  2
Dim
 70
    11
177
     2
291
     1
 71
     2
176
     1
 72
     2
176
     1
 73
     0
176
     1
 90
        0
176
     1
 40
-0.6
176
     1
 41
-30.0
176
     1
 62
     5
 63
     7
421
 16777215
176
     1
 74
     1
176
     1
 91
        4
176
     1
 64
     7
176
     1
 65
   257
176
     1
 75
     1
176
     1
175
     1
176
     1
 42
1.0
176
     1
 92
        8
176
     1
 66
     7
176
     1
 43
1.0
176
     1
 76
     1
176
     1
 77
     6
176
     1
 78
     2
176
     1
 67
     7
176
     1
 79
     5
176
     1
170
     0
176
     1
171
     0
176
     1
290
     0
176
     1
 93
        1
176
     1
 44
-50.0
176
     1
173
     0
176
     1
  0
VISUALSTYLE
  5
39
102
{ACAD_REACTORS
330
2A
102
}
330
2A
100
AcDbVisualStyle
  2
Facepattern
 70
    15
177
     2
291
     1
 71
     2
176
     1
 72
     2
176
     1
 73
     0
176
     1
 90
        0
176
     1
 40
-0.6
176
     1
 41
-30.0
176
     1
 62
     5
 63
     7
421
 16777215
176
     1
 74
     1
176
     1
 91
        4
176
     1
 64
     7
176
     1
 65
   257
176
     1
 75
     1
176
     1
175
     1
176
     1
 42
1.0
176
     1
 92
        8
176
     1
 66
     7
176
     1
 43
1.0
176
     1
 76
     1
176
     1
 77
     6
176
     1
 78
     2
176
     1
 67
     7
176
     1
 79
     5
176
     1
170
     0
176
     1
171
     0
176
     1
290
     0
176
     1
 93
        1
176
     1
 44
0.0
176
     1
173
     0
176
     1
  0
VISUALSTYLE
  5
2B
102
{ACAD_REACTORS
330
2A
102
}
330
2A
100
AcDbVisualStyle
  2
Flat
 70
     0
177
     2
291
     1
 71
     2
176
     1
 72
     1
176
     1
 73
     1
176
     1
 90
        2
176
     1
 40
-0.6
176
     1
 41
30.0
176
     1
 62
     5
 63
     7
421
 16777215
176
     1
 74
     0
176
     1
 91
        4
176
     1
 64
     7
176
     1
 65
   257
176
     1
 75
     1
176
     1
175
     1
176
     1
 42
1.0
176
     1
 92
        8
176
     1
 66
     7
176
     1
 43
1.0
176
     1
 76
     1
176
     1
 77
     6
176
     1
 78
     2
176
     1
 67
     7
176
     1
 79
     5
176
     1
170
     0
176
     1
171
     0
176
     1
290
     0
176
     1
 93
       13
176
     1
 44
0.0
176
     1
173
     0
176
     1
  0
VISUALSTYLE
  5
2C
102
{ACAD_REACTORS
330
2A
102
}
330
2A
100
AcDbVisualStyle
  2
FlatWithEdges
 70
     1
177
     2
291
     1
 71
     2
176
     1
 72
     1
176
     1
 73
     1
176
     1
 90
        2
176
     1
 40
-0.6
176
     1
 41
30.0
176
     1
 62
     5
 63
     7
421
 16777215
176
     1
 74
     1
176
     1
 91
        4
176
     1
 64
     7
176
     1
 65
   257
176
     1
 75
     1
176
     1
175
     1
176
     1
 42
1.0
176
     1
 92
        0
176
     1
 66
   257
176
     1
 43
1.0
176
     1
 76
     1
176
     1
 77
     6
176
     1
 78
     2
176
     1
 67
     7
176
     1
 79
     5
176
     1
170
     0
176
     1
171
     0
176
     1
290
     0
176
     1
 93
       13
176
     1
 44
0.0
176
     1
173
     0
176
     1
  0
VISUALSTYLE
  5
2D
102
{ACAD_REACTORS
330
2A
102
}
330
2A
100
AcDbVisualStyle
  2
Gouraud
 70
     2
177
     2
291
     1
 71
     2
176
     1
 72
     2
176
     1
 73
     1
176
     1
 90
        2
176
     1
 40
-0.6
176
     1
 41
30.0
176
     1
 62
     5
 63
     7
421
 16777215
176
     1
 74
     0
176
     1
 91
        4
176
     1
 64
     7
176
     1
 65
   257
176
     1
 75
     1
176
     1
175
     1
176
     1
 42
1.0
176
     1
 92
        0
176
     1
 66
     7
176
     1
 43
1.0
176
     1
 76
     1
176
     1
 77
     6
176
     1
 78
     2
176
     1
 67
     7
176
     1
 79
     5
176
     1
170
     0
176
     1
171
     0
176
     1
290
     0
176
     1
 93
       13
176
     1
 44
0.0
176
     1
173
     0
176
     1
  0
VISUALSTYLE
  5
2E
102
{ACAD_REACTORS
330
2A
102
}
330
2A
100
AcDbVisualStyle
  2
GouraudWithEdges
 70
     3
177
     2
291
     1
 71
     2
176
     1
 72
     2
176
     1
 73
     1
176
     1
 90
        2
176
     1
 40
-0.6
176
     1
 41
30.0
176
     1
 62
     5
 63
     7
421
 16777215
176
     1
 74
     1
176
     1
 91
        4
176
     1
 64
     7
176
     1
 65
   257
176
     1
 75
     1
176
     1
175
     1
176
     1
 42
1.0
176
     1
 92
        0
176
     1
 66
   257
176
     1
 43
1.0
176
     1
 76
     1
176
     1
 77
     6
176
     1
 78
     2
176
     1
 67
     7
176
     1
 79
     5
176
     1
170
     0
176
     1
171
     0
176
     1
290
     0
176
     1
 93
       13
176
     1
 44
0.0
176
     1
173
     0
176
     1
  0
VISUALSTYLE
  5
38
102
{ACAD_REACTORS
330
2A
102
}
330
2A
100
AcDbVisualStyle
  2
Linepattern
 70
    14
177
     2
291
     1
 71
     2
176
     1
 72
     2
176
     1
 73
     0
176
     1
 90
        0
176
     1
 40
-0.6
176
     1
 41
-30.0
176
     1
 62
     5
 63
     7
421
 16777215
176
     1
 74
     1
176
     1
 91
        4
176
     1
 64
     7
176
     1
 65
   257
176
     1
 75
     7
176
     1
175
     7
176
     1
 42
1.0
176
     1
 92
        8
176
     1
 66
     7
176
     1
 43
1.0
176
     1
 76
     1
176
     1
 77
     6
176
     1
 78
     2
176
     1
 67
     7
176
     1
 79
     5
176
     1
170
     0
176
     1
171
     0
176
     1
290
     0
176
     1
 93
        1
176
     1
 44
0.0
176
     1
173
     0
176
     1
  0
VISUALSTYLE
  5
33
102
{ACAD_REACTORS
330
2A
102
}
330
2A
100
AcDbVisualStyle
  2
Realistic
 70
     8
177
     2
291
     0
 71
     2
176
     1
 72
     2
176
     1
 73
     0
176
     1
 90
        0
176
     1
 40
-0.6
176
     1
 41
-30.0
176
     1
 62
     5
 63
     7
421
 16777215
176
     1
 74
     1
176
     1
 91
        0
176
     1
 64
     7
176
     1
 65
   257
176
     1
 75
     1
176
     1
175
     1
176
     1
 42
1.0
176
     1
 92
        8
176
     1
 66
     8
424
  7895160
176
     1
 43
1.0
176
     1
 76
     1
176
     1
 77
     6
176
     1
 78
     2
176
     1
 67
     7
176
     1
 79
     5
176
     1
170
     0
176
     1
171
     0
176
     1
290
     0
176
     1
 93
       13
176
     1
 44
0.0
176
     1
173
     0
176
     1
  0
VISUALSTYLE
  5
37
102
{ACAD_REACTORS
330
2A
102
}
330
2A
100
AcDbVisualStyle
  2
Thicken
 70
    13
177
     2
291
     1
 71
     2
176
     1
 72
     2
176
     1
 73
     0
176
     1
 90
        0
176
     1
 40
-0.6
176
     1
 41
-30.0
176
     1
 62
     5
 63
     7
421
 16777215
176
     1
 74
     1
176
     1
 91
        4
176
     1
 64
     7
176
     1
 65
   257
176
     1
 75
     1
176
     1
175
     1
176
     1
 42
1.0
176
     1
 92
       12
176
     1
 66
     7
176
     1
 43
1.0
176
     1
 76
     1
176
     1
 77
     6
176
     1
 78
     2
176
     1
 67
     7
176
     1
 79
     5
176
     1
170
     0
176
     1
171
     0
176
     1
290
     0
176
     1
 93
        1
176
     1
 44
0.0
176
     1
173
     0
176
     1
  0
ENDSEC
  0
EOF
