  0
SECTION
  2
HEADER
  9
$ACADVER
  1
AC1024
  9
$ACADMAINTVER
 70
     6
  9
$DWGCODEPAGE
  3
UNDEFINED
  9
$INSBASE
 10
0.0
 20
0.0
 30
0.0
  9
$EXTMIN
 10
1.000000000000000E+20
 20
1.000000000000000E+20
 30
1.000000000000000E+20
  9
$EXTMAX
 10
-1.000000000000000E+20
 20
-1.000000000000000E+20
 30
-1.000000000000000E+20
  9
$LIMMIN
 10
0.0
 20
0.0
  9
$LIMMAX
 10
12.0
 20
9.0
  9
$ORTHOMODE
 70
     0
  9
$REGENMODE
 70
     1
  9
$FILLMODE
 70
     1
  9
$QTEXTMODE
 70
     0
  9
$MIRRTEXT
 70
     1
  9
$LTSCALE
 40
1.0
  9
$ATTMODE
 70
     1
  9
$TEXTSIZE
 40
0.2
  9
$TRACEWID
 40
0.05
  9
$TEXTSTYLE
  7
Standard
  9
$CLAYER
  8
0
  9
$CELTYPE
  6
ByLayer
  9
$CECOLOR
 62
   256
  9
$CELTSCALE
 40
1.0
  9
$DISPSILH
 70
     0
  9
$DIMSCALE
 40
1.0
  9
$DIMASZ
 40
0.18
  9
$DIMEXO
 40
0.0625
  9
$DIMDLI
 40
0.38
  9
$DIMRND
 40
0.0
  9
$DIMDLE
 40
0.0
  9
$DIMEXE
 40
0.18
  9
$DIMTP
 40
0.0
  9
$DIMTM
 40
0.0
  9
$DIMTXT
 40
0.18
  9
$DIMCEN
 40
0.09
  9
$DIMTSZ
 40
0.0
  9
$DIMTOL
 70
     0
  9
$DIMLIM
 70
     0
  9
$DIMTIH
 70
     1
  9
$DIMTOH
 70
     1
  9
$DIMSE1
 70
     0
  9
$DIMSE2
 70
     0
  9
$DIMTAD
 70
     0
  9
$DIMZIN
 70
     0
  9
$DIMBLK
  1

  9
$DIMASO
 70
     1
  9
$DIMSHO
 70
     1
  9
$DIMPOST
  1

  9
$DIMAPOST
  1

  9
$DIMALT
 70
     0
  9
$DIMALTD
 70
     2
  9
$DIMALTF
 40
25.4
  9
$DIMLFAC
 40
1.0
  9
$DIMTOFL
 70
     0
  9
$DIMTVP
 40
0.0
  9
$DIMTIX
 70
     0
  9
$DIMSOXD
 70
     0
  9
$DIMSAH
 70
     0
  9
$DIMBLK1
  1

  9
$DIMBLK2
  1

  9
$DIMSTYLE
  2
Standard
  9
$DIMCLRD
 70
     0
  9
$DIMCLRE
 70
     0
  9
$DIMCLRT
 70
     0
  9
$DIMTFAC
 40
1.0
  9
$DIMGAP
 40
0.09
  9
$DIMJUST
 70
     0
  9
$DIMSD1
 70
     0
  9
$DIMSD2
 70
     0
  9
$DIMTOLJ
 70
     1
  9
$DIMTZIN
 70
     0
  9
$DIMALTZ
 70
     0
  9
$DIMALTTZ
 70
     0
  9
$DIMUPT
 70
     0
  9
$DIMDEC
 70
     4
  9
$DIMTDEC
 70
     4
  9
$DIMALTU
 70
     2
  9
$DIMALTTD
 70
     2
  9
$DIMTXSTY
  7
Standard
  9
$DIMAUNIT
 70
     0
  9
$DIMADEC
 70
     0
  9
$DIMALTRND
 40
0.0
  9
$DIMAZIN
 70
     0
  9
$DIMDSEP
 70
    46
  9
$DIMATFIT
 70
     3
  9
$DIMFRAC
 70
     0
  9
$DIMLDRBLK
  1

  9
$DIMLUNIT
 70
     2
  9
$DIMLWD
 70
    -2
  9
$DIMLWE
 70
    -2
  9
$DIMTMOVE
 70
     0
  9
$DIMFXL
 40
1.0
  9
$DIMFXLON
 70
     0
  9
$DIMJOGANG
 40
0.7853981633974483
  9
$DIMTFILL
 70
     0
  9
$DIMTFILLCLR
 70
     0
  9
$DIMARCSYM
 70
     0
  9
$DIMLTYPE
  6

  9
$DIMLTEX1
  6

  9
$DIMLTEX2
  6

  9
$DIMTXTDIRECTION
 70
     0
  9
$LUNITS
 70
     2
  9
$LUPREC
 70
     4
  9
$SKETCHINC
 40
0.1
  9
$FILLETRAD
 40
0.5
  9
$AUNITS
 70
     0
  9
$AUPREC
 70
     0
  9
$MENU
  1
.
  9
$ELEVATION
 40
0.0
  9
$PELEVATION
 40
0.0
  9
$THICKNESS
 40
0.0
  9
$LIMCHECK
 70
     0
  9
$CHAMFERA
 40
0.5
  9
$CHAMFERB
 40
0.5
  9
$CHAMFERC
 40
1.0
  9
$CHAMFERD
 40
0.0
  9
$SKPOLY
 70
     0
  9
$TDCREATE
 40
2457917.621643519
  9
$TDUCREATE
 40
2457917.246643519
  9
$TDUPDATE
 40
2457917.621643519
  9
$TDUUPDATE
 40
2457917.246643519
  9
$TDINDWG
 40
0.0000000116
  9
$TDUSRTIMER
 40
0.0000000116
  9
$USRTIMER
 70
     1
  9
$ANGBASE
 50
0.0
  9
$ANGDIR
 70
     0
  9
$PDMODE
 70
     0
  9
$PDSIZE
 40
0.0
  9
$PLINEWID
 40
0.0
  9
$SPLFRAME
 70
     0
  9
$SPLINETYPE
 70
     6
  9
$SPLINESEGS
 70
     8
  9
$HANDSEED
  5
90
  9
$SURFTAB1
 70
     6
  9
$SURFTAB2
 70
     6
  9
$SURFTYPE
 70
     6
  9
$SURFU
 70
     6
  9
$SURFV
 70
     6
  9
$UCSBASE
  2

  9
$UCSNAME
  2

  9
$UCSORG
 10
0.0
 20
0.0
 30
0.0
  9
$UCSXDIR
 10
1.0
 20
0.0
 30
0.0
  9
$UCSYDIR
 10
0.0
 20
1.0
 30
0.0
  9
$UCSORTHOREF
  2

  9
$UCSORTHOVIEW
 70
     0
  9
$UCSORGTOP
 10
0.0
 20
0.0
 30
0.0
  9
$UCSORGBOTTOM
 10
0.0
 20
0.0
 30
0.0
  9
$UCSORGLEFT
 10
0.0
 20
0.0
 30
0.0
  9
$UCSORGRIGHT
 10
0.0
 20
0.0
 30
0.0
  9
$UCSORGFRONT
 10
0.0
 20
0.0
 30
0.0
  9
$UCSORGBACK
 10
0.0
 20
0.0
 30
0.0
  9
$PUCSBASE
  2

  9
$PUCSNAME
  2

  9
$PUCSORG
 10
0.0
 20
0.0
 30
0.0
  9
$PUCSXDIR
 10
1.0
 20
0.0
 30
0.0
  9
$PUCSYDIR
 10
0.0
 20
1.0
 30
0.0
  9
$PUCSORTHOREF
  2

  9
$PUCSORTHOVIEW
 70
     0
  9
$PUCSORGTOP
 10
0.0
 20
0.0
 30
0.0
  9
$PUCSORGBOTTOM
 10
0.0
 20
0.0
 30
0.0
  9
$PUCSORGLEFT
 10
0.0
 20
0.0
 30
0.0
  9
$PUCSORGRIGHT
 10
0.0
 20
0.0
 30
0.0
  9
$PUCSORGFRONT
 10
0.0
 20
0.0
 30
0.0
  9
$PUCSORGBACK
 10
0.0
 20
0.0
 30
0.0
  9
$USERI1
 70
     0
  9
$USERI2
 70
     0
  9
$USERI3
 70
     0
  9
$USERI4
 70
     0
  9
$USERI5
 70
     0
  9
$USERR1
 40
0.0
  9
$USERR2
 40
0.0
  9
$USERR3
 40
0.0
  9
$USERR4
 40
0.0
  9
$USERR5
 40
0.0
  9
$WORLDVIEW
 70
     1
  9
$SHADEDGE
 70
     3
  9
$SHADEDIF
 70
    70
  9
$TILEMODE
 70
     1
  9
$MAXACTVP
 70
    64
  9
$PINSBASE
 10
0.0
 20
0.0
 30
0.0
  9
$PLIMCHECK
 70
     0
  9
$PEXTMIN
 10
1.000000000000000E+20
 20
1.000000000000000E+20
 30
1.000000000000000E+20
  9
$PEXTMAX
 10
-1.000000000000000E+20
 20
-1.000000000000000E+20
 30
-1.000000000000000E+20
  9
$PLIMMIN
 10
0.0
 20
0.0
  9
$PLIMMAX
 10
12.0
 20
9.0
  9
$UNITMODE
 70
     0
  9
$VISRETAIN
 70
     1
  9
$PLINEGEN
 70
     0
  9
$PSLTSCALE
 70
     1
  9
$TREEDEPTH
 70
  3020
  9
$CMLSTYLE
  2
Standard
  9
$CMLJUST
 70
     0
  9
$CMLSCALE
 40
1.0
  9
$PROXYGRAPHICS
 70
     1
  9
$MEASUREMENT
 70
     0
  9
$CELWEIGHT
370
    -1
  9
$ENDCAPS
280
     0
  9
$JOINSTYLE
280
     0
  9
$LWDISPLAY
290
     1
  9
$INSUNITS
 70
     1
  9
$HYPERLINKBASE
  1

  9
$STYLESHEET
  1

  9
$XEDIT
290
     1
  9
$CEPSNTYPE
380
     0
  9
$PSTYLEMODE
290
     1
  9
$FINGERPRINTGUID
  2
{FD600D01-BDB5-F62A-F3C3-9CCAFD6EFD64}
  9
$VERSIONGUID
  2
{FAEB1C32-E019-11D5-929B-00C0DF256EC4}
  9
$EXTNAMES
290
     1
  9
$PSVPSCALE
 40
0.0
  9
$OLESTARTUP
290
     0
  9
$SORTENTS
280
   127
  9
$INDEXCTL
280
     0
  9
$HIDETEXT
280
     1
  9
$XCLIPFRAME
280
     2
  9
$HALOGAP
280
     0
  9
$OBSCOLOR
 70
   257
  9
$OBSLTYPE
280
     0
  9
$INTERSECTIONDISPLAY
280
     0
  9
$INTERSECTIONCOLOR
 70
   257
  9
$DIMASSOC
280
     2
  9
$PROJECTNAME
  1

  9
$CAMERADISPLAY
290
     0
  9
$LENSLENGTH
 40
50.0
  9
$CAMERAHEIGHT
 40
0.0
  9
$STEPSPERSEC
 40
2.0
  9
$STEPSIZE
 40
6.0
  9
$3DDWFPREC
 40
2.0
  9
$PSOLWIDTH
 40
0.25
  9
$PSOLHEIGHT
 40
4.0
  9
$LOFTANG1
 40
1.570796326794897
  9
$LOFTANG2
 40
1.570796326794897
  9
$LOFTMAG1
 40
0.0
  9
$LOFTMAG2
 40
0.0
  9
$LOFTPARAM
 70
     7
  9
$LOFTNORMALS
280
     1
  9
$LATITUDE
 40
37.795
  9
$LONGITUDE
 40
-122.394
  9
$NORTHDIRECTION
 40
0.0
  9
$TIMEZONE
 70
 -8000
  9
$LIGHTGLYPHDISPLAY
280
     1
  9
$TILEMODELIGHTSYNCH
280
     1
  9
$CMATERIAL
347
3C
  9
$SOLIDHIST
280
     1
  9
$SHOWHIST
280
     1
  9
$DWFFRAME
280
     2
  9
$DGNFRAME
280
     2
  9
$REALWORLDSCALE
290
     1
  9
$INTERFERECOLOR
 62
   256
  9
$CSHADOW
280
     0
  9
$SHADOWPLANELOCATION
 40
0.0
  0
ENDSEC
  0
SECTION
  2
CLASSES
  0
CLASS
  1
ACDBDICTIONARYWDFLT
  2
AcDbDictionaryWithDefault
  3
ObjectDBX Classes
 90
        0
 91
        4
280
     0
281
     0
  0
CLASS
  1
VISUALSTYLE
  2
AcDbVisualStyle
  3
ObjectDBX Classes
 90
     4095
 91
        4
280
     0
281
     0
  0
CLASS
  1
MATERIAL
  2
AcDbMaterial
  3
ObjectDBX Classes
 90
     1153
 91
        4
280
     0
281
     0
  0
CLASS
  1
SUN
  2
AcDbSun
  3
SCENEOE
 90
     1024
 91
        4
280
     0
281
     0
  0
ENDSEC
  0
SECTION
  2
TABLES
  0
TABLE
  2
VPORT
  5
8
330
0
100
AcDbSymbolTable
 70
     1
  0
VPORT
  5
29
330
8
100
AcDbSymbolTableRecord
100
AcDbViewportTableRecord
  2
*Active
 70
     0
 10
0.0
 20
0.0
 11
1.0
 21
1.0
 12
0.0
 22
0.0
 13
0.0
 23
0.0
 14
0.5
 24
0.5
 15
0.5
 25
0.5
 16
0.0
 26
0.0
 36
1.0
 17
91.00082462281999
 27
-128.4993055234307
 37
0.0
 40
256.9986110468615
 41
0.7081814508812795
 42
50.0
 43
0.0
 44
0.0
 50
0.0
 51
0.0
 71
     0
 72
   100
 73
     1
 74
     3
 75
     0
 76
     0
 77
     0
 78
     0
281
     0
 65
     1
110
0.0
120
0.0
130
0.0
111
1.0
121
0.0
131
0.0
112
0.0
122
1.0
132
0.0
 79
     0
146
0.0
 60
     3
 61
     5
292
     1
282
     1
141
0.0
142
0.0
 63
   250
361
3F
  0
ENDTAB
  0
TABLE
  2
LTYPE
  5
5
330
0
100
AcDbSymbolTable
 70
     1
  0
LTYPE
  5
14
330
5
100
AcDbSymbolTableRecord
100
AcDbLinetypeTableRecord
  2
ByBlock
 70
     0
  3

 72
    65
 73
     0
 40
0.0
  0
LTYPE
  5
15
330
5
100
AcDbSymbolTableRecord
100
AcDbLinetypeTableRecord
  2
ByLayer
 70
     0
  3

 72
    65
 73
     0
 40
0.0
  0
LTYPE
  5
16
330
5
100
AcDbSymbolTableRecord
100
AcDbLinetypeTableRecord
  2
Continuous
 70
     0
  3
Solid line
 72
    65
 73
     0
 40
0.0
  0
ENDTAB
  0
TABLE
  2
LAYER
  5
2
330
0
100
AcDbSymbolTable
 70
     2
  0
LAYER
  5
10
330
2
100
AcDbSymbolTableRecord
100
AcDbLayerTableRecord
  2
0
 70
     0
 62
     7
  6
Continuous
370
    -3
390
F
347
3E
  0
LAYER
  5
40
330
2
100
AcDbSymbolTableRecord
100
AcDbLayerTableRecord
  2
_U+30EC_U+30A4_U+30E4_U+30FC 1
 70
     0
 62
     7
  6
Continuous
370
    -3
390
F
347
3E
  0
ENDTAB
  0
TABLE
  2
STYLE
  5
3
330
0
100
AcDbSymbolTable
 70
     1
  0
STYLE
  5
11
330
3
100
AcDbSymbolTableRecord
100
AcDbTextStyleTableRecord
  2
Standard
 70
     0
 40
0.0
 41
1.0
 50
0.0
 71
     0
 42
0.2
  3
txt
  4

  0
ENDTAB
  0
TABLE
  2
VIEW
  5
6
330
0
100
AcDbSymbolTable
 70
     0
  0
ENDTAB
  0
TABLE
  2
UCS
  5
7
330
0
100
AcDbSymbolTable
 70
     0
  0
ENDTAB
  0
TABLE
  2
APPID
  5
9
330
0
100
AcDbSymbolTable
 70
     1
  0
APPID
  5
12
330
9
100
AcDbSymbolTableRecord
100
AcDbRegAppTableRecord
  2
ACAD
 70
     0
  0
ENDTAB
  0
TABLE
  2
DIMSTYLE
  5
A
330
0
100
AcDbSymbolTable
 70
     1
100
AcDbDimStyleTable
  0
DIMSTYLE
105
27
330
A
100
AcDbSymbolTableRecord
100
AcDbDimStyleTableRecord
  2
Standard
 70
     0
178
     0
340
11
  0
ENDTAB
  0
TABLE
  2
BLOCK_RECORD
  5
1
330
0
100
AcDbSymbolTable
 70
     5
  0
BLOCK_RECORD
  5
1F
330
1
100
AcDbSymbolTableRecord
100
AcDbBlockTableRecord
  2
*Model_Space
340
22
 70
     0
280
     1
281
     0
  0
BLOCK_RECORD
  5
1B
330
1
100
AcDbSymbolTableRecord
100
AcDbBlockTableRecord
  2
*Paper_Space
340
1E
 70
     0
280
     1
281
     0
  0
BLOCK_RECORD
  5
23
330
1
100
AcDbSymbolTableRecord
100
AcDbBlockTableRecord
  2
*Paper_Space0
340
26
 70
     0
280
     1
281
     0
  0
BLOCK_RECORD
  5
56
330
1
100
AcDbSymbolTableRecord
100
AcDbBlockTableRecord
  2
block 2
340
0
102
{BLKREFS
331
57
102
}
 70
     0
280
     1
281
     0
  0
BLOCK_RECORD
  5
5C
330
1
100
AcDbSymbolTableRecord
100
AcDbBlockTableRecord
  2
block 3
340
0
102
{BLKREFS
331
5D
102
}
 70
     0
280
     1
281
     0
  0
BLOCK_RECORD
  5
6C
330
1
100
AcDbSymbolTableRecord
100
AcDbBlockTableRecord
  2
block 4
340
0
102
{BLKREFS
331
6D
102
}
 70
     0
280
     1
281
     0
  0
BLOCK_RECORD
  5
73
330
1
100
AcDbSymbolTableRecord
100
AcDbBlockTableRecord
  2
block 5
340
0
102
{BLKREFS
331
74
102
}
 70
     0
280
     1
281
     0
  0
ENDTAB
  0
ENDSEC
  0
SECTION
  2
BLOCKS
  0
BLOCK
  5
20
330
1F
100
AcDbEntity
  8
0
100
AcDbBlockBegin
  2
*Model_Space
 70
     0
 10
0.0
 20
0.0
 30
0.0
  3
*Model_Space
  1

  0
ENDBLK
  5
21
330
1F
100
AcDbEntity
  8
0
100
AcDbBlockEnd
  0
BLOCK
  5
1C
330
1B
100
AcDbEntity
 67
     1
  8
0
100
AcDbBlockBegin
  2
*Paper_Space
 70
     0
 10
0.0
 20
0.0
 30
0.0
  3
*Paper_Space
  1

  0
ENDBLK
  5
1D
330
1B
100
AcDbEntity
 67
     1
  8
0
100
AcDbBlockEnd
  0
BLOCK
  5
24
330
23
100
AcDbEntity
  8
0
100
AcDbBlockBegin
  2
*Paper_Space0
 70
     0
 10
0.0
 20
0.0
 30
0.0
  3
*Paper_Space0
  1

  0
ENDBLK
  5
25
330
23
100
AcDbEntity
  8
0
100
AcDbBlockEnd
  0
BLOCK
  5
58
330
56
100
AcDbEntity
  8
0
100
AcDbBlockBegin
  2
block 2
 70
     0
 10
0.0
 20
0.0
 30
0.0
  3
block 2
  1

  0
SPLINE
  5
5A
330
56
100
AcDbEntity
  8
_U+30EC_U+30A4_U+30E4_U+30FC 1
370
     0
100
AcDbSpline
210
0.0
220
0.0
230
1.0
 70
    11
 71
     3
 72
    26
 73
    22
 74
     0
 42
0.0000000001
 43
0.0000000001
 12
1.0
 22
0.0
 32
0.0
 13
1.0
 23
0.0
 33
0.0
 40
0.0
 40
0.0
 40
0.0
 40
0.0
 40
1.0
 40
1.0
 40
1.0
 40
2.0
 40
2.0
 40
2.0
 40
3.0
 40
3.0
 40
3.0
 40
4.0
 40
4.0
 40
4.0
 40
5.0
 40
5.0
 40
5.0
 40
6.0
 40
6.0
 40
6.0
 40
7.0
 40
7.0
 40
7.0
 40
7.0
 10
98.34782983652416
 20
-121.8041069573962
 30
0.0
 10
98.34782983652416
 20
-121.8041069573962
 30
0.0
 10
97.24367673350159
 20
-121.8041069573962
 30
0.0
 10
97.24367673350159
 20
-121.8041069573962
 30
0.0
 10
97.24367673350159
 20
-121.8041069573962
 30
0.0
 10
97.24367673350159
 20
-122.1341471048831
 30
0.0
 10
97.24367673350159
 20
-122.1341471048831
 30
0.0
 10
97.24367673350159
 20
-122.1341471048831
 30
0.0
 10
97.09553762763585
 20
-122.1341471048831
 30
0.0
 10
97.09553762763585
 20
-122.1341471048831
 30
0.0
 10
97.08072371704927
 20
-121.8020399001051
 30
0.0
 10
96.91777070059695
 20
-121.7555311110542
 30
0.0
 10
96.80339353048666
 20
-121.725903289881
 30
0.0
 10
96.80339353048666
 20
-121.725903289881
 30
0.0
 10
96.80339353048666
 20
-121.5798312413064
 30
0.0
 10
96.80339353048666
 20
-121.5798312413064
 30
0.0
 10
96.80339353048666
 20
-121.5798312413064
 30
0.0
 10
98.34782983652416
 20
-121.5798312413064
 30
0.0
 10
98.34782983652416
 20
-121.5798312413064
 30
0.0
 10
98.34782983652416
 20
-121.5798312413064
 30
0.0
 10
98.34782983652416
 20
-121.8041069573962
 30
0.0
 10
98.34782983652416
 20
-121.8041069573962
 30
0.0
  0
HATCH
  5
5B
330
56
100
AcDbEntity
  8
_U+30EC_U+30A4_U+30E4_U+30FC 1
 62
   179
420
  2234388
100
AcDbHatch
 10
0.0
 20
0.0
 30
0.0
210
0.0
220
0.0
230
1.0
  2
SOLID
 70
     1
 71
     0
 91
        1
 92
        1
 93
        1
 72
     4
 94
        3
 73
     0
 74
     1
 95
       26
 96
       22
 40
0.0
 40
0.0
 40
0.0
 40
0.0
 40
1.0
 40
1.0
 40
1.0
 40
2.0
 40
2.0
 40
2.0
 40
3.0
 40
3.0
 40
3.0
 40
4.0
 40
4.0
 40
4.0
 40
5.0
 40
5.0
 40
5.0
 40
6.0
 40
6.0
 40
6.0
 40
7.0
 40
7.0
 40
7.0
 40
7.0
 10
98.34782983652416
 20
-121.8041069573962
 10
98.34782983652416
 20
-121.8041069573962
 10
97.24367673350159
 20
-121.8041069573962
 10
97.24367673350159
 20
-121.8041069573962
 10
97.24367673350159
 20
-121.8041069573962
 10
97.24367673350159
 20
-122.1341471048831
 10
97.24367673350159
 20
-122.1341471048831
 10
97.24367673350159
 20
-122.1341471048831
 10
97.09553762763585
 20
-122.1341471048831
 10
97.09553762763585
 20
-122.1341471048831
 10
97.08072371704927
 20
-121.8020399001051
 10
96.91777070059695
 20
-121.7555311110542
 10
96.80339353048666
 20
-121.725903289881
 10
96.80339353048666
 20
-121.725903289881
 10
96.80339353048666
 20
-121.5798312413064
 10
96.80339353048666
 20
-121.5798312413064
 10
96.80339353048666
 20
-121.5798312413064
 10
98.34782983652416
 20
-121.5798312413064
 10
98.34782983652416
 20
-121.5798312413064
 10
98.34782983652416
 20
-121.5798312413064
 10
98.34782983652416
 20
-121.8041069573962
 10
98.34782983652416
 20
-121.8041069573962
 97
        0
 97
        0
 75
     2
 76
     1
 98
        0
  0
ENDBLK
  5
59
330
56
100
AcDbEntity
  8
0
100
AcDbBlockEnd
  0
BLOCK
  5
5E
330
5C
100
AcDbEntity
  8
0
100
AcDbBlockBegin
  2
block 3
 70
     0
 10
0.0
 20
0.0
 30
0.0
  3
block 3
  1

  0
SPLINE
  5
60
330
5C
100
AcDbEntity
  8
_U+30EC_U+30A4_U+30E4_U+30FC 1
370
     0
100
AcDbSpline
210
0.0
220
0.0
230
1.0
 70
    11
 71
     3
 72
    26
 73
    22
 74
     0
 42
0.0000000001
 43
0.0000000001
 12
1.0
 22
0.0
 32
0.0
 13
1.0
 23
0.0
 33
0.0
 40
0.0
 40
0.0
 40
0.0
 40
0.0
 40
1.0
 40
1.0
 40
1.0
 40
2.0
 40
2.0
 40
2.0
 40
3.0
 40
3.0
 40
3.0
 40
4.0
 40
4.0
 40
4.0
 40
5.0
 40
5.0
 40
5.0
 40
6.0
 40
6.0
 40
6.0
 40
7.0
 40
7.0
 40
7.0
 40
7.0
 10
98.4063964597734
 20
-129.5765868816684
 30
0.0
 10
98.4063964597734
 20
-129.5765868816684
 30
0.0
 10
97.30224335675084
 20
-129.5765868816684
 30
0.0
 10
97.30224335675084
 20
-129.5765868816684
 30
0.0
 10
97.30224335675084
 20
-129.5765868816684
 30
0.0
 10
97.30224335675084
 20
-129.9066270291553
 30
0.0
 10
97.30224335675084
 20
-129.9066270291553
 30
0.0
 10
97.30224335675084
 20
-129.9066270291553
 30
0.0
 10
97.15410425088508
 20
-129.9066270291553
 30
0.0
 10
97.15410425088508
 20
-129.9066270291553
 30
0.0
 10
97.13929034029852
 20
-129.5745198243772
 30
0.0
 10
96.9763373238462
 20
-129.5280110353263
 30
0.0
 10
96.86196015373591
 20
-129.4983832141532
 30
0.0
 10
96.86196015373591
 20
-129.4983832141532
 30
0.0
 10
96.86196015373591
 20
-129.3523111655786
 30
0.0
 10
96.86196015373591
 20
-129.3523111655786
 30
0.0
 10
96.86196015373591
 20
-129.3523111655786
 30
0.0
 10
98.4063964597734
 20
-129.3523111655786
 30
0.0
 10
98.4063964597734
 20
-129.3523111655786
 30
0.0
 10
98.4063964597734
 20
-129.3523111655786
 30
0.0
 10
98.4063964597734
 20
-129.5765868816684
 30
0.0
 10
98.4063964597734
 20
-129.5765868816684
 30
0.0
  0
HATCH
  5
61
330
5C
100
AcDbEntity
  8
_U+30EC_U+30A4_U+30E4_U+30FC 1
 62
   179
420
  2234388
100
AcDbHatch
 10
0.0
 20
0.0
 30
0.0
210
0.0
220
0.0
230
1.0
  2
SOLID
 70
     1
 71
     0
 91
        1
 92
        1
 93
        1
 72
     4
 94
        3
 73
     0
 74
     1
 95
       26
 96
       22
 40
0.0
 40
0.0
 40
0.0
 40
0.0
 40
1.0
 40
1.0
 40
1.0
 40
2.0
 40
2.0
 40
2.0
 40
3.0
 40
3.0
 40
3.0
 40
4.0
 40
4.0
 40
4.0
 40
5.0
 40
5.0
 40
5.0
 40
6.0
 40
6.0
 40
6.0
 40
7.0
 40
7.0
 40
7.0
 40
7.0
 10
98.4063964597734
 20
-129.5765868816684
 10
98.4063964597734
 20
-129.5765868816684
 10
97.30224335675084
 20
-129.5765868816684
 10
97.30224335675084
 20
-129.5765868816684
 10
97.30224335675084
 20
-129.5765868816684
 10
97.30224335675084
 20
-129.9066270291553
 10
97.30224335675084
 20
-129.9066270291553
 10
97.30224335675084
 20
-129.9066270291553
 10
97.15410425088508
 20
-129.9066270291553
 10
97.15410425088508
 20
-129.9066270291553
 10
97.13929034029852
 20
-129.5745198243772
 10
96.9763373238462
 20
-129.5280110353263
 10
96.86196015373591
 20
-129.4983832141532
 10
96.86196015373591
 20
-129.4983832141532
 10
96.86196015373591
 20
-129.3523111655786
 10
96.86196015373591
 20
-129.3523111655786
 10
96.86196015373591
 20
-129.3523111655786
 10
98.4063964597734
 20
-129.3523111655786
 10
98.4063964597734
 20
-129.3523111655786
 10
98.4063964597734
 20
-129.3523111655786
 10
98.4063964597734
 20
-129.5765868816684
 10
98.4063964597734
 20
-129.5765868816684
 97
        0
 97
        0
 75
     2
 76
     1
 98
        0
  0
SPLINE
  5
62
330
5C
100
AcDbEntity
  8
_U+30EC_U+30A4_U+30E4_U+30FC 1
370
     0
100
AcDbSpline
210
0.0
220
0.0
230
1.0
 70
    11
 71
     3
 72
    62
 73
    58
 74
     0
 42
0.0000000001
 43
0.0000000001
 12
1.0
 22
0.0
 32
0.0
 13
1.0
 23
0.0
 33
0.0
 40
0.0
 40
0.0
 40
0.0
 40
0.0
 40
1.0
 40
1.0
 40
1.0
 40
2.0
 40
2.0
 40
2.0
 40
3.0
 40
3.0
 40
3.0
 40
4.0
 40
4.0
 40
4.0
 40
5.0
 40
5.0
 40
5.0
 40
6.0
 40
6.0
 40
6.0
 40
7.0
 40
7.0
 40
7.0
 40
8.0
 40
8.0
 40
8.0
 40
9.0
 40
9.0
 40
9.0
 40
10.0
 40
10.0
 40
10.0
 40
11.0
 40
11.0
 40
11.0
 40
12.0
 40
12.0
 40
12.0
 40
13.0
 40
13.0
 40
13.0
 40
14.0
 40
14.0
 40
14.0
 40
15.0
 40
15.0
 40
15.0
 40
16.0
 40
16.0
 40
16.0
 40
17.0
 40
17.0
 40
17.0
 40
18.0
 40
18.0
 40
18.0
 40
19.0
 40
19.0
 40
19.0
 40
19.0
 10
98.45703936340658
 20
-128.3596069015039
 30
0.0
 10
98.45703936340658
 20
-128.4546915368967
 30
0.0
 10
98.43602428094655
 20
-128.6725938263388
 30
0.0
 10
98.24998912474307
 20
-128.7976507924534
 30
0.0
 10
98.13767901192392
 20
-128.8713758358377
 30
0.0
 10
98.03846026194873
 20
-128.8758544599685
 30
0.0
 10
97.95371091301158
 20
-128.8799885745509
 30
0.0
 10
97.95371091301158
 20
-128.8799885745509
 30
0.0
 10
97.95371091301158
 20
-128.6600192278176
 30
0.0
 10
97.95371091301158
 20
-128.6600192278176
 30
0.0
 10
98.02778046594445
 20
-128.6577799157522
 30
0.0
 10
98.26239146848997
 20
-128.6472723745222
 30
0.0
 10
98.26239146848997
 20
-128.3637410160862
 30
0.0
 10
98.26239146848997
 20
-128.2262817062247
 30
0.0
 10
98.19280053968791
 20
-128.0740084857766
 30
0.0
 10
97.96439070901585
 20
-128.0740084857766
 30
0.0
 10
97.8479464816144
 20
-128.0740084857766
 30
0.0
 10
97.79937063527238
 20
-128.1120767908887
 30
0.0
 10
97.76767575680809
 20
-128.143771669353
 30
0.0
 10
97.69360620387522
 20
-128.2178412222858
 30
0.0
 10
97.6808593505798
 20
-128.334113194913
 30
0.0
 10
97.6808593505798
 20
-128.389234722677
 30
0.0
 10
97.6808593505798
 20
-128.4081827478459
 30
0.0
 10
97.68292640787094
 20
-128.4441839956667
 30
0.0
 10
97.68706052245324
 20
-128.4717447595487
 30
0.0
 10
97.68706052245324
 20
-128.4717447595487
 30
0.0
 10
97.49241262753662
 20
-128.4717447595487
 30
0.0
 10
97.49241262753662
 20
-128.4717447595487
 30
0.0
 10
97.49895830895859
 20
-128.4336764544367
 30
0.0
 10
97.50102536624975
 20
-128.3913017799682
 30
0.0
 10
97.50102536624975
 20
-128.3849283533204
 30
0.0
 10
97.50102536624975
 20
-128.3192992843264
 30
0.0
 10
97.4796657742412
 20
-128.1205172748275
 30
0.0
 10
97.24298771440453
 20
-128.1205172748275
 30
0.0
 10
97.06522078736565
 20
-128.1205172748275
 30
0.0
 10
97.01009925960165
 20
-128.2516031580413
 30
0.0
 10
97.01009925960165
 20
-128.361673958795
 30
0.0
 10
97.01009925960165
 20
-128.6260850372879
 30
0.0
 10
97.24298771440453
 20
-128.6345255212268
 30
0.0
 10
97.31464570049773
 20
-128.6388318905834
 30
0.0
 10
97.31464570049773
 20
-128.6388318905834
 30
0.0
 10
97.31464570049773
 20
-128.8417480146646
 30
0.0
 10
97.31464570049773
 20
-128.8417480146646
 30
0.0
 10
97.18993324393169
 20
-128.8334797855
 30
0.0
 10
96.81338430739387
 20
-128.805919021618
 30
0.0
 10
96.81338430739387
 20
-128.3489271054996
 30
0.0
 10
96.81338430739387
 20
-128.1248236441841
 30
0.0
 10
96.9405083307996
 20
-127.8836669602166
 30
0.0
 10
97.23644203298257
 20
-127.8836669602166
 30
0.0
 10
97.42282169873458
 20
-127.8836669602166
 30
0.0
 10
97.50515948083205
 20
-127.9787515956095
 30
0.0
 10
97.56648218046949
 20
-128.0781426003589
 30
0.0
 10
97.5940429443515
 20
-128.0168199007215
 30
0.0
 10
97.67431366915781
 20
-127.8349188591003
 30
0.0
 10
97.95164385572043
 20
-127.8349188591003
 30
0.0
 10
98.28995223237196
 20
-127.8349188591003
 30
0.0
 10
98.45703936340658
 20
-128.0824489697155
 30
0.0
 10
98.45703936340658
 20
-128.3596069015039
 30
0.0
  0
HATCH
  5
63
330
5C
100
AcDbEntity
  8
_U+30EC_U+30A4_U+30E4_U+30FC 1
 62
   179
420
  2234388
100
AcDbHatch
 10
0.0
 20
0.0
 30
0.0
210
0.0
220
0.0
230
1.0
  2
SOLID
 70
     1
 71
     0
 91
        1
 92
        1
 93
        1
 72
     4
 94
        3
 73
     0
 74
     1
 95
       62
 96
       58
 40
0.0
 40
0.0
 40
0.0
 40
0.0
 40
1.0
 40
1.0
 40
1.0
 40
2.0
 40
2.0
 40
2.0
 40
3.0
 40
3.0
 40
3.0
 40
4.0
 40
4.0
 40
4.0
 40
5.0
 40
5.0
 40
5.0
 40
6.0
 40
6.0
 40
6.0
 40
7.0
 40
7.0
 40
7.0
 40
8.0
 40
8.0
 40
8.0
 40
9.0
 40
9.0
 40
9.0
 40
10.0
 40
10.0
 40
10.0
 40
11.0
 40
11.0
 40
11.0
 40
12.0
 40
12.0
 40
12.0
 40
13.0
 40
13.0
 40
13.0
 40
14.0
 40
14.0
 40
14.0
 40
15.0
 40
15.0
 40
15.0
 40
16.0
 40
16.0
 40
16.0
 40
17.0
 40
17.0
 40
17.0
 40
18.0
 40
18.0
 40
18.0
 40
19.0
 40
19.0
 40
19.0
 40
19.0
 10
98.45703936340658
 20
-128.3596069015039
 10
98.45703936340658
 20
-128.4546915368967
 10
98.43602428094655
 20
-128.6725938263388
 10
98.24998912474307
 20
-128.7976507924534
 10
98.13767901192392
 20
-128.8713758358377
 10
98.03846026194873
 20
-128.8758544599685
 10
97.95371091301158
 20
-128.8799885745509
 10
97.95371091301158
 20
-128.8799885745509
 10
97.95371091301158
 20
-128.6600192278176
 10
97.95371091301158
 20
-128.6600192278176
 10
98.02778046594445
 20
-128.6577799157522
 10
98.26239146848997
 20
-128.6472723745222
 10
98.26239146848997
 20
-128.3637410160862
 10
98.26239146848997
 20
-128.2262817062247
 10
98.19280053968791
 20
-128.0740084857766
 10
97.96439070901585
 20
-128.0740084857766
 10
97.8479464816144
 20
-128.0740084857766
 10
97.79937063527238
 20
-128.1120767908887
 10
97.76767575680809
 20
-128.143771669353
 10
97.69360620387522
 20
-128.2178412222858
 10
97.6808593505798
 20
-128.334113194913
 10
97.6808593505798
 20
-128.389234722677
 10
97.6808593505798
 20
-128.4081827478459
 10
97.68292640787094
 20
-128.4441839956667
 10
97.68706052245324
 20
-128.4717447595487
 10
97.68706052245324
 20
-128.4717447595487
 10
97.49241262753662
 20
-128.4717447595487
 10
97.49241262753662
 20
-128.4717447595487
 10
97.49895830895859
 20
-128.4336764544367
 10
97.50102536624975
 20
-128.3913017799682
 10
97.50102536624975
 20
-128.3849283533204
 10
97.50102536624975
 20
-128.3192992843264
 10
97.4796657742412
 20
-128.1205172748275
 10
97.24298771440453
 20
-128.1205172748275
 10
97.06522078736565
 20
-128.1205172748275
 10
97.01009925960165
 20
-128.2516031580413
 10
97.01009925960165
 20
-128.361673958795
 10
97.01009925960165
 20
-128.6260850372879
 10
97.24298771440453
 20
-128.6345255212268
 10
97.31464570049773
 20
-128.6388318905834
 10
97.31464570049773
 20
-128.6388318905834
 10
97.31464570049773
 20
-128.8417480146646
 10
97.31464570049773
 20
-128.8417480146646
 10
97.18993324393169
 20
-128.8334797855
 10
96.81338430739387
 20
-128.805919021618
 10
96.81338430739387
 20
-128.3489271054996
 10
96.81338430739387
 20
-128.1248236441841
 10
96.9405083307996
 20
-127.8836669602166
 10
97.23644203298257
 20
-127.8836669602166
 10
97.42282169873458
 20
-127.8836669602166
 10
97.50515948083205
 20
-127.9787515956095
 10
97.56648218046949
 20
-128.0781426003589
 10
97.5940429443515
 20
-128.0168199007215
 10
97.67431366915781
 20
-127.8349188591003
 10
97.95164385572043
 20
-127.8349188591003
 10
98.28995223237196
 20
-127.8349188591003
 10
98.45703936340658
 20
-128.0824489697155
 10
98.45703936340658
 20
-128.3596069015039
 97
        0
 97
        0
 75
     2
 76
     1
 98
        0
  0
ENDBLK
  5
5F
330
5C
100
AcDbEntity
  8
0
100
AcDbBlockEnd
  0
BLOCK
  5
6E
330
6C
100
AcDbEntity
  8
0
100
AcDbBlockBegin
  2
block 4
 70
     0
 10
0.0
 20
0.0
 30
0.0
  3
block 4
  1

  0
SPLINE
  5
70
330
6C
100
AcDbEntity
  8
_U+30EC_U+30A4_U+30E4_U+30FC 1
370
     0
100
AcDbSpline
210
0.0
220
0.0
230
1.0
 70
    11
 71
     3
 72
    32
 73
    28
 74
     0
 42
0.0000000001
 43
0.0000000001
 12
1.0
 22
0.0
 32
0.0
 13
1.0
 23
0.0
 33
0.0
 40
0.0
 40
0.0
 40
0.0
 40
0.0
 40
1.0
 40
1.0
 40
1.0
 40
2.0
 40
2.0
 40
2.0
 40
3.0
 40
3.0
 40
3.0
 40
4.0
 40
4.0
 40
4.0
 40
5.0
 40
5.0
 40
5.0
 40
6.0
 40
6.0
 40
6.0
 40
7.0
 40
7.0
 40
7.0
 40
8.0
 40
8.0
 40
8.0
 40
9.0
 40
9.0
 40
9.0
 40
9.0
 10
87.22465004329801
 20
-117.0316161816796
 30
0.0
 10
87.05136174038994
 20
-117.0316161816796
 30
0.0
 10
86.80572643229162
 20
-116.9620252528776
 30
0.0
 10
86.76783038195389
 20
-116.6299180480995
 30
0.0
 10
86.76783038195389
 20
-116.6299180480995
 30
0.0
 10
86.98142630203937
 20
-116.6299180480995
 30
0.0
 10
86.98142630203937
 20
-116.6299180480995
 30
0.0
 10
86.99210609804365
 20
-116.6891736904458
 30
0.0
 10
87.02380097650794
 20
-116.836968286763
 30
0.0
 10
87.22671710058916
 20
-116.836968286763
 30
0.0
 10
87.51886119773835
 20
-116.836968286763
 30
0.0
 10
87.5567572480761
 20
-116.5069281392761
 30
0.0
 10
87.56950410137152
 20
-116.3019449579037
 30
0.0
 10
87.47855358056093
 20
-116.38221568271
 30
0.0
 10
87.41102970905003
 20
-116.4394042677652
 30
0.0
 10
87.22912866742884
 20
-116.4394042677652
 30
0.0
 10
87.0492946830988
 20
-116.4394042677652
 30
0.0
 10
86.74681529949386
 20
-116.333639836368
 30
0.0
 10
86.74681529949386
 20
-115.927463078657
 30
0.0
 10
86.74681529949386
 20
-115.6079304724001
 30
0.0
 10
86.94559730899277
 20
-115.3879611256669
 30
0.0
 10
87.26289060318427
 20
-115.3879611256669
 30
0.0
 10
87.77689884958356
 20
-115.3879611256669
 30
0.0
 10
87.78757864558783
 20
-115.9422769892436
 30
0.0
 10
87.78757864558783
 20
-116.1558729093291
 30
0.0
 10
87.78757864558783
 20
-116.3863497972923
 30
0.0
 10
87.76828611087043
 20
-117.0316161816796
 30
0.0
 10
87.22465004329801
 20
-117.0316161816796
 30
0.0
  0
SPLINE
  5
71
330
6C
100
AcDbEntity
  8
_U+30EC_U+30A4_U+30E4_U+30FC 1
370
     0
100
AcDbSpline
210
0.0
220
0.0
230
1.0
 70
    11
 71
     3
 72
    17
 73
    13
 74
     0
 42
0.0000000001
 43
0.0000000001
 12
1.0
 22
0.0
 32
0.0
 13
1.0
 23
0.0
 33
0.0
 40
0.0
 40
0.0
 40
0.0
 40
0.0
 40
1.0
 40
1.0
 40
1.0
 40
2.0
 40
2.0
 40
2.0
 40
3.0
 40
3.0
 40
3.0
 40
4.0
 40
4.0
 40
4.0
 40
4.0
 10
87.26495766047543
 20
-115.5805419632924
 30
0.0
 10
87.14644637578283
 20
-115.5805419632924
 30
0.0
 10
86.9707465060351
 20
-115.6375582935732
 30
0.0
 10
86.9707465060351
 20
-115.9231567093005
 30
0.0
 10
86.9707465060351
 20
-116.1494994826814
 30
0.0
 10
87.11061738273624
 20
-116.2447563728485
 30
0.0
 10
87.24600963530656
 20
-116.2447563728485
 30
0.0
 10
87.50818140173406
 20
-116.2447563728485
 30
0.0
 10
87.54642196162034
 20
-116.0352945673453
 30
0.0
 10
87.54642196162034
 20
-115.9190225947182
 30
0.0
 10
87.54642196162034
 20
-115.7433227249704
 30
0.0
 10
87.45099281667892
 20
-115.5805419632924
 30
0.0
 10
87.26495766047543
 20
-115.5805419632924
 30
0.0
  0
HATCH
  5
72
330
6C
100
AcDbEntity
  8
_U+30EC_U+30A4_U+30E4_U+30FC 1
 62
   179
420
  2234388
100
AcDbHatch
 10
0.0
 20
0.0
 30
0.0
210
0.0
220
0.0
230
1.0
  2
SOLID
 70
     1
 71
     0
 91
        2
 92
        1
 93
        1
 72
     4
 94
        3
 73
     0
 74
     1
 95
       32
 96
       28
 40
0.0
 40
0.0
 40
0.0
 40
0.0
 40
1.0
 40
1.0
 40
1.0
 40
2.0
 40
2.0
 40
2.0
 40
3.0
 40
3.0
 40
3.0
 40
4.0
 40
4.0
 40
4.0
 40
5.0
 40
5.0
 40
5.0
 40
6.0
 40
6.0
 40
6.0
 40
7.0
 40
7.0
 40
7.0
 40
8.0
 40
8.0
 40
8.0
 40
9.0
 40
9.0
 40
9.0
 40
9.0
 10
87.22465004329801
 20
-117.0316161816796
 10
87.05136174038994
 20
-117.0316161816796
 10
86.80572643229162
 20
-116.9620252528776
 10
86.76783038195389
 20
-116.6299180480995
 10
86.76783038195389
 20
-116.6299180480995
 10
86.98142630203937
 20
-116.6299180480995
 10
86.98142630203937
 20
-116.6299180480995
 10
86.99210609804365
 20
-116.6891736904458
 10
87.02380097650794
 20
-116.836968286763
 10
87.22671710058916
 20
-116.836968286763
 10
87.51886119773835
 20
-116.836968286763
 10
87.5567572480761
 20
-116.5069281392761
 10
87.56950410137152
 20
-116.3019449579037
 10
87.47855358056093
 20
-116.38221568271
 10
87.41102970905003
 20
-116.4394042677652
 10
87.22912866742884
 20
-116.4394042677652
 10
87.0492946830988
 20
-116.4394042677652
 10
86.74681529949386
 20
-116.333639836368
 10
86.74681529949386
 20
-115.927463078657
 10
86.74681529949386
 20
-115.6079304724001
 10
86.94559730899277
 20
-115.3879611256669
 10
87.26289060318427
 20
-115.3879611256669
 10
87.77689884958356
 20
-115.3879611256669
 10
87.78757864558783
 20
-115.9422769892436
 10
87.78757864558783
 20
-116.1558729093291
 10
87.78757864558783
 20
-116.3863497972923
 10
87.76828611087043
 20
-117.0316161816796
 10
87.22465004329801
 20
-117.0316161816796
 97
        0
 97
        0
 92
        1
 93
        1
 72
     4
 94
        3
 73
     0
 74
     1
 95
       17
 96
       13
 40
0.0
 40
0.0
 40
0.0
 40
0.0
 40
1.0
 40
1.0
 40
1.0
 40
2.0
 40
2.0
 40
2.0
 40
3.0
 40
3.0
 40
3.0
 40
4.0
 40
4.0
 40
4.0
 40
4.0
 10
87.26495766047543
 20
-115.5805419632924
 10
87.14644637578283
 20
-115.5805419632924
 10
86.9707465060351
 20
-115.6375582935732
 10
86.9707465060351
 20
-115.9231567093005
 10
86.9707465060351
 20
-116.1494994826814
 10
87.11061738273624
 20
-116.2447563728485
 10
87.24600963530656
 20
-116.2447563728485
 10
87.50818140173406
 20
-116.2447563728485
 10
87.54642196162034
 20
-116.0352945673453
 10
87.54642196162034
 20
-115.9190225947182
 10
87.54642196162034
 20
-115.7433227249704
 10
87.45099281667892
 20
-115.5805419632924
 10
87.26495766047543
 20
-115.5805419632924
 97
        0
 97
        0
 75
     2
 76
     1
 98
        0
  0
ENDBLK
  5
6F
330
6C
100
AcDbEntity
  8
0
100
AcDbBlockEnd
  0
BLOCK
  5
75
330
73
100
AcDbEntity
  8
0
100
AcDbBlockBegin
  2
block 5
 70
     0
 10
0.0
 20
0.0
 30
0.0
  3
block 5
  1

  0
SPLINE
  5
77
330
73
100
AcDbEntity
  8
_U+30EC_U+30A4_U+30E4_U+30FC 1
370
     0
100
AcDbSpline
210
0.0
220
0.0
230
1.0
 70
    11
 71
     3
 72
    32
 73
    28
 74
     0
 42
0.0000000001
 43
0.0000000001
 12
1.0
 22
0.0
 32
0.0
 13
1.0
 23
0.0
 33
0.0
 40
0.0
 40
0.0
 40
0.0
 40
0.0
 40
1.0
 40
1.0
 40
1.0
 40
2.0
 40
2.0
 40
2.0
 40
3.0
 40
3.0
 40
3.0
 40
4.0
 40
4.0
 40
4.0
 40
5.0
 40
5.0
 40
5.0
 40
6.0
 40
6.0
 40
6.0
 40
7.0
 40
7.0
 40
7.0
 40
8.0
 40
8.0
 40
8.0
 40
9.0
 40
9.0
 40
9.0
 40
9.0
 10
87.22465004329801
 20
-141.3787949950373
 30
0.0
 10
87.05136174038994
 20
-141.3787949950373
 30
0.0
 10
86.80572643229162
 20
-141.3092040662352
 30
0.0
 10
86.76783038195389
 20
-140.9770968614571
 30
0.0
 10
86.76783038195389
 20
-140.9770968614571
 30
0.0
 10
86.98142630203937
 20
-140.9770968614571
 30
0.0
 10
86.98142630203937
 20
-140.9770968614571
 30
0.0
 10
86.99210609804365
 20
-141.0363525038034
 30
0.0
 10
87.02380097650794
 20
-141.1841471001206
 30
0.0
 10
87.22671710058916
 20
-141.1841471001206
 30
0.0
 10
87.51886119773835
 20
-141.1841471001206
 30
0.0
 10
87.5567572480761
 20
-140.8541069526337
 30
0.0
 10
87.56950410137152
 20
-140.6491237712613
 30
0.0
 10
87.47855358056093
 20
-140.7293944960677
 30
0.0
 10
87.41102970905003
 20
-140.7865830811228
 30
0.0
 10
87.22912866742884
 20
-140.7865830811228
 30
0.0
 10
87.0492946830988
 20
-140.7865830811228
 30
0.0
 10
86.74681529949386
 20
-140.6808186497256
 30
0.0
 10
86.74681529949386
 20
-140.2746418920147
 30
0.0
 10
86.74681529949386
 20
-139.9549370309835
 30
0.0
 10
86.94559730899277
 20
-139.7351399390245
 30
0.0
 10
87.26289060318427
 20
-139.7351399390245
 30
0.0
 10
87.77689884958356
 20
-139.7351399390245
 30
0.0
 10
87.78757864558783
 20
-140.2894558026013
 30
0.0
 10
87.78757864558783
 20
-140.5030517226867
 30
0.0
 10
87.78757864558783
 20
-140.73352861065
 30
0.0
 10
87.76828611087043
 20
-141.3787949950373
 30
0.0
 10
87.22465004329801
 20
-141.3787949950373
 30
0.0
  0
SPLINE
  5
78
330
73
100
AcDbEntity
  8
_U+30EC_U+30A4_U+30E4_U+30FC 1
370
     0
100
AcDbSpline
210
0.0
220
0.0
230
1.0
 70
    11
 71
     3
 72
    17
 73
    13
 74
     0
 42
0.0000000001
 43
0.0000000001
 12
1.0
 22
0.0
 32
0.0
 13
1.0
 23
0.0
 33
0.0
 40
0.0
 40
0.0
 40
0.0
 40
0.0
 40
1.0
 40
1.0
 40
1.0
 40
2.0
 40
2.0
 40
2.0
 40
3.0
 40
3.0
 40
3.0
 40
4.0
 40
4.0
 40
4.0
 40
4.0
 10
87.26495766047543
 20
-139.92772077665
 30
0.0
 10
87.14644637578283
 20
-139.92772077665
 30
0.0
 10
86.9707465060351
 20
-139.9845648521566
 30
0.0
 10
86.9707465060351
 20
-140.2705077774324
 30
0.0
 10
86.9707465060351
 20
-140.4965060412648
 30
0.0
 10
87.11061738273624
 20
-140.5919351862062
 30
0.0
 10
87.24600963530656
 20
-140.5919351862062
 30
0.0
 10
87.50818140173406
 20
-140.5919351862062
 30
0.0
 10
87.54642196162034
 20
-140.382473380703
 30
0.0
 10
87.54642196162034
 20
-140.2663736628501
 30
0.0
 10
87.54642196162034
 20
-140.0906737931023
 30
0.0
 10
87.45099281667892
 20
-139.92772077665
 30
0.0
 10
87.26495766047543
 20
-139.92772077665
 30
0.0
  0
HATCH
  5
79
330
73
100
AcDbEntity
  8
_U+30EC_U+30A4_U+30E4_U+30FC 1
 62
   179
420
  2234388
100
AcDbHatch
 10
0.0
 20
0.0
 30
0.0
210
0.0
220
0.0
230
1.0
  2
SOLID
 70
     1
 71
     0
 91
        2
 92
        1
 93
        1
 72
     4
 94
        3
 73
     0
 74
     1
 95
       32
 96
       28
 40
0.0
 40
0.0
 40
0.0
 40
0.0
 40
1.0
 40
1.0
 40
1.0
 40
2.0
 40
2.0
 40
2.0
 40
3.0
 40
3.0
 40
3.0
 40
4.0
 40
4.0
 40
4.0
 40
5.0
 40
5.0
 40
5.0
 40
6.0
 40
6.0
 40
6.0
 40
7.0
 40
7.0
 40
7.0
 40
8.0
 40
8.0
 40
8.0
 40
9.0
 40
9.0
 40
9.0
 40
9.0
 10
87.22465004329801
 20
-141.3787949950373
 10
87.05136174038994
 20
-141.3787949950373
 10
86.80572643229162
 20
-141.3092040662352
 10
86.76783038195389
 20
-140.9770968614571
 10
86.76783038195389
 20
-140.9770968614571
 10
86.98142630203937
 20
-140.9770968614571
 10
86.98142630203937
 20
-140.9770968614571
 10
86.99210609804365
 20
-141.0363525038034
 10
87.02380097650794
 20
-141.1841471001206
 10
87.22671710058916
 20
-141.1841471001206
 10
87.51886119773835
 20
-141.1841471001206
 10
87.5567572480761
 20
-140.8541069526337
 10
87.56950410137152
 20
-140.6491237712613
 10
87.47855358056093
 20
-140.7293944960677
 10
87.41102970905003
 20
-140.7865830811228
 10
87.22912866742884
 20
-140.7865830811228
 10
87.0492946830988
 20
-140.7865830811228
 10
86.74681529949386
 20
-140.6808186497256
 10
86.74681529949386
 20
-140.2746418920147
 10
86.74681529949386
 20
-139.9549370309835
 10
86.94559730899277
 20
-139.7351399390245
 10
87.26289060318427
 20
-139.7351399390245
 10
87.77689884958356
 20
-139.7351399390245
 10
87.78757864558783
 20
-140.2894558026013
 10
87.78757864558783
 20
-140.5030517226867
 10
87.78757864558783
 20
-140.73352861065
 10
87.76828611087043
 20
-141.3787949950373
 10
87.22465004329801
 20
-141.3787949950373
 97
        0
 97
        0
 92
        1
 93
        1
 72
     4
 94
        3
 73
     0
 74
     1
 95
       17
 96
       13
 40
0.0
 40
0.0
 40
0.0
 40
0.0
 40
1.0
 40
1.0
 40
1.0
 40
2.0
 40
2.0
 40
2.0
 40
3.0
 40
3.0
 40
3.0
 40
4.0
 40
4.0
 40
4.0
 40
4.0
 10
87.26495766047543
 20
-139.92772077665
 10
87.14644637578283
 20
-139.92772077665
 10
86.9707465060351
 20
-139.9845648521566
 10
86.9707465060351
 20
-140.2705077774324
 10
86.9707465060351
 20
-140.4965060412648
 10
87.11061738273624
 20
-140.5919351862062
 10
87.24600963530656
 20
-140.5919351862062
 10
87.50818140173406
 20
-140.5919351862062
 10
87.54642196162034
 20
-140.382473380703
 10
87.54642196162034
 20
-140.2663736628501
 10
87.54642196162034
 20
-140.0906737931023
 10
87.45099281667892
 20
-139.92772077665
 10
87.26495766047543
 20
-139.92772077665
 97
        0
 97
        0
 75
     2
 76
     1
 98
        0
  0
ENDBLK
  5
76
330
73
100
AcDbEntity
  8
0
100
AcDbBlockEnd
  0
ENDSEC
  0
SECTION
  2
ENTITIES
  0
SPLINE
  5
41
330
1F
100
AcDbEntity
  8
_U+30EC_U+30A4_U+30E4_U+30FC 1
 62
   179
420
  2234388
370
     9
100
AcDbSpline
210
0.0
220
0.0
230
1.0
 70
    11
 71
     3
 72
    17
 73
    13
 74
     0
 42
0.0000000001
 43
0.0000000001
 12
1.0
 22
0.0
 32
0.0
 13
1.0
 23
0.0
 33
0.0
 40
0.0
 40
0.0
 40
0.0
 40
0.0
 40
1.0
 40
1.0
 40
1.0
 40
2.0
 40
2.0
 40
2.0
 40
3.0
 40
3.0
 40
3.0
 40
4.0
 40
4.0
 40
4.0
 40
4.0
 10
91.93893126555356
 20
-118.2818380259849
 30
0.0
 10
91.93893126555356
 20
-118.22673413711
 30
0.0
 10
91.8941284889188
 20
-118.1819313593433
 30
0.0
 10
91.83902460143572
 20
-118.1819313593433
 30
0.0
 10
91.78388543617578
 20
-118.1819313593433
 30
0.0
 10
91.7391179373179
 20
-118.22673413711
 30
0.0
 10
91.7391179373179
 20
-118.2818380259849
 30
0.0
 10
91.7391179373179
 20
-118.336977192638
 30
0.0
 10
91.78388543617578
 20
-118.3817446926269
 30
0.0
 10
91.83902460143572
 20
-118.3817446926269
 30
0.0
 10
91.8941284889188
 20
-118.3817446926269
 30
0.0
 10
91.93893126555356
 20
-118.336977192638
 30
0.0
 10
91.93893126555356
 20
-118.2818380259849
 30
0.0
  0
SPLINE
  5
42
330
1F
100
AcDbEntity
  8
_U+30EC_U+30A4_U+30E4_U+30FC 1
 62
   179
420
  2234388
370
     9
100
AcDbSpline
210
0.0
220
0.0
230
1.0
 70
    11
 71
     3
 72
    17
 73
    13
 74
     0
 42
0.0000000001
 43
0.0000000001
 12
1.0
 22
0.0
 32
0.0
 13
1.0
 23
0.0
 33
0.0
 40
0.0
 40
0.0
 40
0.0
 40
0.0
 40
1.0
 40
1.0
 40
1.0
 40
2.0
 40
2.0
 40
2.0
 40
3.0
 40
3.0
 40
3.0
 40
4.0
 40
4.0
 40
4.0
 40
4.0
 10
82.9382651062908
 20
-118.2818380259849
 30
0.0
 10
82.9382651062908
 20
-118.22673413711
 30
0.0
 10
82.89346232965603
 20
-118.1819313593433
 30
0.0
 10
82.83835844217296
 20
-118.1819313593433
 30
0.0
 10
82.78321927691302
 20
-118.1819313593433
 30
0.0
 10
82.73845177805512
 20
-118.22673413711
 30
0.0
 10
82.73845177805512
 20
-118.2818380259849
 30
0.0
 10
82.73845177805512
 20
-118.336977192638
 30
0.0
 10
82.78321927691302
 20
-118.3817446926269
 30
0.0
 10
82.83835844217296
 20
-118.3817446926269
 30
0.0
 10
82.89346232965603
 20
-118.3817446926269
 30
0.0
 10
82.9382651062908
 20
-118.336977192638
 30
0.0
 10
82.9382651062908
 20
-118.2818380259849
 30
0.0
  0
SPLINE
  5
43
330
1F
100
AcDbEntity
  8
_U+30EC_U+30A4_U+30E4_U+30FC 1
 62
   179
420
  2234388
370
     9
100
AcDbSpline
210
0.0
220
0.0
230
1.0
 70
    11
 71
     3
 72
    17
 73
    13
 74
     0
 42
0.0000000001
 43
0.0000000001
 12
1.0
 22
0.0
 32
0.0
 13
1.0
 23
0.0
 33
0.0
 40
0.0
 40
0.0
 40
0.0
 40
0.0
 40
1.0
 40
1.0
 40
1.0
 40
2.0
 40
2.0
 40
2.0
 40
3.0
 40
3.0
 40
3.0
 40
4.0
 40
4.0
 40
4.0
 40
4.0
 10
94.78076785971894
 20
-122.2443791361057
 30
0.0
 10
94.78076785971894
 20
-122.1885696916753
 30
0.0
 10
94.73600275409366
 20
-122.1444724694641
 30
0.0
 10
94.68086119560111
 20
-122.1444724694641
 30
0.0
 10
94.62575730811803
 20
-122.1444724694641
 30
0.0
 10
94.58095453148327
 20
-122.1885696916753
 30
0.0
 10
94.58095453148327
 20
-122.2443791361057
 30
0.0
 10
94.58095453148327
 20
-122.2995183027585
 30
0.0
 10
94.62575730811803
 20
-122.3442858027473
 30
0.0
 10
94.68086119560111
 20
-122.3442858027473
 30
0.0
 10
94.73600275409366
 20
-122.3442858027473
 30
0.0
 10
94.78076785971894
 20
-122.2995183027585
 30
0.0
 10
94.78076785971894
 20
-122.2443791361057
 30
0.0
  0
SPLINE
  5
44
330
1F
100
AcDbEntity
  8
_U+30EC_U+30A4_U+30E4_U+30FC 1
 62
   179
420
  2234388
370
     9
100
AcDbSpline
210
0.0
220
0.0
230
1.0
 70
    11
 71
     3
 72
    17
 73
    13
 74
     0
 42
0.0000000001
 43
0.0000000001
 12
1.0
 22
0.0
 32
0.0
 13
1.0
 23
0.0
 33
0.0
 40
0.0
 40
0.0
 40
0.0
 40
0.0
 40
1.0
 40
1.0
 40
1.0
 40
2.0
 40
2.0
 40
2.0
 40
3.0
 40
3.0
 40
3.0
 40
4.0
 40
4.0
 40
4.0
 40
4.0
 10
94.78076785971894
 20
-121.2439366363558
 30
0.0
 10
94.78076785971894
 20
-121.1887974697027
 30
0.0
 10
94.73600275409366
 20
-121.1440299697142
 30
0.0
 10
94.68086119560111
 20
-121.1440299697142
 30
0.0
 10
94.62575730811803
 20
-121.1440299697142
 30
0.0
 10
94.58095453148327
 20
-121.1887974697027
 30
0.0
 10
94.58095453148327
 20
-121.2439366363558
 30
0.0
 10
94.58095453148327
 20
-121.2990405252307
 30
0.0
 10
94.62575730811803
 20
-121.3438433029974
 30
0.0
 10
94.68086119560111
 20
-121.3438433029974
 30
0.0
 10
94.73600275409366
 20
-121.3438433029974
 30
0.0
 10
94.78076785971894
 20
-121.2990405252307
 30
0.0
 10
94.78076785971894
 20
-121.2439366363558
 30
0.0
  0
POLYLINE
  5
45
330
1F
100
AcDbEntity
  8
_U+30EC_U+30A4_U+30E4_U+30FC 1
 62
   179
420
  2234388
370
     9
100
AcDb2dPolyline
 66
     1
 10
0.0
 20
0.0
 30
0.0
  0
VERTEX
  5
46
330
45
100
AcDbEntity
  8
_U+30EC_U+30A4_U+30E4_U+30FC 1
 62
   179
420
  2234388
370
     9
100
AcDbVertex
100
AcDb2dVertex
 10
94.68086119560111
 20
-121.2439366363558
 30
0.0
  0
VERTEX
  5
47
330
45
100
AcDbEntity
  8
_U+30EC_U+30A4_U+30E4_U+30FC 1
 62
   179
420
  2234388
370
     9
100
AcDbVertex
100
AcDb2dVertex
 10
94.68086119560111
 20
-135.3440057994972
 30
0.0
  0
SEQEND
  5
48
330
45
100
AcDbEntity
  8
_U+30EC_U+30A4_U+30E4_U+30FC 1
 62
   179
420
  2234388
370
     9
  0
POLYLINE
  5
49
330
1F
100
AcDbEntity
  8
_U+30EC_U+30A4_U+30E4_U+30FC 1
 62
   179
420
  2234388
370
     9
100
AcDb2dPolyline
 66
     1
 10
0.0
 20
0.0
 30
0.0
  0
VERTEX
  5
4A
330
49
100
AcDbEntity
  8
_U+30EC_U+30A4_U+30E4_U+30FC 1
 62
   179
420
  2234388
370
     9
100
AcDbVertex
100
AcDb2dVertex
 10
93.55087872442935
 20
-121.2439366363558
 30
0.0
  0
VERTEX
  5
4B
330
49
100
AcDbEntity
  8
_U+30EC_U+30A4_U+30E4_U+30FC 1
 62
   179
420
  2234388
370
     9
100
AcDbVertex
100
AcDb2dVertex
 10
96.01069227278539
 20
-121.2439366363558
 30
0.0
  0
SEQEND
  5
4C
330
49
100
AcDbEntity
  8
_U+30EC_U+30A4_U+30E4_U+30FC 1
 62
   179
420
  2234388
370
     9
  0
POLYLINE
  5
4D
330
1F
100
AcDbEntity
  8
_U+30EC_U+30A4_U+30E4_U+30FC 1
 62
   179
420
  2234388
370
     9
100
AcDb2dPolyline
 66
     1
 10
0.0
 20
0.0
 30
0.0
  0
VERTEX
  5
4E
330
4D
100
AcDbEntity
  8
_U+30EC_U+30A4_U+30E4_U+30FC 1
 62
   179
420
  2234388
370
     9
100
AcDbVertex
100
AcDb2dVertex
 10
93.55087872442935
 20
-122.2443791361057
 30
0.0
  0
VERTEX
  5
4F
330
4D
100
AcDbEntity
  8
_U+30EC_U+30A4_U+30E4_U+30FC 1
 62
   179
420
  2234388
370
     9
100
AcDbVertex
100
AcDb2dVertex
 10
96.01069227278539
 20
-122.2443791361057
 30
0.0
  0
SEQEND
  5
50
330
4D
100
AcDbEntity
  8
_U+30EC_U+30A4_U+30E4_U+30FC 1
 62
   179
420
  2234388
370
     9
  0
SPLINE
  5
51
330
1F
100
AcDbEntity
  8
_U+30EC_U+30A4_U+30E4_U+30FC 1
 62
   179
420
  2234388
370
     9
100
AcDbSpline
210
0.0
220
0.0
230
1.0
 70
    11
 71
     3
 72
    17
 73
    13
 74
     0
 42
0.0000000001
 43
0.0000000001
 12
1.0
 22
0.0
 32
0.0
 13
1.0
 23
0.0
 33
0.0
 40
0.0
 40
0.0
 40
0.0
 40
0.0
 40
1.0
 40
1.0
 40
1.0
 40
2.0
 40
2.0
 40
2.0
 40
3.0
 40
3.0
 40
3.0
 40
4.0
 40
4.0
 40
4.0
 40
4.0
 10
94.78076785971894
 20
-135.2440991328556
 30
0.0
 10
94.78076785971894
 20
-135.1886424662029
 30
0.0
 10
94.73600275409366
 20
-135.144192466214
 30
0.0
 10
94.68086119560111
 20
-135.144192466214
 30
0.0
 10
94.62575730811803
 20
-135.144192466214
 30
0.0
 10
94.58095453148327
 20
-135.1886424662029
 30
0.0
 10
94.58095453148327
 20
-135.2440991328556
 30
0.0
 10
94.58095453148327
 20
-135.2992382995087
 30
0.0
 10
94.62575730811803
 20
-135.3440057994972
 30
0.0
 10
94.68086119560111
 20
-135.3440057994972
 30
0.0
 10
94.73600275409366
 20
-135.3440057994972
 30
0.0
 10
94.78076785971894
 20
-135.2992382995087
 30
0.0
 10
94.78076785971894
 20
-135.2440991328556
 30
0.0
  0
POLYLINE
  5
52
330
1F
100
AcDbEntity
  8
_U+30EC_U+30A4_U+30E4_U+30FC 1
 62
   179
420
  2234388
370
     9
100
AcDb2dPolyline
 66
     1
 10
0.0
 20
0.0
 30
0.0
  0
VERTEX
  5
53
330
52
100
AcDbEntity
  8
_U+30EC_U+30A4_U+30E4_U+30FC 1
 62
   179
420
  2234388
370
     9
100
AcDbVertex
100
AcDb2dVertex
 10
93.55087872442935
 20
-135.2440991328556
 30
0.0
  0
VERTEX
  5
54
330
52
100
AcDbEntity
  8
_U+30EC_U+30A4_U+30E4_U+30FC 1
 62
   179
420
  2234388
370
     9
100
AcDbVertex
100
AcDb2dVertex
 10
96.01069227278539
 20
-135.2440991328556
 30
0.0
  0
SEQEND
  5
55
330
52
100
AcDbEntity
  8
_U+30EC_U+30A4_U+30E4_U+30FC 1
 62
   179
420
  2234388
370
     9
  0
INSERT
  5
57
330
1F
100
AcDbEntity
  8
_U+30EC_U+30A4_U+30E4_U+30FC 1
100
AcDbBlockReference
  2
block 2
 10
0.0
 20
0.0
 30
0.0
  0
INSERT
  5
5D
330
1F
100
AcDbEntity
  8
_U+30EC_U+30A4_U+30E4_U+30FC 1
100
AcDbBlockReference
  2
block 3
 10
0.0
 20
0.0
 30
0.0
  0
POLYLINE
  5
64
330
1F
100
AcDbEntity
  8
_U+30EC_U+30A4_U+30E4_U+30FC 1
 62
   179
420
  2234388
370
     9
100
AcDb2dPolyline
 66
     1
 10
0.0
 20
0.0
 30
0.0
  0
VERTEX
  5
65
330
64
100
AcDbEntity
  8
_U+30EC_U+30A4_U+30E4_U+30FC 1
 62
   179
420
  2234388
370
     9
100
AcDbVertex
100
AcDb2dVertex
 10
82.83835844217296
 20
-116.8217966374612
 30
0.0
  0
VERTEX
  5
66
330
64
100
AcDbEntity
  8
_U+30EC_U+30A4_U+30E4_U+30FC 1
 62
   179
420
  2234388
370
     9
100
AcDbVertex
100
AcDb2dVertex
 10
82.83835844217296
 20
-119.2822805257348
 30
0.0
  0
SEQEND
  5
67
330
64
100
AcDbEntity
  8
_U+30EC_U+30A4_U+30E4_U+30FC 1
 62
   179
420
  2234388
370
     9
  0
POLYLINE
  5
68
330
1F
100
AcDbEntity
  8
_U+30EC_U+30A4_U+30E4_U+30FC 1
 62
   179
420
  2234388
370
     9
100
AcDb2dPolyline
 66
     1
 10
0.0
 20
0.0
 30
0.0
  0
VERTEX
  5
69
330
68
100
AcDbEntity
  8
_U+30EC_U+30A4_U+30E4_U+30FC 1
 62
   179
420
  2234388
370
     9
100
AcDbVertex
100
AcDb2dVertex
 10
91.83902460143572
 20
-116.8217966374612
 30
0.0
  0
VERTEX
  5
6A
330
68
100
AcDbEntity
  8
_U+30EC_U+30A4_U+30E4_U+30FC 1
 62
   179
420
  2234388
370
     9
100
AcDbVertex
100
AcDb2dVertex
 10
91.83902460143572
 20
-119.2822805257348
 30
0.0
  0
SEQEND
  5
6B
330
68
100
AcDbEntity
  8
_U+30EC_U+30A4_U+30E4_U+30FC 1
 62
   179
420
  2234388
370
     9
  0
INSERT
  5
6D
330
1F
100
AcDbEntity
  8
_U+30EC_U+30A4_U+30E4_U+30FC 1
100
AcDbBlockReference
  2
block 4
 10
0.0
 20
0.0
 30
0.0
  0
INSERT
  5
74
330
1F
100
AcDbEntity
  8
_U+30EC_U+30A4_U+30E4_U+30FC 1
100
AcDbBlockReference
  2
block 5
 10
0.0
 20
0.0
 30
0.0
  0
POLYLINE
  5
7A
330
1F
100
AcDbEntity
  8
_U+30EC_U+30A4_U+30E4_U+30FC 1
 62
   179
420
  2234388
370
     9
100
AcDb2dPolyline
 66
     1
 10
0.0
 20
0.0
 30
0.0
  0
VERTEX
  5
7B
330
7A
100
AcDbEntity
  8
_U+30EC_U+30A4_U+30E4_U+30FC 1
 62
   179
420
  2234388
370
     9
100
AcDbVertex
100
AcDb2dVertex
 10
91.83867182366696
 20
-118.2818380259849
 30
0.0
  0
VERTEX
  5
7C
330
7A
100
AcDbEntity
  8
_U+30EC_U+30A4_U+30E4_U+30FC 1
 62
   179
420
  2234388
370
     9
100
AcDbVertex
100
AcDb2dVertex
 10
82.83835844217296
 20
-118.2818380259849
 30
0.0
  0
SEQEND
  5
7D
330
7A
100
AcDbEntity
  8
_U+30EC_U+30A4_U+30E4_U+30FC 1
 62
   179
420
  2234388
370
     9
  0
SPLINE
  5
7E
330
1F
100
AcDbEntity
  8
_U+30EC_U+30A4_U+30E4_U+30FC 1
 62
   179
420
  2234388
370
     9
100
AcDbSpline
210
0.0
220
0.0
230
1.0
 70
    11
 71
     3
 72
    17
 73
    13
 74
     0
 42
0.0000000001
 43
0.0000000001
 12
1.0
 22
0.0
 32
0.0
 13
1.0
 23
0.0
 33
0.0
 40
0.0
 40
0.0
 40
0.0
 40
0.0
 40
1.0
 40
1.0
 40
1.0
 40
2.0
 40
2.0
 40
2.0
 40
3.0
 40
3.0
 40
3.0
 40
4.0
 40
4.0
 40
4.0
 40
4.0
 10
91.93893126555356
 20
-138.8098005208531
 30
0.0
 10
91.93893126555356
 20
-138.864904409728
 30
0.0
 10
91.8941284889188
 20
-138.9097071874947
 30
0.0
 10
91.83902460143572
 20
-138.9097071874947
 30
0.0
 10
91.78388543617578
 20
-138.9097071874947
 30
0.0
 10
91.7391179373179
 20
-138.864904409728
 30
0.0
 10
91.7391179373179
 20
-138.8098005208531
 30
0.0
 10
91.7391179373179
 20
-138.7546613542
 30
0.0
 10
91.78388543617578
 20
-138.7098938542115
 30
0.0
 10
91.83902460143572
 20
-138.7098938542115
 30
0.0
 10
91.8941284889188
 20
-138.7098938542115
 30
0.0
 10
91.93893126555356
 20
-138.7546613542
 30
0.0
 10
91.93893126555356
 20
-138.8098005208531
 30
0.0
  0
SPLINE
  5
7F
330
1F
100
AcDbEntity
  8
_U+30EC_U+30A4_U+30E4_U+30FC 1
 62
   179
420
  2234388
370
     9
100
AcDbSpline
210
0.0
220
0.0
230
1.0
 70
    11
 71
     3
 72
    17
 73
    13
 74
     0
 42
0.0000000001
 43
0.0000000001
 12
1.0
 22
0.0
 32
0.0
 13
1.0
 23
0.0
 33
0.0
 40
0.0
 40
0.0
 40
0.0
 40
0.0
 40
1.0
 40
1.0
 40
1.0
 40
2.0
 40
2.0
 40
2.0
 40
3.0
 40
3.0
 40
3.0
 40
4.0
 40
4.0
 40
4.0
 40
4.0
 10
82.9382651062908
 20
-138.8098005208531
 30
0.0
 10
82.9382651062908
 20
-138.864904409728
 30
0.0
 10
82.89346232965603
 20
-138.9097071874947
 30
0.0
 10
82.83835844217296
 20
-138.9097071874947
 30
0.0
 10
82.78321927691302
 20
-138.9097071874947
 30
0.0
 10
82.73845177805512
 20
-138.864904409728
 30
0.0
 10
82.73845177805512
 20
-138.8098005208531
 30
0.0
 10
82.73845177805512
 20
-138.7546613542
 30
0.0
 10
82.78321927691302
 20
-138.7098938542115
 30
0.0
 10
82.83835844217296
 20
-138.7098938542115
 30
0.0
 10
82.89346232965603
 20
-138.7098938542115
 30
0.0
 10
82.9382651062908
 20
-138.7546613542
 30
0.0
 10
82.9382651062908
 20
-138.8098005208531
 30
0.0
  0
POLYLINE
  5
80
330
1F
100
AcDbEntity
  8
_U+30EC_U+30A4_U+30E4_U+30FC 1
 62
   179
420
  2234388
370
     9
100
AcDb2dPolyline
 66
     1
 10
0.0
 20
0.0
 30
0.0
  0
VERTEX
  5
81
330
80
100
AcDbEntity
  8
_U+30EC_U+30A4_U+30E4_U+30FC 1
 62
   179
420
  2234388
370
     9
100
AcDbVertex
100
AcDb2dVertex
 10
82.83835844217296
 20
-140.2698066315993
 30
0.0
  0
VERTEX
  5
82
330
80
100
AcDbEntity
  8
_U+30EC_U+30A4_U+30E4_U+30FC 1
 62
   179
420
  2234388
370
     9
100
AcDbVertex
100
AcDb2dVertex
 10
82.83835844217296
 20
-137.8093227433257
 30
0.0
  0
SEQEND
  5
83
330
80
100
AcDbEntity
  8
_U+30EC_U+30A4_U+30E4_U+30FC 1
 62
   179
420
  2234388
370
     9
  0
POLYLINE
  5
84
330
1F
100
AcDbEntity
  8
_U+30EC_U+30A4_U+30E4_U+30FC 1
 62
   179
420
  2234388
370
     9
100
AcDb2dPolyline
 66
     1
 10
0.0
 20
0.0
 30
0.0
  0
VERTEX
  5
85
330
84
100
AcDbEntity
  8
_U+30EC_U+30A4_U+30E4_U+30FC 1
 62
   179
420
  2234388
370
     9
100
AcDbVertex
100
AcDb2dVertex
 10
91.83902460143572
 20
-140.2698066315993
 30
0.0
  0
VERTEX
  5
86
330
84
100
AcDbEntity
  8
_U+30EC_U+30A4_U+30E4_U+30FC 1
 62
   179
420
  2234388
370
     9
100
AcDbVertex
100
AcDb2dVertex
 10
91.83902460143572
 20
-137.8093227433257
 30
0.0
  0
SEQEND
  5
87
330
84
100
AcDbEntity
  8
_U+30EC_U+30A4_U+30E4_U+30FC 1
 62
   179
420
  2234388
370
     9
  0
POLYLINE
  5
88
330
1F
100
AcDbEntity
  8
_U+30EC_U+30A4_U+30E4_U+30FC 1
 62
   179
420
  2234388
370
     9
100
AcDb2dPolyline
 66
     1
 10
0.0
 20
0.0
 30
0.0
  0
VERTEX
  5
89
330
88
100
AcDbEntity
  8
_U+30EC_U+30A4_U+30E4_U+30FC 1
 62
   179
420
  2234388
370
     9
100
AcDbVertex
100
AcDb2dVertex
 10
91.83867182366696
 20
-138.8098005208531
 30
0.0
  0
VERTEX
  5
8A
330
88
100
AcDbEntity
  8
_U+30EC_U+30A4_U+30E4_U+30FC 1
 62
   179
420
  2234388
370
     9
100
AcDbVertex
100
AcDb2dVertex
 10
82.83835844217296
 20
-138.8098005208531
 30
0.0
  0
SEQEND
  5
8B
330
88
100
AcDbEntity
  8
_U+30EC_U+30A4_U+30E4_U+30FC 1
 62
   179
420
  2234388
370
     9
  0
SPLINE
  5
8C
330
1F
100
AcDbEntity
  8
_U+30EC_U+30A4_U+30E4_U+30FC 1
 62
   179
420
  2234388
370
    25
100
AcDbSpline
210
0.0
220
0.0
230
1.0
 70
    11
 71
     3
 72
    44
 73
    40
 74
     0
 42
0.0000000001
 43
0.0000000001
 12
1.0
 22
0.0
 32
0.0
 13
1.0
 23
0.0
 33
0.0
 40
0.0
 40
0.0
 40
0.0
 40
0.0
 40
1.0
 40
1.0
 40
1.0
 40
2.0
 40
2.0
 40
2.0
 40
3.0
 40
3.0
 40
3.0
 40
4.0
 40
4.0
 40
4.0
 40
5.0
 40
5.0
 40
5.0
 40
6.0
 40
6.0
 40
6.0
 40
7.0
 40
7.0
 40
7.0
 40
8.0
 40
8.0
 40
8.0
 40
9.0
 40
9.0
 40
9.0
 40
10.0
 40
10.0
 40
10.0
 40
11.0
 40
11.0
 40
11.0
 40
12.0
 40
12.0
 40
12.0
 40
13.0
 40
13.0
 40
13.0
 40
13.0
 10
82.73845177805512
 20
-121.7441755251195
 30
0.0
 10
82.73845177805512
 20
-121.7441755251195
 30
0.0
 10
82.73845177805512
 20
-135.7439852438416
 30
0.0
 10
82.73845177805512
 20
-135.7439852438416
 30
0.0
 10
82.73845177805512
 20
-136.020280799328
 30
0.0
 10
82.96204442370382
 20
-136.2438713548281
 30
0.0
 10
83.23833787641308
 20
-136.2438713548281
 30
0.0
 10
83.23833787641308
 20
-136.2438713548281
 30
0.0
 10
91.23852628342239
 20
-136.2438713548281
 30
0.0
 10
91.23852628342239
 20
-136.2438713548281
 30
0.0
 10
91.51482183192905
 20
-136.2438713548281
 30
0.0
 10
91.73876515954912
 20
-136.020280799328
 30
0.0
 10
91.73876515954912
 20
-135.7439852438416
 30
0.0
 10
91.73876515954912
 20
-135.7439852438416
 30
0.0
 10
91.73876515954912
 20
-135.2440991328556
 30
0.0
 10
91.73876515954912
 20
-135.2440991328556
 30
0.0
 10
91.73876515954912
 20
-135.2440991328556
 30
0.0
 10
83.73854147476294
 20
-135.2440991328556
 30
0.0
 10
83.73854147476294
 20
-135.2440991328556
 30
0.0
 10
83.73854147476294
 20
-135.2440991328556
 30
0.0
 10
83.73854147476294
 20
-135.243781632856
 30
0.0
 10
83.73854147476294
 20
-135.243781632856
 30
0.0
 10
83.73854147476294
 20
-135.243781632856
 30
0.0
 10
83.73854147476294
 20
-122.243708858328
 30
0.0
 10
83.73854147476294
 20
-122.243708858328
 30
0.0
 10
83.73854147476294
 20
-122.243708858328
 30
0.0
 10
91.73876515954912
 20
-122.243708858328
 30
0.0
 10
91.73876515954912
 20
-122.243708858328
 30
0.0
 10
91.73876515954912
 20
-122.243708858328
 30
0.0
 10
91.73876515954912
 20
-121.7441755251195
 30
0.0
 10
91.73876515954912
 20
-121.7441755251195
 30
0.0
 10
91.73876515954912
 20
-121.4678799696331
 30
0.0
 10
91.51482183192905
 20
-121.2439366363558
 30
0.0
 10
91.23852628342239
 20
-121.2439366363558
 30
0.0
 10
91.23852628342239
 20
-121.2439366363558
 30
0.0
 10
83.23833787641308
 20
-121.2439366363558
 30
0.0
 10
83.23833787641308
 20
-121.2439366363558
 30
0.0
 10
82.96204442370382
 20
-121.2439366363558
 30
0.0
 10
82.73845177805512
 20
-121.4678799696331
 30
0.0
 10
82.73845177805512
 20
-121.7441755251195
 30
0.0
  0
HATCH
  5
8D
330
1F
100
AcDbEntity
  8
_U+30EC_U+30A4_U+30E4_U+30FC 1
 62
   253
420
 11711154
100
AcDbHatch
 10
0.0
 20
0.0
 30
0.0
210
0.0
220
0.0
230
1.0
  2
SOLID
 70
     1
 71
     0
 91
        1
 92
        1
 93
        2
 72
     4
 94
        3
 73
     0
 74
     0
 95
       44
 96
       40
 40
0.0
 40
0.0
 40
0.0
 40
0.0
 40
0.3527777776895833
 40
0.3527777776895833
 40
0.3527777776895833
 40
0.7055555553791667
 40
0.7055555553791667
 40
0.7055555553791667
 40
1.05833333306875
 40
1.05833333306875
 40
1.05833333306875
 40
1.411111110758333
 40
1.411111110758333
 40
1.411111110758333
 40
1.763888888447917
 40
1.763888888447917
 40
1.763888888447917
 40
2.1166666661375
 40
2.1166666661375
 40
2.1166666661375
 40
2.469444443827083
 40
2.469444443827083
 40
2.469444443827083
 40
2.822222221516667
 40
2.822222221516667
 40
2.822222221516667
 40
3.17499999920625
 40
3.17499999920625
 40
3.17499999920625
 40
3.527777776895833
 40
3.527777776895833
 40
3.527777776895833
 40
3.880555554585417
 40
3.880555554585417
 40
3.880555554585417
 40
4.233333332275
 40
4.233333332275
 40
4.233333332275
 40
4.586111109964584
 40
4.586111109964584
 40
4.586111109964584
 40
4.586111109964584
 10
82.73845177805512
 20
-121.7441755251195
 10
82.73845177805512
 20
-121.7441755251195
 10
82.73845177805512
 20
-135.7439852438416
 10
82.73845177805512
 20
-135.7439852438416
 10
82.73845177805512
 20
-136.020280799328
 10
82.96204442370382
 20
-136.2438713548281
 10
83.23833787641308
 20
-136.2438713548281
 10
83.23833787641308
 20
-136.2438713548281
 10
91.23852628342239
 20
-136.2438713548281
 10
91.23852628342239
 20
-136.2438713548281
 10
91.51482183192905
 20
-136.2438713548281
 10
91.73876515954912
 20
-136.020280799328
 10
91.73876515954912
 20
-135.7439852438416
 10
91.73876515954912
 20
-135.7439852438416
 10
91.73876515954912
 20
-135.2440991328556
 10
91.73876515954912
 20
-135.2440991328556
 10
91.73876515954912
 20
-135.2440991328556
 10
83.73854147476294
 20
-135.2440991328556
 10
83.73854147476294
 20
-135.2440991328556
 10
83.73854147476294
 20
-135.2440991328556
 10
83.73854147476294
 20
-135.243781632856
 10
83.73854147476294
 20
-135.243781632856
 10
83.73854147476294
 20
-135.243781632856
 10
83.73854147476294
 20
-122.243708858328
 10
83.73854147476294
 20
-122.243708858328
 10
83.73854147476294
 20
-122.243708858328
 10
91.73876515954912
 20
-122.243708858328
 10
91.73876515954912
 20
-122.243708858328
 10
91.73876515954912
 20
-122.243708858328
 10
91.73876515954912
 20
-121.7441755251195
 10
91.73876515954912
 20
-121.7441755251195
 10
91.73876515954912
 20
-121.4678799696331
 10
91.51482183192905
 20
-121.2439366363558
 10
91.23852628342239
 20
-121.2439366363558
 10
91.23852628342239
 20
-121.2439366363558
 10
83.23833787641308
 20
-121.2439366363558
 10
83.23833787641308
 20
-121.2439366363558
 10
82.96204442370382
 20
-121.2439366363558
 10
82.73845177805512
 20
-121.4678799696331
 10
82.73845177805512
 20
-121.7441755251195
 97
        0
 72
     1
 10
82.73845177805512
 20
-121.7441755251195
 11
82.73845177805512
 21
-121.7441755251195
 97
        0
 75
     2
 76
     1
 98
        0
  0
ENDSEC
  0
SECTION
  2
OBJECTS
  0
DICTIONARY
  5
C
330
0
100
AcDbDictionary
281
     1
  3
ACAD_GROUP
350
D
  3
ACAD_LAYOUT
350
1A
  3
ACAD_MATERIAL
350
3B
  3
ACAD_MLEADERSTYLE
350
8F
  3
ACAD_MLINESTYLE
350
17
  3
ACAD_PLOTSETTINGS
350
19
  3
ACAD_PLOTSTYLENAME
350
E
  3
ACAD_TABLESTYLE
350
8E
  3
ACAD_VISUALSTYLE
350
2A
  0
SUN
  5
3F
330
29
100
AcDbSun
 90
        1
290
     0
 63
     7
421
 16777215
 40
1.0
291
     1
 91
  2455826
 92
 54000000
292
     0
 70
     2
 71
   256
280
     1
  0
DICTIONARY
  5
D
102
{ACAD_REACTORS
330
C
102
}
330
C
100
AcDbDictionary
281
     1
  0
DICTIONARY
  5
1A
102
{ACAD_REACTORS
330
C
102
}
330
C
100
AcDbDictionary
281
     1
  3
Layout1
350
1E
  3
Layout2
350
26
  3
Model
350
22
  0
DICTIONARY
  5
3B
102
{ACAD_REACTORS
330
C
102
}
330
C
100
AcDbDictionary
281
     1
  3
ByBlock
350
3D
  3
ByLayer
350
3C
  3
Global
350
3E
  0
DICTIONARY
  5
8F
102
{ACAD_REACTORS
330
C
102
}
330
C
100
AcDbDictionary
281
     1
  0
DICTIONARY
  5
17
102
{ACAD_REACTORS
330
C
102
}
330
C
100
AcDbDictionary
281
     1
  3
Standard
350
18
  0
DICTIONARY
  5
19
102
{ACAD_REACTORS
330
C
102
}
330
C
100
AcDbDictionary
281
     1
  0
ACDBDICTIONARYWDFLT
  5
E
102
{ACAD_REACTORS
330
C
102
}
330
C
100
AcDbDictionary
281
     1
  3
Normal
350
F
100
AcDbDictionaryWithDefault
340
F
  0
DICTIONARY
  5
8E
102
{ACAD_REACTORS
330
C
102
}
330
C
100
AcDbDictionary
281
     1
  0
DICTIONARY
  5
2A
102
{ACAD_REACTORS
330
C
102
}
330
C
100
AcDbDictionary
281
     1
  3
2dWireframe
350
2F
  3
3D Hidden
350
31
  3
3dWireframe
350
30
  3
Basic
350
32
  3
Brighten
350
36
  3
ColorChange
350
3A
  3
Conceptual
350
34
  3
Dim
350
35
  3
Facepattern
350
39
  3
Flat
350
2B
  3
FlatWithEdges
350
2C
  3
Gouraud
350
2D
  3
GouraudWithEdges
350
2E
  3
Linepattern
350
38
  3
Realistic
350
33
  3
Thicken
350
37
  0
LAYOUT
  5
1E
102
{ACAD_REACTORS
330
1A
102
}
330
1A
100
AcDbPlotSettings
  1

  2
none_device
  4

  6

 40
0.0
 41
0.0
 42
0.0
 43
0.0
 44
0.0
 45
0.0
 46
0.0
 47
0.0
 48
0.0
 49
0.0
140
0.0
141
0.0
142
1.0
143
1.0
 70
   688
 72
     0
 73
     0
 74
     5
  7

 75
    16
 76
     0
 77
     2
 78
   300
147
1.0
148
0.0
149
0.0
100
AcDbLayout
  1
Layout1
 70
     1
 71
     1
 10
0.0
 20
0.0
 11
12.0
 21
9.0
 12
0.0
 22
0.0
 32
0.0
 14
1.000000000000000E+20
 24
1.000000000000000E+20
 34
1.000000000000000E+20
 15
-1.000000000000000E+20
 25
-1.000000000000000E+20
 35
-1.000000000000000E+20
146
0.0
 13
0.0
 23
0.0
 33
0.0
 16
1.0
 26
0.0
 36
0.0
 17
0.0
 27
1.0
 37
0.0
 76
     0
330
1B
  0
LAYOUT
  5
26
102
{ACAD_REACTORS
330
1A
102
}
330
1A
100
AcDbPlotSettings
  1

  2
none_device
  4

  6

 40
0.0
 41
0.0
 42
0.0
 43
0.0
 44
0.0
 45
0.0
 46
0.0
 47
0.0
 48
0.0
 49
0.0
140
0.0
141
0.0
142
1.0
143
1.0
 70
   688
 72
     0
 73
     0
 74
     5
  7

 75
    16
 76
     0
 77
     2
 78
   300
147
1.0
148
0.0
149
0.0
100
AcDbLayout
  1
Layout2
 70
     1
 71
     2
 10
0.0
 20
0.0
 11
0.0
 21
0.0
 12
0.0
 22
0.0
 32
0.0
 14
0.0
 24
0.0
 34
0.0
 15
0.0
 25
0.0
 35
0.0
146
0.0
 13
0.0
 23
0.0
 33
0.0
 16
1.0
 26
0.0
 36
0.0
 17
0.0
 27
1.0
 37
0.0
 76
     0
330
23
  0
LAYOUT
  5
22
102
{ACAD_REACTORS
330
1A
102
}
330
1A
100
AcDbPlotSettings
  1

  2
none_device
  4

  6

 40
0.0
 41
0.0
 42
0.0
 43
0.0
 44
0.0
 45
0.0
 46
0.0
 47
0.0
 48
0.0
 49
0.0
140
0.0
141
0.0
142
1.0
143
1.0
 70
  1712
 72
     0
 73
     0
 74
     0
  7

 75
     0
 76
     0
 77
     2
 78
   300
147
1.0
148
0.0
149
0.0
100
AcDbLayout
  1
Model
 70
     1
 71
     0
 10
0.0
 20
0.0
 11
12.0
 21
9.0
 12
0.0
 22
0.0
 32
0.0
 14
1.000000000000000E+20
 24
1.000000000000000E+20
 34
1.000000000000000E+20
 15
-1.000000000000000E+20
 25
-1.000000000000000E+20
 35
-1.000000000000000E+20
146
0.0
 13
0.0
 23
0.0
 33
0.0
 16
1.0
 26
0.0
 36
0.0
 17
0.0
 27
1.0
 37
0.0
 76
     0
330
1F
331
29
  0
MATERIAL
  5
3D
102
{ACAD_REACTORS
330
3B
102
}
330
3B
100
AcDbMaterial
  1
ByBlock
 72
     1
 94
      127
  0
MATERIAL
  5
3C
102
{ACAD_REACTORS
330
3B
102
}
330
3B
100
AcDbMaterial
  1
ByLayer
 72
     1
 94
      127
  0
MATERIAL
  5
3E
102
{ACAD_REACTORS
330
3B
102
}
330
3B
100
AcDbMaterial
  1
Global
 72
     1
 94
      127
  0
MLINESTYLE
  5
18
102
{ACAD_REACTORS
330
17
102
}
330
17
100
AcDbMlineStyle
  2
Standard
 70
     0
  3

 62
   256
 51
90.0
 52
90.0
 71
     2
 49
0.5
 62
   256
  6
BYLAYER
 49
-0.5
 62
   256
  6
BYLAYER
  0
ACDBPLACEHOLDER
  5
F
102
{ACAD_REACTORS
330
E
102
}
330
E
  0
VISUALSTYLE
  5
2F
102
{ACAD_REACTORS
330
2A
102
}
330
2A
100
AcDbVisualStyle
  2
2dWireframe
 70
     4
177
     2
291
     0
 71
     0
176
     1
 72
     2
176
     1
 73
     0
176
     1
 90
        0
176
     1
 40
-0.6
176
     1
 41
-30.0
176
     1
 62
     5
 63
     7
421
 16777215
176
     1
 74
     1
176
     1
 91
        4
176
     1
 64
     7
176
     1
 65
   257
176
     1
 75
     1
176
     1
175
     1
176
     1
 42
1.0
176
     1
 92
        0
176
     1
 66
   257
176
     1
 43
1.0
176
     1
 76
     1
176
     1
 77
     6
176
     1
 78
     2
176
     1
 67
     7
176
     1
 79
     5
176
     1
170
     0
176
     1
171
     0
176
     1
290
     0
176
     1
 93
        1
176
     1
 44
0.0
176
     1
173
     0
176
     1
  0
VISUALSTYLE
  5
31
102
{ACAD_REACTORS
330
2A
102
}
330
2A
100
AcDbVisualStyle
  2
3D Hidden
 70
     6
177
     2
291
     0
 71
     1
176
     1
 72
     2
176
     1
 73
     2
176
     1
 90
        0
176
     1
 40
-0.6
176
     1
 41
-30.0
176
     1
 62
     5
 63
     7
421
 16777215
176
     1
 74
     2
176
     1
 91
        2
176
     1
 64
     7
176
     1
 65
   257
176
     1
 75
     2
176
     1
175
     1
176
     1
 42
40.0
176
     1
 92
        0
176
     1
 66
   257
176
     1
 43
1.0
176
     1
 76
     1
176
     1
 77
     6
176
     1
 78
     2
176
     1
 67
     7
176
     1
 79
     3
176
     1
170
     0
176
     1
171
     0
176
     1
290
     0
176
     1
 93
        1
176
     1
 44
0.0
176
     1
173
     0
176
     1
  0
VISUALSTYLE
  5
30
102
{ACAD_REACTORS
330
2A
102
}
330
2A
100
AcDbVisualStyle
  2
3dWireframe
 70
     5
177
     2
291
     0
 71
     0
176
     1
 72
     2
176
     1
 73
     0
176
     1
 90
        0
176
     1
 40
-0.6
176
     1
 41
-30.0
176
     1
 62
     5
 63
     7
421
 16777215
176
     1
 74
     1
176
     1
 91
        4
176
     1
 64
     7
176
     1
 65
   257
176
     1
 75
     1
176
     1
175
     1
176
     1
 42
1.0
176
     1
 92
        0
176
     1
 66
   257
176
     1
 43
1.0
176
     1
 76
     1
176
     1
 77
     6
176
     1
 78
     2
176
     1
 67
     7
176
     1
 79
     5
176
     1
170
     0
176
     1
171
     0
176
     1
290
     0
176
     1
 93
        1
176
     1
 44
0.0
176
     1
173
     0
176
     1
  0
VISUALSTYLE
  5
32
102
{ACAD_REACTORS
330
2A
102
}
330
2A
100
AcDbVisualStyle
  2
Basic
 70
     7
177
     2
291
     1
 71
     1
176
     1
 72
     0
176
     1
 73
     1
176
     1
 90
        0
176
     1
 40
-0.6
176
     1
 41
-30.0
176
     1
 62
     5
 63
     7
421
 16777215
176
     1
 74
     0
176
     1
 91
        4
176
     1
 64
     7
176
     1
 65
   257
176
     1
 75
     1
176
     1
175
     1
176
     1
 42
1.0
176
     1
 92
        8
176
     1
 66
     7
176
     1
 43
1.0
176
     1
 76
     1
176
     1
 77
     6
176
     1
 78
     2
176
     1
 67
     7
176
     1
 79
     5
176
     1
170
     0
176
     1
171
     0
176
     1
290
     0
176
     1
 93
        1
176
     1
 44
0.0
176
     1
173
     0
176
     1
  0
VISUALSTYLE
  5
36
102
{ACAD_REACTORS
330
2A
102
}
330
2A
100
AcDbVisualStyle
  2
Brighten
 70
    12
177
     2
291
     1
 71
     2
176
     1
 72
     2
176
     1
 73
     0
176
     1
 90
        0
176
     1
 40
-0.6
176
     1
 41
-30.0
176
     1
 62
     5
 63
     7
421
 16777215
176
     1
 74
     1
176
     1
 91
        4
176
     1
 64
     7
176
     1
 65
   257
176
     1
 75
     1
176
     1
175
     1
176
     1
 42
1.0
176
     1
 92
        8
176
     1
 66
     7
176
     1
 43
1.0
176
     1
 76
     1
176
     1
 77
     6
176
     1
 78
     2
176
     1
 67
     7
176
     1
 79
     5
176
     1
170
     0
176
     1
171
     0
176
     1
290
     0
176
     1
 93
        1
176
     1
 44
50.0
176
     1
173
     0
176
     1
  0
VISUALSTYLE
  5
3A
102
{ACAD_REACTORS
330
2A
102
}
330
2A
100
AcDbVisualStyle
  2
ColorChange
 70
    16
177
     2
291
     1
 71
     2
176
     1
 72
     2
176
     1
 73
     3
176
     1
 90
        0
176
     1
 40
-0.6
176
     1
 41
-30.0
176
     1
 62
     5
 63
     8
421
  8421504
176
     1
 74
     1
176
     1
 91
        4
176
     1
 64
     7
176
     1
 65
   257
176
     1
 75
     1
176
     1
175
     1
176
     1
 42
1.0
176
     1
 92
        8
176
     1
 66
     8
424
  8421504
176
     1
 43
1.0
176
     1
 76
     1
176
     1
 77
     6
176
     1
 78
     2
176
     1
 67
     7
176
     1
 79
     5
176
     1
170
     0
176
     1
171
     0
176
     1
290
     0
176
     1
 93
        1
176
     1
 44
0.0
176
     1
173
     0
176
     1
  0
VISUALSTYLE
  5
34
102
{ACAD_REACTORS
330
2A
102
}
330
2A
100
AcDbVisualStyle
  2
Conceptual
 70
     9
177
     2
291
     0
 71
     3
176
     1
 72
     2
176
     1
 73
     0
176
     1
 90
        0
176
     1
 40
-0.6
176
     1
 41
-30.0
176
     1
 62
     5
 63
     7
421
 16777215
176
     1
 74
     2
176
     1
 91
        2
176
     1
 64
     7
176
     1
 65
   257
176
     1
 75
     1
176
     1
175
     1
176
     1
 42
40.0
176
     1
 92
        8
176
     1
 66
     7
176
     1
 43
1.0
176
     1
 76
     1
176
     1
 77
     6
176
     1
 78
     2
176
     1
 67
     7
176
     1
 79
     3
176
     1
170
     0
176
     1
171
     0
176
     1
290
     0
176
     1
 93
        1
176
     1
 44
0.0
176
     1
173
     0
176
     1
  0
VISUALSTYLE
  5
35
102
{ACAD_REACTORS
330
2A
102
}
330
2A
100
AcDbVisualStyle
  2
Dim
 70
    11
177
     2
291
     1
 71
     2
176
     1
 72
     2
176
     1
 73
     0
176
     1
 90
        0
176
     1
 40
-0.6
176
     1
 41
-30.0
176
     1
 62
     5
 63
     7
421
 16777215
176
     1
 74
     1
176
     1
 91
        4
176
     1
 64
     7
176
     1
 65
   257
176
     1
 75
     1
176
     1
175
     1
176
     1
 42
1.0
176
     1
 92
        8
176
     1
 66
     7
176
     1
 43
1.0
176
     1
 76
     1
176
     1
 77
     6
176
     1
 78
     2
176
     1
 67
     7
176
     1
 79
     5
176
     1
170
     0
176
     1
171
     0
176
     1
290
     0
176
     1
 93
        1
176
     1
 44
-50.0
176
     1
173
     0
176
     1
  0
VISUALSTYLE
  5
39
102
{ACAD_REACTORS
330
2A
102
}
330
2A
100
AcDbVisualStyle
  2
Facepattern
 70
    15
177
     2
291
     1
 71
     2
176
     1
 72
     2
176
     1
 73
     0
176
     1
 90
        0
176
     1
 40
-0.6
176
     1
 41
-30.0
176
     1
 62
     5
 63
     7
421
 16777215
176
     1
 74
     1
176
     1
 91
        4
176
     1
 64
     7
176
     1
 65
   257
176
     1
 75
     1
176
     1
175
     1
176
     1
 42
1.0
176
     1
 92
        8
176
     1
 66
     7
176
     1
 43
1.0
176
     1
 76
     1
176
     1
 77
     6
176
     1
 78
     2
176
     1
 67
     7
176
     1
 79
     5
176
     1
170
     0
176
     1
171
     0
176
     1
290
     0
176
     1
 93
        1
176
     1
 44
0.0
176
     1
173
     0
176
     1
  0
VISUALSTYLE
  5
2B
102
{ACAD_REACTORS
330
2A
102
}
330
2A
100
AcDbVisualStyle
  2
Flat
 70
     0
177
     2
291
     1
 71
     2
176
     1
 72
     1
176
     1
 73
     1
176
     1
 90
        2
176
     1
 40
-0.6
176
     1
 41
30.0
176
     1
 62
     5
 63
     7
421
 16777215
176
     1
 74
     0
176
     1
 91
        4
176
     1
 64
     7
176
     1
 65
   257
176
     1
 75
     1
176
     1
175
     1
176
     1
 42
1.0
176
     1
 92
        8
176
     1
 66
     7
176
     1
 43
1.0
176
     1
 76
     1
176
     1
 77
     6
176
     1
 78
     2
176
     1
 67
     7
176
     1
 79
     5
176
     1
170
     0
176
     1
171
     0
176
     1
290
     0
176
     1
 93
       13
176
     1
 44
0.0
176
     1
173
     0
176
     1
  0
VISUALSTYLE
  5
2C
102
{ACAD_REACTORS
330
2A
102
}
330
2A
100
AcDbVisualStyle
  2
FlatWithEdges
 70
     1
177
     2
291
     1
 71
     2
176
     1
 72
     1
176
     1
 73
     1
176
     1
 90
        2
176
     1
 40
-0.6
176
     1
 41
30.0
176
     1
 62
     5
 63
     7
421
 16777215
176
     1
 74
     1
176
     1
 91
        4
176
     1
 64
     7
176
     1
 65
   257
176
     1
 75
     1
176
     1
175
     1
176
     1
 42
1.0
176
     1
 92
        0
176
     1
 66
   257
176
     1
 43
1.0
176
     1
 76
     1
176
     1
 77
     6
176
     1
 78
     2
176
     1
 67
     7
176
     1
 79
     5
176
     1
170
     0
176
     1
171
     0
176
     1
290
     0
176
     1
 93
       13
176
     1
 44
0.0
176
     1
173
     0
176
     1
  0
VISUALSTYLE
  5
2D
102
{ACAD_REACTORS
330
2A
102
}
330
2A
100
AcDbVisualStyle
  2
Gouraud
 70
     2
177
     2
291
     1
 71
     2
176
     1
 72
     2
176
     1
 73
     1
176
     1
 90
        2
176
     1
 40
-0.6
176
     1
 41
30.0
176
     1
 62
     5
 63
     7
421
 16777215
176
     1
 74
     0
176
     1
 91
        4
176
     1
 64
     7
176
     1
 65
   257
176
     1
 75
     1
176
     1
175
     1
176
     1
 42
1.0
176
     1
 92
        0
176
     1
 66
     7
176
     1
 43
1.0
176
     1
 76
     1
176
     1
 77
     6
176
     1
 78
     2
176
     1
 67
     7
176
     1
 79
     5
176
     1
170
     0
176
     1
171
     0
176
     1
290
     0
176
     1
 93
       13
176
     1
 44
0.0
176
     1
173
     0
176
     1
  0
VISUALSTYLE
  5
2E
102
{ACAD_REACTORS
330
2A
102
}
330
2A
100
AcDbVisualStyle
  2
GouraudWithEdges
 70
     3
177
     2
291
     1
 71
     2
176
     1
 72
     2
176
     1
 73
     1
176
     1
 90
        2
176
     1
 40
-0.6
176
     1
 41
30.0
176
     1
 62
     5
 63
     7
421
 16777215
176
     1
 74
     1
176
     1
 91
        4
176
     1
 64
     7
176
     1
 65
   257
176
     1
 75
     1
176
     1
175
     1
176
     1
 42
1.0
176
     1
 92
        0
176
     1
 66
   257
176
     1
 43
1.0
176
     1
 76
     1
176
     1
 77
     6
176
     1
 78
     2
176
     1
 67
     7
176
     1
 79
     5
176
     1
170
     0
176
     1
171
     0
176
     1
290
     0
176
     1
 93
       13
176
     1
 44
0.0
176
     1
173
     0
176
     1
  0
VISUALSTYLE
  5
38
102
{ACAD_REACTORS
330
2A
102
}
330
2A
100
AcDbVisualStyle
  2
Linepattern
 70
    14
177
     2
291
     1
 71
     2
176
     1
 72
     2
176
     1
 73
     0
176
     1
 90
        0
176
     1
 40
-0.6
176
     1
 41
-30.0
176
     1
 62
     5
 63
     7
421
 16777215
176
     1
 74
     1
176
     1
 91
        4
176
     1
 64
     7
176
     1
 65
   257
176
     1
 75
     7
176
     1
175
     7
176
     1
 42
1.0
176
     1
 92
        8
176
     1
 66
     7
176
     1
 43
1.0
176
     1
 76
     1
176
     1
 77
     6
176
     1
 78
     2
176
     1
 67
     7
176
     1
 79
     5
176
     1
170
     0
176
     1
171
     0
176
     1
290
     0
176
     1
 93
        1
176
     1
 44
0.0
176
     1
173
     0
176
     1
  0
VISUALSTYLE
  5
33
102
{ACAD_REACTORS
330
2A
102
}
330
2A
100
AcDbVisualStyle
  2
Realistic
 70
     8
177
     2
291
     0
 71
     2
176
     1
 72
     2
176
     1
 73
     0
176
     1
 90
        0
176
     1
 40
-0.6
176
     1
 41
-30.0
176
     1
 62
     5
 63
     7
421
 16777215
176
     1
 74
     1
176
     1
 91
        0
176
     1
 64
     7
176
     1
 65
   257
176
     1
 75
     1
176
     1
175
     1
176
     1
 42
1.0
176
     1
 92
        8
176
     1
 66
     8
424
  7895160
176
     1
 43
1.0
176
     1
 76
     1
176
     1
 77
     6
176
     1
 78
     2
176
     1
 67
     7
176
     1
 79
     5
176
     1
170
     0
176
     1
171
     0
176
     1
290
     0
176
     1
 93
       13
176
     1
 44
0.0
176
     1
173
     0
176
     1
  0
VISUALSTYLE
  5
37
102
{ACAD_REACTORS
330
2A
102
}
330
2A
100
AcDbVisualStyle
  2
Thicken
 70
    13
177
     2
291
     1
 71
     2
176
     1
 72
     2
176
     1
 73
     0
176
     1
 90
        0
176
     1
 40
-0.6
176
     1
 41
-30.0
176
     1
 62
     5
 63
     7
421
 16777215
176
     1
 74
     1
176
     1
 91
        4
176
     1
 64
     7
176
     1
 65
   257
176
     1
 75
     1
176
     1
175
     1
176
     1
 42
1.0
176
     1
 92
       12
176
     1
 66
     7
176
     1
 43
1.0
176
     1
 76
     1
176
     1
 77
     6
176
     1
 78
     2
176
     1
 67
     7
176
     1
 79
     5
176
     1
170
     0
176
     1
171
     0
176
     1
290
     0
176
     1
 93
        1
176
     1
 44
0.0
176
     1
173
     0
176
     1
  0
ENDSEC
  0
EOF
