  0
SECTION
  2
HEADER
  9
$ACADVER
  1
AC1024
  9
$ACADMAINTVER
 70
     6
  9
$DWGCODEPAGE
  3
UNDEFINED
  9
$INSBASE
 10
0.0
 20
0.0
 30
0.0
  9
$EXTMIN
 10
1.000000000000000E+20
 20
1.000000000000000E+20
 30
1.000000000000000E+20
  9
$EXTMAX
 10
-1.000000000000000E+20
 20
-1.000000000000000E+20
 30
-1.000000000000000E+20
  9
$LIMMIN
 10
0.0
 20
0.0
  9
$LIMMAX
 10
12.0
 20
9.0
  9
$ORTHOMODE
 70
     0
  9
$REGENMODE
 70
     1
  9
$FILLMODE
 70
     1
  9
$QTEXTMODE
 70
     0
  9
$MIRRTEXT
 70
     1
  9
$LTSCALE
 40
1.0
  9
$ATTMODE
 70
     1
  9
$TEXTSIZE
 40
0.2
  9
$TRACEWID
 40
0.05
  9
$TEXTSTYLE
  7
Standard
  9
$CLAYER
  8
0
  9
$CELTYPE
  6
ByLayer
  9
$CECOLOR
 62
   256
  9
$CELTSCALE
 40
1.0
  9
$DISPSILH
 70
     0
  9
$DIMSCALE
 40
1.0
  9
$DIMASZ
 40
0.18
  9
$DIMEXO
 40
0.0625
  9
$DIMDLI
 40
0.38
  9
$DIMRND
 40
0.0
  9
$DIMDLE
 40
0.0
  9
$DIMEXE
 40
0.18
  9
$DIMTP
 40
0.0
  9
$DIMTM
 40
0.0
  9
$DIMTXT
 40
0.18
  9
$DIMCEN
 40
0.09
  9
$DIMTSZ
 40
0.0
  9
$DIMTOL
 70
     0
  9
$DIMLIM
 70
     0
  9
$DIMTIH
 70
     1
  9
$DIMTOH
 70
     1
  9
$DIMSE1
 70
     0
  9
$DIMSE2
 70
     0
  9
$DIMTAD
 70
     0
  9
$DIMZIN
 70
     0
  9
$DIMBLK
  1

  9
$DIMASO
 70
     1
  9
$DIMSHO
 70
     1
  9
$DIMPOST
  1

  9
$DIMAPOST
  1

  9
$DIMALT
 70
     0
  9
$DIMALTD
 70
     2
  9
$DIMALTF
 40
25.4
  9
$DIMLFAC
 40
1.0
  9
$DIMTOFL
 70
     0
  9
$DIMTVP
 40
0.0
  9
$DIMTIX
 70
     0
  9
$DIMSOXD
 70
     0
  9
$DIMSAH
 70
     0
  9
$DIMBLK1
  1

  9
$DIMBLK2
  1

  9
$DIMSTYLE
  2
Standard
  9
$DIMCLRD
 70
     0
  9
$DIMCLRE
 70
     0
  9
$DIMCLRT
 70
     0
  9
$DIMTFAC
 40
1.0
  9
$DIMGAP
 40
0.09
  9
$DIMJUST
 70
     0
  9
$DIMSD1
 70
     0
  9
$DIMSD2
 70
     0
  9
$DIMTOLJ
 70
     1
  9
$DIMTZIN
 70
     0
  9
$DIMALTZ
 70
     0
  9
$DIMALTTZ
 70
     0
  9
$DIMUPT
 70
     0
  9
$DIMDEC
 70
     4
  9
$DIMTDEC
 70
     4
  9
$DIMALTU
 70
     2
  9
$DIMALTTD
 70
     2
  9
$DIMTXSTY
  7
Standard
  9
$DIMAUNIT
 70
     0
  9
$DIMADEC
 70
     0
  9
$DIMALTRND
 40
0.0
  9
$DIMAZIN
 70
     0
  9
$DIMDSEP
 70
    46
  9
$DIMATFIT
 70
     3
  9
$DIMFRAC
 70
     0
  9
$DIMLDRBLK
  1

  9
$DIMLUNIT
 70
     2
  9
$DIMLWD
 70
    -2
  9
$DIMLWE
 70
    -2
  9
$DIMTMOVE
 70
     0
  9
$DIMFXL
 40
1.0
  9
$DIMFXLON
 70
     0
  9
$DIMJOGANG
 40
0.7853981633974483
  9
$DIMTFILL
 70
     0
  9
$DIMTFILLCLR
 70
     0
  9
$DIMARCSYM
 70
     0
  9
$DIMLTYPE
  6

  9
$DIMLTEX1
  6

  9
$DIMLTEX2
  6

  9
$DIMTXTDIRECTION
 70
     0
  9
$LUNITS
 70
     2
  9
$LUPREC
 70
     4
  9
$SKETCHINC
 40
0.1
  9
$FILLETRAD
 40
0.5
  9
$AUNITS
 70
     0
  9
$AUPREC
 70
     0
  9
$MENU
  1
.
  9
$ELEVATION
 40
0.0
  9
$PELEVATION
 40
0.0
  9
$THICKNESS
 40
0.0
  9
$LIMCHECK
 70
     0
  9
$CHAMFERA
 40
0.5
  9
$CHAMFERB
 40
0.5
  9
$CHAMFERC
 40
1.0
  9
$CHAMFERD
 40
0.0
  9
$SKPOLY
 70
     0
  9
$TDCREATE
 40
2457917.621597211
  9
$TDUCREATE
 40
2457917.246597222
  9
$TDUPDATE
 40
2457917.621597211
  9
$TDUUPDATE
 40
2457917.246597222
  9
$TDINDWG
 40
0.0000000116
  9
$TDUSRTIMER
 40
0.0000000116
  9
$USRTIMER
 70
     1
  9
$ANGBASE
 50
0.0
  9
$ANGDIR
 70
     0
  9
$PDMODE
 70
     0
  9
$PDSIZE
 40
0.0
  9
$PLINEWID
 40
0.0
  9
$SPLFRAME
 70
     0
  9
$SPLINETYPE
 70
     6
  9
$SPLINESEGS
 70
     8
  9
$HANDSEED
  5
99
  9
$SURFTAB1
 70
     6
  9
$SURFTAB2
 70
     6
  9
$SURFTYPE
 70
     6
  9
$SURFU
 70
     6
  9
$SURFV
 70
     6
  9
$UCSBASE
  2

  9
$UCSNAME
  2

  9
$UCSORG
 10
0.0
 20
0.0
 30
0.0
  9
$UCSXDIR
 10
1.0
 20
0.0
 30
0.0
  9
$UCSYDIR
 10
0.0
 20
1.0
 30
0.0
  9
$UCSORTHOREF
  2

  9
$UCSORTHOVIEW
 70
     0
  9
$UCSORGTOP
 10
0.0
 20
0.0
 30
0.0
  9
$UCSORGBOTTOM
 10
0.0
 20
0.0
 30
0.0
  9
$UCSORGLEFT
 10
0.0
 20
0.0
 30
0.0
  9
$UCSORGRIGHT
 10
0.0
 20
0.0
 30
0.0
  9
$UCSORGFRONT
 10
0.0
 20
0.0
 30
0.0
  9
$UCSORGBACK
 10
0.0
 20
0.0
 30
0.0
  9
$PUCSBASE
  2

  9
$PUCSNAME
  2

  9
$PUCSORG
 10
0.0
 20
0.0
 30
0.0
  9
$PUCSXDIR
 10
1.0
 20
0.0
 30
0.0
  9
$PUCSYDIR
 10
0.0
 20
1.0
 30
0.0
  9
$PUCSORTHOREF
  2

  9
$PUCSORTHOVIEW
 70
     0
  9
$PUCSORGTOP
 10
0.0
 20
0.0
 30
0.0
  9
$PUCSORGBOTTOM
 10
0.0
 20
0.0
 30
0.0
  9
$PUCSORGLEFT
 10
0.0
 20
0.0
 30
0.0
  9
$PUCSORGRIGHT
 10
0.0
 20
0.0
 30
0.0
  9
$PUCSORGFRONT
 10
0.0
 20
0.0
 30
0.0
  9
$PUCSORGBACK
 10
0.0
 20
0.0
 30
0.0
  9
$USERI1
 70
     0
  9
$USERI2
 70
     0
  9
$USERI3
 70
     0
  9
$USERI4
 70
     0
  9
$USERI5
 70
     0
  9
$USERR1
 40
0.0
  9
$USERR2
 40
0.0
  9
$USERR3
 40
0.0
  9
$USERR4
 40
0.0
  9
$USERR5
 40
0.0
  9
$WORLDVIEW
 70
     1
  9
$SHADEDGE
 70
     3
  9
$SHADEDIF
 70
    70
  9
$TILEMODE
 70
     1
  9
$MAXACTVP
 70
    64
  9
$PINSBASE
 10
0.0
 20
0.0
 30
0.0
  9
$PLIMCHECK
 70
     0
  9
$PEXTMIN
 10
1.000000000000000E+20
 20
1.000000000000000E+20
 30
1.000000000000000E+20
  9
$PEXTMAX
 10
-1.000000000000000E+20
 20
-1.000000000000000E+20
 30
-1.000000000000000E+20
  9
$PLIMMIN
 10
0.0
 20
0.0
  9
$PLIMMAX
 10
12.0
 20
9.0
  9
$UNITMODE
 70
     0
  9
$VISRETAIN
 70
     1
  9
$PLINEGEN
 70
     0
  9
$PSLTSCALE
 70
     1
  9
$TREEDEPTH
 70
  3020
  9
$CMLSTYLE
  2
Standard
  9
$CMLJUST
 70
     0
  9
$CMLSCALE
 40
1.0
  9
$PROXYGRAPHICS
 70
     1
  9
$MEASUREMENT
 70
     0
  9
$CELWEIGHT
370
    -1
  9
$ENDCAPS
280
     0
  9
$JOINSTYLE
280
     0
  9
$LWDISPLAY
290
     1
  9
$INSUNITS
 70
     1
  9
$HYPERLINKBASE
  1

  9
$STYLESHEET
  1

  9
$XEDIT
290
     1
  9
$CEPSNTYPE
380
     0
  9
$PSTYLEMODE
290
     1
  9
$FINGERPRINTGUID
  2
{787AA7FE-57E9-96CF-11B9-A8B4D90F78CC}
  9
$VERSIONGUID
  2
{FAEB1C32-E019-11D5-929B-00C0DF256EC4}
  9
$EXTNAMES
290
     1
  9
$PSVPSCALE
 40
0.0
  9
$OLESTARTUP
290
     0
  9
$SORTENTS
280
   127
  9
$INDEXCTL
280
     0
  9
$HIDETEXT
280
     1
  9
$XCLIPFRAME
280
     2
  9
$HALOGAP
280
     0
  9
$OBSCOLOR
 70
   257
  9
$OBSLTYPE
280
     0
  9
$INTERSECTIONDISPLAY
280
     0
  9
$INTERSECTIONCOLOR
 70
   257
  9
$DIMASSOC
280
     2
  9
$PROJECTNAME
  1

  9
$CAMERADISPLAY
290
     0
  9
$LENSLENGTH
 40
50.0
  9
$CAMERAHEIGHT
 40
0.0
  9
$STEPSPERSEC
 40
2.0
  9
$STEPSIZE
 40
6.0
  9
$3DDWFPREC
 40
2.0
  9
$PSOLWIDTH
 40
0.25
  9
$PSOLHEIGHT
 40
4.0
  9
$LOFTANG1
 40
1.570796326794897
  9
$LOFTANG2
 40
1.570796326794897
  9
$LOFTMAG1
 40
0.0
  9
$LOFTMAG2
 40
0.0
  9
$LOFTPARAM
 70
     7
  9
$LOFTNORMALS
280
     1
  9
$LATITUDE
 40
37.795
  9
$LONGITUDE
 40
-122.394
  9
$NORTHDIRECTION
 40
0.0
  9
$TIMEZONE
 70
 -8000
  9
$LIGHTGLYPHDISPLAY
280
     1
  9
$TILEMODELIGHTSYNCH
280
     1
  9
$CMATERIAL
347
3C
  9
$SOLIDHIST
280
     1
  9
$SHOWHIST
280
     1
  9
$DWFFRAME
280
     2
  9
$DGNFRAME
280
     2
  9
$REALWORLDSCALE
290
     1
  9
$INTERFERECOLOR
 62
   256
  9
$CSHADOW
280
     0
  9
$SHADOWPLANELOCATION
 40
0.0
  0
ENDSEC
  0
SECTION
  2
CLASSES
  0
CLASS
  1
ACDBDICTIONARYWDFLT
  2
AcDbDictionaryWithDefault
  3
ObjectDBX Classes
 90
        0
 91
        4
280
     0
281
     0
  0
CLASS
  1
VISUALSTYLE
  2
AcDbVisualStyle
  3
ObjectDBX Classes
 90
     4095
 91
        4
280
     0
281
     0
  0
CLASS
  1
MATERIAL
  2
AcDbMaterial
  3
ObjectDBX Classes
 90
     1153
 91
        4
280
     0
281
     0
  0
CLASS
  1
SUN
  2
AcDbSun
  3
SCENEOE
 90
     1024
 91
        4
280
     0
281
     0
  0
ENDSEC
  0
SECTION
  2
TABLES
  0
TABLE
  2
VPORT
  5
8
330
0
100
AcDbSymbolTable
 70
     1
  0
VPORT
  5
29
330
8
100
AcDbSymbolTableRecord
100
AcDbViewportTableRecord
  2
*Active
 70
     0
 10
0.0
 20
0.0
 11
1.0
 21
1.0
 12
0.0
 22
0.0
 13
0.0
 23
0.0
 14
0.5
 24
0.5
 15
0.5
 25
0.5
 16
0.0
 26
0.0
 36
1.0
 17
91.00082462281999
 27
-128.4993055234307
 37
0.0
 40
256.9986110468615
 41
0.7081814508812795
 42
50.0
 43
0.0
 44
0.0
 50
0.0
 51
0.0
 71
     0
 72
   100
 73
     1
 74
     3
 75
     0
 76
     0
 77
     0
 78
     0
281
     0
 65
     1
110
0.0
120
0.0
130
0.0
111
1.0
121
0.0
131
0.0
112
0.0
122
1.0
132
0.0
 79
     0
146
0.0
 60
     3
 61
     5
292
     1
282
     1
141
0.0
142
0.0
 63
   250
361
3F
  0
ENDTAB
  0
TABLE
  2
LTYPE
  5
5
330
0
100
AcDbSymbolTable
 70
     1
  0
LTYPE
  5
14
330
5
100
AcDbSymbolTableRecord
100
AcDbLinetypeTableRecord
  2
ByBlock
 70
     0
  3

 72
    65
 73
     0
 40
0.0
  0
LTYPE
  5
15
330
5
100
AcDbSymbolTableRecord
100
AcDbLinetypeTableRecord
  2
ByLayer
 70
     0
  3

 72
    65
 73
     0
 40
0.0
  0
LTYPE
  5
16
330
5
100
AcDbSymbolTableRecord
100
AcDbLinetypeTableRecord
  2
Continuous
 70
     0
  3
Solid line
 72
    65
 73
     0
 40
0.0
  0
ENDTAB
  0
TABLE
  2
LAYER
  5
2
330
0
100
AcDbSymbolTable
 70
     2
  0
LAYER
  5
10
330
2
100
AcDbSymbolTableRecord
100
AcDbLayerTableRecord
  2
0
 70
     0
 62
     7
  6
Continuous
370
    -3
390
F
347
3E
  0
LAYER
  5
40
330
2
100
AcDbSymbolTableRecord
100
AcDbLayerTableRecord
  2
_U+30EC_U+30A4_U+30E4_U+30FC 1
 70
     0
 62
     7
  6
Continuous
370
    -3
390
F
347
3E
  0
ENDTAB
  0
TABLE
  2
STYLE
  5
3
330
0
100
AcDbSymbolTable
 70
     1
  0
STYLE
  5
11
330
3
100
AcDbSymbolTableRecord
100
AcDbTextStyleTableRecord
  2
Standard
 70
     0
 40
0.0
 41
1.0
 50
0.0
 71
     0
 42
0.2
  3
txt
  4

  0
ENDTAB
  0
TABLE
  2
VIEW
  5
6
330
0
100
AcDbSymbolTable
 70
     0
  0
ENDTAB
  0
TABLE
  2
UCS
  5
7
330
0
100
AcDbSymbolTable
 70
     0
  0
ENDTAB
  0
TABLE
  2
APPID
  5
9
330
0
100
AcDbSymbolTable
 70
     1
  0
APPID
  5
12
330
9
100
AcDbSymbolTableRecord
100
AcDbRegAppTableRecord
  2
ACAD
 70
     0
  0
ENDTAB
  0
TABLE
  2
DIMSTYLE
  5
A
330
0
100
AcDbSymbolTable
 70
     1
100
AcDbDimStyleTable
  0
DIMSTYLE
105
27
330
A
100
AcDbSymbolTableRecord
100
AcDbDimStyleTableRecord
  2
Standard
 70
     0
178
     0
340
11
  0
ENDTAB
  0
TABLE
  2
BLOCK_RECORD
  5
1
330
0
100
AcDbSymbolTable
 70
     5
  0
BLOCK_RECORD
  5
1F
330
1
100
AcDbSymbolTableRecord
100
AcDbBlockTableRecord
  2
*Model_Space
340
22
 70
     0
280
     1
281
     0
  0
BLOCK_RECORD
  5
1B
330
1
100
AcDbSymbolTableRecord
100
AcDbBlockTableRecord
  2
*Paper_Space
340
1E
 70
     0
280
     1
281
     0
  0
BLOCK_RECORD
  5
23
330
1
100
AcDbSymbolTableRecord
100
AcDbBlockTableRecord
  2
*Paper_Space0
340
26
 70
     0
280
     1
281
     0
  0
BLOCK_RECORD
  5
56
330
1
100
AcDbSymbolTableRecord
100
AcDbBlockTableRecord
  2
block 2
340
0
102
{BLKREFS
331
57
102
}
 70
     0
280
     1
281
     0
  0
BLOCK_RECORD
  5
5C
330
1
100
AcDbSymbolTableRecord
100
AcDbBlockTableRecord
  2
block 3
340
0
102
{BLKREFS
331
5D
102
}
 70
     0
280
     1
281
     0
  0
BLOCK_RECORD
  5
75
330
1
100
AcDbSymbolTableRecord
100
AcDbBlockTableRecord
  2
block 4
340
0
102
{BLKREFS
331
76
102
}
 70
     0
280
     1
281
     0
  0
BLOCK_RECORD
  5
7C
330
1
100
AcDbSymbolTableRecord
100
AcDbBlockTableRecord
  2
block 5
340
0
102
{BLKREFS
331
7D
102
}
 70
     0
280
     1
281
     0
  0
ENDTAB
  0
ENDSEC
  0
SECTION
  2
BLOCKS
  0
BLOCK
  5
20
330
1F
100
AcDbEntity
  8
0
100
AcDbBlockBegin
  2
*Model_Space
 70
     0
 10
0.0
 20
0.0
 30
0.0
  3
*Model_Space
  1

  0
ENDBLK
  5
21
330
1F
100
AcDbEntity
  8
0
100
AcDbBlockEnd
  0
BLOCK
  5
1C
330
1B
100
AcDbEntity
 67
     1
  8
0
100
AcDbBlockBegin
  2
*Paper_Space
 70
     0
 10
0.0
 20
0.0
 30
0.0
  3
*Paper_Space
  1

  0
ENDBLK
  5
1D
330
1B
100
AcDbEntity
 67
     1
  8
0
100
AcDbBlockEnd
  0
BLOCK
  5
24
330
23
100
AcDbEntity
  8
0
100
AcDbBlockBegin
  2
*Paper_Space0
 70
     0
 10
0.0
 20
0.0
 30
0.0
  3
*Paper_Space0
  1

  0
ENDBLK
  5
25
330
23
100
AcDbEntity
  8
0
100
AcDbBlockEnd
  0
BLOCK
  5
58
330
56
100
AcDbEntity
  8
0
100
AcDbBlockBegin
  2
block 2
 70
     0
 10
0.0
 20
0.0
 30
0.0
  3
block 2
  1

  0
SPLINE
  5
5A
330
56
100
AcDbEntity
  8
_U+30EC_U+30A4_U+30E4_U+30FC 1
370
     0
100
AcDbSpline
210
0.0
220
0.0
230
1.0
 70
    11
 71
     3
 72
    26
 73
    22
 74
     0
 42
0.0000000001
 43
0.0000000001
 12
1.0
 22
0.0
 32
0.0
 13
1.0
 23
0.0
 33
0.0
 40
0.0
 40
0.0
 40
0.0
 40
0.0
 40
1.0
 40
1.0
 40
1.0
 40
2.0
 40
2.0
 40
2.0
 40
3.0
 40
3.0
 40
3.0
 40
4.0
 40
4.0
 40
4.0
 40
5.0
 40
5.0
 40
5.0
 40
6.0
 40
6.0
 40
6.0
 40
7.0
 40
7.0
 40
7.0
 40
7.0
 10
98.34782983652416
 20
-124.9481010972352
 30
0.0
 10
98.34782983652416
 20
-124.9481010972352
 30
0.0
 10
97.24367673350159
 20
-124.9481010972352
 30
0.0
 10
97.24367673350159
 20
-124.9481010972352
 30
0.0
 10
97.24367673350159
 20
-124.9481010972352
 30
0.0
 10
97.24367673350159
 20
-125.2781412447221
 30
0.0
 10
97.24367673350159
 20
-125.2781412447221
 30
0.0
 10
97.24367673350159
 20
-125.2781412447221
 30
0.0
 10
97.09553762763585
 20
-125.2781412447221
 30
0.0
 10
97.09553762763585
 20
-125.2781412447221
 30
0.0
 10
97.08072371704927
 20
-124.9460340399441
 30
0.0
 10
96.91777070059695
 20
-124.8995252508932
 30
0.0
 10
96.80339353048666
 20
-124.86989742972
 30
0.0
 10
96.80339353048666
 20
-124.86989742972
 30
0.0
 10
96.80339353048666
 20
-124.7238253811454
 30
0.0
 10
96.80339353048666
 20
-124.7238253811454
 30
0.0
 10
96.80339353048666
 20
-124.7238253811454
 30
0.0
 10
98.34782983652416
 20
-124.7238253811454
 30
0.0
 10
98.34782983652416
 20
-124.7238253811454
 30
0.0
 10
98.34782983652416
 20
-124.7238253811454
 30
0.0
 10
98.34782983652416
 20
-124.9481010972352
 30
0.0
 10
98.34782983652416
 20
-124.9481010972352
 30
0.0
  0
HATCH
  5
5B
330
56
100
AcDbEntity
  8
_U+30EC_U+30A4_U+30E4_U+30FC 1
 62
   179
420
  2234388
100
AcDbHatch
 10
0.0
 20
0.0
 30
0.0
210
0.0
220
0.0
230
1.0
  2
SOLID
 70
     1
 71
     0
 91
        1
 92
        1
 93
        1
 72
     4
 94
        3
 73
     0
 74
     1
 95
       26
 96
       22
 40
0.0
 40
0.0
 40
0.0
 40
0.0
 40
1.0
 40
1.0
 40
1.0
 40
2.0
 40
2.0
 40
2.0
 40
3.0
 40
3.0
 40
3.0
 40
4.0
 40
4.0
 40
4.0
 40
5.0
 40
5.0
 40
5.0
 40
6.0
 40
6.0
 40
6.0
 40
7.0
 40
7.0
 40
7.0
 40
7.0
 10
98.34782983652416
 20
-124.9481010972352
 10
98.34782983652416
 20
-124.9481010972352
 10
97.24367673350159
 20
-124.9481010972352
 10
97.24367673350159
 20
-124.9481010972352
 10
97.24367673350159
 20
-124.9481010972352
 10
97.24367673350159
 20
-125.2781412447221
 10
97.24367673350159
 20
-125.2781412447221
 10
97.24367673350159
 20
-125.2781412447221
 10
97.09553762763585
 20
-125.2781412447221
 10
97.09553762763585
 20
-125.2781412447221
 10
97.08072371704927
 20
-124.9460340399441
 10
96.91777070059695
 20
-124.8995252508932
 10
96.80339353048666
 20
-124.86989742972
 10
96.80339353048666
 20
-124.86989742972
 10
96.80339353048666
 20
-124.7238253811454
 10
96.80339353048666
 20
-124.7238253811454
 10
96.80339353048666
 20
-124.7238253811454
 10
98.34782983652416
 20
-124.7238253811454
 10
98.34782983652416
 20
-124.7238253811454
 10
98.34782983652416
 20
-124.7238253811454
 10
98.34782983652416
 20
-124.9481010972352
 10
98.34782983652416
 20
-124.9481010972352
 97
        0
 97
        0
 75
     2
 76
     1
 98
        0
  0
ENDBLK
  5
59
330
56
100
AcDbEntity
  8
0
100
AcDbBlockEnd
  0
BLOCK
  5
5E
330
5C
100
AcDbEntity
  8
0
100
AcDbBlockBegin
  2
block 3
 70
     0
 10
0.0
 20
0.0
 30
0.0
  3
block 3
  1

  0
SPLINE
  5
60
330
5C
100
AcDbEntity
  8
_U+30EC_U+30A4_U+30E4_U+30FC 1
370
     0
100
AcDbSpline
210
0.0
220
0.0
230
1.0
 70
    11
 71
     3
 72
    32
 73
    28
 74
     0
 42
0.0000000001
 43
0.0000000001
 12
1.0
 22
0.0
 32
0.0
 13
1.0
 23
0.0
 33
0.0
 40
0.0
 40
0.0
 40
0.0
 40
0.0
 40
1.0
 40
1.0
 40
1.0
 40
2.0
 40
2.0
 40
2.0
 40
3.0
 40
3.0
 40
3.0
 40
4.0
 40
4.0
 40
4.0
 40
5.0
 40
5.0
 40
5.0
 40
6.0
 40
6.0
 40
6.0
 40
7.0
 40
7.0
 40
7.0
 40
8.0
 40
8.0
 40
8.0
 40
9.0
 40
9.0
 40
9.0
 40
9.0
 10
98.45772838250363
 20
-129.6320529189809
 30
0.0
 10
98.45772838250363
 20
-130.1481282226713
 30
0.0
 10
97.90375702847545
 20
-130.1563964518359
 30
0.0
 10
97.68981659884145
 20
-130.1563964518359
 30
0.0
 10
97.45933971087823
 20
-130.1563964518359
 30
0.0
 10
96.81200626919978
 20
-130.137448426667
 30
0.0
 10
96.81200626919978
 20
-129.5938123590946
 30
0.0
 10
96.81200626919978
 20
-129.4205240561865
 30
0.0
 10
96.88194170755035
 20
-129.1748887480882
 30
0.0
 10
97.21404891232844
 20
-129.1369926977505
 30
0.0
 10
97.21404891232844
 20
-129.1369926977505
 30
0.0
 10
97.21404891232844
 20
-129.350588617836
 30
0.0
 10
97.21404891232844
 20
-129.350588617836
 30
0.0
 10
97.1568603272733
 20
-129.3612684138402
 30
0.0
 10
97.00872122140754
 20
-129.3929632923045
 30
0.0
 10
97.00872122140754
 20
-129.5958794163858
 30
0.0
 10
97.00872122140754
 20
-129.8880235135349
 30
0.0
 10
97.33669431160332
 20
-129.9279866211639
 30
0.0
 10
97.5416774929757
 20
-129.9407334744593
 30
0.0
 10
97.46347382546053
 20
-129.8477158963575
 30
0.0
 10
97.40421818311422
 20
-129.7798475152981
 30
0.0
 10
97.40421818311422
 20
-129.5979464736769
 30
0.0
 10
97.40421818311422
 20
-129.4181124893469
 30
0.0
 10
97.51239418135107
 20
-129.1156331057419
 30
0.0
 10
97.91857093906202
 20
-129.1156331057419
 30
0.0
 10
98.2379312905447
 20
-129.1156331057419
 30
0.0
 10
98.45772838250363
 20
-129.3147596247894
 30
0.0
 10
98.45772838250363
 20
-129.6320529189809
 30
0.0
  0
SPLINE
  5
61
330
5C
100
AcDbEntity
  8
_U+30EC_U+30A4_U+30E4_U+30FC 1
370
     0
100
AcDbSpline
210
0.0
220
0.0
230
1.0
 70
    11
 71
     3
 72
    17
 73
    13
 74
     0
 42
0.0000000001
 43
0.0000000001
 12
1.0
 22
0.0
 32
0.0
 13
1.0
 23
0.0
 33
0.0
 40
0.0
 40
0.0
 40
0.0
 40
0.0
 40
1.0
 40
1.0
 40
1.0
 40
2.0
 40
2.0
 40
2.0
 40
3.0
 40
3.0
 40
3.0
 40
4.0
 40
4.0
 40
4.0
 40
4.0
 10
97.59886607803084
 20
-129.6148274415546
 30
0.0
 10
97.59886607803084
 20
-129.8773437175307
 30
0.0
 10
97.81039494082518
 20
-129.9152397678684
 30
0.0
 10
97.92683916822662
 20
-129.9152397678684
 30
0.0
 10
98.10253903797437
 20
-129.9152397678684
 30
0.0
 10
98.26549205442669
 20
-129.8201551324755
 30
0.0
 10
98.26549205442669
 20
-129.6361870335632
 30
0.0
 10
98.26549205442669
 20
-129.5156086915794
 30
0.0
 10
98.20623641208039
 20
-129.3399088218317
 30
0.0
 10
97.92063799635318
 20
-129.3399088218317
 30
0.0
 10
97.69636228026341
 20
-129.3399088218317
 30
0.0
 10
97.59886607803084
 20
-129.4797796985328
 30
0.0
 10
97.59886607803084
 20
-129.6148274415546
 30
0.0
  0
HATCH
  5
62
330
5C
100
AcDbEntity
  8
_U+30EC_U+30A4_U+30E4_U+30FC 1
 62
   179
420
  2234388
100
AcDbHatch
 10
0.0
 20
0.0
 30
0.0
210
0.0
220
0.0
230
1.0
  2
SOLID
 70
     1
 71
     0
 91
        2
 92
        1
 93
        1
 72
     4
 94
        3
 73
     0
 74
     1
 95
       32
 96
       28
 40
0.0
 40
0.0
 40
0.0
 40
0.0
 40
1.0
 40
1.0
 40
1.0
 40
2.0
 40
2.0
 40
2.0
 40
3.0
 40
3.0
 40
3.0
 40
4.0
 40
4.0
 40
4.0
 40
5.0
 40
5.0
 40
5.0
 40
6.0
 40
6.0
 40
6.0
 40
7.0
 40
7.0
 40
7.0
 40
8.0
 40
8.0
 40
8.0
 40
9.0
 40
9.0
 40
9.0
 40
9.0
 10
98.45772838250363
 20
-129.6320529189809
 10
98.45772838250363
 20
-130.1481282226713
 10
97.90375702847545
 20
-130.1563964518359
 10
97.68981659884145
 20
-130.1563964518359
 10
97.45933971087823
 20
-130.1563964518359
 10
96.81200626919978
 20
-130.137448426667
 10
96.81200626919978
 20
-129.5938123590946
 10
96.81200626919978
 20
-129.4205240561865
 10
96.88194170755035
 20
-129.1748887480882
 10
97.21404891232844
 20
-129.1369926977505
 10
97.21404891232844
 20
-129.1369926977505
 10
97.21404891232844
 20
-129.350588617836
 10
97.21404891232844
 20
-129.350588617836
 10
97.1568603272733
 20
-129.3612684138402
 10
97.00872122140754
 20
-129.3929632923045
 10
97.00872122140754
 20
-129.5958794163858
 10
97.00872122140754
 20
-129.8880235135349
 10
97.33669431160332
 20
-129.9279866211639
 10
97.5416774929757
 20
-129.9407334744593
 10
97.46347382546053
 20
-129.8477158963575
 10
97.40421818311422
 20
-129.7798475152981
 10
97.40421818311422
 20
-129.5979464736769
 10
97.40421818311422
 20
-129.4181124893469
 10
97.51239418135107
 20
-129.1156331057419
 10
97.91857093906202
 20
-129.1156331057419
 10
98.2379312905447
 20
-129.1156331057419
 10
98.45772838250363
 20
-129.3147596247894
 10
98.45772838250363
 20
-129.6320529189809
 97
        0
 97
        0
 92
        1
 93
        1
 72
     4
 94
        3
 73
     0
 74
     1
 95
       17
 96
       13
 40
0.0
 40
0.0
 40
0.0
 40
0.0
 40
1.0
 40
1.0
 40
1.0
 40
2.0
 40
2.0
 40
2.0
 40
3.0
 40
3.0
 40
3.0
 40
4.0
 40
4.0
 40
4.0
 40
4.0
 10
97.59886607803084
 20
-129.6148274415546
 10
97.59886607803084
 20
-129.8773437175307
 10
97.81039494082518
 20
-129.9152397678684
 10
97.92683916822662
 20
-129.9152397678684
 10
98.10253903797437
 20
-129.9152397678684
 10
98.26549205442669
 20
-129.8201551324755
 10
98.26549205442669
 20
-129.6361870335632
 10
98.26549205442669
 20
-129.5156086915794
 10
98.20623641208039
 20
-129.3399088218317
 10
97.92063799635318
 20
-129.3399088218317
 10
97.69636228026341
 20
-129.3399088218317
 10
97.59886607803084
 20
-129.4797796985328
 10
97.59886607803084
 20
-129.6148274415546
 97
        0
 97
        0
 75
     2
 76
     1
 98
        0
  0
POLYLINE
  5
63
330
5C
100
AcDbEntity
  8
_U+30EC_U+30A4_U+30E4_U+30FC 1
370
     0
100
AcDb2dPolyline
 66
     1
 10
0.0
 20
0.0
 30
0.0
  0
VERTEX
  5
64
330
63
100
AcDbEntity
  8
_U+30EC_U+30A4_U+30E4_U+30FC 1
370
     0
100
AcDbVertex
100
AcDb2dVertex
 10
98.40708547887046
 20
-128.8992811092682
 30
0.0
  0
VERTEX
  5
65
330
63
100
AcDbEntity
  8
_U+30EC_U+30A4_U+30E4_U+30FC 1
370
     0
100
AcDbVertex
100
AcDb2dVertex
 10
98.1552489988987
 20
-128.8992811092682
 30
0.0
  0
VERTEX
  5
66
330
63
100
AcDbEntity
  8
_U+30EC_U+30A4_U+30E4_U+30FC 1
370
     0
100
AcDbVertex
100
AcDb2dVertex
 10
98.1552489988987
 20
-128.6476168840707
 30
0.0
  0
VERTEX
  5
67
330
63
100
AcDbEntity
  8
_U+30EC_U+30A4_U+30E4_U+30FC 1
370
     0
100
AcDbVertex
100
AcDb2dVertex
 10
98.40708547887046
 20
-128.6476168840707
 30
0.0
  0
VERTEX
  5
68
330
63
100
AcDbEntity
  8
_U+30EC_U+30A4_U+30E4_U+30FC 1
370
     0
100
AcDbVertex
100
AcDb2dVertex
 10
98.40708547887046
 20
-128.8992811092682
 30
0.0
  0
SEQEND
  5
69
330
63
100
AcDbEntity
  8
_U+30EC_U+30A4_U+30E4_U+30FC 1
370
     0
  0
HATCH
  5
6A
330
5C
100
AcDbEntity
  8
_U+30EC_U+30A4_U+30E4_U+30FC 1
 62
   179
420
  2234388
100
AcDbHatch
 10
0.0
 20
0.0
 30
0.0
210
0.0
220
0.0
230
1.0
  2
SOLID
 70
     1
 71
     0
 91
        1
 92
        1
 93
        4
 72
     1
 10
98.40708547887046
 20
-128.8992811092682
 11
98.1552489988987
 21
-128.8992811092682
 72
     1
 10
98.1552489988987
 20
-128.8992811092682
 11
98.1552489988987
 21
-128.6476168840707
 72
     1
 10
98.1552489988987
 20
-128.6476168840707
 11
98.40708547887046
 21
-128.6476168840707
 72
     1
 10
98.40708547887046
 20
-128.6476168840707
 11
98.40708547887046
 21
-128.8992811092682
 97
        0
 75
     2
 76
     1
 98
        0
  0
SPLINE
  5
6B
330
5C
100
AcDbEntity
  8
_U+30EC_U+30A4_U+30E4_U+30FC 1
370
     0
100
AcDbSpline
210
0.0
220
0.0
230
1.0
 70
    11
 71
     3
 72
    53
 73
    49
 74
     0
 42
0.0000000001
 43
0.0000000001
 12
1.0
 22
0.0
 32
0.0
 13
1.0
 23
0.0
 33
0.0
 40
0.0
 40
0.0
 40
0.0
 40
0.0
 40
1.0
 40
1.0
 40
1.0
 40
2.0
 40
2.0
 40
2.0
 40
3.0
 40
3.0
 40
3.0
 40
4.0
 40
4.0
 40
4.0
 40
5.0
 40
5.0
 40
5.0
 40
6.0
 40
6.0
 40
6.0
 40
7.0
 40
7.0
 40
7.0
 40
8.0
 40
8.0
 40
8.0
 40
9.0
 40
9.0
 40
9.0
 40
10.0
 40
10.0
 40
10.0
 40
11.0
 40
11.0
 40
11.0
 40
12.0
 40
12.0
 40
12.0
 40
13.0
 40
13.0
 40
13.0
 40
14.0
 40
14.0
 40
14.0
 40
15.0
 40
15.0
 40
15.0
 40
16.0
 40
16.0
 40
16.0
 40
16.0
 10
98.45772838250363
 20
-127.9301757492675
 30
0.0
 10
98.45772838250363
 20
-128.0083794167826
 30
0.0
 10
98.4408474146259
 20
-128.1100097335975
 30
0.0
 10
98.3774576576973
 20
-128.2114677956381
 30
0.0
 10
98.26755911171783
 20
-128.3849283533204
 30
0.0
 10
98.13630097372982
 20
-128.4061156905547
 30
0.0
 10
98.0284694850415
 20
-128.4252359704979
 30
0.0
 10
98.0284694850415
 20
-128.4252359704979
 30
0.0
 10
98.0284694850415
 20
-128.2030273116993
 30
0.0
 10
98.0284694850415
 20
-128.2030273116993
 30
0.0
 10
98.22725149454041
 20
-128.1480780387095
 30
0.0
 10
98.25687931571356
 20
-128.0211262700781
 30
0.0
 10
98.25687931571356
 20
-127.9281086919763
 30
0.0
 10
98.25687931571356
 20
-127.7884100700494
 30
0.0
 10
98.15731605618984
 20
-127.6361368496014
 30
0.0
 10
97.92477211093548
 20
-127.6361368496014
 30
0.0
 10
97.66880151638142
 20
-127.6361368496014
 30
0.0
 10
97.59886607803084
 20
-127.8159708339314
 30
0.0
 10
97.59886607803084
 20
-127.9365491759152
 30
0.0
 10
97.59886607803084
 20
-127.9682440543795
 30
0.0
 10
97.59886607803084
 20
-128.1100097335975
 30
0.0
 10
97.72805715872771
 20
-128.1988931971169
 30
0.0
 10
97.72805715872771
 20
-128.1988931971169
 30
0.0
 10
97.70910913355884
 20
-128.3744208120904
 30
0.0
 10
97.70910913355884
 20
-128.3744208120904
 30
0.0
 10
97.70910913355884
 20
-128.3744208120904
 30
0.0
 10
96.86264917283296
 20
-128.2538424701067
 30
0.0
 10
96.86264917283296
 20
-128.2538424701067
 30
0.0
 10
96.86264917283296
 20
-128.2538424701067
 30
0.0
 10
96.86264917283296
 20
-127.4752508904402
 30
0.0
 10
96.86264917283296
 20
-127.4752508904402
 30
0.0
 10
96.86264917283296
 20
-127.4752508904402
 30
0.0
 10
97.05729706774957
 20
-127.4752508904402
 30
0.0
 10
97.05729706774957
 20
-127.4752508904402
 30
0.0
 10
97.05729706774957
 20
-127.4752508904402
 30
0.0
 10
97.05729706774957
 20
-128.0908894536544
 30
0.0
 10
97.05729706774957
 20
-128.0908894536544
 30
0.0
 10
97.05729706774957
 20
-128.0908894536544
 30
0.0
 10
97.48035479333825
 20
-128.1565185226484
 30
0.0
 10
97.48035479333825
 20
-128.1565185226484
 30
0.0
 10
97.4465928575828
 20
-128.0951958230109
 30
0.0
 10
97.40628524040538
 20
-128.0126857861392
 30
0.0
 10
97.40628524040538
 20
-127.8941745014466
 30
0.0
 10
97.40628524040538
 20
-127.6402709641837
 30
0.0
 10
97.5926649061574
 20
-127.4034206495728
 30
0.0
 10
97.90582408576661
 20
-127.4034206495728
 30
0.0
 10
98.22311737995811
 20
-127.4034206495728
 30
0.0
 10
98.45772838250363
 20
-127.6276963656625
 30
0.0
 10
98.45772838250363
 20
-127.9301757492675
 30
0.0
  0
HATCH
  5
6C
330
5C
100
AcDbEntity
  8
_U+30EC_U+30A4_U+30E4_U+30FC 1
 62
   179
420
  2234388
100
AcDbHatch
 10
0.0
 20
0.0
 30
0.0
210
0.0
220
0.0
230
1.0
  2
SOLID
 70
     1
 71
     0
 91
        1
 92
        1
 93
        1
 72
     4
 94
        3
 73
     0
 74
     1
 95
       53
 96
       49
 40
0.0
 40
0.0
 40
0.0
 40
0.0
 40
1.0
 40
1.0
 40
1.0
 40
2.0
 40
2.0
 40
2.0
 40
3.0
 40
3.0
 40
3.0
 40
4.0
 40
4.0
 40
4.0
 40
5.0
 40
5.0
 40
5.0
 40
6.0
 40
6.0
 40
6.0
 40
7.0
 40
7.0
 40
7.0
 40
8.0
 40
8.0
 40
8.0
 40
9.0
 40
9.0
 40
9.0
 40
10.0
 40
10.0
 40
10.0
 40
11.0
 40
11.0
 40
11.0
 40
12.0
 40
12.0
 40
12.0
 40
13.0
 40
13.0
 40
13.0
 40
14.0
 40
14.0
 40
14.0
 40
15.0
 40
15.0
 40
15.0
 40
16.0
 40
16.0
 40
16.0
 40
16.0
 10
98.45772838250363
 20
-127.9301757492675
 10
98.45772838250363
 20
-128.0083794167826
 10
98.4408474146259
 20
-128.1100097335975
 10
98.3774576576973
 20
-128.2114677956381
 10
98.26755911171783
 20
-128.3849283533204
 10
98.13630097372982
 20
-128.4061156905547
 10
98.0284694850415
 20
-128.4252359704979
 10
98.0284694850415
 20
-128.4252359704979
 10
98.0284694850415
 20
-128.2030273116993
 10
98.0284694850415
 20
-128.2030273116993
 10
98.22725149454041
 20
-128.1480780387095
 10
98.25687931571356
 20
-128.0211262700781
 10
98.25687931571356
 20
-127.9281086919763
 10
98.25687931571356
 20
-127.7884100700494
 10
98.15731605618984
 20
-127.6361368496014
 10
97.92477211093548
 20
-127.6361368496014
 10
97.66880151638142
 20
-127.6361368496014
 10
97.59886607803084
 20
-127.8159708339314
 10
97.59886607803084
 20
-127.9365491759152
 10
97.59886607803084
 20
-127.9682440543795
 10
97.59886607803084
 20
-128.1100097335975
 10
97.72805715872771
 20
-128.1988931971169
 10
97.72805715872771
 20
-128.1988931971169
 10
97.70910913355884
 20
-128.3744208120904
 10
97.70910913355884
 20
-128.3744208120904
 10
97.70910913355884
 20
-128.3744208120904
 10
96.86264917283296
 20
-128.2538424701067
 10
96.86264917283296
 20
-128.2538424701067
 10
96.86264917283296
 20
-128.2538424701067
 10
96.86264917283296
 20
-127.4752508904402
 10
96.86264917283296
 20
-127.4752508904402
 10
96.86264917283296
 20
-127.4752508904402
 10
97.05729706774957
 20
-127.4752508904402
 10
97.05729706774957
 20
-127.4752508904402
 10
97.05729706774957
 20
-127.4752508904402
 10
97.05729706774957
 20
-128.0908894536544
 10
97.05729706774957
 20
-128.0908894536544
 10
97.05729706774957
 20
-128.0908894536544
 10
97.48035479333825
 20
-128.1565185226484
 10
97.48035479333825
 20
-128.1565185226484
 10
97.4465928575828
 20
-128.0951958230109
 10
97.40628524040538
 20
-128.0126857861392
 10
97.40628524040538
 20
-127.8941745014466
 10
97.40628524040538
 20
-127.6402709641837
 10
97.5926649061574
 20
-127.4034206495728
 10
97.90582408576661
 20
-127.4034206495728
 10
98.22311737995811
 20
-127.4034206495728
 10
98.45772838250363
 20
-127.6276963656625
 10
98.45772838250363
 20
-127.9301757492675
 97
        0
 97
        0
 75
     2
 76
     1
 98
        0
  0
ENDBLK
  5
5F
330
5C
100
AcDbEntity
  8
0
100
AcDbBlockEnd
  0
BLOCK
  5
77
330
75
100
AcDbEntity
  8
0
100
AcDbBlockBegin
  2
block 4
 70
     0
 10
0.0
 20
0.0
 30
0.0
  3
block 4
  1

  0
SPLINE
  5
79
330
75
100
AcDbEntity
  8
_U+30EC_U+30A4_U+30E4_U+30FC 1
370
     0
100
AcDbSpline
210
0.0
220
0.0
230
1.0
 70
    11
 71
     3
 72
    32
 73
    28
 74
     0
 42
0.0000000001
 43
0.0000000001
 12
1.0
 22
0.0
 32
0.0
 13
1.0
 23
0.0
 33
0.0
 40
0.0
 40
0.0
 40
0.0
 40
0.0
 40
1.0
 40
1.0
 40
1.0
 40
2.0
 40
2.0
 40
2.0
 40
3.0
 40
3.0
 40
3.0
 40
4.0
 40
4.0
 40
4.0
 40
5.0
 40
5.0
 40
5.0
 40
6.0
 40
6.0
 40
6.0
 40
7.0
 40
7.0
 40
7.0
 40
8.0
 40
8.0
 40
8.0
 40
9.0
 40
9.0
 40
9.0
 40
9.0
 10
87.22499455284654
 20
-120.1752658119701
 30
0.0
 10
87.05170624993846
 20
-120.1752658119701
 30
0.0
 10
86.80607094184015
 20
-120.105674883168
 30
0.0
 10
86.76817489150241
 20
-119.77356767839
 30
0.0
 10
86.76817489150241
 20
-119.77356767839
 30
0.0
 10
86.9817708115879
 20
-119.77356767839
 30
0.0
 10
86.9817708115879
 20
-119.77356767839
 30
0.0
 10
86.99245060759218
 20
-119.8328233207362
 30
0.0
 10
87.02414548605647
 20
-119.9806179170535
 30
0.0
 10
87.22706161013768
 20
-119.9806179170535
 30
0.0
 10
87.51920570728687
 20
-119.9806179170535
 30
0.0
 10
87.55710175762462
 20
-119.6505777695665
 30
0.0
 10
87.56984861092005
 20
-119.4455945881942
 30
0.0
 10
87.47889809010944
 20
-119.5258653130005
 30
0.0
 10
87.41137421859855
 20
-119.5830538980556
 30
0.0
 10
87.22947317697736
 20
-119.5830538980556
 30
0.0
 10
87.04963919264732
 20
-119.5830538980556
 30
0.0
 10
86.74715980904239
 20
-119.4772894666585
 30
0.0
 10
86.74715980904239
 20
-119.0711127089475
 30
0.0
 10
86.74715980904239
 20
-118.7515801026906
 30
0.0
 10
86.9459418185413
 20
-118.5316107559574
 30
0.0
 10
87.2632351127328
 20
-118.5316107559574
 30
0.0
 10
87.77724335913209
 20
-118.5316107559574
 30
0.0
 10
87.78792315513635
 20
-119.0859266195341
 30
0.0
 10
87.78792315513635
 20
-119.2995225396196
 30
0.0
 10
87.78792315513635
 20
-119.5299994275828
 30
0.0
 10
87.76863062041896
 20
-120.1752658119701
 30
0.0
 10
87.22499455284654
 20
-120.1752658119701
 30
0.0
  0
SPLINE
  5
7A
330
75
100
AcDbEntity
  8
_U+30EC_U+30A4_U+30E4_U+30FC 1
370
     0
100
AcDbSpline
210
0.0
220
0.0
230
1.0
 70
    11
 71
     3
 72
    17
 73
    13
 74
     0
 42
0.0000000001
 43
0.0000000001
 12
1.0
 22
0.0
 32
0.0
 13
1.0
 23
0.0
 33
0.0
 40
0.0
 40
0.0
 40
0.0
 40
0.0
 40
1.0
 40
1.0
 40
1.0
 40
2.0
 40
2.0
 40
2.0
 40
3.0
 40
3.0
 40
3.0
 40
4.0
 40
4.0
 40
4.0
 40
4.0
 10
87.26530217002396
 20
-118.7241915935828
 30
0.0
 10
87.14679088533136
 20
-118.7241915935828
 30
0.0
 10
86.97109101558362
 20
-118.7812079238637
 30
0.0
 10
86.97109101558362
 20
-119.0668063395909
 30
0.0
 10
86.97109101558362
 20
-119.2931491129719
 30
0.0
 10
87.11096189228476
 20
-119.388406003139
 30
0.0
 10
87.24635414485508
 20
-119.388406003139
 30
0.0
 10
87.50852591128259
 20
-119.388406003139
 30
0.0
 10
87.54676647116887
 20
-119.1789441976358
 30
0.0
 10
87.54676647116887
 20
-119.0626722250086
 30
0.0
 10
87.54676647116887
 20
-118.8869723552609
 30
0.0
 10
87.45133732622745
 20
-118.7241915935828
 30
0.0
 10
87.26530217002396
 20
-118.7241915935828
 30
0.0
  0
HATCH
  5
7B
330
75
100
AcDbEntity
  8
_U+30EC_U+30A4_U+30E4_U+30FC 1
 62
   179
420
  2234388
100
AcDbHatch
 10
0.0
 20
0.0
 30
0.0
210
0.0
220
0.0
230
1.0
  2
SOLID
 70
     1
 71
     0
 91
        2
 92
        1
 93
        1
 72
     4
 94
        3
 73
     0
 74
     1
 95
       32
 96
       28
 40
0.0
 40
0.0
 40
0.0
 40
0.0
 40
1.0
 40
1.0
 40
1.0
 40
2.0
 40
2.0
 40
2.0
 40
3.0
 40
3.0
 40
3.0
 40
4.0
 40
4.0
 40
4.0
 40
5.0
 40
5.0
 40
5.0
 40
6.0
 40
6.0
 40
6.0
 40
7.0
 40
7.0
 40
7.0
 40
8.0
 40
8.0
 40
8.0
 40
9.0
 40
9.0
 40
9.0
 40
9.0
 10
87.22499455284654
 20
-120.1752658119701
 10
87.05170624993846
 20
-120.1752658119701
 10
86.80607094184015
 20
-120.105674883168
 10
86.76817489150241
 20
-119.77356767839
 10
86.76817489150241
 20
-119.77356767839
 10
86.9817708115879
 20
-119.77356767839
 10
86.9817708115879
 20
-119.77356767839
 10
86.99245060759218
 20
-119.8328233207362
 10
87.02414548605647
 20
-119.9806179170535
 10
87.22706161013768
 20
-119.9806179170535
 10
87.51920570728687
 20
-119.9806179170535
 10
87.55710175762462
 20
-119.6505777695665
 10
87.56984861092005
 20
-119.4455945881942
 10
87.47889809010944
 20
-119.5258653130005
 10
87.41137421859855
 20
-119.5830538980556
 10
87.22947317697736
 20
-119.5830538980556
 10
87.04963919264732
 20
-119.5830538980556
 10
86.74715980904239
 20
-119.4772894666585
 10
86.74715980904239
 20
-119.0711127089475
 10
86.74715980904239
 20
-118.7515801026906
 10
86.9459418185413
 20
-118.5316107559574
 10
87.2632351127328
 20
-118.5316107559574
 10
87.77724335913209
 20
-118.5316107559574
 10
87.78792315513635
 20
-119.0859266195341
 10
87.78792315513635
 20
-119.2995225396196
 10
87.78792315513635
 20
-119.5299994275828
 10
87.76863062041896
 20
-120.1752658119701
 10
87.22499455284654
 20
-120.1752658119701
 97
        0
 97
        0
 92
        1
 93
        1
 72
     4
 94
        3
 73
     0
 74
     1
 95
       17
 96
       13
 40
0.0
 40
0.0
 40
0.0
 40
0.0
 40
1.0
 40
1.0
 40
1.0
 40
2.0
 40
2.0
 40
2.0
 40
3.0
 40
3.0
 40
3.0
 40
4.0
 40
4.0
 40
4.0
 40
4.0
 10
87.26530217002396
 20
-118.7241915935828
 10
87.14679088533136
 20
-118.7241915935828
 10
86.97109101558362
 20
-118.7812079238637
 10
86.97109101558362
 20
-119.0668063395909
 10
86.97109101558362
 20
-119.2931491129719
 10
87.11096189228476
 20
-119.388406003139
 10
87.24635414485508
 20
-119.388406003139
 10
87.50852591128259
 20
-119.388406003139
 10
87.54676647116887
 20
-119.1789441976358
 10
87.54676647116887
 20
-119.0626722250086
 10
87.54676647116887
 20
-118.8869723552609
 10
87.45133732622745
 20
-118.7241915935828
 10
87.26530217002396
 20
-118.7241915935828
 97
        0
 97
        0
 75
     2
 76
     1
 98
        0
  0
ENDBLK
  5
78
330
75
100
AcDbEntity
  8
0
100
AcDbBlockEnd
  0
BLOCK
  5
7E
330
7C
100
AcDbEntity
  8
0
100
AcDbBlockBegin
  2
block 5
 70
     0
 10
0.0
 20
0.0
 30
0.0
  3
block 5
  1

  0
SPLINE
  5
80
330
7C
100
AcDbEntity
  8
_U+30EC_U+30A4_U+30E4_U+30FC 1
370
     0
100
AcDbSpline
210
0.0
220
0.0
230
1.0
 70
    11
 71
     3
 72
    32
 73
    28
 74
     0
 42
0.0000000001
 43
0.0000000001
 12
1.0
 22
0.0
 32
0.0
 13
1.0
 23
0.0
 33
0.0
 40
0.0
 40
0.0
 40
0.0
 40
0.0
 40
1.0
 40
1.0
 40
1.0
 40
2.0
 40
2.0
 40
2.0
 40
3.0
 40
3.0
 40
3.0
 40
4.0
 40
4.0
 40
4.0
 40
5.0
 40
5.0
 40
5.0
 40
6.0
 40
6.0
 40
6.0
 40
7.0
 40
7.0
 40
7.0
 40
8.0
 40
8.0
 40
8.0
 40
9.0
 40
9.0
 40
9.0
 40
9.0
 10
87.22499455284654
 20
-138.0225829733069
 30
0.0
 10
87.05170624993846
 20
-138.0225829733069
 30
0.0
 10
86.80607094184015
 20
-137.9529920445048
 30
0.0
 10
86.76817489150241
 20
-137.6208848397267
 30
0.0
 10
86.76817489150241
 20
-137.6208848397267
 30
0.0
 10
86.9817708115879
 20
-137.6208848397267
 30
0.0
 10
86.9817708115879
 20
-137.6208848397267
 30
0.0
 10
86.99245060759218
 20
-137.680140482073
 30
0.0
 10
87.02414548605647
 20
-137.8279350783903
 30
0.0
 10
87.22706161013768
 20
-137.8279350783903
 30
0.0
 10
87.51920570728687
 20
-137.8279350783903
 30
0.0
 10
87.55710175762462
 20
-137.4978949309033
 30
0.0
 10
87.56984861092005
 20
-137.292911749531
 30
0.0
 10
87.47889809010944
 20
-137.3731824743373
 30
0.0
 10
87.41137421859855
 20
-137.4303710593924
 30
0.0
 10
87.22947317697736
 20
-137.4303710593924
 30
0.0
 10
87.04963919264732
 20
-137.4303710593924
 30
0.0
 10
86.74715980904239
 20
-137.3246066279953
 30
0.0
 10
86.74715980904239
 20
-136.9184298702843
 30
0.0
 10
86.74715980904239
 20
-136.5990695188016
 30
0.0
 10
86.9459418185413
 20
-136.3789279172942
 30
0.0
 10
87.2632351127328
 20
-136.3789279172942
 30
0.0
 10
87.77724335913209
 20
-136.3789279172942
 30
0.0
 10
87.78792315513635
 20
-136.9332437808709
 30
0.0
 10
87.78792315513635
 20
-137.1468397009563
 30
0.0
 10
87.78792315513635
 20
-137.3773165889196
 30
0.0
 10
87.76863062041896
 20
-138.0225829733069
 30
0.0
 10
87.22499455284654
 20
-138.0225829733069
 30
0.0
  0
SPLINE
  5
81
330
7C
100
AcDbEntity
  8
_U+30EC_U+30A4_U+30E4_U+30FC 1
370
     0
100
AcDbSpline
210
0.0
220
0.0
230
1.0
 70
    11
 71
     3
 72
    17
 73
    13
 74
     0
 42
0.0000000001
 43
0.0000000001
 12
1.0
 22
0.0
 32
0.0
 13
1.0
 23
0.0
 33
0.0
 40
0.0
 40
0.0
 40
0.0
 40
0.0
 40
1.0
 40
1.0
 40
1.0
 40
2.0
 40
2.0
 40
2.0
 40
3.0
 40
3.0
 40
3.0
 40
4.0
 40
4.0
 40
4.0
 40
4.0
 10
87.26530217002396
 20
-136.5715087549196
 30
0.0
 10
87.14679088533136
 20
-136.5715087549196
 30
0.0
 10
86.97109101558362
 20
-136.6286973399748
 30
0.0
 10
86.97109101558362
 20
-136.914295755702
 30
0.0
 10
86.97109101558362
 20
-137.1406385290829
 30
0.0
 10
87.11096189228476
 20
-137.2357231644758
 30
0.0
 10
87.24635414485508
 20
-137.2357231644758
 30
0.0
 10
87.50852591128259
 20
-137.2357231644758
 30
0.0
 10
87.54676647116887
 20
-137.0262613589726
 30
0.0
 10
87.54676647116887
 20
-136.9101616411197
 30
0.0
 10
87.54676647116887
 20
-136.7344617713719
 30
0.0
 10
87.45133732622745
 20
-136.5715087549196
 30
0.0
 10
87.26530217002396
 20
-136.5715087549196
 30
0.0
  0
HATCH
  5
82
330
7C
100
AcDbEntity
  8
_U+30EC_U+30A4_U+30E4_U+30FC 1
 62
   179
420
  2234388
100
AcDbHatch
 10
0.0
 20
0.0
 30
0.0
210
0.0
220
0.0
230
1.0
  2
SOLID
 70
     1
 71
     0
 91
        2
 92
        1
 93
        1
 72
     4
 94
        3
 73
     0
 74
     1
 95
       32
 96
       28
 40
0.0
 40
0.0
 40
0.0
 40
0.0
 40
1.0
 40
1.0
 40
1.0
 40
2.0
 40
2.0
 40
2.0
 40
3.0
 40
3.0
 40
3.0
 40
4.0
 40
4.0
 40
4.0
 40
5.0
 40
5.0
 40
5.0
 40
6.0
 40
6.0
 40
6.0
 40
7.0
 40
7.0
 40
7.0
 40
8.0
 40
8.0
 40
8.0
 40
9.0
 40
9.0
 40
9.0
 40
9.0
 10
87.22499455284654
 20
-138.0225829733069
 10
87.05170624993846
 20
-138.0225829733069
 10
86.80607094184015
 20
-137.9529920445048
 10
86.76817489150241
 20
-137.6208848397267
 10
86.76817489150241
 20
-137.6208848397267
 10
86.9817708115879
 20
-137.6208848397267
 10
86.9817708115879
 20
-137.6208848397267
 10
86.99245060759218
 20
-137.680140482073
 10
87.02414548605647
 20
-137.8279350783903
 10
87.22706161013768
 20
-137.8279350783903
 10
87.51920570728687
 20
-137.8279350783903
 10
87.55710175762462
 20
-137.4978949309033
 10
87.56984861092005
 20
-137.292911749531
 10
87.47889809010944
 20
-137.3731824743373
 10
87.41137421859855
 20
-137.4303710593924
 10
87.22947317697736
 20
-137.4303710593924
 10
87.04963919264732
 20
-137.4303710593924
 10
86.74715980904239
 20
-137.3246066279953
 10
86.74715980904239
 20
-136.9184298702843
 10
86.74715980904239
 20
-136.5990695188016
 10
86.9459418185413
 20
-136.3789279172942
 10
87.2632351127328
 20
-136.3789279172942
 10
87.77724335913209
 20
-136.3789279172942
 10
87.78792315513635
 20
-136.9332437808709
 10
87.78792315513635
 20
-137.1468397009563
 10
87.78792315513635
 20
-137.3773165889196
 10
87.76863062041896
 20
-138.0225829733069
 10
87.22499455284654
 20
-138.0225829733069
 97
        0
 97
        0
 92
        1
 93
        1
 72
     4
 94
        3
 73
     0
 74
     1
 95
       17
 96
       13
 40
0.0
 40
0.0
 40
0.0
 40
0.0
 40
1.0
 40
1.0
 40
1.0
 40
2.0
 40
2.0
 40
2.0
 40
3.0
 40
3.0
 40
3.0
 40
4.0
 40
4.0
 40
4.0
 40
4.0
 10
87.26530217002396
 20
-136.5715087549196
 10
87.14679088533136
 20
-136.5715087549196
 10
86.97109101558362
 20
-136.6286973399748
 10
86.97109101558362
 20
-136.914295755702
 10
86.97109101558362
 20
-137.1406385290829
 10
87.11096189228476
 20
-137.2357231644758
 10
87.24635414485508
 20
-137.2357231644758
 10
87.50852591128259
 20
-137.2357231644758
 10
87.54676647116887
 20
-137.0262613589726
 10
87.54676647116887
 20
-136.9101616411197
 10
87.54676647116887
 20
-136.7344617713719
 10
87.45133732622745
 20
-136.5715087549196
 10
87.26530217002396
 20
-136.5715087549196
 97
        0
 97
        0
 75
     2
 76
     1
 98
        0
  0
ENDBLK
  5
7F
330
7C
100
AcDbEntity
  8
0
100
AcDbBlockEnd
  0
ENDSEC
  0
SECTION
  2
ENTITIES
  0
SPLINE
  5
41
330
1F
100
AcDbEntity
  8
_U+30EC_U+30A4_U+30E4_U+30FC 1
 62
   179
420
  2234388
370
     9
100
AcDbSpline
210
0.0
220
0.0
230
1.0
 70
    11
 71
     3
 72
    17
 73
    13
 74
     0
 42
0.0000000001
 43
0.0000000001
 12
1.0
 22
0.0
 32
0.0
 13
1.0
 23
0.0
 33
0.0
 40
0.0
 40
0.0
 40
0.0
 40
0.0
 40
1.0
 40
1.0
 40
1.0
 40
2.0
 40
2.0
 40
2.0
 40
3.0
 40
3.0
 40
3.0
 40
4.0
 40
4.0
 40
4.0
 40
4.0
 10
91.93924876554546
 20
-121.4254760807547
 30
0.0
 10
91.93924876554546
 20
-121.3703721918798
 30
0.0
 10
91.89448126668758
 20
-121.325569414113
 30
0.0
 10
91.83934442148472
 20
-121.325569414113
 30
0.0
 10
91.78423821394456
 20
-121.325569414113
 30
0.0
 10
91.7394354373098
 20
-121.3703721918798
 30
0.0
 10
91.7394354373098
 20
-121.4254760807547
 30
0.0
 10
91.7394354373098
 20
-121.4806152474078
 30
0.0
 10
91.78423821394456
 20
-121.5253827473963
 30
0.0
 10
91.83934442148472
 20
-121.5253827473963
 30
0.0
 10
91.89448126668758
 20
-121.5253827473963
 30
0.0
 10
91.93924876554546
 20
-121.4806152474078
 30
0.0
 10
91.93924876554546
 20
-121.4254760807547
 30
0.0
  0
SPLINE
  5
42
330
1F
100
AcDbEntity
  8
_U+30EC_U+30A4_U+30E4_U+30FC 1
 62
   179
420
  2234388
370
     9
100
AcDbSpline
210
0.0
220
0.0
230
1.0
 70
    11
 71
     3
 72
    17
 73
    13
 74
     0
 42
0.0000000001
 43
0.0000000001
 12
1.0
 22
0.0
 32
0.0
 13
1.0
 23
0.0
 33
0.0
 40
0.0
 40
0.0
 40
0.0
 40
0.0
 40
1.0
 40
1.0
 40
1.0
 40
2.0
 40
2.0
 40
2.0
 40
3.0
 40
3.0
 40
3.0
 40
4.0
 40
4.0
 40
4.0
 40
4.0
 10
82.93861788405958
 20
-121.4254760807547
 30
0.0
 10
82.93861788405958
 20
-121.3703721918798
 30
0.0
 10
82.89381510742481
 20
-121.325569414113
 30
0.0
 10
82.83871121994174
 20
-121.325569414113
 30
0.0
 10
82.7835720546818
 20
-121.325569414113
 30
0.0
 10
82.7388045558239
 20
-121.3703721918798
 30
0.0
 10
82.7388045558239
 20
-121.4254760807547
 30
0.0
 10
82.7388045558239
 20
-121.4806152474078
 30
0.0
 10
82.7835720546818
 20
-121.5253827473963
 30
0.0
 10
82.83871121994174
 20
-121.5253827473963
 30
0.0
 10
82.89381510742481
 20
-121.5253827473963
 30
0.0
 10
82.93861788405958
 20
-121.4806152474078
 30
0.0
 10
82.93861788405958
 20
-121.4254760807547
 30
0.0
  0
SPLINE
  5
43
330
1F
100
AcDbEntity
  8
_U+30EC_U+30A4_U+30E4_U+30FC 1
 62
   179
420
  2234388
370
     9
100
AcDbSpline
210
0.0
220
0.0
230
1.0
 70
    11
 71
     3
 72
    17
 73
    13
 74
     0
 42
0.0000000001
 43
0.0000000001
 12
1.0
 22
0.0
 32
0.0
 13
1.0
 23
0.0
 33
0.0
 40
0.0
 40
0.0
 40
0.0
 40
0.0
 40
1.0
 40
1.0
 40
1.0
 40
2.0
 40
2.0
 40
2.0
 40
3.0
 40
3.0
 40
3.0
 40
4.0
 40
4.0
 40
4.0
 40
4.0
 10
94.78112063748772
 20
-125.388052468653
 30
0.0
 10
94.78112063748772
 20
-125.3325605242224
 30
0.0
 10
94.73631786085295
 20
-125.2881458020113
 30
0.0
 10
94.68121397336988
 20
-125.2881458020113
 30
0.0
 10
94.62607480810993
 20
-125.2881458020113
 30
0.0
 10
94.58130730925204
 20
-125.3325605242224
 30
0.0
 10
94.58130730925204
 20
-125.388052468653
 30
0.0
 10
94.58130730925204
 20
-125.4431563575282
 30
0.0
 10
94.62607480810993
 20
-125.4879591352946
 30
0.0
 10
94.68121397336988
 20
-125.4879591352946
 30
0.0
 10
94.73631786085295
 20
-125.4879591352946
 30
0.0
 10
94.78112063748772
 20
-125.4431563575282
 30
0.0
 10
94.78112063748772
 20
-125.388052468653
 30
0.0
  0
SPLINE
  5
44
330
1F
100
AcDbEntity
  8
_U+30EC_U+30A4_U+30E4_U+30FC 1
 62
   179
420
  2234388
370
     9
100
AcDbSpline
210
0.0
220
0.0
230
1.0
 70
    11
 71
     3
 72
    17
 73
    13
 74
     0
 42
0.0000000001
 43
0.0000000001
 12
1.0
 22
0.0
 32
0.0
 13
1.0
 23
0.0
 33
0.0
 40
0.0
 40
0.0
 40
0.0
 40
0.0
 40
1.0
 40
1.0
 40
1.0
 40
2.0
 40
2.0
 40
2.0
 40
3.0
 40
3.0
 40
3.0
 40
4.0
 40
4.0
 40
4.0
 40
4.0
 10
94.78112063748772
 20
-124.387927468903
 30
0.0
 10
94.78112063748772
 20
-124.3324708022503
 30
0.0
 10
94.73631786085295
 20
-124.2876680244836
 30
0.0
 10
94.68121397336988
 20
-124.2876680244836
 30
0.0
 10
94.62607480810993
 20
-124.2876680244836
 30
0.0
 10
94.58130730925204
 20
-124.3324708022503
 30
0.0
 10
94.58130730925204
 20
-124.387927468903
 30
0.0
 10
94.58130730925204
 20
-124.4430666355561
 30
0.0
 10
94.62607480810993
 20
-124.4878341355446
 30
0.0
 10
94.68121397336988
 20
-124.4878341355446
 30
0.0
 10
94.73631786085295
 20
-124.4878341355446
 30
0.0
 10
94.78112063748772
 20
-124.4430666355561
 30
0.0
 10
94.78112063748772
 20
-124.387927468903
 30
0.0
  0
POLYLINE
  5
45
330
1F
100
AcDbEntity
  8
_U+30EC_U+30A4_U+30E4_U+30FC 1
 62
   179
420
  2234388
370
     9
100
AcDb2dPolyline
 66
     1
 10
0.0
 20
0.0
 30
0.0
  0
VERTEX
  5
46
330
45
100
AcDbEntity
  8
_U+30EC_U+30A4_U+30E4_U+30FC 1
 62
   179
420
  2234388
370
     9
100
AcDbVertex
100
AcDb2dVertex
 10
94.68121397336988
 20
-124.387927468903
 30
0.0
  0
VERTEX
  5
47
330
45
100
AcDbEntity
  8
_U+30EC_U+30A4_U+30E4_U+30FC 1
 62
   179
420
  2234388
370
     9
100
AcDbVertex
100
AcDb2dVertex
 10
94.68121397336988
 20
-131.9878191336695
 30
0.0
  0
SEQEND
  5
48
330
45
100
AcDbEntity
  8
_U+30EC_U+30A4_U+30E4_U+30FC 1
 62
   179
420
  2234388
370
     9
  0
POLYLINE
  5
49
330
1F
100
AcDbEntity
  8
_U+30EC_U+30A4_U+30E4_U+30FC 1
 62
   179
420
  2234388
370
     9
100
AcDb2dPolyline
 66
     1
 10
0.0
 20
0.0
 30
0.0
  0
VERTEX
  5
4A
330
49
100
AcDbEntity
  8
_U+30EC_U+30A4_U+30E4_U+30FC 1
 62
   179
420
  2234388
370
     9
100
AcDbVertex
100
AcDb2dVertex
 10
93.55123150219814
 20
-124.387927468903
 30
0.0
  0
VERTEX
  5
4B
330
49
100
AcDbEntity
  8
_U+30EC_U+30A4_U+30E4_U+30FC 1
 62
   179
420
  2234388
370
     9
100
AcDbVertex
100
AcDb2dVertex
 10
96.0110097727773
 20
-124.387927468903
 30
0.0
  0
SEQEND
  5
4C
330
49
100
AcDbEntity
  8
_U+30EC_U+30A4_U+30E4_U+30FC 1
 62
   179
420
  2234388
370
     9
  0
POLYLINE
  5
4D
330
1F
100
AcDbEntity
  8
_U+30EC_U+30A4_U+30E4_U+30FC 1
 62
   179
420
  2234388
370
     9
100
AcDb2dPolyline
 66
     1
 10
0.0
 20
0.0
 30
0.0
  0
VERTEX
  5
4E
330
4D
100
AcDbEntity
  8
_U+30EC_U+30A4_U+30E4_U+30FC 1
 62
   179
420
  2234388
370
     9
100
AcDbVertex
100
AcDb2dVertex
 10
93.55123150219814
 20
-125.388052468653
 30
0.0
  0
VERTEX
  5
4F
330
4D
100
AcDbEntity
  8
_U+30EC_U+30A4_U+30E4_U+30FC 1
 62
   179
420
  2234388
370
     9
100
AcDbVertex
100
AcDb2dVertex
 10
96.0110097727773
 20
-125.388052468653
 30
0.0
  0
SEQEND
  5
50
330
4D
100
AcDbEntity
  8
_U+30EC_U+30A4_U+30E4_U+30FC 1
 62
   179
420
  2234388
370
     9
  0
SPLINE
  5
51
330
1F
100
AcDbEntity
  8
_U+30EC_U+30A4_U+30E4_U+30FC 1
 62
   179
420
  2234388
370
     9
100
AcDbSpline
210
0.0
220
0.0
230
1.0
 70
    11
 71
     3
 72
    17
 73
    13
 74
     0
 42
0.0000000001
 43
0.0000000001
 12
1.0
 22
0.0
 32
0.0
 13
1.0
 23
0.0
 33
0.0
 40
0.0
 40
0.0
 40
0.0
 40
0.0
 40
1.0
 40
1.0
 40
1.0
 40
2.0
 40
2.0
 40
2.0
 40
3.0
 40
3.0
 40
3.0
 40
4.0
 40
4.0
 40
4.0
 40
4.0
 10
94.78112063748772
 20
-131.8879124670279
 30
0.0
 10
94.78112063748772
 20
-131.8324205225977
 30
0.0
 10
94.73631786085295
 20
-131.7880058003863
 30
0.0
 10
94.68121397336988
 20
-131.7880058003863
 30
0.0
 10
94.62607480810993
 20
-131.7880058003863
 30
0.0
 10
94.58130730925204
 20
-131.8324205225977
 30
0.0
 10
94.58130730925204
 20
-131.8879124670279
 30
0.0
 10
94.58130730925204
 20
-131.9430163559028
 30
0.0
 10
94.62607480810993
 20
-131.9878191336695
 30
0.0
 10
94.68121397336988
 20
-131.9878191336695
 30
0.0
 10
94.73631786085295
 20
-131.9878191336695
 30
0.0
 10
94.78112063748772
 20
-131.9430163559028
 30
0.0
 10
94.78112063748772
 20
-131.8879124670279
 30
0.0
  0
POLYLINE
  5
52
330
1F
100
AcDbEntity
  8
_U+30EC_U+30A4_U+30E4_U+30FC 1
 62
   179
420
  2234388
370
     9
100
AcDb2dPolyline
 66
     1
 10
0.0
 20
0.0
 30
0.0
  0
VERTEX
  5
53
330
52
100
AcDbEntity
  8
_U+30EC_U+30A4_U+30E4_U+30FC 1
 62
   179
420
  2234388
370
     9
100
AcDbVertex
100
AcDb2dVertex
 10
93.55123150219814
 20
-131.8879124670279
 30
0.0
  0
VERTEX
  5
54
330
52
100
AcDbEntity
  8
_U+30EC_U+30A4_U+30E4_U+30FC 1
 62
   179
420
  2234388
370
     9
100
AcDbVertex
100
AcDb2dVertex
 10
96.0110097727773
 20
-131.8879124670279
 30
0.0
  0
SEQEND
  5
55
330
52
100
AcDbEntity
  8
_U+30EC_U+30A4_U+30E4_U+30FC 1
 62
   179
420
  2234388
370
     9
  0
INSERT
  5
57
330
1F
100
AcDbEntity
  8
_U+30EC_U+30A4_U+30E4_U+30FC 1
100
AcDbBlockReference
  2
block 2
 10
0.0
 20
0.0
 30
0.0
  0
INSERT
  5
5D
330
1F
100
AcDbEntity
  8
_U+30EC_U+30A4_U+30E4_U+30FC 1
100
AcDbBlockReference
  2
block 3
 10
0.0
 20
0.0
 30
0.0
  0
POLYLINE
  5
6D
330
1F
100
AcDbEntity
  8
_U+30EC_U+30A4_U+30E4_U+30FC 1
 62
   179
420
  2234388
370
     9
100
AcDb2dPolyline
 66
     1
 10
0.0
 20
0.0
 30
0.0
  0
VERTEX
  5
6E
330
6D
100
AcDbEntity
  8
_U+30EC_U+30A4_U+30E4_U+30FC 1
 62
   179
420
  2234388
370
     9
100
AcDbVertex
100
AcDb2dVertex
 10
82.83871121994174
 20
-119.9654699700085
 30
0.0
  0
VERTEX
  5
6F
330
6D
100
AcDbEntity
  8
_U+30EC_U+30A4_U+30E4_U+30FC 1
 62
   179
420
  2234388
370
     9
100
AcDbVertex
100
AcDb2dVertex
 10
82.83871121994174
 20
-122.4259538582824
 30
0.0
  0
SEQEND
  5
70
330
6D
100
AcDbEntity
  8
_U+30EC_U+30A4_U+30E4_U+30FC 1
 62
   179
420
  2234388
370
     9
  0
POLYLINE
  5
71
330
1F
100
AcDbEntity
  8
_U+30EC_U+30A4_U+30E4_U+30FC 1
 62
   179
420
  2234388
370
     9
100
AcDb2dPolyline
 66
     1
 10
0.0
 20
0.0
 30
0.0
  0
VERTEX
  5
72
330
71
100
AcDbEntity
  8
_U+30EC_U+30A4_U+30E4_U+30FC 1
 62
   179
420
  2234388
370
     9
100
AcDbVertex
100
AcDb2dVertex
 10
91.83934442148472
 20
-119.9654699700085
 30
0.0
  0
VERTEX
  5
73
330
71
100
AcDbEntity
  8
_U+30EC_U+30A4_U+30E4_U+30FC 1
 62
   179
420
  2234388
370
     9
100
AcDbVertex
100
AcDb2dVertex
 10
91.83934442148472
 20
-122.4259538582824
 30
0.0
  0
SEQEND
  5
74
330
71
100
AcDbEntity
  8
_U+30EC_U+30A4_U+30E4_U+30FC 1
 62
   179
420
  2234388
370
     9
  0
INSERT
  5
76
330
1F
100
AcDbEntity
  8
_U+30EC_U+30A4_U+30E4_U+30FC 1
100
AcDbBlockReference
  2
block 4
 10
0.0
 20
0.0
 30
0.0
  0
INSERT
  5
7D
330
1F
100
AcDbEntity
  8
_U+30EC_U+30A4_U+30E4_U+30FC 1
100
AcDbBlockReference
  2
block 5
 10
0.0
 20
0.0
 30
0.0
  0
POLYLINE
  5
83
330
1F
100
AcDbEntity
  8
_U+30EC_U+30A4_U+30E4_U+30FC 1
 62
   179
420
  2234388
370
     9
100
AcDb2dPolyline
 66
     1
 10
0.0
 20
0.0
 30
0.0
  0
VERTEX
  5
84
330
83
100
AcDbEntity
  8
_U+30EC_U+30A4_U+30E4_U+30FC 1
 62
   179
420
  2234388
370
     9
100
AcDbVertex
100
AcDb2dVertex
 10
91.83867182366696
 20
-121.4254760807547
 30
0.0
  0
VERTEX
  5
85
330
83
100
AcDbEntity
  8
_U+30EC_U+30A4_U+30E4_U+30FC 1
 62
   179
420
  2234388
370
     9
100
AcDbVertex
100
AcDb2dVertex
 10
82.83871121994174
 20
-121.4254760807547
 30
0.0
  0
SEQEND
  5
86
330
83
100
AcDbEntity
  8
_U+30EC_U+30A4_U+30E4_U+30FC 1
 62
   179
420
  2234388
370
     9
  0
SPLINE
  5
87
330
1F
100
AcDbEntity
  8
_U+30EC_U+30A4_U+30E4_U+30FC 1
 62
   179
420
  2234388
370
     9
100
AcDbSpline
210
0.0
220
0.0
230
1.0
 70
    11
 71
     3
 72
    17
 73
    13
 74
     0
 42
0.0000000001
 43
0.0000000001
 12
1.0
 22
0.0
 32
0.0
 13
1.0
 23
0.0
 33
0.0
 40
0.0
 40
0.0
 40
0.0
 40
0.0
 40
1.0
 40
1.0
 40
1.0
 40
2.0
 40
2.0
 40
2.0
 40
3.0
 40
3.0
 40
3.0
 40
4.0
 40
4.0
 40
4.0
 40
4.0
 10
91.93924876554546
 20
-135.4535785772479
 30
0.0
 10
91.93924876554546
 20
-135.5086824661228
 30
0.0
 10
91.89448126668758
 20
-135.5534852438895
 30
0.0
 10
91.83934442148472
 20
-135.5534852438895
 30
0.0
 10
91.78423821394456
 20
-135.5534852438895
 30
0.0
 10
91.7394354373098
 20
-135.5086824661228
 30
0.0
 10
91.7394354373098
 20
-135.4535785772479
 30
0.0
 10
91.7394354373098
 20
-135.3984394105948
 30
0.0
 10
91.78423821394456
 20
-135.3536719106062
 30
0.0
 10
91.83934442148472
 20
-135.3536719106062
 30
0.0
 10
91.89448126668758
 20
-135.3536719106062
 30
0.0
 10
91.93924876554546
 20
-135.3984394105948
 30
0.0
 10
91.93924876554546
 20
-135.4535785772479
 30
0.0
  0
SPLINE
  5
88
330
1F
100
AcDbEntity
  8
_U+30EC_U+30A4_U+30E4_U+30FC 1
 62
   179
420
  2234388
370
     9
100
AcDbSpline
210
0.0
220
0.0
230
1.0
 70
    11
 71
     3
 72
    17
 73
    13
 74
     0
 42
0.0000000001
 43
0.0000000001
 12
1.0
 22
0.0
 32
0.0
 13
1.0
 23
0.0
 33
0.0
 40
0.0
 40
0.0
 40
0.0
 40
0.0
 40
1.0
 40
1.0
 40
1.0
 40
2.0
 40
2.0
 40
2.0
 40
3.0
 40
3.0
 40
3.0
 40
4.0
 40
4.0
 40
4.0
 40
4.0
 10
82.93861788405958
 20
-135.4535785772479
 30
0.0
 10
82.93861788405958
 20
-135.5086824661228
 30
0.0
 10
82.89381510742481
 20
-135.5534852438895
 30
0.0
 10
82.83871121994174
 20
-135.5534852438895
 30
0.0
 10
82.7835720546818
 20
-135.5534852438895
 30
0.0
 10
82.7388045558239
 20
-135.5086824661228
 30
0.0
 10
82.7388045558239
 20
-135.4535785772479
 30
0.0
 10
82.7388045558239
 20
-135.3984394105948
 30
0.0
 10
82.7835720546818
 20
-135.3536719106062
 30
0.0
 10
82.83871121994174
 20
-135.3536719106062
 30
0.0
 10
82.89381510742481
 20
-135.3536719106062
 30
0.0
 10
82.93861788405958
 20
-135.3984394105948
 30
0.0
 10
82.93861788405958
 20
-135.4535785772479
 30
0.0
  0
POLYLINE
  5
89
330
1F
100
AcDbEntity
  8
_U+30EC_U+30A4_U+30E4_U+30FC 1
 62
   179
420
  2234388
370
     9
100
AcDb2dPolyline
 66
     1
 10
0.0
 20
0.0
 30
0.0
  0
VERTEX
  5
8A
330
89
100
AcDbEntity
  8
_U+30EC_U+30A4_U+30E4_U+30FC 1
 62
   179
420
  2234388
370
     9
100
AcDbVertex
100
AcDb2dVertex
 10
82.83871121994174
 20
-136.9136199657716
 30
0.0
  0
VERTEX
  5
8B
330
89
100
AcDbEntity
  8
_U+30EC_U+30A4_U+30E4_U+30FC 1
 62
   179
420
  2234388
370
     9
100
AcDbVertex
100
AcDb2dVertex
 10
82.83871121994174
 20
-134.453136077498
 30
0.0
  0
SEQEND
  5
8C
330
89
100
AcDbEntity
  8
_U+30EC_U+30A4_U+30E4_U+30FC 1
 62
   179
420
  2234388
370
     9
  0
POLYLINE
  5
8D
330
1F
100
AcDbEntity
  8
_U+30EC_U+30A4_U+30E4_U+30FC 1
 62
   179
420
  2234388
370
     9
100
AcDb2dPolyline
 66
     1
 10
0.0
 20
0.0
 30
0.0
  0
VERTEX
  5
8E
330
8D
100
AcDbEntity
  8
_U+30EC_U+30A4_U+30E4_U+30FC 1
 62
   179
420
  2234388
370
     9
100
AcDbVertex
100
AcDb2dVertex
 10
91.83934442148472
 20
-136.9136199657716
 30
0.0
  0
VERTEX
  5
8F
330
8D
100
AcDbEntity
  8
_U+30EC_U+30A4_U+30E4_U+30FC 1
 62
   179
420
  2234388
370
     9
100
AcDbVertex
100
AcDb2dVertex
 10
91.83934442148472
 20
-134.453136077498
 30
0.0
  0
SEQEND
  5
90
330
8D
100
AcDbEntity
  8
_U+30EC_U+30A4_U+30E4_U+30FC 1
 62
   179
420
  2234388
370
     9
  0
POLYLINE
  5
91
330
1F
100
AcDbEntity
  8
_U+30EC_U+30A4_U+30E4_U+30FC 1
 62
   179
420
  2234388
370
     9
100
AcDb2dPolyline
 66
     1
 10
0.0
 20
0.0
 30
0.0
  0
VERTEX
  5
92
330
91
100
AcDbEntity
  8
_U+30EC_U+30A4_U+30E4_U+30FC 1
 62
   179
420
  2234388
370
     9
100
AcDbVertex
100
AcDb2dVertex
 10
91.83867182366696
 20
-135.4535785772479
 30
0.0
  0
VERTEX
  5
93
330
91
100
AcDbEntity
  8
_U+30EC_U+30A4_U+30E4_U+30FC 1
 62
   179
420
  2234388
370
     9
100
AcDbVertex
100
AcDb2dVertex
 10
82.83871121994174
 20
-135.4535785772479
 30
0.0
  0
SEQEND
  5
94
330
91
100
AcDbEntity
  8
_U+30EC_U+30A4_U+30E4_U+30FC 1
 62
   179
420
  2234388
370
     9
  0
SPLINE
  5
95
330
1F
100
AcDbEntity
  8
_U+30EC_U+30A4_U+30E4_U+30FC 1
 62
   179
420
  2234388
370
    25
100
AcDbSpline
210
0.0
220
0.0
230
1.0
 70
    11
 71
     3
 72
    44
 73
    40
 74
     0
 42
0.0000000001
 43
0.0000000001
 12
1.0
 22
0.0
 32
0.0
 13
1.0
 23
0.0
 33
0.0
 40
0.0
 40
0.0
 40
0.0
 40
0.0
 40
1.0
 40
1.0
 40
1.0
 40
2.0
 40
2.0
 40
2.0
 40
3.0
 40
3.0
 40
3.0
 40
4.0
 40
4.0
 40
4.0
 40
5.0
 40
5.0
 40
5.0
 40
6.0
 40
6.0
 40
6.0
 40
7.0
 40
7.0
 40
7.0
 40
8.0
 40
8.0
 40
8.0
 40
9.0
 40
9.0
 40
9.0
 40
10.0
 40
10.0
 40
10.0
 40
11.0
 40
11.0
 40
11.0
 40
12.0
 40
12.0
 40
12.0
 40
13.0
 40
13.0
 40
13.0
 40
13.0
 10
91.73876515954912
 20
-131.8879124670279
 30
0.0
 10
91.73876515954912
 20
-131.8879124670279
 30
0.0
 10
83.73889425253172
 20
-131.8879124670279
 30
0.0
 10
83.73889425253172
 20
-131.8879124670279
 30
0.0
 10
83.73889425253172
 20
-131.8879124670279
 30
0.0
 10
83.73889425253172
 20
-131.8875596892501
 30
0.0
 10
83.73889425253172
 20
-131.8875596892501
 30
0.0
 10
83.73889425253172
 20
-131.8875596892501
 30
0.0
 10
83.73889425253172
 20
-125.3876996908752
 30
0.0
 10
83.73889425253172
 20
-125.3876996908752
 30
0.0
 10
83.73889425253172
 20
-125.3876996908752
 30
0.0
 10
91.73876515954912
 20
-125.3876996908752
 30
0.0
 10
91.73876515954912
 20
-125.3876996908752
 30
0.0
 10
91.73876515954912
 20
-125.3876996908752
 30
0.0
 10
91.73876515954912
 20
-124.8878135798892
 30
0.0
 10
91.73876515954912
 20
-124.8878135798892
 30
0.0
 10
91.73876515954912
 20
-124.6115180244028
 30
0.0
 10
91.5155273874666
 20
-124.387927468903
 30
0.0
 10
91.23887906119116
 20
-124.387927468903
 30
0.0
 10
91.23887906119116
 20
-124.387927468903
 30
0.0
 10
83.23883176528938
 20
-124.387927468903
 30
0.0
 10
83.23883176528938
 20
-124.387927468903
 30
0.0
 10
82.96235982789831
 20
-124.387927468903
 30
0.0
 10
82.7388045558239
 20
-124.6115180244028
 30
0.0
 10
82.7388045558239
 20
-124.8878135798892
 30
0.0
 10
82.7388045558239
 20
-124.8878135798892
 30
0.0
 10
82.7388045558239
 20
-132.3877985780139
 30
0.0
 10
82.7388045558239
 20
-132.3877985780139
 30
0.0
 10
82.7388045558239
 20
-132.6640941335009
 30
0.0
 10
82.96235982789831
 20
-132.8876846890005
 30
0.0
 10
83.23883176528938
 20
-132.8876846890005
 30
0.0
 10
83.23883176528938
 20
-132.8876846890005
 30
0.0
 10
91.23887906119116
 20
-132.8876846890005
 30
0.0
 10
91.23887906119116
 20
-132.8876846890005
 30
0.0
 10
91.5155273874666
 20
-132.8876846890005
 30
0.0
 10
91.73876515954912
 20
-132.6640941335009
 30
0.0
 10
91.73876515954912
 20
-132.3877985780139
 30
0.0
 10
91.73876515954912
 20
-132.3877985780139
 30
0.0
 10
91.73876515954912
 20
-131.8879124670279
 30
0.0
 10
91.73876515954912
 20
-131.8879124670279
 30
0.0
  0
HATCH
  5
96
330
1F
100
AcDbEntity
  8
_U+30EC_U+30A4_U+30E4_U+30FC 1
 62
   253
420
 11711154
100
AcDbHatch
 10
0.0
 20
0.0
 30
0.0
210
0.0
220
0.0
230
1.0
  2
SOLID
 70
     1
 71
     0
 91
        1
 92
        1
 93
        1
 72
     4
 94
        3
 73
     0
 74
     1
 95
       44
 96
       40
 40
0.0
 40
0.0
 40
0.0
 40
0.0
 40
1.0
 40
1.0
 40
1.0
 40
2.0
 40
2.0
 40
2.0
 40
3.0
 40
3.0
 40
3.0
 40
4.0
 40
4.0
 40
4.0
 40
5.0
 40
5.0
 40
5.0
 40
6.0
 40
6.0
 40
6.0
 40
7.0
 40
7.0
 40
7.0
 40
8.0
 40
8.0
 40
8.0
 40
9.0
 40
9.0
 40
9.0
 40
10.0
 40
10.0
 40
10.0
 40
11.0
 40
11.0
 40
11.0
 40
12.0
 40
12.0
 40
12.0
 40
13.0
 40
13.0
 40
13.0
 40
13.0
 10
91.73876515954912
 20
-131.8879124670279
 10
91.73876515954912
 20
-131.8879124670279
 10
83.73889425253172
 20
-131.8879124670279
 10
83.73889425253172
 20
-131.8879124670279
 10
83.73889425253172
 20
-131.8879124670279
 10
83.73889425253172
 20
-131.8875596892501
 10
83.73889425253172
 20
-131.8875596892501
 10
83.73889425253172
 20
-131.8875596892501
 10
83.73889425253172
 20
-125.3876996908752
 10
83.73889425253172
 20
-125.3876996908752
 10
83.73889425253172
 20
-125.3876996908752
 10
91.73876515954912
 20
-125.3876996908752
 10
91.73876515954912
 20
-125.3876996908752
 10
91.73876515954912
 20
-125.3876996908752
 10
91.73876515954912
 20
-124.8878135798892
 10
91.73876515954912
 20
-124.8878135798892
 10
91.73876515954912
 20
-124.6115180244028
 10
91.5155273874666
 20
-124.387927468903
 10
91.23887906119116
 20
-124.387927468903
 10
91.23887906119116
 20
-124.387927468903
 10
83.23883176528938
 20
-124.387927468903
 10
83.23883176528938
 20
-124.387927468903
 10
82.96235982789831
 20
-124.387927468903
 10
82.7388045558239
 20
-124.6115180244028
 10
82.7388045558239
 20
-124.8878135798892
 10
82.7388045558239
 20
-124.8878135798892
 10
82.7388045558239
 20
-132.3877985780139
 10
82.7388045558239
 20
-132.3877985780139
 10
82.7388045558239
 20
-132.6640941335009
 10
82.96235982789831
 20
-132.8876846890005
 10
83.23883176528938
 20
-132.8876846890005
 10
83.23883176528938
 20
-132.8876846890005
 10
91.23887906119116
 20
-132.8876846890005
 10
91.23887906119116
 20
-132.8876846890005
 10
91.5155273874666
 20
-132.8876846890005
 10
91.73876515954912
 20
-132.6640941335009
 10
91.73876515954912
 20
-132.3877985780139
 10
91.73876515954912
 20
-132.3877985780139
 10
91.73876515954912
 20
-131.8879124670279
 10
91.73876515954912
 20
-131.8879124670279
 97
        0
 97
        0
 75
     2
 76
     1
 98
        0
  0
ENDSEC
  0
SECTION
  2
OBJECTS
  0
DICTIONARY
  5
C
330
0
100
AcDbDictionary
281
     1
  3
ACAD_GROUP
350
D
  3
ACAD_LAYOUT
350
1A
  3
ACAD_MATERIAL
350
3B
  3
ACAD_MLEADERSTYLE
350
98
  3
ACAD_MLINESTYLE
350
17
  3
ACAD_PLOTSETTINGS
350
19
  3
ACAD_PLOTSTYLENAME
350
E
  3
ACAD_TABLESTYLE
350
97
  3
ACAD_VISUALSTYLE
350
2A
  0
SUN
  5
3F
330
29
100
AcDbSun
 90
        1
290
     0
 63
     7
421
 16777215
 40
1.0
291
     1
 91
  2455826
 92
 54000000
292
     0
 70
     2
 71
   256
280
     1
  0
DICTIONARY
  5
D
102
{ACAD_REACTORS
330
C
102
}
330
C
100
AcDbDictionary
281
     1
  0
DICTIONARY
  5
1A
102
{ACAD_REACTORS
330
C
102
}
330
C
100
AcDbDictionary
281
     1
  3
Layout1
350
1E
  3
Layout2
350
26
  3
Model
350
22
  0
DICTIONARY
  5
3B
102
{ACAD_REACTORS
330
C
102
}
330
C
100
AcDbDictionary
281
     1
  3
ByBlock
350
3D
  3
ByLayer
350
3C
  3
Global
350
3E
  0
DICTIONARY
  5
98
102
{ACAD_REACTORS
330
C
102
}
330
C
100
AcDbDictionary
281
     1
  0
DICTIONARY
  5
17
102
{ACAD_REACTORS
330
C
102
}
330
C
100
AcDbDictionary
281
     1
  3
Standard
350
18
  0
DICTIONARY
  5
19
102
{ACAD_REACTORS
330
C
102
}
330
C
100
AcDbDictionary
281
     1
  0
ACDBDICTIONARYWDFLT
  5
E
102
{ACAD_REACTORS
330
C
102
}
330
C
100
AcDbDictionary
281
     1
  3
Normal
350
F
100
AcDbDictionaryWithDefault
340
F
  0
DICTIONARY
  5
97
102
{ACAD_REACTORS
330
C
102
}
330
C
100
AcDbDictionary
281
     1
  0
DICTIONARY
  5
2A
102
{ACAD_REACTORS
330
C
102
}
330
C
100
AcDbDictionary
281
     1
  3
2dWireframe
350
2F
  3
3D Hidden
350
31
  3
3dWireframe
350
30
  3
Basic
350
32
  3
Brighten
350
36
  3
ColorChange
350
3A
  3
Conceptual
350
34
  3
Dim
350
35
  3
Facepattern
350
39
  3
Flat
350
2B
  3
FlatWithEdges
350
2C
  3
Gouraud
350
2D
  3
GouraudWithEdges
350
2E
  3
Linepattern
350
38
  3
Realistic
350
33
  3
Thicken
350
37
  0
LAYOUT
  5
1E
102
{ACAD_REACTORS
330
1A
102
}
330
1A
100
AcDbPlotSettings
  1

  2
none_device
  4

  6

 40
0.0
 41
0.0
 42
0.0
 43
0.0
 44
0.0
 45
0.0
 46
0.0
 47
0.0
 48
0.0
 49
0.0
140
0.0
141
0.0
142
1.0
143
1.0
 70
   688
 72
     0
 73
     0
 74
     5
  7

 75
    16
 76
     0
 77
     2
 78
   300
147
1.0
148
0.0
149
0.0
100
AcDbLayout
  1
Layout1
 70
     1
 71
     1
 10
0.0
 20
0.0
 11
12.0
 21
9.0
 12
0.0
 22
0.0
 32
0.0
 14
1.000000000000000E+20
 24
1.000000000000000E+20
 34
1.000000000000000E+20
 15
-1.000000000000000E+20
 25
-1.000000000000000E+20
 35
-1.000000000000000E+20
146
0.0
 13
0.0
 23
0.0
 33
0.0
 16
1.0
 26
0.0
 36
0.0
 17
0.0
 27
1.0
 37
0.0
 76
     0
330
1B
  0
LAYOUT
  5
26
102
{ACAD_REACTORS
330
1A
102
}
330
1A
100
AcDbPlotSettings
  1

  2
none_device
  4

  6

 40
0.0
 41
0.0
 42
0.0
 43
0.0
 44
0.0
 45
0.0
 46
0.0
 47
0.0
 48
0.0
 49
0.0
140
0.0
141
0.0
142
1.0
143
1.0
 70
   688
 72
     0
 73
     0
 74
     5
  7

 75
    16
 76
     0
 77
     2
 78
   300
147
1.0
148
0.0
149
0.0
100
AcDbLayout
  1
Layout2
 70
     1
 71
     2
 10
0.0
 20
0.0
 11
0.0
 21
0.0
 12
0.0
 22
0.0
 32
0.0
 14
0.0
 24
0.0
 34
0.0
 15
0.0
 25
0.0
 35
0.0
146
0.0
 13
0.0
 23
0.0
 33
0.0
 16
1.0
 26
0.0
 36
0.0
 17
0.0
 27
1.0
 37
0.0
 76
     0
330
23
  0
LAYOUT
  5
22
102
{ACAD_REACTORS
330
1A
102
}
330
1A
100
AcDbPlotSettings
  1

  2
none_device
  4

  6

 40
0.0
 41
0.0
 42
0.0
 43
0.0
 44
0.0
 45
0.0
 46
0.0
 47
0.0
 48
0.0
 49
0.0
140
0.0
141
0.0
142
1.0
143
1.0
 70
  1712
 72
     0
 73
     0
 74
     0
  7

 75
     0
 76
     0
 77
     2
 78
   300
147
1.0
148
0.0
149
0.0
100
AcDbLayout
  1
Model
 70
     1
 71
     0
 10
0.0
 20
0.0
 11
12.0
 21
9.0
 12
0.0
 22
0.0
 32
0.0
 14
1.000000000000000E+20
 24
1.000000000000000E+20
 34
1.000000000000000E+20
 15
-1.000000000000000E+20
 25
-1.000000000000000E+20
 35
-1.000000000000000E+20
146
0.0
 13
0.0
 23
0.0
 33
0.0
 16
1.0
 26
0.0
 36
0.0
 17
0.0
 27
1.0
 37
0.0
 76
     0
330
1F
331
29
  0
MATERIAL
  5
3D
102
{ACAD_REACTORS
330
3B
102
}
330
3B
100
AcDbMaterial
  1
ByBlock
 72
     1
 94
      127
  0
MATERIAL
  5
3C
102
{ACAD_REACTORS
330
3B
102
}
330
3B
100
AcDbMaterial
  1
ByLayer
 72
     1
 94
      127
  0
MATERIAL
  5
3E
102
{ACAD_REACTORS
330
3B
102
}
330
3B
100
AcDbMaterial
  1
Global
 72
     1
 94
      127
  0
MLINESTYLE
  5
18
102
{ACAD_REACTORS
330
17
102
}
330
17
100
AcDbMlineStyle
  2
Standard
 70
     0
  3

 62
   256
 51
90.0
 52
90.0
 71
     2
 49
0.5
 62
   256
  6
BYLAYER
 49
-0.5
 62
   256
  6
BYLAYER
  0
ACDBPLACEHOLDER
  5
F
102
{ACAD_REACTORS
330
E
102
}
330
E
  0
VISUALSTYLE
  5
2F
102
{ACAD_REACTORS
330
2A
102
}
330
2A
100
AcDbVisualStyle
  2
2dWireframe
 70
     4
177
     2
291
     0
 71
     0
176
     1
 72
     2
176
     1
 73
     0
176
     1
 90
        0
176
     1
 40
-0.6
176
     1
 41
-30.0
176
     1
 62
     5
 63
     7
421
 16777215
176
     1
 74
     1
176
     1
 91
        4
176
     1
 64
     7
176
     1
 65
   257
176
     1
 75
     1
176
     1
175
     1
176
     1
 42
1.0
176
     1
 92
        0
176
     1
 66
   257
176
     1
 43
1.0
176
     1
 76
     1
176
     1
 77
     6
176
     1
 78
     2
176
     1
 67
     7
176
     1
 79
     5
176
     1
170
     0
176
     1
171
     0
176
     1
290
     0
176
     1
 93
        1
176
     1
 44
0.0
176
     1
173
     0
176
     1
  0
VISUALSTYLE
  5
31
102
{ACAD_REACTORS
330
2A
102
}
330
2A
100
AcDbVisualStyle
  2
3D Hidden
 70
     6
177
     2
291
     0
 71
     1
176
     1
 72
     2
176
     1
 73
     2
176
     1
 90
        0
176
     1
 40
-0.6
176
     1
 41
-30.0
176
     1
 62
     5
 63
     7
421
 16777215
176
     1
 74
     2
176
     1
 91
        2
176
     1
 64
     7
176
     1
 65
   257
176
     1
 75
     2
176
     1
175
     1
176
     1
 42
40.0
176
     1
 92
        0
176
     1
 66
   257
176
     1
 43
1.0
176
     1
 76
     1
176
     1
 77
     6
176
     1
 78
     2
176
     1
 67
     7
176
     1
 79
     3
176
     1
170
     0
176
     1
171
     0
176
     1
290
     0
176
     1
 93
        1
176
     1
 44
0.0
176
     1
173
     0
176
     1
  0
VISUALSTYLE
  5
30
102
{ACAD_REACTORS
330
2A
102
}
330
2A
100
AcDbVisualStyle
  2
3dWireframe
 70
     5
177
     2
291
     0
 71
     0
176
     1
 72
     2
176
     1
 73
     0
176
     1
 90
        0
176
     1
 40
-0.6
176
     1
 41
-30.0
176
     1
 62
     5
 63
     7
421
 16777215
176
     1
 74
     1
176
     1
 91
        4
176
     1
 64
     7
176
     1
 65
   257
176
     1
 75
     1
176
     1
175
     1
176
     1
 42
1.0
176
     1
 92
        0
176
     1
 66
   257
176
     1
 43
1.0
176
     1
 76
     1
176
     1
 77
     6
176
     1
 78
     2
176
     1
 67
     7
176
     1
 79
     5
176
     1
170
     0
176
     1
171
     0
176
     1
290
     0
176
     1
 93
        1
176
     1
 44
0.0
176
     1
173
     0
176
     1
  0
VISUALSTYLE
  5
32
102
{ACAD_REACTORS
330
2A
102
}
330
2A
100
AcDbVisualStyle
  2
Basic
 70
     7
177
     2
291
     1
 71
     1
176
     1
 72
     0
176
     1
 73
     1
176
     1
 90
        0
176
     1
 40
-0.6
176
     1
 41
-30.0
176
     1
 62
     5
 63
     7
421
 16777215
176
     1
 74
     0
176
     1
 91
        4
176
     1
 64
     7
176
     1
 65
   257
176
     1
 75
     1
176
     1
175
     1
176
     1
 42
1.0
176
     1
 92
        8
176
     1
 66
     7
176
     1
 43
1.0
176
     1
 76
     1
176
     1
 77
     6
176
     1
 78
     2
176
     1
 67
     7
176
     1
 79
     5
176
     1
170
     0
176
     1
171
     0
176
     1
290
     0
176
     1
 93
        1
176
     1
 44
0.0
176
     1
173
     0
176
     1
  0
VISUALSTYLE
  5
36
102
{ACAD_REACTORS
330
2A
102
}
330
2A
100
AcDbVisualStyle
  2
Brighten
 70
    12
177
     2
291
     1
 71
     2
176
     1
 72
     2
176
     1
 73
     0
176
     1
 90
        0
176
     1
 40
-0.6
176
     1
 41
-30.0
176
     1
 62
     5
 63
     7
421
 16777215
176
     1
 74
     1
176
     1
 91
        4
176
     1
 64
     7
176
     1
 65
   257
176
     1
 75
     1
176
     1
175
     1
176
     1
 42
1.0
176
     1
 92
        8
176
     1
 66
     7
176
     1
 43
1.0
176
     1
 76
     1
176
     1
 77
     6
176
     1
 78
     2
176
     1
 67
     7
176
     1
 79
     5
176
     1
170
     0
176
     1
171
     0
176
     1
290
     0
176
     1
 93
        1
176
     1
 44
50.0
176
     1
173
     0
176
     1
  0
VISUALSTYLE
  5
3A
102
{ACAD_REACTORS
330
2A
102
}
330
2A
100
AcDbVisualStyle
  2
ColorChange
 70
    16
177
     2
291
     1
 71
     2
176
     1
 72
     2
176
     1
 73
     3
176
     1
 90
        0
176
     1
 40
-0.6
176
     1
 41
-30.0
176
     1
 62
     5
 63
     8
421
  8421504
176
     1
 74
     1
176
     1
 91
        4
176
     1
 64
     7
176
     1
 65
   257
176
     1
 75
     1
176
     1
175
     1
176
     1
 42
1.0
176
     1
 92
        8
176
     1
 66
     8
424
  8421504
176
     1
 43
1.0
176
     1
 76
     1
176
     1
 77
     6
176
     1
 78
     2
176
     1
 67
     7
176
     1
 79
     5
176
     1
170
     0
176
     1
171
     0
176
     1
290
     0
176
     1
 93
        1
176
     1
 44
0.0
176
     1
173
     0
176
     1
  0
VISUALSTYLE
  5
34
102
{ACAD_REACTORS
330
2A
102
}
330
2A
100
AcDbVisualStyle
  2
Conceptual
 70
     9
177
     2
291
     0
 71
     3
176
     1
 72
     2
176
     1
 73
     0
176
     1
 90
        0
176
     1
 40
-0.6
176
     1
 41
-30.0
176
     1
 62
     5
 63
     7
421
 16777215
176
     1
 74
     2
176
     1
 91
        2
176
     1
 64
     7
176
     1
 65
   257
176
     1
 75
     1
176
     1
175
     1
176
     1
 42
40.0
176
     1
 92
        8
176
     1
 66
     7
176
     1
 43
1.0
176
     1
 76
     1
176
     1
 77
     6
176
     1
 78
     2
176
     1
 67
     7
176
     1
 79
     3
176
     1
170
     0
176
     1
171
     0
176
     1
290
     0
176
     1
 93
        1
176
     1
 44
0.0
176
     1
173
     0
176
     1
  0
VISUALSTYLE
  5
35
102
{ACAD_REACTORS
330
2A
102
}
330
2A
100
AcDbVisualStyle
  2
Dim
 70
    11
177
     2
291
     1
 71
     2
176
     1
 72
     2
176
     1
 73
     0
176
     1
 90
        0
176
     1
 40
-0.6
176
     1
 41
-30.0
176
     1
 62
     5
 63
     7
421
 16777215
176
     1
 74
     1
176
     1
 91
        4
176
     1
 64
     7
176
     1
 65
   257
176
     1
 75
     1
176
     1
175
     1
176
     1
 42
1.0
176
     1
 92
        8
176
     1
 66
     7
176
     1
 43
1.0
176
     1
 76
     1
176
     1
 77
     6
176
     1
 78
     2
176
     1
 67
     7
176
     1
 79
     5
176
     1
170
     0
176
     1
171
     0
176
     1
290
     0
176
     1
 93
        1
176
     1
 44
-50.0
176
     1
173
     0
176
     1
  0
VISUALSTYLE
  5
39
102
{ACAD_REACTORS
330
2A
102
}
330
2A
100
AcDbVisualStyle
  2
Facepattern
 70
    15
177
     2
291
     1
 71
     2
176
     1
 72
     2
176
     1
 73
     0
176
     1
 90
        0
176
     1
 40
-0.6
176
     1
 41
-30.0
176
     1
 62
     5
 63
     7
421
 16777215
176
     1
 74
     1
176
     1
 91
        4
176
     1
 64
     7
176
     1
 65
   257
176
     1
 75
     1
176
     1
175
     1
176
     1
 42
1.0
176
     1
 92
        8
176
     1
 66
     7
176
     1
 43
1.0
176
     1
 76
     1
176
     1
 77
     6
176
     1
 78
     2
176
     1
 67
     7
176
     1
 79
     5
176
     1
170
     0
176
     1
171
     0
176
     1
290
     0
176
     1
 93
        1
176
     1
 44
0.0
176
     1
173
     0
176
     1
  0
VISUALSTYLE
  5
2B
102
{ACAD_REACTORS
330
2A
102
}
330
2A
100
AcDbVisualStyle
  2
Flat
 70
     0
177
     2
291
     1
 71
     2
176
     1
 72
     1
176
     1
 73
     1
176
     1
 90
        2
176
     1
 40
-0.6
176
     1
 41
30.0
176
     1
 62
     5
 63
     7
421
 16777215
176
     1
 74
     0
176
     1
 91
        4
176
     1
 64
     7
176
     1
 65
   257
176
     1
 75
     1
176
     1
175
     1
176
     1
 42
1.0
176
     1
 92
        8
176
     1
 66
     7
176
     1
 43
1.0
176
     1
 76
     1
176
     1
 77
     6
176
     1
 78
     2
176
     1
 67
     7
176
     1
 79
     5
176
     1
170
     0
176
     1
171
     0
176
     1
290
     0
176
     1
 93
       13
176
     1
 44
0.0
176
     1
173
     0
176
     1
  0
VISUALSTYLE
  5
2C
102
{ACAD_REACTORS
330
2A
102
}
330
2A
100
AcDbVisualStyle
  2
FlatWithEdges
 70
     1
177
     2
291
     1
 71
     2
176
     1
 72
     1
176
     1
 73
     1
176
     1
 90
        2
176
     1
 40
-0.6
176
     1
 41
30.0
176
     1
 62
     5
 63
     7
421
 16777215
176
     1
 74
     1
176
     1
 91
        4
176
     1
 64
     7
176
     1
 65
   257
176
     1
 75
     1
176
     1
175
     1
176
     1
 42
1.0
176
     1
 92
        0
176
     1
 66
   257
176
     1
 43
1.0
176
     1
 76
     1
176
     1
 77
     6
176
     1
 78
     2
176
     1
 67
     7
176
     1
 79
     5
176
     1
170
     0
176
     1
171
     0
176
     1
290
     0
176
     1
 93
       13
176
     1
 44
0.0
176
     1
173
     0
176
     1
  0
VISUALSTYLE
  5
2D
102
{ACAD_REACTORS
330
2A
102
}
330
2A
100
AcDbVisualStyle
  2
Gouraud
 70
     2
177
     2
291
     1
 71
     2
176
     1
 72
     2
176
     1
 73
     1
176
     1
 90
        2
176
     1
 40
-0.6
176
     1
 41
30.0
176
     1
 62
     5
 63
     7
421
 16777215
176
     1
 74
     0
176
     1
 91
        4
176
     1
 64
     7
176
     1
 65
   257
176
     1
 75
     1
176
     1
175
     1
176
     1
 42
1.0
176
     1
 92
        0
176
     1
 66
     7
176
     1
 43
1.0
176
     1
 76
     1
176
     1
 77
     6
176
     1
 78
     2
176
     1
 67
     7
176
     1
 79
     5
176
     1
170
     0
176
     1
171
     0
176
     1
290
     0
176
     1
 93
       13
176
     1
 44
0.0
176
     1
173
     0
176
     1
  0
VISUALSTYLE
  5
2E
102
{ACAD_REACTORS
330
2A
102
}
330
2A
100
AcDbVisualStyle
  2
GouraudWithEdges
 70
     3
177
     2
291
     1
 71
     2
176
     1
 72
     2
176
     1
 73
     1
176
     1
 90
        2
176
     1
 40
-0.6
176
     1
 41
30.0
176
     1
 62
     5
 63
     7
421
 16777215
176
     1
 74
     1
176
     1
 91
        4
176
     1
 64
     7
176
     1
 65
   257
176
     1
 75
     1
176
     1
175
     1
176
     1
 42
1.0
176
     1
 92
        0
176
     1
 66
   257
176
     1
 43
1.0
176
     1
 76
     1
176
     1
 77
     6
176
     1
 78
     2
176
     1
 67
     7
176
     1
 79
     5
176
     1
170
     0
176
     1
171
     0
176
     1
290
     0
176
     1
 93
       13
176
     1
 44
0.0
176
     1
173
     0
176
     1
  0
VISUALSTYLE
  5
38
102
{ACAD_REACTORS
330
2A
102
}
330
2A
100
AcDbVisualStyle
  2
Linepattern
 70
    14
177
     2
291
     1
 71
     2
176
     1
 72
     2
176
     1
 73
     0
176
     1
 90
        0
176
     1
 40
-0.6
176
     1
 41
-30.0
176
     1
 62
     5
 63
     7
421
 16777215
176
     1
 74
     1
176
     1
 91
        4
176
     1
 64
     7
176
     1
 65
   257
176
     1
 75
     7
176
     1
175
     7
176
     1
 42
1.0
176
     1
 92
        8
176
     1
 66
     7
176
     1
 43
1.0
176
     1
 76
     1
176
     1
 77
     6
176
     1
 78
     2
176
     1
 67
     7
176
     1
 79
     5
176
     1
170
     0
176
     1
171
     0
176
     1
290
     0
176
     1
 93
        1
176
     1
 44
0.0
176
     1
173
     0
176
     1
  0
VISUALSTYLE
  5
33
102
{ACAD_REACTORS
330
2A
102
}
330
2A
100
AcDbVisualStyle
  2
Realistic
 70
     8
177
     2
291
     0
 71
     2
176
     1
 72
     2
176
     1
 73
     0
176
     1
 90
        0
176
     1
 40
-0.6
176
     1
 41
-30.0
176
     1
 62
     5
 63
     7
421
 16777215
176
     1
 74
     1
176
     1
 91
        0
176
     1
 64
     7
176
     1
 65
   257
176
     1
 75
     1
176
     1
175
     1
176
     1
 42
1.0
176
     1
 92
        8
176
     1
 66
     8
424
  7895160
176
     1
 43
1.0
176
     1
 76
     1
176
     1
 77
     6
176
     1
 78
     2
176
     1
 67
     7
176
     1
 79
     5
176
     1
170
     0
176
     1
171
     0
176
     1
290
     0
176
     1
 93
       13
176
     1
 44
0.0
176
     1
173
     0
176
     1
  0
VISUALSTYLE
  5
37
102
{ACAD_REACTORS
330
2A
102
}
330
2A
100
AcDbVisualStyle
  2
Thicken
 70
    13
177
     2
291
     1
 71
     2
176
     1
 72
     2
176
     1
 73
     0
176
     1
 90
        0
176
     1
 40
-0.6
176
     1
 41
-30.0
176
     1
 62
     5
 63
     7
421
 16777215
176
     1
 74
     1
176
     1
 91
        4
176
     1
 64
     7
176
     1
 65
   257
176
     1
 75
     1
176
     1
175
     1
176
     1
 42
1.0
176
     1
 92
       12
176
     1
 66
     7
176
     1
 43
1.0
176
     1
 76
     1
176
     1
 77
     6
176
     1
 78
     2
176
     1
 67
     7
176
     1
 79
     5
176
     1
170
     0
176
     1
171
     0
176
     1
290
     0
176
     1
 93
        1
176
     1
 44
0.0
176
     1
173
     0
176
     1
  0
ENDSEC
  0
EOF
