  0
SECTION
  2
HEADER
  9
$ACADVER
  1
AC1024
  9
$ACADMAINTVER
 70
     6
  9
$DWGCODEPAGE
  3
UNDEFINED
  9
$INSBASE
 10
0.0
 20
0.0
 30
0.0
  9
$EXTMIN
 10
1.000000000000000E+20
 20
1.000000000000000E+20
 30
1.000000000000000E+20
  9
$EXTMAX
 10
-1.000000000000000E+20
 20
-1.000000000000000E+20
 30
-1.000000000000000E+20
  9
$LIMMIN
 10
0.0
 20
0.0
  9
$LIMMAX
 10
12.0
 20
9.0
  9
$ORTHOMODE
 70
     0
  9
$REGENMODE
 70
     1
  9
$FILLMODE
 70
     1
  9
$QTEXTMODE
 70
     0
  9
$MIRRTEXT
 70
     1
  9
$LTSCALE
 40
1.0
  9
$ATTMODE
 70
     1
  9
$TEXTSIZE
 40
0.2
  9
$TRACEWID
 40
0.05
  9
$TEXTSTYLE
  7
Standard
  9
$CLAYER
  8
0
  9
$CELTYPE
  6
ByLayer
  9
$CECOLOR
 62
   256
  9
$CELTSCALE
 40
1.0
  9
$DISPSILH
 70
     0
  9
$DIMSCALE
 40
1.0
  9
$DIMASZ
 40
0.18
  9
$DIMEXO
 40
0.0625
  9
$DIMDLI
 40
0.38
  9
$DIMRND
 40
0.0
  9
$DIMDLE
 40
0.0
  9
$DIMEXE
 40
0.18
  9
$DIMTP
 40
0.0
  9
$DIMTM
 40
0.0
  9
$DIMTXT
 40
0.18
  9
$DIMCEN
 40
0.09
  9
$DIMTSZ
 40
0.0
  9
$DIMTOL
 70
     0
  9
$DIMLIM
 70
     0
  9
$DIMTIH
 70
     1
  9
$DIMTOH
 70
     1
  9
$DIMSE1
 70
     0
  9
$DIMSE2
 70
     0
  9
$DIMTAD
 70
     0
  9
$DIMZIN
 70
     0
  9
$DIMBLK
  1

  9
$DIMASO
 70
     1
  9
$DIMSHO
 70
     1
  9
$DIMPOST
  1

  9
$DIMAPOST
  1

  9
$DIMALT
 70
     0
  9
$DIMALTD
 70
     2
  9
$DIMALTF
 40
25.4
  9
$DIMLFAC
 40
1.0
  9
$DIMTOFL
 70
     0
  9
$DIMTVP
 40
0.0
  9
$DIMTIX
 70
     0
  9
$DIMSOXD
 70
     0
  9
$DIMSAH
 70
     0
  9
$DIMBLK1
  1

  9
$DIMBLK2
  1

  9
$DIMSTYLE
  2
Standard
  9
$DIMCLRD
 70
     0
  9
$DIMCLRE
 70
     0
  9
$DIMCLRT
 70
     0
  9
$DIMTFAC
 40
1.0
  9
$DIMGAP
 40
0.09
  9
$DIMJUST
 70
     0
  9
$DIMSD1
 70
     0
  9
$DIMSD2
 70
     0
  9
$DIMTOLJ
 70
     1
  9
$DIMTZIN
 70
     0
  9
$DIMALTZ
 70
     0
  9
$DIMALTTZ
 70
     0
  9
$DIMUPT
 70
     0
  9
$DIMDEC
 70
     4
  9
$DIMTDEC
 70
     4
  9
$DIMALTU
 70
     2
  9
$DIMALTTD
 70
     2
  9
$DIMTXSTY
  7
Standard
  9
$DIMAUNIT
 70
     0
  9
$DIMADEC
 70
     0
  9
$DIMALTRND
 40
0.0
  9
$DIMAZIN
 70
     0
  9
$DIMDSEP
 70
    46
  9
$DIMATFIT
 70
     3
  9
$DIMFRAC
 70
     0
  9
$DIMLDRBLK
  1

  9
$DIMLUNIT
 70
     2
  9
$DIMLWD
 70
    -2
  9
$DIMLWE
 70
    -2
  9
$DIMTMOVE
 70
     0
  9
$DIMFXL
 40
1.0
  9
$DIMFXLON
 70
     0
  9
$DIMJOGANG
 40
0.7853981633974483
  9
$DIMTFILL
 70
     0
  9
$DIMTFILLCLR
 70
     0
  9
$DIMARCSYM
 70
     0
  9
$DIMLTYPE
  6

  9
$DIMLTEX1
  6

  9
$DIMLTEX2
  6

  9
$DIMTXTDIRECTION
 70
     0
  9
$LUNITS
 70
     2
  9
$LUPREC
 70
     4
  9
$SKETCHINC
 40
0.1
  9
$FILLETRAD
 40
0.5
  9
$AUNITS
 70
     0
  9
$AUPREC
 70
     0
  9
$MENU
  1
.
  9
$ELEVATION
 40
0.0
  9
$PELEVATION
 40
0.0
  9
$THICKNESS
 40
0.0
  9
$LIMCHECK
 70
     0
  9
$CHAMFERA
 40
0.5
  9
$CHAMFERB
 40
0.5
  9
$CHAMFERC
 40
1.0
  9
$CHAMFERD
 40
0.0
  9
$SKPOLY
 70
     0
  9
$TDCREATE
 40
2457917.621319433
  9
$TDUCREATE
 40
2457917.246319444
  9
$TDUPDATE
 40
2457917.621319433
  9
$TDUUPDATE
 40
2457917.246319444
  9
$TDINDWG
 40
0.0000000116
  9
$TDUSRTIMER
 40
0.0000000116
  9
$USRTIMER
 70
     1
  9
$ANGBASE
 50
0.0
  9
$ANGDIR
 70
     0
  9
$PDMODE
 70
     0
  9
$PDSIZE
 40
0.0
  9
$PLINEWID
 40
0.0
  9
$SPLFRAME
 70
     0
  9
$SPLINETYPE
 70
     6
  9
$SPLINESEGS
 70
     8
  9
$HANDSEED
  5
92
  9
$SURFTAB1
 70
     6
  9
$SURFTAB2
 70
     6
  9
$SURFTYPE
 70
     6
  9
$SURFU
 70
     6
  9
$SURFV
 70
     6
  9
$UCSBASE
  2

  9
$UCSNAME
  2

  9
$UCSORG
 10
0.0
 20
0.0
 30
0.0
  9
$UCSXDIR
 10
1.0
 20
0.0
 30
0.0
  9
$UCSYDIR
 10
0.0
 20
1.0
 30
0.0
  9
$UCSORTHOREF
  2

  9
$UCSORTHOVIEW
 70
     0
  9
$UCSORGTOP
 10
0.0
 20
0.0
 30
0.0
  9
$UCSORGBOTTOM
 10
0.0
 20
0.0
 30
0.0
  9
$UCSORGLEFT
 10
0.0
 20
0.0
 30
0.0
  9
$UCSORGRIGHT
 10
0.0
 20
0.0
 30
0.0
  9
$UCSORGFRONT
 10
0.0
 20
0.0
 30
0.0
  9
$UCSORGBACK
 10
0.0
 20
0.0
 30
0.0
  9
$PUCSBASE
  2

  9
$PUCSNAME
  2

  9
$PUCSORG
 10
0.0
 20
0.0
 30
0.0
  9
$PUCSXDIR
 10
1.0
 20
0.0
 30
0.0
  9
$PUCSYDIR
 10
0.0
 20
1.0
 30
0.0
  9
$PUCSORTHOREF
  2

  9
$PUCSORTHOVIEW
 70
     0
  9
$PUCSORGTOP
 10
0.0
 20
0.0
 30
0.0
  9
$PUCSORGBOTTOM
 10
0.0
 20
0.0
 30
0.0
  9
$PUCSORGLEFT
 10
0.0
 20
0.0
 30
0.0
  9
$PUCSORGRIGHT
 10
0.0
 20
0.0
 30
0.0
  9
$PUCSORGFRONT
 10
0.0
 20
0.0
 30
0.0
  9
$PUCSORGBACK
 10
0.0
 20
0.0
 30
0.0
  9
$USERI1
 70
     0
  9
$USERI2
 70
     0
  9
$USERI3
 70
     0
  9
$USERI4
 70
     0
  9
$USERI5
 70
     0
  9
$USERR1
 40
0.0
  9
$USERR2
 40
0.0
  9
$USERR3
 40
0.0
  9
$USERR4
 40
0.0
  9
$USERR5
 40
0.0
  9
$WORLDVIEW
 70
     1
  9
$SHADEDGE
 70
     3
  9
$SHADEDIF
 70
    70
  9
$TILEMODE
 70
     1
  9
$MAXACTVP
 70
    64
  9
$PINSBASE
 10
0.0
 20
0.0
 30
0.0
  9
$PLIMCHECK
 70
     0
  9
$PEXTMIN
 10
1.000000000000000E+20
 20
1.000000000000000E+20
 30
1.000000000000000E+20
  9
$PEXTMAX
 10
-1.000000000000000E+20
 20
-1.000000000000000E+20
 30
-1.000000000000000E+20
  9
$PLIMMIN
 10
0.0
 20
0.0
  9
$PLIMMAX
 10
12.0
 20
9.0
  9
$UNITMODE
 70
     0
  9
$VISRETAIN
 70
     1
  9
$PLINEGEN
 70
     0
  9
$PSLTSCALE
 70
     1
  9
$TREEDEPTH
 70
  3020
  9
$CMLSTYLE
  2
Standard
  9
$CMLJUST
 70
     0
  9
$CMLSCALE
 40
1.0
  9
$PROXYGRAPHICS
 70
     1
  9
$MEASUREMENT
 70
     0
  9
$CELWEIGHT
370
    -1
  9
$ENDCAPS
280
     0
  9
$JOINSTYLE
280
     0
  9
$LWDISPLAY
290
     1
  9
$INSUNITS
 70
     1
  9
$HYPERLINKBASE
  1

  9
$STYLESHEET
  1

  9
$XEDIT
290
     1
  9
$CEPSNTYPE
380
     0
  9
$PSTYLEMODE
290
     1
  9
$FINGERPRINTGUID
  2
{93FE4AE3-A538-DD52-43AB-3C002EF68EB8}
  9
$VERSIONGUID
  2
{FAEB1C32-E019-11D5-929B-00C0DF256EC4}
  9
$EXTNAMES
290
     1
  9
$PSVPSCALE
 40
0.0
  9
$OLESTARTUP
290
     0
  9
$SORTENTS
280
   127
  9
$INDEXCTL
280
     0
  9
$HIDETEXT
280
     1
  9
$XCLIPFRAME
280
     2
  9
$HALOGAP
280
     0
  9
$OBSCOLOR
 70
   257
  9
$OBSLTYPE
280
     0
  9
$INTERSECTIONDISPLAY
280
     0
  9
$INTERSECTIONCOLOR
 70
   257
  9
$DIMASSOC
280
     2
  9
$PROJECTNAME
  1

  9
$CAMERADISPLAY
290
     0
  9
$LENSLENGTH
 40
50.0
  9
$CAMERAHEIGHT
 40
0.0
  9
$STEPSPERSEC
 40
2.0
  9
$STEPSIZE
 40
6.0
  9
$3DDWFPREC
 40
2.0
  9
$PSOLWIDTH
 40
0.25
  9
$PSOLHEIGHT
 40
4.0
  9
$LOFTANG1
 40
1.570796326794897
  9
$LOFTANG2
 40
1.570796326794897
  9
$LOFTMAG1
 40
0.0
  9
$LOFTMAG2
 40
0.0
  9
$LOFTPARAM
 70
     7
  9
$LOFTNORMALS
280
     1
  9
$LATITUDE
 40
37.795
  9
$LONGITUDE
 40
-122.394
  9
$NORTHDIRECTION
 40
0.0
  9
$TIMEZONE
 70
 -8000
  9
$LIGHTGLYPHDISPLAY
280
     1
  9
$TILEMODELIGHTSYNCH
280
     1
  9
$CMATERIAL
347
3C
  9
$SOLIDHIST
280
     1
  9
$SHOWHIST
280
     1
  9
$DWFFRAME
280
     2
  9
$DGNFRAME
280
     2
  9
$REALWORLDSCALE
290
     1
  9
$INTERFERECOLOR
 62
   256
  9
$CSHADOW
280
     0
  9
$SHADOWPLANELOCATION
 40
0.0
  0
ENDSEC
  0
SECTION
  2
CLASSES
  0
CLASS
  1
ACDBDICTIONARYWDFLT
  2
AcDbDictionaryWithDefault
  3
ObjectDBX Classes
 90
        0
 91
        4
280
     0
281
     0
  0
CLASS
  1
VISUALSTYLE
  2
AcDbVisualStyle
  3
ObjectDBX Classes
 90
     4095
 91
        4
280
     0
281
     0
  0
CLASS
  1
MATERIAL
  2
AcDbMaterial
  3
ObjectDBX Classes
 90
     1153
 91
        4
280
     0
281
     0
  0
CLASS
  1
SUN
  2
AcDbSun
  3
SCENEOE
 90
     1024
 91
        4
280
     0
281
     0
  0
ENDSEC
  0
SECTION
  2
TABLES
  0
TABLE
  2
VPORT
  5
8
330
0
100
AcDbSymbolTable
 70
     1
  0
VPORT
  5
29
330
8
100
AcDbSymbolTableRecord
100
AcDbViewportTableRecord
  2
*Active
 70
     0
 10
0.0
 20
0.0
 11
1.0
 21
1.0
 12
0.0
 22
0.0
 13
0.0
 23
0.0
 14
0.5
 24
0.5
 15
0.5
 25
0.5
 16
0.0
 26
0.0
 36
1.0
 17
91.00082462281999
 27
-128.4993055234307
 37
0.0
 40
256.9986110468615
 41
0.7081814508812795
 42
50.0
 43
0.0
 44
0.0
 50
0.0
 51
0.0
 71
     0
 72
   100
 73
     1
 74
     3
 75
     0
 76
     0
 77
     0
 78
     0
281
     0
 65
     1
110
0.0
120
0.0
130
0.0
111
1.0
121
0.0
131
0.0
112
0.0
122
1.0
132
0.0
 79
     0
146
0.0
 60
     3
 61
     5
292
     1
282
     1
141
0.0
142
0.0
 63
   250
361
3F
  0
ENDTAB
  0
TABLE
  2
LTYPE
  5
5
330
0
100
AcDbSymbolTable
 70
     1
  0
LTYPE
  5
14
330
5
100
AcDbSymbolTableRecord
100
AcDbLinetypeTableRecord
  2
ByBlock
 70
     0
  3

 72
    65
 73
     0
 40
0.0
  0
LTYPE
  5
15
330
5
100
AcDbSymbolTableRecord
100
AcDbLinetypeTableRecord
  2
ByLayer
 70
     0
  3

 72
    65
 73
     0
 40
0.0
  0
LTYPE
  5
16
330
5
100
AcDbSymbolTableRecord
100
AcDbLinetypeTableRecord
  2
Continuous
 70
     0
  3
Solid line
 72
    65
 73
     0
 40
0.0
  0
ENDTAB
  0
TABLE
  2
LAYER
  5
2
330
0
100
AcDbSymbolTable
 70
     2
  0
LAYER
  5
10
330
2
100
AcDbSymbolTableRecord
100
AcDbLayerTableRecord
  2
0
 70
     0
 62
     7
  6
Continuous
370
    -3
390
F
347
3E
  0
LAYER
  5
40
330
2
100
AcDbSymbolTableRecord
100
AcDbLayerTableRecord
  2
_U+30EC_U+30A4_U+30E4_U+30FC 1
 70
     0
 62
     7
  6
Continuous
370
    -3
390
F
347
3E
  0
ENDTAB
  0
TABLE
  2
STYLE
  5
3
330
0
100
AcDbSymbolTable
 70
     1
  0
STYLE
  5
11
330
3
100
AcDbSymbolTableRecord
100
AcDbTextStyleTableRecord
  2
Standard
 70
     0
 40
0.0
 41
1.0
 50
0.0
 71
     0
 42
0.2
  3
txt
  4

  0
ENDTAB
  0
TABLE
  2
VIEW
  5
6
330
0
100
AcDbSymbolTable
 70
     0
  0
ENDTAB
  0
TABLE
  2
UCS
  5
7
330
0
100
AcDbSymbolTable
 70
     0
  0
ENDTAB
  0
TABLE
  2
APPID
  5
9
330
0
100
AcDbSymbolTable
 70
     1
  0
APPID
  5
12
330
9
100
AcDbSymbolTableRecord
100
AcDbRegAppTableRecord
  2
ACAD
 70
     0
  0
ENDTAB
  0
TABLE
  2
DIMSTYLE
  5
A
330
0
100
AcDbSymbolTable
 70
     1
100
AcDbDimStyleTable
  0
DIMSTYLE
105
27
330
A
100
AcDbSymbolTableRecord
100
AcDbDimStyleTableRecord
  2
Standard
 70
     0
178
     0
340
11
  0
ENDTAB
  0
TABLE
  2
BLOCK_RECORD
  5
1
330
0
100
AcDbSymbolTable
 70
     4
  0
BLOCK_RECORD
  5
1F
330
1
100
AcDbSymbolTableRecord
100
AcDbBlockTableRecord
  2
*Model_Space
340
22
 70
     0
280
     1
281
     0
  0
BLOCK_RECORD
  5
1B
330
1
100
AcDbSymbolTableRecord
100
AcDbBlockTableRecord
  2
*Paper_Space
340
1E
 70
     0
280
     1
281
     0
  0
BLOCK_RECORD
  5
23
330
1
100
AcDbSymbolTableRecord
100
AcDbBlockTableRecord
  2
*Paper_Space0
340
26
 70
     0
280
     1
281
     0
  0
BLOCK_RECORD
  5
57
330
1
100
AcDbSymbolTableRecord
100
AcDbBlockTableRecord
  2
block 2
340
0
102
{BLKREFS
331
58
102
}
 70
     0
280
     1
281
     0
  0
BLOCK_RECORD
  5
73
330
1
100
AcDbSymbolTableRecord
100
AcDbBlockTableRecord
  2
block 3
340
0
102
{BLKREFS
331
74
102
}
 70
     0
280
     1
281
     0
  0
BLOCK_RECORD
  5
87
330
1
100
AcDbSymbolTableRecord
100
AcDbBlockTableRecord
  2
block 4
340
0
102
{BLKREFS
331
88
102
}
 70
     0
280
     1
281
     0
  0
ENDTAB
  0
ENDSEC
  0
SECTION
  2
BLOCKS
  0
BLOCK
  5
20
330
1F
100
AcDbEntity
  8
0
100
AcDbBlockBegin
  2
*Model_Space
 70
     0
 10
0.0
 20
0.0
 30
0.0
  3
*Model_Space
  1

  0
ENDBLK
  5
21
330
1F
100
AcDbEntity
  8
0
100
AcDbBlockEnd
  0
BLOCK
  5
1C
330
1B
100
AcDbEntity
 67
     1
  8
0
100
AcDbBlockBegin
  2
*Paper_Space
 70
     0
 10
0.0
 20
0.0
 30
0.0
  3
*Paper_Space
  1

  0
ENDBLK
  5
1D
330
1B
100
AcDbEntity
 67
     1
  8
0
100
AcDbBlockEnd
  0
BLOCK
  5
24
330
23
100
AcDbEntity
  8
0
100
AcDbBlockBegin
  2
*Paper_Space0
 70
     0
 10
0.0
 20
0.0
 30
0.0
  3
*Paper_Space0
  1

  0
ENDBLK
  5
25
330
23
100
AcDbEntity
  8
0
100
AcDbBlockEnd
  0
BLOCK
  5
59
330
57
100
AcDbEntity
  8
0
100
AcDbBlockBegin
  2
block 2
 70
     0
 10
0.0
 20
0.0
 30
0.0
  3
block 2
  1

  0
SPLINE
  5
5B
330
57
100
AcDbEntity
  8
_U+30EC_U+30A4_U+30E4_U+30FC 1
370
     0
100
AcDbSpline
210
0.0
220
0.0
230
1.0
 70
    11
 71
     3
 72
    26
 73
    22
 74
     0
 42
0.0000000001
 43
0.0000000001
 12
1.0
 22
0.0
 32
0.0
 13
1.0
 23
0.0
 33
0.0
 40
0.0
 40
0.0
 40
0.0
 40
0.0
 40
1.0
 40
1.0
 40
1.0
 40
2.0
 40
2.0
 40
2.0
 40
3.0
 40
3.0
 40
3.0
 40
4.0
 40
4.0
 40
4.0
 40
5.0
 40
5.0
 40
5.0
 40
6.0
 40
6.0
 40
6.0
 40
7.0
 40
7.0
 40
7.0
 40
7.0
 10
111.3403184400469
 20
-138.5286675000901
 30
0.0
 10
111.3403184400469
 20
-138.5286675000901
 30
0.0
 10
110.2361653370243
 20
-138.5286675000901
 30
0.0
 10
110.2361653370243
 20
-138.5286675000901
 30
0.0
 10
110.2361653370243
 20
-138.5286675000901
 30
0.0
 10
110.2361653370243
 20
-138.8242566927245
 30
0.0
 10
110.2361653370243
 20
-138.8242566927245
 30
0.0
 10
110.2361653370243
 20
-138.8242566927245
 30
0.0
 10
110.0880262311586
 20
-138.8242566927245
 30
0.0
 10
110.0880262311586
 20
-138.8242566927245
 30
0.0
 10
110.073212320572
 20
-138.5266004427989
 30
0.0
 10
109.9102593041197
 20
-138.4849147874274
 30
0.0
 10
109.7958821340094
 20
-138.458387552191
 30
0.0
 10
109.7958821340094
 20
-138.458387552191
 30
0.0
 10
109.7958821340094
 20
-138.3274739237515
 30
0.0
 10
109.7958821340094
 20
-138.3274739237515
 30
0.0
 10
109.7958821340094
 20
-138.3274739237515
 30
0.0
 10
111.3403184400469
 20
-138.3274739237515
 30
0.0
 10
111.3403184400469
 20
-138.3274739237515
 30
0.0
 10
111.3403184400469
 20
-138.3274739237515
 30
0.0
 10
111.3403184400469
 20
-138.5286675000901
 30
0.0
 10
111.3403184400469
 20
-138.5286675000901
 30
0.0
  0
HATCH
  5
5C
330
57
100
AcDbEntity
  8
_U+30EC_U+30A4_U+30E4_U+30FC 1
 62
   179
420
  2234388
100
AcDbHatch
 10
0.0
 20
0.0
 30
0.0
210
0.0
220
0.0
230
1.0
  2
SOLID
 70
     1
 71
     0
 91
        1
 92
        1
 93
        1
 72
     4
 94
        3
 73
     0
 74
     1
 95
       26
 96
       22
 40
0.0
 40
0.0
 40
0.0
 40
0.0
 40
1.0
 40
1.0
 40
1.0
 40
2.0
 40
2.0
 40
2.0
 40
3.0
 40
3.0
 40
3.0
 40
4.0
 40
4.0
 40
4.0
 40
5.0
 40
5.0
 40
5.0
 40
6.0
 40
6.0
 40
6.0
 40
7.0
 40
7.0
 40
7.0
 40
7.0
 10
111.3403184400469
 20
-138.5286675000901
 10
111.3403184400469
 20
-138.5286675000901
 10
110.2361653370243
 20
-138.5286675000901
 10
110.2361653370243
 20
-138.5286675000901
 10
110.2361653370243
 20
-138.5286675000901
 10
110.2361653370243
 20
-138.8242566927245
 10
110.2361653370243
 20
-138.8242566927245
 10
110.2361653370243
 20
-138.8242566927245
 10
110.0880262311586
 20
-138.8242566927245
 10
110.0880262311586
 20
-138.8242566927245
 10
110.073212320572
 20
-138.5266004427989
 10
109.9102593041197
 20
-138.4849147874274
 10
109.7958821340094
 20
-138.458387552191
 10
109.7958821340094
 20
-138.458387552191
 10
109.7958821340094
 20
-138.3274739237515
 10
109.7958821340094
 20
-138.3274739237515
 10
109.7958821340094
 20
-138.3274739237515
 10
111.3403184400469
 20
-138.3274739237515
 10
111.3403184400469
 20
-138.3274739237515
 10
111.3403184400469
 20
-138.3274739237515
 10
111.3403184400469
 20
-138.5286675000901
 10
111.3403184400469
 20
-138.5286675000901
 97
        0
 97
        0
 75
     2
 76
     1
 98
        0
  0
POLYLINE
  5
5D
330
57
100
AcDbEntity
  8
_U+30EC_U+30A4_U+30E4_U+30FC 1
370
     0
100
AcDb2dPolyline
 66
     1
 10
0.0
 20
0.0
 30
0.0
  0
VERTEX
  5
5E
330
5D
100
AcDbEntity
  8
_U+30EC_U+30A4_U+30E4_U+30FC 1
370
     0
100
AcDbVertex
100
AcDb2dVertex
 10
111.3403184400469
 20
-137.8255235115506
 30
0.0
  0
VERTEX
  5
5F
330
5D
100
AcDbEntity
  8
_U+30EC_U+30A4_U+30E4_U+30FC 1
370
     0
100
AcDbVertex
100
AcDb2dVertex
 10
111.0884819600751
 20
-137.8255235115506
 30
0.0
  0
VERTEX
  5
60
330
5D
100
AcDbEntity
  8
_U+30EC_U+30A4_U+30E4_U+30FC 1
370
     0
100
AcDbVertex
100
AcDb2dVertex
 10
111.0884819600751
 20
-137.5998697572667
 30
0.0
  0
VERTEX
  5
61
330
5D
100
AcDbEntity
  8
_U+30EC_U+30A4_U+30E4_U+30FC 1
370
     0
100
AcDbVertex
100
AcDb2dVertex
 10
111.3403184400469
 20
-137.5998697572667
 30
0.0
  0
VERTEX
  5
62
330
5D
100
AcDbEntity
  8
_U+30EC_U+30A4_U+30E4_U+30FC 1
370
     0
100
AcDbVertex
100
AcDb2dVertex
 10
111.3403184400469
 20
-137.8255235115506
 30
0.0
  0
SEQEND
  5
63
330
5D
100
AcDbEntity
  8
_U+30EC_U+30A4_U+30E4_U+30FC 1
370
     0
  0
HATCH
  5
64
330
57
100
AcDbEntity
  8
_U+30EC_U+30A4_U+30E4_U+30FC 1
 62
   179
420
  2234388
100
AcDbHatch
 10
0.0
 20
0.0
 30
0.0
210
0.0
220
0.0
230
1.0
  2
SOLID
 70
     1
 71
     0
 91
        1
 92
        1
 93
        4
 72
     1
 10
111.3403184400469
 20
-137.8255235115506
 11
111.0884819600751
 21
-137.8255235115506
 72
     1
 10
111.0884819600751
 20
-137.8255235115506
 11
111.0884819600751
 21
-137.5998697572667
 72
     1
 10
111.0884819600751
 20
-137.5998697572667
 11
111.3403184400469
 21
-137.5998697572667
 72
     1
 10
111.3403184400469
 20
-137.5998697572667
 11
111.3403184400469
 21
-137.8255235115506
 97
        0
 75
     2
 76
     1
 98
        0
  0
SPLINE
  5
65
330
57
100
AcDbEntity
  8
_U+30EC_U+30A4_U+30E4_U+30FC 1
370
     0
100
AcDbSpline
210
0.0
220
0.0
230
1.0
 70
    11
 71
     3
 72
    44
 73
    40
 74
     0
 42
0.0000000001
 43
0.0000000001
 12
1.0
 22
0.0
 32
0.0
 13
1.0
 23
0.0
 33
0.0
 40
0.0
 40
0.0
 40
0.0
 40
0.0
 40
1.0
 40
1.0
 40
1.0
 40
2.0
 40
2.0
 40
2.0
 40
3.0
 40
3.0
 40
3.0
 40
4.0
 40
4.0
 40
4.0
 40
5.0
 40
5.0
 40
5.0
 40
6.0
 40
6.0
 40
6.0
 40
7.0
 40
7.0
 40
7.0
 40
8.0
 40
8.0
 40
8.0
 40
9.0
 40
9.0
 40
9.0
 40
10.0
 40
10.0
 40
10.0
 40
11.0
 40
11.0
 40
11.0
 40
12.0
 40
12.0
 40
12.0
 40
13.0
 40
13.0
 40
13.0
 40
13.0
 10
110.7584418125882
 20
-136.8574516801954
 30
0.0
 10
110.9172607144582
 20
-137.052788594209
 30
0.0
 10
110.9913302673911
 20
-137.1361599049521
 30
0.0
 10
111.134990749126
 20
-137.1795681080662
 30
0.0
 10
111.134990749126
 20
-137.1795681080662
 30
0.0
 10
111.134990749126
 20
-136.4822807818517
 30
0.0
 10
111.134990749126
 20
-136.4822807818517
 30
0.0
 10
111.134990749126
 20
-136.4822807818517
 30
0.0
 10
111.3403184400469
 20
-136.4822807818517
 30
0.0
 10
111.3403184400469
 20
-136.4822807818517
 30
0.0
 10
111.3403184400469
 20
-136.4822807818517
 30
0.0
 10
111.3403184400469
 20
-137.4031548050589
 30
0.0
 10
111.3403184400469
 20
-137.4031548050589
 30
0.0
 10
110.9827175286779
 20
-137.3745605125314
 30
0.0
 10
110.9045138611628
 20
-137.3159938892821
 30
0.0
 10
110.6061685921401
 20
-136.9711398312086
 30
0.0
 10
110.4073865826412
 20
-136.7420409814395
 30
0.0
 10
110.3395182015818
 20
-136.6831298486417
 30
0.0
 10
110.2020588917203
 20
-136.6831298486417
 30
0.0
 10
110.0835476070277
 20
-136.6831298486417
 30
0.0
 10
109.9526339785882
 20
-136.7475531342159
 30
0.0
 10
109.9526339785882
 20
-136.9239420230607
 30
0.0
 10
109.9526339785882
 20
-137.1568304778636
 30
0.0
 10
110.1831108665514
 20
-137.1644096879311
 30
0.0
 10
110.2995550939529
 20
-137.1681992929649
 30
0.0
 10
110.2995550939529
 20
-137.1681992929649
 30
0.0
 10
110.2995550939529
 20
-137.369048359755
 30
0.0
 10
110.2995550939529
 20
-137.369048359755
 30
0.0
 10
110.1724310705472
 20
-137.3614691496874
 30
0.0
 10
110.0604654672766
 20
-137.3518228823287
 30
0.0
 10
109.941954182584
 20
-137.2801648962355
 30
0.0
 10
109.7810682234228
 20
-137.1816351653574
 30
0.0
 10
109.7473062876673
 20
-137.0148925438713
 30
0.0
 10
109.7473062876673
 20
-136.9105061506682
 30
0.0
 10
109.7473062876673
 20
-136.6621147661817
 30
0.0
 10
109.9312743865797
 20
-136.4767686290753
 30
0.0
 10
110.2041259490115
 20
-136.4767686290753
 30
0.0
 10
110.4328802892321
 20
-136.4767686290753
 30
0.0
 10
110.5320990392073
 20
-136.5808105127298
 30
0.0
 10
110.7584418125882
 20
-136.8574516801954
 30
0.0
  0
HATCH
  5
66
330
57
100
AcDbEntity
  8
_U+30EC_U+30A4_U+30E4_U+30FC 1
 62
   179
420
  2234388
100
AcDbHatch
 10
0.0
 20
0.0
 30
0.0
210
0.0
220
0.0
230
1.0
  2
SOLID
 70
     1
 71
     0
 91
        1
 92
        1
 93
        1
 72
     4
 94
        3
 73
     0
 74
     1
 95
       44
 96
       40
 40
0.0
 40
0.0
 40
0.0
 40
0.0
 40
1.0
 40
1.0
 40
1.0
 40
2.0
 40
2.0
 40
2.0
 40
3.0
 40
3.0
 40
3.0
 40
4.0
 40
4.0
 40
4.0
 40
5.0
 40
5.0
 40
5.0
 40
6.0
 40
6.0
 40
6.0
 40
7.0
 40
7.0
 40
7.0
 40
8.0
 40
8.0
 40
8.0
 40
9.0
 40
9.0
 40
9.0
 40
10.0
 40
10.0
 40
10.0
 40
11.0
 40
11.0
 40
11.0
 40
12.0
 40
12.0
 40
12.0
 40
13.0
 40
13.0
 40
13.0
 40
13.0
 10
110.7584418125882
 20
-136.8574516801954
 10
110.9172607144582
 20
-137.052788594209
 10
110.9913302673911
 20
-137.1361599049521
 10
111.134990749126
 20
-137.1795681080662
 10
111.134990749126
 20
-137.1795681080662
 10
111.134990749126
 20
-136.4822807818517
 10
111.134990749126
 20
-136.4822807818517
 10
111.134990749126
 20
-136.4822807818517
 10
111.3403184400469
 20
-136.4822807818517
 10
111.3403184400469
 20
-136.4822807818517
 10
111.3403184400469
 20
-136.4822807818517
 10
111.3403184400469
 20
-137.4031548050589
 10
111.3403184400469
 20
-137.4031548050589
 10
110.9827175286779
 20
-137.3745605125314
 10
110.9045138611628
 20
-137.3159938892821
 10
110.6061685921401
 20
-136.9711398312086
 10
110.4073865826412
 20
-136.7420409814395
 10
110.3395182015818
 20
-136.6831298486417
 10
110.2020588917203
 20
-136.6831298486417
 10
110.0835476070277
 20
-136.6831298486417
 10
109.9526339785882
 20
-136.7475531342159
 10
109.9526339785882
 20
-136.9239420230607
 10
109.9526339785882
 20
-137.1568304778636
 10
110.1831108665514
 20
-137.1644096879311
 10
110.2995550939529
 20
-137.1681992929649
 10
110.2995550939529
 20
-137.1681992929649
 10
110.2995550939529
 20
-137.369048359755
 10
110.2995550939529
 20
-137.369048359755
 10
110.1724310705472
 20
-137.3614691496874
 10
110.0604654672766
 20
-137.3518228823287
 10
109.941954182584
 20
-137.2801648962355
 10
109.7810682234228
 20
-137.1816351653574
 10
109.7473062876673
 20
-137.0148925438713
 10
109.7473062876673
 20
-136.9105061506682
 10
109.7473062876673
 20
-136.6621147661817
 10
109.9312743865797
 20
-136.4767686290753
 10
110.2041259490115
 20
-136.4767686290753
 10
110.4328802892321
 20
-136.4767686290753
 10
110.5320990392073
 20
-136.5808105127298
 10
110.7584418125882
 20
-136.8574516801954
 97
        0
 97
        0
 75
     2
 76
     1
 98
        0
  0
ENDBLK
  5
5A
330
57
100
AcDbEntity
  8
0
100
AcDbBlockEnd
  0
BLOCK
  5
75
330
73
100
AcDbEntity
  8
0
100
AcDbBlockBegin
  2
block 3
 70
     0
 10
0.0
 20
0.0
 30
0.0
  3
block 3
  1

  0
SPLINE
  5
77
330
73
100
AcDbEntity
  8
_U+30EC_U+30A4_U+30E4_U+30FC 1
370
     0
100
AcDbSpline
210
0.0
220
0.0
230
1.0
 70
    11
 71
     3
 72
    62
 73
    58
 74
     0
 42
0.0000000001
 43
0.0000000001
 12
1.0
 22
0.0
 32
0.0
 13
1.0
 23
0.0
 33
0.0
 40
0.0
 40
0.0
 40
0.0
 40
0.0
 40
1.0
 40
1.0
 40
1.0
 40
2.0
 40
2.0
 40
2.0
 40
3.0
 40
3.0
 40
3.0
 40
4.0
 40
4.0
 40
4.0
 40
5.0
 40
5.0
 40
5.0
 40
6.0
 40
6.0
 40
6.0
 40
7.0
 40
7.0
 40
7.0
 40
8.0
 40
8.0
 40
8.0
 40
9.0
 40
9.0
 40
9.0
 40
10.0
 40
10.0
 40
10.0
 40
11.0
 40
11.0
 40
11.0
 40
12.0
 40
12.0
 40
12.0
 40
13.0
 40
13.0
 40
13.0
 40
14.0
 40
14.0
 40
14.0
 40
15.0
 40
15.0
 40
15.0
 40
16.0
 40
16.0
 40
16.0
 40
17.0
 40
17.0
 40
17.0
 40
18.0
 40
18.0
 40
18.0
 40
19.0
 40
19.0
 40
19.0
 40
19.0
 10
71.39064668354123
 20
-126.5421467782603
 30
0.0
 10
71.39064668354123
 20
-126.627240636746
 30
0.0
 10
71.36945934630694
 20
-126.8225775507596
 30
0.0
 10
71.1832519353292
 20
-126.9345431540303
 30
0.0
 10
71.0711140772843
 20
-127.0006889873471
 30
0.0
 10
70.97172307253486
 20
-127.0044785923808
 30
0.0
 10
70.88714597837196
 20
-127.0082681974146
 30
0.0
 10
70.88714597837196
 20
-127.0082681974146
 30
0.0
 10
70.88714597837196
 20
-126.8112087356583
 30
0.0
 10
70.88714597837196
 20
-126.8112087356583
 30
0.0
 10
70.96121553130484
 20
-126.8091416783672
 30
0.0
 10
71.19599878862462
 20
-126.799839920557
 30
0.0
 10
71.19599878862462
 20
-126.5459363832941
 30
0.0
 10
71.19599878862462
 20
-126.4226019649221
 30
0.0
 10
71.12623560504831
 20
-126.2861761837062
 30
0.0
 10
70.89765351960197
 20
-126.2861761837062
 30
0.0
 10
70.7813815469748
 20
-126.2861761837062
 30
0.0
 10
70.73263344585851
 20
-126.3206271385587
 30
0.0
 10
70.70093856739422
 20
-126.3488769215378
 30
0.0
 10
70.62686901446133
 20
-126.4150227548546
 30
0.0
 10
70.61429441594018
 20
-126.5194091480576
 30
0.0
 10
70.61429441594018
 20
-126.5686740134967
 30
0.0
 10
70.61429441594018
 20
-126.585899490923
 30
0.0
 10
70.61636147323134
 20
-126.6179388789358
 30
0.0
 10
70.62049558781364
 20
-126.6423990568811
 30
0.0
 10
70.62049558781364
 20
-126.6423990568811
 30
0.0
 10
70.42601994767128
 20
-126.6423990568811
 30
0.0
 10
70.42601994767128
 20
-126.6423990568811
 30
0.0
 10
70.43222111954472
 20
-126.6086371211256
 30
0.0
 10
70.43446043161013
 20
-126.5707410707879
 30
0.0
 10
70.43446043161013
 20
-126.5648844084629
 30
0.0
 10
70.43446043161013
 20
-126.5059732756652
 30
0.0
 10
70.41327309437585
 20
-126.3282063486263
 30
0.0
 10
70.17625052499066
 20
-126.3282063486263
 30
0.0
 10
69.99865585272603
 20
-126.3282063486263
 30
0.0
 10
69.94353432496203
 20
-126.4453395951248
 30
0.0
 10
69.94353432496203
 20
-126.5438693260029
 30
0.0
 10
69.94353432496203
 20
-126.7808918953881
 30
0.0
 10
70.17625052499066
 20
-126.7884711054557
 30
0.0
 10
70.24825302063239
 20
-126.7922607104894
 30
0.0
 10
70.24825302063239
 20
-126.7922607104894
 30
0.0
 10
70.24825302063239
 20
-126.9741617521106
 30
0.0
 10
70.24825302063239
 20
-126.9741617521106
 30
0.0
 10
70.12336830929208
 20
-126.9665825420431
 30
0.0
 10
69.74681937275427
 20
-126.9421223640978
 30
0.0
 10
69.74681937275427
 20
-126.5328450204501
 30
0.0
 10
69.74681937275427
 20
-126.3316514441115
 30
0.0
 10
69.87377114138573
 20
-126.1159884667349
 30
0.0
 10
70.16987709834295
 20
-126.1159884667349
 30
0.0
 10
70.35608450932071
 20
-126.1159884667349
 30
0.0
 10
70.43859454619243
 20
-126.2010823252206
 30
0.0
 10
70.49991724582989
 20
-126.2903102982885
 30
0.0
 10
70.52747800971188
 20
-126.2351887705245
 30
0.0
 10
70.60792098929247
 20
-126.0722357540722
 30
0.0
 10
70.88507892108082
 20
-126.0722357540722
 30
0.0
 10
71.22355955250661
 20
-126.0722357540722
 30
0.0
 10
71.39064668354123
 20
-126.2937553937738
 30
0.0
 10
71.39064668354123
 20
-126.5421467782603
 30
0.0
  0
HATCH
  5
78
330
73
100
AcDbEntity
  8
_U+30EC_U+30A4_U+30E4_U+30FC 1
 62
   179
420
  2234388
100
AcDbHatch
 10
0.0
 20
0.0
 30
0.0
210
0.0
220
0.0
230
1.0
  2
SOLID
 70
     1
 71
     0
 91
        1
 92
        1
 93
        1
 72
     4
 94
        3
 73
     0
 74
     1
 95
       62
 96
       58
 40
0.0
 40
0.0
 40
0.0
 40
0.0
 40
1.0
 40
1.0
 40
1.0
 40
2.0
 40
2.0
 40
2.0
 40
3.0
 40
3.0
 40
3.0
 40
4.0
 40
4.0
 40
4.0
 40
5.0
 40
5.0
 40
5.0
 40
6.0
 40
6.0
 40
6.0
 40
7.0
 40
7.0
 40
7.0
 40
8.0
 40
8.0
 40
8.0
 40
9.0
 40
9.0
 40
9.0
 40
10.0
 40
10.0
 40
10.0
 40
11.0
 40
11.0
 40
11.0
 40
12.0
 40
12.0
 40
12.0
 40
13.0
 40
13.0
 40
13.0
 40
14.0
 40
14.0
 40
14.0
 40
15.0
 40
15.0
 40
15.0
 40
16.0
 40
16.0
 40
16.0
 40
17.0
 40
17.0
 40
17.0
 40
18.0
 40
18.0
 40
18.0
 40
19.0
 40
19.0
 40
19.0
 40
19.0
 10
71.39064668354123
 20
-126.5421467782603
 10
71.39064668354123
 20
-126.627240636746
 10
71.36945934630694
 20
-126.8225775507596
 10
71.1832519353292
 20
-126.9345431540303
 10
71.0711140772843
 20
-127.0006889873471
 10
70.97172307253486
 20
-127.0044785923808
 10
70.88714597837196
 20
-127.0082681974146
 10
70.88714597837196
 20
-127.0082681974146
 10
70.88714597837196
 20
-126.8112087356583
 10
70.88714597837196
 20
-126.8112087356583
 10
70.96121553130484
 20
-126.8091416783672
 10
71.19599878862462
 20
-126.799839920557
 10
71.19599878862462
 20
-126.5459363832941
 10
71.19599878862462
 20
-126.4226019649221
 10
71.12623560504831
 20
-126.2861761837062
 10
70.89765351960197
 20
-126.2861761837062
 10
70.7813815469748
 20
-126.2861761837062
 10
70.73263344585851
 20
-126.3206271385587
 10
70.70093856739422
 20
-126.3488769215378
 10
70.62686901446133
 20
-126.4150227548546
 10
70.61429441594018
 20
-126.5194091480576
 10
70.61429441594018
 20
-126.5686740134967
 10
70.61429441594018
 20
-126.585899490923
 10
70.61636147323134
 20
-126.6179388789358
 10
70.62049558781364
 20
-126.6423990568811
 10
70.62049558781364
 20
-126.6423990568811
 10
70.42601994767128
 20
-126.6423990568811
 10
70.42601994767128
 20
-126.6423990568811
 10
70.43222111954472
 20
-126.6086371211256
 10
70.43446043161013
 20
-126.5707410707879
 10
70.43446043161013
 20
-126.5648844084629
 10
70.43446043161013
 20
-126.5059732756652
 10
70.41327309437585
 20
-126.3282063486263
 10
70.17625052499066
 20
-126.3282063486263
 10
69.99865585272603
 20
-126.3282063486263
 10
69.94353432496203
 20
-126.4453395951248
 10
69.94353432496203
 20
-126.5438693260029
 10
69.94353432496203
 20
-126.7808918953881
 10
70.17625052499066
 20
-126.7884711054557
 10
70.24825302063239
 20
-126.7922607104894
 10
70.24825302063239
 20
-126.7922607104894
 10
70.24825302063239
 20
-126.9741617521106
 10
70.24825302063239
 20
-126.9741617521106
 10
70.12336830929208
 20
-126.9665825420431
 10
69.74681937275427
 20
-126.9421223640978
 10
69.74681937275427
 20
-126.5328450204501
 10
69.74681937275427
 20
-126.3316514441115
 10
69.87377114138573
 20
-126.1159884667349
 10
70.16987709834295
 20
-126.1159884667349
 10
70.35608450932071
 20
-126.1159884667349
 10
70.43859454619243
 20
-126.2010823252206
 10
70.49991724582989
 20
-126.2903102982885
 10
70.52747800971188
 20
-126.2351887705245
 10
70.60792098929247
 20
-126.0722357540722
 10
70.88507892108082
 20
-126.0722357540722
 10
71.22355955250661
 20
-126.0722357540722
 10
71.39064668354123
 20
-126.2937553937738
 10
71.39064668354123
 20
-126.5421467782603
 97
        0
 97
        0
 75
     2
 76
     1
 98
        0
  0
SPLINE
  5
79
330
73
100
AcDbEntity
  8
_U+30EC_U+30A4_U+30E4_U+30FC 1
370
     0
100
AcDbSpline
210
0.0
220
0.0
230
1.0
 70
    11
 71
     3
 72
    44
 73
    40
 74
     0
 42
0.0000000001
 43
0.0000000001
 12
1.0
 22
0.0
 32
0.0
 13
1.0
 23
0.0
 33
0.0
 40
0.0
 40
0.0
 40
0.0
 40
0.0
 40
1.0
 40
1.0
 40
1.0
 40
2.0
 40
2.0
 40
2.0
 40
3.0
 40
3.0
 40
3.0
 40
4.0
 40
4.0
 40
4.0
 40
5.0
 40
5.0
 40
5.0
 40
6.0
 40
6.0
 40
6.0
 40
7.0
 40
7.0
 40
7.0
 40
8.0
 40
8.0
 40
8.0
 40
9.0
 40
9.0
 40
9.0
 40
10.0
 40
10.0
 40
10.0
 40
11.0
 40
11.0
 40
11.0
 40
12.0
 40
12.0
 40
12.0
 40
13.0
 40
13.0
 40
13.0
 40
13.0
 10
70.75812715244936
 20
-125.3976860580603
 30
0.0
 10
70.91677379954511
 20
-125.593022972074
 30
0.0
 10
70.99084335247798
 20
-125.676394282817
 30
0.0
 10
71.13467608898716
 20
-125.7198024859312
 30
0.0
 10
71.13467608898716
 20
-125.7198024859312
 30
0.0
 10
71.13467608898716
 20
-125.0225151597166
 30
0.0
 10
71.13467608898716
 20
-125.0225151597166
 30
0.0
 10
71.13467608898716
 20
-125.0225151597166
 30
0.0
 10
71.33983152513379
 20
-125.0225151597166
 30
0.0
 10
71.33983152513379
 20
-125.0225151597166
 30
0.0
 10
71.33983152513379
 20
-125.0225151597166
 30
0.0
 10
71.33983152513379
 20
-125.9433891829239
 30
0.0
 10
71.33983152513379
 20
-125.9433891829239
 30
0.0
 10
70.98223061376486
 20
-125.9147948903963
 30
0.0
 10
70.90402694624969
 20
-125.8562282671471
 30
0.0
 10
70.60568167722705
 20
-125.5113742090736
 30
0.0
 10
70.40689966772814
 20
-125.2822753593044
 30
0.0
 10
70.33920354144298
 20
-125.2233642265067
 30
0.0
 10
70.20174423158151
 20
-125.2233642265067
 30
0.0
 10
70.08323294688891
 20
-125.2233642265067
 30
0.0
 10
69.9519748089009
 20
-125.2877875120808
 30
0.0
 10
69.9519748089009
 20
-125.4641764009256
 30
0.0
 10
69.9519748089009
 20
-125.6970648557285
 30
0.0
 10
70.18262395163838
 20
-125.7046440657961
 30
0.0
 10
70.29906817903982
 20
-125.7084336708298
 30
0.0
 10
70.29906817903982
 20
-125.7084336708298
 30
0.0
 10
70.29906817903982
 20
-125.9092827376199
 30
0.0
 10
70.29906817903982
 20
-125.9092827376199
 30
0.0
 10
70.17211641040836
 20
-125.9017035275524
 30
0.0
 10
70.05997855236348
 20
-125.8920572601937
 30
0.0
 10
69.94146726767089
 20
-125.8203992741005
 30
0.0
 10
69.78075356328398
 20
-125.7218695432223
 30
0.0
 10
69.74681937275427
 20
-125.5551269217362
 30
0.0
 10
69.74681937275427
 20
-125.4507405285332
 30
0.0
 10
69.74681937275427
 20
-125.2023491440466
 30
0.0
 10
69.93095972644088
 20
-125.0170030069402
 30
0.0
 10
70.20381128887266
 20
-125.0170030069402
 30
0.0
 10
70.43222111954472
 20
-125.0170030069402
 30
0.0
 10
70.53178437906844
 20
-125.1210448905947
 30
0.0
 10
70.75812715244936
 20
-125.3976860580603
 30
0.0
  0
HATCH
  5
7A
330
73
100
AcDbEntity
  8
_U+30EC_U+30A4_U+30E4_U+30FC 1
 62
   179
420
  2234388
100
AcDbHatch
 10
0.0
 20
0.0
 30
0.0
210
0.0
220
0.0
230
1.0
  2
SOLID
 70
     1
 71
     0
 91
        1
 92
        1
 93
        1
 72
     4
 94
        3
 73
     0
 74
     1
 95
       44
 96
       40
 40
0.0
 40
0.0
 40
0.0
 40
0.0
 40
1.0
 40
1.0
 40
1.0
 40
2.0
 40
2.0
 40
2.0
 40
3.0
 40
3.0
 40
3.0
 40
4.0
 40
4.0
 40
4.0
 40
5.0
 40
5.0
 40
5.0
 40
6.0
 40
6.0
 40
6.0
 40
7.0
 40
7.0
 40
7.0
 40
8.0
 40
8.0
 40
8.0
 40
9.0
 40
9.0
 40
9.0
 40
10.0
 40
10.0
 40
10.0
 40
11.0
 40
11.0
 40
11.0
 40
12.0
 40
12.0
 40
12.0
 40
13.0
 40
13.0
 40
13.0
 40
13.0
 10
70.75812715244936
 20
-125.3976860580603
 10
70.91677379954511
 20
-125.593022972074
 10
70.99084335247798
 20
-125.676394282817
 10
71.13467608898716
 20
-125.7198024859312
 10
71.13467608898716
 20
-125.7198024859312
 10
71.13467608898716
 20
-125.0225151597166
 10
71.13467608898716
 20
-125.0225151597166
 10
71.13467608898716
 20
-125.0225151597166
 10
71.33983152513379
 20
-125.0225151597166
 10
71.33983152513379
 20
-125.0225151597166
 10
71.33983152513379
 20
-125.0225151597166
 10
71.33983152513379
 20
-125.9433891829239
 10
71.33983152513379
 20
-125.9433891829239
 10
70.98223061376486
 20
-125.9147948903963
 10
70.90402694624969
 20
-125.8562282671471
 10
70.60568167722705
 20
-125.5113742090736
 10
70.40689966772814
 20
-125.2822753593044
 10
70.33920354144298
 20
-125.2233642265067
 10
70.20174423158151
 20
-125.2233642265067
 10
70.08323294688891
 20
-125.2233642265067
 10
69.9519748089009
 20
-125.2877875120808
 10
69.9519748089009
 20
-125.4641764009256
 10
69.9519748089009
 20
-125.6970648557285
 10
70.18262395163838
 20
-125.7046440657961
 10
70.29906817903982
 20
-125.7084336708298
 10
70.29906817903982
 20
-125.7084336708298
 10
70.29906817903982
 20
-125.9092827376199
 10
70.29906817903982
 20
-125.9092827376199
 10
70.17211641040836
 20
-125.9017035275524
 10
70.05997855236348
 20
-125.8920572601937
 10
69.94146726767089
 20
-125.8203992741005
 10
69.78075356328398
 20
-125.7218695432223
 10
69.74681937275427
 20
-125.5551269217362
 10
69.74681937275427
 20
-125.4507405285332
 10
69.74681937275427
 20
-125.2023491440466
 10
69.93095972644088
 20
-125.0170030069402
 10
70.20381128887266
 20
-125.0170030069402
 10
70.43222111954472
 20
-125.0170030069402
 10
70.53178437906844
 20
-125.1210448905947
 10
70.75812715244936
 20
-125.3976860580603
 97
        0
 97
        0
 75
     2
 76
     1
 98
        0
  0
ENDBLK
  5
76
330
73
100
AcDbEntity
  8
0
100
AcDbBlockEnd
  0
BLOCK
  5
89
330
87
100
AcDbEntity
  8
0
100
AcDbBlockBegin
  2
block 4
 70
     0
 10
0.0
 20
0.0
 30
0.0
  3
block 4
  1

  0
SPLINE
  5
8B
330
87
100
AcDbEntity
  8
_U+30EC_U+30A4_U+30E4_U+30FC 1
370
     0
100
AcDbSpline
210
0.0
220
0.0
230
1.0
 70
    11
 71
     3
 72
    62
 73
    58
 74
     0
 42
0.0000000001
 43
0.0000000001
 12
1.0
 22
0.0
 32
0.0
 13
1.0
 23
0.0
 33
0.0
 40
0.0
 40
0.0
 40
0.0
 40
0.0
 40
1.0
 40
1.0
 40
1.0
 40
2.0
 40
2.0
 40
2.0
 40
3.0
 40
3.0
 40
3.0
 40
4.0
 40
4.0
 40
4.0
 40
5.0
 40
5.0
 40
5.0
 40
6.0
 40
6.0
 40
6.0
 40
7.0
 40
7.0
 40
7.0
 40
8.0
 40
8.0
 40
8.0
 40
9.0
 40
9.0
 40
9.0
 40
10.0
 40
10.0
 40
10.0
 40
11.0
 40
11.0
 40
11.0
 40
12.0
 40
12.0
 40
12.0
 40
13.0
 40
13.0
 40
13.0
 40
14.0
 40
14.0
 40
14.0
 40
15.0
 40
15.0
 40
15.0
 40
16.0
 40
16.0
 40
16.0
 40
17.0
 40
17.0
 40
17.0
 40
18.0
 40
18.0
 40
18.0
 40
19.0
 40
19.0
 40
19.0
 40
19.0
 10
91.20304630966451
 20
-145.263484664205
 30
0.0
 10
91.11760794163033
 20
-145.263484664205
 30
0.0
 10
90.92261553716519
 20
-145.242469581745
 30
0.0
 10
90.8109944434431
 20
-145.0564344255415
 30
0.0
 10
90.74450410057777
 20
-144.9441243127223
 30
0.0
 10
90.740714495544
 20
-144.8449055627471
 30
0.0
 10
90.73692489051022
 20
-144.76015621381
 30
0.0
 10
90.73692489051022
 20
-144.76015621381
 30
0.0
 10
90.9339843522665
 20
-144.76015621381
 30
0.0
 10
90.9339843522665
 20
-144.76015621381
 30
0.0
 10
90.93570690000914
 20
-144.8342257667428
 30
0.0
 10
90.94535316736783
 20
-145.0688367692883
 30
0.0
 10
91.19925670463074
 20
-145.0688367692883
 30
0.0
 10
91.32224661345417
 20
-145.0688367692883
 30
0.0
 10
91.45867239467006
 20
-144.9992458404863
 30
0.0
 10
91.45867239467006
 20
-144.7708360098142
 30
0.0
 10
91.45867239467006
 20
-144.6543917824128
 30
0.0
 10
91.42491045891461
 20
-144.6058159360708
 30
0.0
 10
91.39631616638704
 20
-144.5741210576065
 30
0.0
 10
91.32982582352172
 20
-144.5000515046736
 30
0.0
 10
91.22578393986717
 20
-144.4873046513782
 30
0.0
 10
91.1765190744281
 20
-144.4873046513782
 30
0.0
 10
91.15963810655037
 20
-144.4873046513782
 30
0.0
 10
91.12725420898903
 20
-144.4893717086693
 30
0.0
 10
91.10244952149523
 20
-144.4935058232516
 30
0.0
 10
91.10244952149523
 20
-144.4935058232516
 30
0.0
 10
91.10244952149523
 20
-144.298857928335
 30
0.0
 10
91.10244952149523
 20
-144.298857928335
 30
0.0
 10
91.13690047634772
 20
-144.305403609757
 30
0.0
 10
91.17479652668547
 20
-144.3074706670481
 30
0.0
 10
91.18030867946187
 20
-144.3074706670481
 30
0.0
 10
91.23887530271112
 20
-144.3074706670481
 30
0.0
 10
91.41733124884706
 20
-144.2861110750396
 30
0.0
 10
91.41733124884706
 20
-144.0494330152029
 30
0.0
 10
91.41733124884706
 20
-143.871666088164
 30
0.0
 10
91.29950898325151
 20
-143.8165445604
 30
0.0
 10
91.20097925237337
 20
-143.8165445604
 30
0.0
 10
90.96430119253671
 20
-143.8165445604
 30
0.0
 10
90.95672198246916
 20
-144.0494330152029
 30
0.0
 10
90.95293237743539
 20
-144.1210910012961
 30
0.0
 10
90.95293237743539
 20
-144.1210910012961
 30
0.0
 10
90.77103133581419
 20
-144.1210910012961
 30
0.0
 10
90.77103133581419
 20
-144.1210910012961
 30
0.0
 10
90.77861054588175
 20
-143.9963785447301
 30
0.0
 10
90.80341523337555
 20
-143.6198296081923
 30
0.0
 10
91.21269257702322
 20
-143.6198296081923
 30
0.0
 10
91.41319713426476
 20
-143.6198296081923
 30
0.0
 10
91.62954913073845
 20
-143.746953631598
 30
0.0
 10
91.62954913073845
 20
-144.042887333781
 30
0.0
 10
91.62954913073845
 20
-144.229266999533
 30
0.0
 10
91.54411076270425
 20
-144.3116047816305
 30
0.0
 10
91.45522729918481
 20
-144.3729274812679
 30
0.0
 10
91.51000431740029
 20
-144.4004882451499
 30
0.0
 10
91.6729573338526
 20
-144.4807589699562
 30
0.0
 10
91.6729573338526
 20
-144.7580891565188
 30
0.0
 10
91.6729573338526
 20
-145.0963975331703
 30
0.0
 10
91.45109318460251
 20
-145.263484664205
 30
0.0
 10
91.20304630966451
 20
-145.263484664205
 30
0.0
  0
HATCH
  5
8C
330
87
100
AcDbEntity
  8
_U+30EC_U+30A4_U+30E4_U+30FC 1
 62
   179
420
  2234388
100
AcDbHatch
 10
0.0
 20
0.0
 30
0.0
210
0.0
220
0.0
230
1.0
  2
SOLID
 70
     1
 71
     0
 91
        1
 92
        1
 93
        1
 72
     4
 94
        3
 73
     0
 74
     1
 95
       62
 96
       58
 40
0.0
 40
0.0
 40
0.0
 40
0.0
 40
1.0
 40
1.0
 40
1.0
 40
2.0
 40
2.0
 40
2.0
 40
3.0
 40
3.0
 40
3.0
 40
4.0
 40
4.0
 40
4.0
 40
5.0
 40
5.0
 40
5.0
 40
6.0
 40
6.0
 40
6.0
 40
7.0
 40
7.0
 40
7.0
 40
8.0
 40
8.0
 40
8.0
 40
9.0
 40
9.0
 40
9.0
 40
10.0
 40
10.0
 40
10.0
 40
11.0
 40
11.0
 40
11.0
 40
12.0
 40
12.0
 40
12.0
 40
13.0
 40
13.0
 40
13.0
 40
14.0
 40
14.0
 40
14.0
 40
15.0
 40
15.0
 40
15.0
 40
16.0
 40
16.0
 40
16.0
 40
17.0
 40
17.0
 40
17.0
 40
18.0
 40
18.0
 40
18.0
 40
19.0
 40
19.0
 40
19.0
 40
19.0
 10
91.20304630966451
 20
-145.263484664205
 10
91.11760794163033
 20
-145.263484664205
 10
90.92261553716519
 20
-145.242469581745
 10
90.8109944434431
 20
-145.0564344255415
 10
90.74450410057777
 20
-144.9441243127223
 10
90.740714495544
 20
-144.8449055627471
 10
90.73692489051022
 20
-144.76015621381
 10
90.73692489051022
 20
-144.76015621381
 10
90.9339843522665
 20
-144.76015621381
 10
90.9339843522665
 20
-144.76015621381
 10
90.93570690000914
 20
-144.8342257667428
 10
90.94535316736783
 20
-145.0688367692883
 10
91.19925670463074
 20
-145.0688367692883
 10
91.32224661345417
 20
-145.0688367692883
 10
91.45867239467006
 20
-144.9992458404863
 10
91.45867239467006
 20
-144.7708360098142
 10
91.45867239467006
 20
-144.6543917824128
 10
91.42491045891461
 20
-144.6058159360708
 10
91.39631616638704
 20
-144.5741210576065
 10
91.32982582352172
 20
-144.5000515046736
 10
91.22578393986717
 20
-144.4873046513782
 10
91.1765190744281
 20
-144.4873046513782
 10
91.15963810655037
 20
-144.4873046513782
 10
91.12725420898903
 20
-144.4893717086693
 10
91.10244952149523
 20
-144.4935058232516
 10
91.10244952149523
 20
-144.4935058232516
 10
91.10244952149523
 20
-144.298857928335
 10
91.10244952149523
 20
-144.298857928335
 10
91.13690047634772
 20
-144.305403609757
 10
91.17479652668547
 20
-144.3074706670481
 10
91.18030867946187
 20
-144.3074706670481
 10
91.23887530271112
 20
-144.3074706670481
 10
91.41733124884706
 20
-144.2861110750396
 10
91.41733124884706
 20
-144.0494330152029
 10
91.41733124884706
 20
-143.871666088164
 10
91.29950898325151
 20
-143.8165445604
 10
91.20097925237337
 20
-143.8165445604
 10
90.96430119253671
 20
-143.8165445604
 10
90.95672198246916
 20
-144.0494330152029
 10
90.95293237743539
 20
-144.1210910012961
 10
90.95293237743539
 20
-144.1210910012961
 10
90.77103133581419
 20
-144.1210910012961
 10
90.77103133581419
 20
-144.1210910012961
 10
90.77861054588175
 20
-143.9963785447301
 10
90.80341523337555
 20
-143.6198296081923
 10
91.21269257702322
 20
-143.6198296081923
 10
91.41319713426476
 20
-143.6198296081923
 10
91.62954913073845
 20
-143.746953631598
 10
91.62954913073845
 20
-144.042887333781
 10
91.62954913073845
 20
-144.229266999533
 10
91.54411076270425
 20
-144.3116047816305
 10
91.45522729918481
 20
-144.3729274812679
 10
91.51000431740029
 20
-144.4004882451499
 10
91.6729573338526
 20
-144.4807589699562
 10
91.6729573338526
 20
-144.7580891565188
 10
91.6729573338526
 20
-145.0963975331703
 10
91.45109318460251
 20
-145.263484664205
 10
91.20304630966451
 20
-145.263484664205
 97
        0
 97
        0
 75
     2
 76
     1
 98
        0
  0
SPLINE
  5
8D
330
87
100
AcDbEntity
  8
_U+30EC_U+30A4_U+30E4_U+30FC 1
370
     0
100
AcDbSpline
210
0.0
220
0.0
230
1.0
 70
    11
 71
     3
 72
    44
 73
    40
 74
     0
 42
0.0000000001
 43
0.0000000001
 12
1.0
 22
0.0
 32
0.0
 13
1.0
 23
0.0
 33
0.0
 40
0.0
 40
0.0
 40
0.0
 40
0.0
 40
1.0
 40
1.0
 40
1.0
 40
2.0
 40
2.0
 40
2.0
 40
3.0
 40
3.0
 40
3.0
 40
4.0
 40
4.0
 40
4.0
 40
5.0
 40
5.0
 40
5.0
 40
6.0
 40
6.0
 40
6.0
 40
7.0
 40
7.0
 40
7.0
 40
8.0
 40
8.0
 40
8.0
 40
9.0
 40
9.0
 40
9.0
 40
10.0
 40
10.0
 40
10.0
 40
11.0
 40
11.0
 40
11.0
 40
12.0
 40
12.0
 40
12.0
 40
13.0
 40
13.0
 40
13.0
 40
13.0
 10
92.34750702986452
 20
-144.6309651331131
 30
0.0
 10
92.15251462539938
 20
-144.7897840349831
 30
0.0
 10
92.06914331465633
 20
-144.863853587916
 30
0.0
 10
92.02539060199366
 20
-145.0075140696509
 30
0.0
 10
92.02539060199366
 20
-145.0075140696509
 30
0.0
 10
92.72267792820823
 20
-145.0075140696509
 30
0.0
 10
92.72267792820823
 20
-145.0075140696509
 30
0.0
 10
92.72267792820823
 20
-145.0075140696509
 30
0.0
 10
92.72267792820823
 20
-145.2128417605718
 30
0.0
 10
92.72267792820823
 20
-145.2128417605718
 30
0.0
 10
92.72267792820823
 20
-145.2128417605718
 30
0.0
 10
91.80180390500094
 20
-145.2128417605718
 30
0.0
 10
91.80180390500094
 20
-145.2128417605718
 30
0.0
 10
91.83005368798
 20
-144.8552408492029
 30
0.0
 10
91.88896482077776
 20
-144.7770371816877
 30
0.0
 10
92.23381887885127
 20
-144.4786919126651
 30
0.0
 10
92.46326223816891
 20
-144.2799099031661
 30
0.0
 10
92.52182886141816
 20
-144.2120415221067
 30
0.0
 10
92.52182886141816
 20
-144.0745822122452
 30
0.0
 10
92.52182886141816
 20
-143.9560709275526
 30
0.0
 10
92.45740557584399
 20
-143.8251572991132
 30
0.0
 10
92.28136119654772
 20
-143.8251572991132
 30
0.0
 10
92.0481282321963
 20
-143.8251572991132
 30
0.0
 10
92.04054902212876
 20
-144.0556341870764
 30
0.0
 10
92.03675941709498
 20
-144.1720784144778
 30
0.0
 10
92.03675941709498
 20
-144.1720784144778
 30
0.0
 10
91.83591035030491
 20
-144.1720784144778
 30
0.0
 10
91.83591035030491
 20
-144.1720784144778
 30
0.0
 10
91.84348956037246
 20
-144.0449543910721
 30
0.0
 10
91.85279131818264
 20
-143.9329887878015
 30
0.0
 10
91.92513832337289
 20
-143.8144775031089
 30
0.0
 10
92.02366805425103
 20
-143.6535915439477
 30
0.0
 10
92.19041067573713
 20
-143.6198296081923
 30
0.0
 10
92.29445255939167
 20
-143.6198296081923
 30
0.0
 10
92.54249943432966
 20
-143.6198296081923
 30
0.0
 10
92.72853459053314
 20
-143.8037977071046
 30
0.0
 10
92.72853459053314
 20
-144.0766492695364
 30
0.0
 10
92.72853459053314
 20
-144.305403609757
 30
0.0
 10
92.62414819733007
 20
-144.4046223597322
 30
0.0
 10
92.34750702986452
 20
-144.6309651331131
 30
0.0
  0
HATCH
  5
8E
330
87
100
AcDbEntity
  8
_U+30EC_U+30A4_U+30E4_U+30FC 1
 62
   179
420
  2234388
100
AcDbHatch
 10
0.0
 20
0.0
 30
0.0
210
0.0
220
0.0
230
1.0
  2
SOLID
 70
     1
 71
     0
 91
        1
 92
        1
 93
        1
 72
     4
 94
        3
 73
     0
 74
     1
 95
       44
 96
       40
 40
0.0
 40
0.0
 40
0.0
 40
0.0
 40
1.0
 40
1.0
 40
1.0
 40
2.0
 40
2.0
 40
2.0
 40
3.0
 40
3.0
 40
3.0
 40
4.0
 40
4.0
 40
4.0
 40
5.0
 40
5.0
 40
5.0
 40
6.0
 40
6.0
 40
6.0
 40
7.0
 40
7.0
 40
7.0
 40
8.0
 40
8.0
 40
8.0
 40
9.0
 40
9.0
 40
9.0
 40
10.0
 40
10.0
 40
10.0
 40
11.0
 40
11.0
 40
11.0
 40
12.0
 40
12.0
 40
12.0
 40
13.0
 40
13.0
 40
13.0
 40
13.0
 10
92.34750702986452
 20
-144.6309651331131
 10
92.15251462539938
 20
-144.7897840349831
 10
92.06914331465633
 20
-144.863853587916
 10
92.02539060199366
 20
-145.0075140696509
 10
92.02539060199366
 20
-145.0075140696509
 10
92.72267792820823
 20
-145.0075140696509
 10
92.72267792820823
 20
-145.0075140696509
 10
92.72267792820823
 20
-145.0075140696509
 10
92.72267792820823
 20
-145.2128417605718
 10
92.72267792820823
 20
-145.2128417605718
 10
92.72267792820823
 20
-145.2128417605718
 10
91.80180390500094
 20
-145.2128417605718
 10
91.80180390500094
 20
-145.2128417605718
 10
91.83005368798
 20
-144.8552408492029
 10
91.88896482077776
 20
-144.7770371816877
 10
92.23381887885127
 20
-144.4786919126651
 10
92.46326223816891
 20
-144.2799099031661
 10
92.52182886141816
 20
-144.2120415221067
 10
92.52182886141816
 20
-144.0745822122452
 10
92.52182886141816
 20
-143.9560709275526
 10
92.45740557584399
 20
-143.8251572991132
 10
92.28136119654772
 20
-143.8251572991132
 10
92.0481282321963
 20
-143.8251572991132
 10
92.04054902212876
 20
-144.0556341870764
 10
92.03675941709498
 20
-144.1720784144778
 10
92.03675941709498
 20
-144.1720784144778
 10
91.83591035030491
 20
-144.1720784144778
 10
91.83591035030491
 20
-144.1720784144778
 10
91.84348956037246
 20
-144.0449543910721
 10
91.85279131818264
 20
-143.9329887878015
 10
91.92513832337289
 20
-143.8144775031089
 10
92.02366805425103
 20
-143.6535915439477
 10
92.19041067573713
 20
-143.6198296081923
 10
92.29445255939167
 20
-143.6198296081923
 10
92.54249943432966
 20
-143.6198296081923
 10
92.72853459053314
 20
-143.8037977071046
 10
92.72853459053314
 20
-144.0766492695364
 10
92.72853459053314
 20
-144.305403609757
 10
92.62414819733007
 20
-144.4046223597322
 10
92.34750702986452
 20
-144.6309651331131
 97
        0
 97
        0
 75
     2
 76
     1
 98
        0
  0
ENDBLK
  5
8A
330
87
100
AcDbEntity
  8
0
100
AcDbBlockEnd
  0
ENDSEC
  0
SECTION
  2
ENTITIES
  0
SPLINE
  5
41
330
1F
100
AcDbEntity
  8
_U+30EC_U+30A4_U+30E4_U+30FC 1
 62
   179
420
  2234388
370
     9
100
AcDbSpline
210
0.0
220
0.0
230
1.0
 70
    11
 71
     3
 72
    17
 73
    13
 74
     0
 42
0.0000000001
 43
0.0000000001
 12
1.0
 22
0.0
 32
0.0
 13
1.0
 23
0.0
 33
0.0
 40
0.0
 40
0.0
 40
0.0
 40
0.0
 40
1.0
 40
1.0
 40
1.0
 40
2.0
 40
2.0
 40
2.0
 40
3.0
 40
3.0
 40
3.0
 40
4.0
 40
4.0
 40
4.0
 40
4.0
 10
112.0365777497689
 20
-141.8090819089919
 30
0.0
 10
112.0365777497689
 20
-141.753978020117
 30
0.0
 10
111.9917749720022
 20
-141.7091752423503
 30
0.0
 10
111.9366682553688
 20
-141.7091752423503
 30
0.0
 10
111.8812115901169
 20
-141.7091752423503
 30
0.0
 10
111.8364088134822
 20
-141.753978020117
 30
0.0
 10
111.8364088134822
 20
-141.8090819089919
 30
0.0
 10
111.8364088134822
 20
-141.864221075645
 30
0.0
 10
111.8812115901169
 20
-141.9089885756335
 30
0.0
 10
111.9366682553688
 20
-141.9089885756335
 30
0.0
 10
111.9917749720022
 20
-141.9089885756335
 30
0.0
 10
112.0365777497689
 20
-141.864221075645
 30
0.0
 10
112.0365777497689
 20
-141.8090819089919
 30
0.0
  0
SPLINE
  5
42
330
1F
100
AcDbEntity
  8
_U+30EC_U+30A4_U+30E4_U+30FC 1
 62
   179
420
  2234388
370
     9
100
AcDbSpline
210
0.0
220
0.0
230
1.0
 70
    11
 71
     3
 72
    17
 73
    13
 74
     0
 42
0.0000000001
 43
0.0000000001
 12
1.0
 22
0.0
 32
0.0
 13
1.0
 23
0.0
 33
0.0
 40
0.0
 40
0.0
 40
0.0
 40
0.0
 40
1.0
 40
1.0
 40
1.0
 40
2.0
 40
2.0
 40
2.0
 40
3.0
 40
3.0
 40
3.0
 40
4.0
 40
4.0
 40
4.0
 40
4.0
 10
112.0365777497689
 20
-140.6088260759587
 30
0.0
 10
112.0365777497689
 20
-140.5536869093063
 30
0.0
 10
111.9917749720022
 20
-140.5089194093171
 30
0.0
 10
111.9366682553688
 20
-140.5089194093171
 30
0.0
 10
111.8812115901169
 20
-140.5089194093171
 30
0.0
 10
111.8364088134822
 20
-140.5536869093063
 30
0.0
 10
111.8364088134822
 20
-140.6088260759587
 30
0.0
 10
111.8364088134822
 20
-140.6642827426114
 30
0.0
 10
111.8812115901169
 20
-140.7090855203782
 30
0.0
 10
111.9366682553688
 20
-140.7090855203782
 30
0.0
 10
111.9917749720022
 20
-140.7090855203782
 30
0.0
 10
112.0365777497689
 20
-140.6642827426114
 30
0.0
 10
112.0365777497689
 20
-140.6088260759587
 30
0.0
  0
SPLINE
  5
43
330
1F
100
AcDbEntity
  8
_U+30EC_U+30A4_U+30E4_U+30FC 1
 62
   179
420
  2234388
370
     9
100
AcDbSpline
210
0.0
220
0.0
230
1.0
 70
    11
 71
     3
 72
    17
 73
    13
 74
     0
 42
0.0000000001
 43
0.0000000001
 12
1.0
 22
0.0
 32
0.0
 13
1.0
 23
0.0
 33
0.0
 40
0.0
 40
0.0
 40
0.0
 40
0.0
 40
1.0
 40
1.0
 40
1.0
 40
2.0
 40
2.0
 40
2.0
 40
3.0
 40
3.0
 40
3.0
 40
4.0
 40
4.0
 40
4.0
 40
4.0
 10
108.0364630770935
 20
-145.8088410746588
 30
0.0
 10
108.0364630770935
 20
-145.7537371857839
 30
0.0
 10
107.9916955782356
 20
-145.7089344080172
 30
0.0
 10
107.9365564129757
 20
-145.7089344080172
 30
0.0
 10
107.8814525254926
 20
-145.7089344080172
 30
0.0
 10
107.8366497488579
 20
-145.7537371857839
 30
0.0
 10
107.8366497488579
 20
-145.8088410746588
 30
0.0
 10
107.8366497488579
 20
-145.8642977413115
 30
0.0
 10
107.8814525254926
 20
-145.9091005190782
 30
0.0
 10
107.9365564129757
 20
-145.9091005190782
 30
0.0
 10
107.9916955782356
 20
-145.9091005190782
 30
0.0
 10
108.0364630770935
 20
-145.8642977413115
 30
0.0
 10
108.0364630770935
 20
-145.8088410746588
 30
0.0
  0
SPLINE
  5
44
330
1F
100
AcDbEntity
  8
_U+30EC_U+30A4_U+30E4_U+30FC 1
 62
   179
420
  2234388
370
     9
100
AcDbSpline
210
0.0
220
0.0
230
1.0
 70
    11
 71
     3
 72
    17
 73
    13
 74
     0
 42
0.0000000001
 43
0.0000000001
 12
1.0
 22
0.0
 32
0.0
 13
1.0
 23
0.0
 33
0.0
 40
0.0
 40
0.0
 40
0.0
 40
0.0
 40
1.0
 40
1.0
 40
1.0
 40
2.0
 40
2.0
 40
2.0
 40
3.0
 40
3.0
 40
3.0
 40
4.0
 40
4.0
 40
4.0
 40
4.0
 10
76.03652083792453
 20
-145.8088410746588
 30
0.0
 10
76.03652083792453
 20
-145.7537371857839
 30
0.0
 10
75.99175333906663
 20
-145.7089344080172
 30
0.0
 10
75.93661417380669
 20
-145.7089344080172
 30
0.0
 10
75.88133389743922
 20
-145.7089344080172
 30
0.0
 10
75.83653112080447
 20
-145.7537371857839
 30
0.0
 10
75.83653112080447
 20
-145.8088410746588
 30
0.0
 10
75.83653112080447
 20
-145.8642977413115
 30
0.0
 10
75.88133389743922
 20
-145.9091005190782
 30
0.0
 10
75.93661417380669
 20
-145.9091005190782
 30
0.0
 10
75.99175333906663
 20
-145.9091005190782
 30
0.0
 10
76.03652083792453
 20
-145.8642977413115
 30
0.0
 10
76.03652083792453
 20
-145.8088410746588
 30
0.0
  0
SPLINE
  5
45
330
1F
100
AcDbEntity
  8
_U+30EC_U+30A4_U+30E4_U+30FC 1
 62
   179
420
  2234388
370
     9
100
AcDbSpline
210
0.0
220
0.0
230
1.0
 70
    11
 71
     3
 72
    17
 73
    13
 74
     0
 42
0.0000000001
 43
0.0000000001
 12
1.0
 22
0.0
 32
0.0
 13
1.0
 23
0.0
 33
0.0
 40
0.0
 40
0.0
 40
0.0
 40
0.0
 40
1.0
 40
1.0
 40
1.0
 40
2.0
 40
2.0
 40
2.0
 40
3.0
 40
3.0
 40
3.0
 40
4.0
 40
4.0
 40
4.0
 40
4.0
 10
72.03658538441582
 20
-141.8090819089919
 30
0.0
 10
72.03658538441582
 20
-141.753978020117
 30
0.0
 10
71.99181788555794
 20
-141.7091752423503
 30
0.0
 10
71.93653760919048
 20
-141.7091752423503
 30
0.0
 10
71.88139844393052
 20
-141.7091752423503
 30
0.0
 10
71.83659566729575
 20
-141.753978020117
 30
0.0
 10
71.83659566729575
 20
-141.8090819089919
 30
0.0
 10
71.83659566729575
 20
-141.864221075645
 30
0.0
 10
71.88139844393052
 20
-141.9089885756335
 30
0.0
 10
71.93653760919048
 20
-141.9089885756335
 30
0.0
 10
71.99181788555794
 20
-141.9089885756335
 30
0.0
 10
72.03658538441582
 20
-141.864221075645
 30
0.0
 10
72.03658538441582
 20
-141.8090819089919
 30
0.0
  0
SPLINE
  5
46
330
1F
100
AcDbEntity
  8
_U+30EC_U+30A4_U+30E4_U+30FC 1
 62
   179
420
  2234388
370
     9
100
AcDbSpline
210
0.0
220
0.0
230
1.0
 70
    11
 71
     3
 72
    17
 73
    13
 74
     0
 42
0.0000000001
 43
0.0000000001
 12
1.0
 22
0.0
 32
0.0
 13
1.0
 23
0.0
 33
0.0
 40
0.0
 40
0.0
 40
0.0
 40
0.0
 40
1.0
 40
1.0
 40
1.0
 40
2.0
 40
2.0
 40
2.0
 40
3.0
 40
3.0
 40
3.0
 40
4.0
 40
4.0
 40
4.0
 40
4.0
 10
72.03658538441582
 20
-109.8089624725479
 30
0.0
 10
72.03658538441582
 20
-109.7538585836726
 30
0.0
 10
71.99181788555794
 20
-109.7090558059062
 30
0.0
 10
71.93653760919048
 20
-109.7090558059062
 30
0.0
 10
71.88139844393052
 20
-109.7090558059062
 30
0.0
 10
71.83659566729575
 20
-109.7538585836726
 30
0.0
 10
71.83659566729575
 20
-109.8089624725479
 30
0.0
 10
71.83659566729575
 20
-109.8642780280895
 30
0.0
 10
71.88139844393052
 20
-109.9090455280784
 30
0.0
 10
71.93653760919048
 20
-109.9090455280784
 30
0.0
 10
71.99181788555794
 20
-109.9090455280784
 30
0.0
 10
72.03658538441582
 20
-109.8642780280895
 30
0.0
 10
72.03658538441582
 20
-109.8089624725479
 30
0.0
  0
POLYLINE
  5
47
330
1F
100
AcDbEntity
  8
_U+30EC_U+30A4_U+30E4_U+30FC 1
 62
   179
420
  2234388
370
     9
100
AcDb2dPolyline
 66
     1
 10
0.0
 20
0.0
 30
0.0
  0
VERTEX
  5
48
330
47
100
AcDbEntity
  8
_U+30EC_U+30A4_U+30E4_U+30FC 1
 62
   179
420
  2234388
370
     9
100
AcDbVertex
100
AcDb2dVertex
 10
111.9366682553688
 20
-140.6088260759587
 30
0.0
  0
VERTEX
  5
49
330
47
100
AcDbEntity
  8
_U+30EC_U+30A4_U+30E4_U+30FC 1
 62
   179
420
  2234388
370
     9
100
AcDbVertex
100
AcDb2dVertex
 10
111.9366682553688
 20
-135.3512730217176
 30
0.0
  0
SEQEND
  5
4A
330
47
100
AcDbEntity
  8
_U+30EC_U+30A4_U+30E4_U+30FC 1
 62
   179
420
  2234388
370
     9
  0
POLYLINE
  5
4B
330
1F
100
AcDbEntity
  8
_U+30EC_U+30A4_U+30E4_U+30FC 1
 62
   179
420
  2234388
370
     9
100
AcDb2dPolyline
 66
     1
 10
0.0
 20
0.0
 30
0.0
  0
VERTEX
  5
4C
330
4B
100
AcDbEntity
  8
_U+30EC_U+30A4_U+30E4_U+30FC 1
 62
   179
420
  2234388
370
     9
100
AcDbVertex
100
AcDb2dVertex
 10
111.9366682553688
 20
-140.6088260759587
 30
0.0
  0
VERTEX
  5
4D
330
4B
100
AcDbEntity
  8
_U+30EC_U+30A4_U+30E4_U+30FC 1
 62
   179
420
  2234388
370
     9
100
AcDbVertex
100
AcDb2dVertex
 10
111.9366682553688
 20
-142.8088541309644
 30
0.0
  0
SEQEND
  5
4E
330
4B
100
AcDbEntity
  8
_U+30EC_U+30A4_U+30E4_U+30FC 1
 62
   179
420
  2234388
370
     9
  0
POLYLINE
  5
4F
330
1F
100
AcDbEntity
  8
_U+30EC_U+30A4_U+30E4_U+30FC 1
 62
   179
420
  2234388
370
     9
100
AcDb2dPolyline
 66
     1
 10
0.0
 20
0.0
 30
0.0
  0
VERTEX
  5
50
330
4F
100
AcDbEntity
  8
_U+30EC_U+30A4_U+30E4_U+30FC 1
 62
   179
420
  2234388
370
     9
100
AcDbVertex
100
AcDb2dVertex
 10
110.4766269037287
 20
-140.6088260759587
 30
0.0
  0
VERTEX
  5
51
330
4F
100
AcDbEntity
  8
_U+30EC_U+30A4_U+30E4_U+30FC 1
 62
   179
420
  2234388
370
     9
100
AcDbVertex
100
AcDb2dVertex
 10
112.9364404520847
 20
-140.6088260759587
 30
0.0
  0
SEQEND
  5
52
330
4F
100
AcDbEntity
  8
_U+30EC_U+30A4_U+30E4_U+30FC 1
 62
   179
420
  2234388
370
     9
  0
POLYLINE
  5
53
330
1F
100
AcDbEntity
  8
_U+30EC_U+30A4_U+30E4_U+30FC 1
 62
   179
420
  2234388
370
     9
100
AcDb2dPolyline
 66
     1
 10
0.0
 20
0.0
 30
0.0
  0
VERTEX
  5
54
330
53
100
AcDbEntity
  8
_U+30EC_U+30A4_U+30E4_U+30FC 1
 62
   179
420
  2234388
370
     9
100
AcDbVertex
100
AcDb2dVertex
 10
110.4766269037287
 20
-141.8090819089919
 30
0.0
  0
VERTEX
  5
55
330
53
100
AcDbEntity
  8
_U+30EC_U+30A4_U+30E4_U+30FC 1
 62
   179
420
  2234388
370
     9
100
AcDbVertex
100
AcDb2dVertex
 10
112.9364404520847
 20
-141.8090819089919
 30
0.0
  0
SEQEND
  5
56
330
53
100
AcDbEntity
  8
_U+30EC_U+30A4_U+30E4_U+30FC 1
 62
   179
420
  2234388
370
     9
  0
INSERT
  5
58
330
1F
100
AcDbEntity
  8
_U+30EC_U+30A4_U+30E4_U+30FC 1
100
AcDbBlockReference
  2
block 2
 10
0.0
 20
0.0
 30
0.0
  0
POLYLINE
  5
67
330
1F
100
AcDbEntity
  8
_U+30EC_U+30A4_U+30E4_U+30FC 1
 62
   179
420
  2234388
370
     9
100
AcDb2dPolyline
 66
     1
 10
0.0
 20
0.0
 30
0.0
  0
VERTEX
  5
68
330
67
100
AcDbEntity
  8
_U+30EC_U+30A4_U+30E4_U+30FC 1
 62
   179
420
  2234388
370
     9
100
AcDbVertex
100
AcDb2dVertex
 10
71.93653760919048
 20
-141.8090819089919
 30
0.0
  0
VERTEX
  5
69
330
67
100
AcDbEntity
  8
_U+30EC_U+30A4_U+30E4_U+30FC 1
 62
   179
420
  2234388
370
     9
100
AcDbVertex
100
AcDb2dVertex
 10
71.93653760919048
 20
-109.8089624725479
 30
0.0
  0
SEQEND
  5
6A
330
67
100
AcDbEntity
  8
_U+30EC_U+30A4_U+30E4_U+30FC 1
 62
   179
420
  2234388
370
     9
  0
POLYLINE
  5
6B
330
1F
100
AcDbEntity
  8
_U+30EC_U+30A4_U+30E4_U+30FC 1
 62
   179
420
  2234388
370
     9
100
AcDb2dPolyline
 66
     1
 10
0.0
 20
0.0
 30
0.0
  0
VERTEX
  5
6C
330
6B
100
AcDbEntity
  8
_U+30EC_U+30A4_U+30E4_U+30FC 1
 62
   179
420
  2234388
370
     9
100
AcDbVertex
100
AcDb2dVertex
 10
73.79652498155083
 20
-141.8090819089919
 30
0.0
  0
VERTEX
  5
6D
330
6B
100
AcDbEntity
  8
_U+30EC_U+30A4_U+30E4_U+30FC 1
 62
   179
420
  2234388
370
     9
100
AcDbVertex
100
AcDb2dVertex
 10
70.93658902359017
 20
-141.8090819089919
 30
0.0
  0
SEQEND
  5
6E
330
6B
100
AcDbEntity
  8
_U+30EC_U+30A4_U+30E4_U+30FC 1
 62
   179
420
  2234388
370
     9
  0
POLYLINE
  5
6F
330
1F
100
AcDbEntity
  8
_U+30EC_U+30A4_U+30E4_U+30FC 1
 62
   179
420
  2234388
370
     9
100
AcDb2dPolyline
 66
     1
 10
0.0
 20
0.0
 30
0.0
  0
VERTEX
  5
70
330
6F
100
AcDbEntity
  8
_U+30EC_U+30A4_U+30E4_U+30FC 1
 62
   179
420
  2234388
370
     9
100
AcDbVertex
100
AcDb2dVertex
 10
73.39654368305372
 20
-109.8089624725479
 30
0.0
  0
VERTEX
  5
71
330
6F
100
AcDbEntity
  8
_U+30EC_U+30A4_U+30E4_U+30FC 1
 62
   179
420
  2234388
370
     9
100
AcDbVertex
100
AcDb2dVertex
 10
70.93658902359017
 20
-109.8089624725479
 30
0.0
  0
SEQEND
  5
72
330
6F
100
AcDbEntity
  8
_U+30EC_U+30A4_U+30E4_U+30FC 1
 62
   179
420
  2234388
370
     9
  0
INSERT
  5
74
330
1F
100
AcDbEntity
  8
_U+30EC_U+30A4_U+30E4_U+30FC 1
100
AcDbBlockReference
  2
block 3
 10
0.0
 20
0.0
 30
0.0
  0
POLYLINE
  5
7B
330
1F
100
AcDbEntity
  8
_U+30EC_U+30A4_U+30E4_U+30FC 1
 62
   179
420
  2234388
370
     9
100
AcDb2dPolyline
 66
     1
 10
0.0
 20
0.0
 30
0.0
  0
VERTEX
  5
7C
330
7B
100
AcDbEntity
  8
_U+30EC_U+30A4_U+30E4_U+30FC 1
 62
   179
420
  2234388
370
     9
100
AcDbVertex
100
AcDb2dVertex
 10
75.93661417380669
 20
-145.8088410746588
 30
0.0
  0
VERTEX
  5
7D
330
7B
100
AcDbEntity
  8
_U+30EC_U+30A4_U+30E4_U+30FC 1
 62
   179
420
  2234388
370
     9
100
AcDbVertex
100
AcDb2dVertex
 10
107.9365564129757
 20
-145.8088410746588
 30
0.0
  0
SEQEND
  5
7E
330
7B
100
AcDbEntity
  8
_U+30EC_U+30A4_U+30E4_U+30FC 1
 62
   179
420
  2234388
370
     9
  0
POLYLINE
  5
7F
330
1F
100
AcDbEntity
  8
_U+30EC_U+30A4_U+30E4_U+30FC 1
 62
   179
420
  2234388
370
     9
100
AcDb2dPolyline
 66
     1
 10
0.0
 20
0.0
 30
0.0
  0
VERTEX
  5
80
330
7F
100
AcDbEntity
  8
_U+30EC_U+30A4_U+30E4_U+30FC 1
 62
   179
420
  2234388
370
     9
100
AcDbVertex
100
AcDb2dVertex
 10
75.93661417380669
 20
-143.9491730195685
 30
0.0
  0
VERTEX
  5
81
330
7F
100
AcDbEntity
  8
_U+30EC_U+30A4_U+30E4_U+30FC 1
 62
   179
420
  2234388
370
     9
100
AcDbVertex
100
AcDb2dVertex
 10
75.93661417380669
 20
-146.8089660744091
 30
0.0
  0
SEQEND
  5
82
330
7F
100
AcDbEntity
  8
_U+30EC_U+30A4_U+30E4_U+30FC 1
 62
   179
420
  2234388
370
     9
  0
POLYLINE
  5
83
330
1F
100
AcDbEntity
  8
_U+30EC_U+30A4_U+30E4_U+30FC 1
 62
   179
420
  2234388
370
     9
100
AcDb2dPolyline
 66
     1
 10
0.0
 20
0.0
 30
0.0
  0
VERTEX
  5
84
330
83
100
AcDbEntity
  8
_U+30EC_U+30A4_U+30E4_U+30FC 1
 62
   179
420
  2234388
370
     9
100
AcDbVertex
100
AcDb2dVertex
 10
107.9365564129757
 20
-144.3487996861351
 30
0.0
  0
VERTEX
  5
85
330
83
100
AcDbEntity
  8
_U+30EC_U+30A4_U+30E4_U+30FC 1
 62
   179
420
  2234388
370
     9
100
AcDbVertex
100
AcDb2dVertex
 10
107.9365564129757
 20
-146.8089660744091
 30
0.0
  0
SEQEND
  5
86
330
83
100
AcDbEntity
  8
_U+30EC_U+30A4_U+30E4_U+30FC 1
 62
   179
420
  2234388
370
     9
  0
INSERT
  5
88
330
1F
100
AcDbEntity
  8
_U+30EC_U+30A4_U+30E4_U+30FC 1
100
AcDbBlockReference
  2
block 4
 10
0.0
 20
0.0
 30
0.0
  0
SPLINE
  5
8F
330
1F
100
AcDbEntity
  8
_U+30EC_U+30A4_U+30E4_U+30FC 1
 62
   179
420
  2234388
370
    25
100
AcDbSpline
210
0.0
220
0.0
230
1.0
 70
    11
 71
     3
 72
    29
 73
    25
 74
     0
 42
0.0000000001
 43
0.0000000001
 12
1.0
 22
0.0
 32
0.0
 13
1.0
 23
0.0
 33
0.0
 40
0.0
 40
0.0
 40
0.0
 40
0.0
 40
1.0
 40
1.0
 40
1.0
 40
2.0
 40
2.0
 40
2.0
 40
3.0
 40
3.0
 40
3.0
 40
4.0
 40
4.0
 40
4.0
 40
5.0
 40
5.0
 40
5.0
 40
6.0
 40
6.0
 40
6.0
 40
7.0
 40
7.0
 40
7.0
 40
8.0
 40
8.0
 40
8.0
 40
8.0
 10
75.89131942547162
 20
-109.8260369169879
 30
0.0
 10
75.89131942547162
 20
-109.8260369169879
 30
0.0
 10
77.12604164738516
 20
-109.8260369169879
 30
0.0
 10
77.12604164738516
 20
-109.8260369169879
 30
0.0
 10
77.12604164738516
 20
-109.8260369169879
 30
0.0
 10
77.12604164738516
 20
-139.5918382984354
 30
0.0
 10
77.12604164738516
 20
-139.5918382984354
 30
0.0
 10
77.12604164738516
 20
-139.5918382984354
 30
0.0
 10
76.86145831411797
 20
-140.606074409293
 30
0.0
 10
78.00798609160911
 20
-140.606074409293
 30
0.0
 10
78.00798609160911
 20
-140.606074409293
 30
0.0
 10
107.9499999730125
 20
-140.606074409293
 30
0.0
 10
107.9499999730125
 20
-140.606074409293
 30
0.0
 10
107.9499999730125
 20
-140.606074409293
 30
0.0
 10
107.9499999730125
 20
-141.7966994089953
 30
0.0
 10
107.9499999730125
 20
-141.7966994089953
 30
0.0
 10
107.9499999730125
 20
-141.7966994089953
 30
0.0
 10
77.21423609180755
 20
-141.7966994089953
 30
0.0
 10
77.21423609180755
 20
-141.7966994089953
 30
0.0
 10
77.21423609180755
 20
-141.7966994089953
 30
0.0
 10
75.84722220326042
 20
-141.8848938534177
 30
0.0
 10
75.84722220326042
 20
-140.606074409293
 30
0.0
 10
75.84722220326042
 20
-140.606074409293
 30
0.0
 10
75.89131942547162
 20
-109.8260369169879
 30
0.0
 10
75.89131942547162
 20
-109.8260369169879
 30
0.0
  0
ENDSEC
  0
SECTION
  2
OBJECTS
  0
DICTIONARY
  5
C
330
0
100
AcDbDictionary
281
     1
  3
ACAD_GROUP
350
D
  3
ACAD_LAYOUT
350
1A
  3
ACAD_MATERIAL
350
3B
  3
ACAD_MLEADERSTYLE
350
91
  3
ACAD_MLINESTYLE
350
17
  3
ACAD_PLOTSETTINGS
350
19
  3
ACAD_PLOTSTYLENAME
350
E
  3
ACAD_TABLESTYLE
350
90
  3
ACAD_VISUALSTYLE
350
2A
  0
SUN
  5
3F
330
29
100
AcDbSun
 90
        1
290
     0
 63
     7
421
 16777215
 40
1.0
291
     1
 91
  2455826
 92
 54000000
292
     0
 70
     2
 71
   256
280
     1
  0
DICTIONARY
  5
D
102
{ACAD_REACTORS
330
C
102
}
330
C
100
AcDbDictionary
281
     1
  0
DICTIONARY
  5
1A
102
{ACAD_REACTORS
330
C
102
}
330
C
100
AcDbDictionary
281
     1
  3
Layout1
350
1E
  3
Layout2
350
26
  3
Model
350
22
  0
DICTIONARY
  5
3B
102
{ACAD_REACTORS
330
C
102
}
330
C
100
AcDbDictionary
281
     1
  3
ByBlock
350
3D
  3
ByLayer
350
3C
  3
Global
350
3E
  0
DICTIONARY
  5
91
102
{ACAD_REACTORS
330
C
102
}
330
C
100
AcDbDictionary
281
     1
  0
DICTIONARY
  5
17
102
{ACAD_REACTORS
330
C
102
}
330
C
100
AcDbDictionary
281
     1
  3
Standard
350
18
  0
DICTIONARY
  5
19
102
{ACAD_REACTORS
330
C
102
}
330
C
100
AcDbDictionary
281
     1
  0
ACDBDICTIONARYWDFLT
  5
E
102
{ACAD_REACTORS
330
C
102
}
330
C
100
AcDbDictionary
281
     1
  3
Normal
350
F
100
AcDbDictionaryWithDefault
340
F
  0
DICTIONARY
  5
90
102
{ACAD_REACTORS
330
C
102
}
330
C
100
AcDbDictionary
281
     1
  0
DICTIONARY
  5
2A
102
{ACAD_REACTORS
330
C
102
}
330
C
100
AcDbDictionary
281
     1
  3
2dWireframe
350
2F
  3
3D Hidden
350
31
  3
3dWireframe
350
30
  3
Basic
350
32
  3
Brighten
350
36
  3
ColorChange
350
3A
  3
Conceptual
350
34
  3
Dim
350
35
  3
Facepattern
350
39
  3
Flat
350
2B
  3
FlatWithEdges
350
2C
  3
Gouraud
350
2D
  3
GouraudWithEdges
350
2E
  3
Linepattern
350
38
  3
Realistic
350
33
  3
Thicken
350
37
  0
LAYOUT
  5
1E
102
{ACAD_REACTORS
330
1A
102
}
330
1A
100
AcDbPlotSettings
  1

  2
none_device
  4

  6

 40
0.0
 41
0.0
 42
0.0
 43
0.0
 44
0.0
 45
0.0
 46
0.0
 47
0.0
 48
0.0
 49
0.0
140
0.0
141
0.0
142
1.0
143
1.0
 70
   688
 72
     0
 73
     0
 74
     5
  7

 75
    16
 76
     0
 77
     2
 78
   300
147
1.0
148
0.0
149
0.0
100
AcDbLayout
  1
Layout1
 70
     1
 71
     1
 10
0.0
 20
0.0
 11
12.0
 21
9.0
 12
0.0
 22
0.0
 32
0.0
 14
1.000000000000000E+20
 24
1.000000000000000E+20
 34
1.000000000000000E+20
 15
-1.000000000000000E+20
 25
-1.000000000000000E+20
 35
-1.000000000000000E+20
146
0.0
 13
0.0
 23
0.0
 33
0.0
 16
1.0
 26
0.0
 36
0.0
 17
0.0
 27
1.0
 37
0.0
 76
     0
330
1B
  0
LAYOUT
  5
26
102
{ACAD_REACTORS
330
1A
102
}
330
1A
100
AcDbPlotSettings
  1

  2
none_device
  4

  6

 40
0.0
 41
0.0
 42
0.0
 43
0.0
 44
0.0
 45
0.0
 46
0.0
 47
0.0
 48
0.0
 49
0.0
140
0.0
141
0.0
142
1.0
143
1.0
 70
   688
 72
     0
 73
     0
 74
     5
  7

 75
    16
 76
     0
 77
     2
 78
   300
147
1.0
148
0.0
149
0.0
100
AcDbLayout
  1
Layout2
 70
     1
 71
     2
 10
0.0
 20
0.0
 11
0.0
 21
0.0
 12
0.0
 22
0.0
 32
0.0
 14
0.0
 24
0.0
 34
0.0
 15
0.0
 25
0.0
 35
0.0
146
0.0
 13
0.0
 23
0.0
 33
0.0
 16
1.0
 26
0.0
 36
0.0
 17
0.0
 27
1.0
 37
0.0
 76
     0
330
23
  0
LAYOUT
  5
22
102
{ACAD_REACTORS
330
1A
102
}
330
1A
100
AcDbPlotSettings
  1

  2
none_device
  4

  6

 40
0.0
 41
0.0
 42
0.0
 43
0.0
 44
0.0
 45
0.0
 46
0.0
 47
0.0
 48
0.0
 49
0.0
140
0.0
141
0.0
142
1.0
143
1.0
 70
  1712
 72
     0
 73
     0
 74
     0
  7

 75
     0
 76
     0
 77
     2
 78
   300
147
1.0
148
0.0
149
0.0
100
AcDbLayout
  1
Model
 70
     1
 71
     0
 10
0.0
 20
0.0
 11
12.0
 21
9.0
 12
0.0
 22
0.0
 32
0.0
 14
1.000000000000000E+20
 24
1.000000000000000E+20
 34
1.000000000000000E+20
 15
-1.000000000000000E+20
 25
-1.000000000000000E+20
 35
-1.000000000000000E+20
146
0.0
 13
0.0
 23
0.0
 33
0.0
 16
1.0
 26
0.0
 36
0.0
 17
0.0
 27
1.0
 37
0.0
 76
     0
330
1F
331
29
  0
MATERIAL
  5
3D
102
{ACAD_REACTORS
330
3B
102
}
330
3B
100
AcDbMaterial
  1
ByBlock
 72
     1
 94
      127
  0
MATERIAL
  5
3C
102
{ACAD_REACTORS
330
3B
102
}
330
3B
100
AcDbMaterial
  1
ByLayer
 72
     1
 94
      127
  0
MATERIAL
  5
3E
102
{ACAD_REACTORS
330
3B
102
}
330
3B
100
AcDbMaterial
  1
Global
 72
     1
 94
      127
  0
MLINESTYLE
  5
18
102
{ACAD_REACTORS
330
17
102
}
330
17
100
AcDbMlineStyle
  2
Standard
 70
     0
  3

 62
   256
 51
90.0
 52
90.0
 71
     2
 49
0.5
 62
   256
  6
BYLAYER
 49
-0.5
 62
   256
  6
BYLAYER
  0
ACDBPLACEHOLDER
  5
F
102
{ACAD_REACTORS
330
E
102
}
330
E
  0
VISUALSTYLE
  5
2F
102
{ACAD_REACTORS
330
2A
102
}
330
2A
100
AcDbVisualStyle
  2
2dWireframe
 70
     4
177
     2
291
     0
 71
     0
176
     1
 72
     2
176
     1
 73
     0
176
     1
 90
        0
176
     1
 40
-0.6
176
     1
 41
-30.0
176
     1
 62
     5
 63
     7
421
 16777215
176
     1
 74
     1
176
     1
 91
        4
176
     1
 64
     7
176
     1
 65
   257
176
     1
 75
     1
176
     1
175
     1
176
     1
 42
1.0
176
     1
 92
        0
176
     1
 66
   257
176
     1
 43
1.0
176
     1
 76
     1
176
     1
 77
     6
176
     1
 78
     2
176
     1
 67
     7
176
     1
 79
     5
176
     1
170
     0
176
     1
171
     0
176
     1
290
     0
176
     1
 93
        1
176
     1
 44
0.0
176
     1
173
     0
176
     1
  0
VISUALSTYLE
  5
31
102
{ACAD_REACTORS
330
2A
102
}
330
2A
100
AcDbVisualStyle
  2
3D Hidden
 70
     6
177
     2
291
     0
 71
     1
176
     1
 72
     2
176
     1
 73
     2
176
     1
 90
        0
176
     1
 40
-0.6
176
     1
 41
-30.0
176
     1
 62
     5
 63
     7
421
 16777215
176
     1
 74
     2
176
     1
 91
        2
176
     1
 64
     7
176
     1
 65
   257
176
     1
 75
     2
176
     1
175
     1
176
     1
 42
40.0
176
     1
 92
        0
176
     1
 66
   257
176
     1
 43
1.0
176
     1
 76
     1
176
     1
 77
     6
176
     1
 78
     2
176
     1
 67
     7
176
     1
 79
     3
176
     1
170
     0
176
     1
171
     0
176
     1
290
     0
176
     1
 93
        1
176
     1
 44
0.0
176
     1
173
     0
176
     1
  0
VISUALSTYLE
  5
30
102
{ACAD_REACTORS
330
2A
102
}
330
2A
100
AcDbVisualStyle
  2
3dWireframe
 70
     5
177
     2
291
     0
 71
     0
176
     1
 72
     2
176
     1
 73
     0
176
     1
 90
        0
176
     1
 40
-0.6
176
     1
 41
-30.0
176
     1
 62
     5
 63
     7
421
 16777215
176
     1
 74
     1
176
     1
 91
        4
176
     1
 64
     7
176
     1
 65
   257
176
     1
 75
     1
176
     1
175
     1
176
     1
 42
1.0
176
     1
 92
        0
176
     1
 66
   257
176
     1
 43
1.0
176
     1
 76
     1
176
     1
 77
     6
176
     1
 78
     2
176
     1
 67
     7
176
     1
 79
     5
176
     1
170
     0
176
     1
171
     0
176
     1
290
     0
176
     1
 93
        1
176
     1
 44
0.0
176
     1
173
     0
176
     1
  0
VISUALSTYLE
  5
32
102
{ACAD_REACTORS
330
2A
102
}
330
2A
100
AcDbVisualStyle
  2
Basic
 70
     7
177
     2
291
     1
 71
     1
176
     1
 72
     0
176
     1
 73
     1
176
     1
 90
        0
176
     1
 40
-0.6
176
     1
 41
-30.0
176
     1
 62
     5
 63
     7
421
 16777215
176
     1
 74
     0
176
     1
 91
        4
176
     1
 64
     7
176
     1
 65
   257
176
     1
 75
     1
176
     1
175
     1
176
     1
 42
1.0
176
     1
 92
        8
176
     1
 66
     7
176
     1
 43
1.0
176
     1
 76
     1
176
     1
 77
     6
176
     1
 78
     2
176
     1
 67
     7
176
     1
 79
     5
176
     1
170
     0
176
     1
171
     0
176
     1
290
     0
176
     1
 93
        1
176
     1
 44
0.0
176
     1
173
     0
176
     1
  0
VISUALSTYLE
  5
36
102
{ACAD_REACTORS
330
2A
102
}
330
2A
100
AcDbVisualStyle
  2
Brighten
 70
    12
177
     2
291
     1
 71
     2
176
     1
 72
     2
176
     1
 73
     0
176
     1
 90
        0
176
     1
 40
-0.6
176
     1
 41
-30.0
176
     1
 62
     5
 63
     7
421
 16777215
176
     1
 74
     1
176
     1
 91
        4
176
     1
 64
     7
176
     1
 65
   257
176
     1
 75
     1
176
     1
175
     1
176
     1
 42
1.0
176
     1
 92
        8
176
     1
 66
     7
176
     1
 43
1.0
176
     1
 76
     1
176
     1
 77
     6
176
     1
 78
     2
176
     1
 67
     7
176
     1
 79
     5
176
     1
170
     0
176
     1
171
     0
176
     1
290
     0
176
     1
 93
        1
176
     1
 44
50.0
176
     1
173
     0
176
     1
  0
VISUALSTYLE
  5
3A
102
{ACAD_REACTORS
330
2A
102
}
330
2A
100
AcDbVisualStyle
  2
ColorChange
 70
    16
177
     2
291
     1
 71
     2
176
     1
 72
     2
176
     1
 73
     3
176
     1
 90
        0
176
     1
 40
-0.6
176
     1
 41
-30.0
176
     1
 62
     5
 63
     8
421
  8421504
176
     1
 74
     1
176
     1
 91
        4
176
     1
 64
     7
176
     1
 65
   257
176
     1
 75
     1
176
     1
175
     1
176
     1
 42
1.0
176
     1
 92
        8
176
     1
 66
     8
424
  8421504
176
     1
 43
1.0
176
     1
 76
     1
176
     1
 77
     6
176
     1
 78
     2
176
     1
 67
     7
176
     1
 79
     5
176
     1
170
     0
176
     1
171
     0
176
     1
290
     0
176
     1
 93
        1
176
     1
 44
0.0
176
     1
173
     0
176
     1
  0
VISUALSTYLE
  5
34
102
{ACAD_REACTORS
330
2A
102
}
330
2A
100
AcDbVisualStyle
  2
Conceptual
 70
     9
177
     2
291
     0
 71
     3
176
     1
 72
     2
176
     1
 73
     0
176
     1
 90
        0
176
     1
 40
-0.6
176
     1
 41
-30.0
176
     1
 62
     5
 63
     7
421
 16777215
176
     1
 74
     2
176
     1
 91
        2
176
     1
 64
     7
176
     1
 65
   257
176
     1
 75
     1
176
     1
175
     1
176
     1
 42
40.0
176
     1
 92
        8
176
     1
 66
     7
176
     1
 43
1.0
176
     1
 76
     1
176
     1
 77
     6
176
     1
 78
     2
176
     1
 67
     7
176
     1
 79
     3
176
     1
170
     0
176
     1
171
     0
176
     1
290
     0
176
     1
 93
        1
176
     1
 44
0.0
176
     1
173
     0
176
     1
  0
VISUALSTYLE
  5
35
102
{ACAD_REACTORS
330
2A
102
}
330
2A
100
AcDbVisualStyle
  2
Dim
 70
    11
177
     2
291
     1
 71
     2
176
     1
 72
     2
176
     1
 73
     0
176
     1
 90
        0
176
     1
 40
-0.6
176
     1
 41
-30.0
176
     1
 62
     5
 63
     7
421
 16777215
176
     1
 74
     1
176
     1
 91
        4
176
     1
 64
     7
176
     1
 65
   257
176
     1
 75
     1
176
     1
175
     1
176
     1
 42
1.0
176
     1
 92
        8
176
     1
 66
     7
176
     1
 43
1.0
176
     1
 76
     1
176
     1
 77
     6
176
     1
 78
     2
176
     1
 67
     7
176
     1
 79
     5
176
     1
170
     0
176
     1
171
     0
176
     1
290
     0
176
     1
 93
        1
176
     1
 44
-50.0
176
     1
173
     0
176
     1
  0
VISUALSTYLE
  5
39
102
{ACAD_REACTORS
330
2A
102
}
330
2A
100
AcDbVisualStyle
  2
Facepattern
 70
    15
177
     2
291
     1
 71
     2
176
     1
 72
     2
176
     1
 73
     0
176
     1
 90
        0
176
     1
 40
-0.6
176
     1
 41
-30.0
176
     1
 62
     5
 63
     7
421
 16777215
176
     1
 74
     1
176
     1
 91
        4
176
     1
 64
     7
176
     1
 65
   257
176
     1
 75
     1
176
     1
175
     1
176
     1
 42
1.0
176
     1
 92
        8
176
     1
 66
     7
176
     1
 43
1.0
176
     1
 76
     1
176
     1
 77
     6
176
     1
 78
     2
176
     1
 67
     7
176
     1
 79
     5
176
     1
170
     0
176
     1
171
     0
176
     1
290
     0
176
     1
 93
        1
176
     1
 44
0.0
176
     1
173
     0
176
     1
  0
VISUALSTYLE
  5
2B
102
{ACAD_REACTORS
330
2A
102
}
330
2A
100
AcDbVisualStyle
  2
Flat
 70
     0
177
     2
291
     1
 71
     2
176
     1
 72
     1
176
     1
 73
     1
176
     1
 90
        2
176
     1
 40
-0.6
176
     1
 41
30.0
176
     1
 62
     5
 63
     7
421
 16777215
176
     1
 74
     0
176
     1
 91
        4
176
     1
 64
     7
176
     1
 65
   257
176
     1
 75
     1
176
     1
175
     1
176
     1
 42
1.0
176
     1
 92
        8
176
     1
 66
     7
176
     1
 43
1.0
176
     1
 76
     1
176
     1
 77
     6
176
     1
 78
     2
176
     1
 67
     7
176
     1
 79
     5
176
     1
170
     0
176
     1
171
     0
176
     1
290
     0
176
     1
 93
       13
176
     1
 44
0.0
176
     1
173
     0
176
     1
  0
VISUALSTYLE
  5
2C
102
{ACAD_REACTORS
330
2A
102
}
330
2A
100
AcDbVisualStyle
  2
FlatWithEdges
 70
     1
177
     2
291
     1
 71
     2
176
     1
 72
     1
176
     1
 73
     1
176
     1
 90
        2
176
     1
 40
-0.6
176
     1
 41
30.0
176
     1
 62
     5
 63
     7
421
 16777215
176
     1
 74
     1
176
     1
 91
        4
176
     1
 64
     7
176
     1
 65
   257
176
     1
 75
     1
176
     1
175
     1
176
     1
 42
1.0
176
     1
 92
        0
176
     1
 66
   257
176
     1
 43
1.0
176
     1
 76
     1
176
     1
 77
     6
176
     1
 78
     2
176
     1
 67
     7
176
     1
 79
     5
176
     1
170
     0
176
     1
171
     0
176
     1
290
     0
176
     1
 93
       13
176
     1
 44
0.0
176
     1
173
     0
176
     1
  0
VISUALSTYLE
  5
2D
102
{ACAD_REACTORS
330
2A
102
}
330
2A
100
AcDbVisualStyle
  2
Gouraud
 70
     2
177
     2
291
     1
 71
     2
176
     1
 72
     2
176
     1
 73
     1
176
     1
 90
        2
176
     1
 40
-0.6
176
     1
 41
30.0
176
     1
 62
     5
 63
     7
421
 16777215
176
     1
 74
     0
176
     1
 91
        4
176
     1
 64
     7
176
     1
 65
   257
176
     1
 75
     1
176
     1
175
     1
176
     1
 42
1.0
176
     1
 92
        0
176
     1
 66
     7
176
     1
 43
1.0
176
     1
 76
     1
176
     1
 77
     6
176
     1
 78
     2
176
     1
 67
     7
176
     1
 79
     5
176
     1
170
     0
176
     1
171
     0
176
     1
290
     0
176
     1
 93
       13
176
     1
 44
0.0
176
     1
173
     0
176
     1
  0
VISUALSTYLE
  5
2E
102
{ACAD_REACTORS
330
2A
102
}
330
2A
100
AcDbVisualStyle
  2
GouraudWithEdges
 70
     3
177
     2
291
     1
 71
     2
176
     1
 72
     2
176
     1
 73
     1
176
     1
 90
        2
176
     1
 40
-0.6
176
     1
 41
30.0
176
     1
 62
     5
 63
     7
421
 16777215
176
     1
 74
     1
176
     1
 91
        4
176
     1
 64
     7
176
     1
 65
   257
176
     1
 75
     1
176
     1
175
     1
176
     1
 42
1.0
176
     1
 92
        0
176
     1
 66
   257
176
     1
 43
1.0
176
     1
 76
     1
176
     1
 77
     6
176
     1
 78
     2
176
     1
 67
     7
176
     1
 79
     5
176
     1
170
     0
176
     1
171
     0
176
     1
290
     0
176
     1
 93
       13
176
     1
 44
0.0
176
     1
173
     0
176
     1
  0
VISUALSTYLE
  5
38
102
{ACAD_REACTORS
330
2A
102
}
330
2A
100
AcDbVisualStyle
  2
Linepattern
 70
    14
177
     2
291
     1
 71
     2
176
     1
 72
     2
176
     1
 73
     0
176
     1
 90
        0
176
     1
 40
-0.6
176
     1
 41
-30.0
176
     1
 62
     5
 63
     7
421
 16777215
176
     1
 74
     1
176
     1
 91
        4
176
     1
 64
     7
176
     1
 65
   257
176
     1
 75
     7
176
     1
175
     7
176
     1
 42
1.0
176
     1
 92
        8
176
     1
 66
     7
176
     1
 43
1.0
176
     1
 76
     1
176
     1
 77
     6
176
     1
 78
     2
176
     1
 67
     7
176
     1
 79
     5
176
     1
170
     0
176
     1
171
     0
176
     1
290
     0
176
     1
 93
        1
176
     1
 44
0.0
176
     1
173
     0
176
     1
  0
VISUALSTYLE
  5
33
102
{ACAD_REACTORS
330
2A
102
}
330
2A
100
AcDbVisualStyle
  2
Realistic
 70
     8
177
     2
291
     0
 71
     2
176
     1
 72
     2
176
     1
 73
     0
176
     1
 90
        0
176
     1
 40
-0.6
176
     1
 41
-30.0
176
     1
 62
     5
 63
     7
421
 16777215
176
     1
 74
     1
176
     1
 91
        0
176
     1
 64
     7
176
     1
 65
   257
176
     1
 75
     1
176
     1
175
     1
176
     1
 42
1.0
176
     1
 92
        8
176
     1
 66
     8
424
  7895160
176
     1
 43
1.0
176
     1
 76
     1
176
     1
 77
     6
176
     1
 78
     2
176
     1
 67
     7
176
     1
 79
     5
176
     1
170
     0
176
     1
171
     0
176
     1
290
     0
176
     1
 93
       13
176
     1
 44
0.0
176
     1
173
     0
176
     1
  0
VISUALSTYLE
  5
37
102
{ACAD_REACTORS
330
2A
102
}
330
2A
100
AcDbVisualStyle
  2
Thicken
 70
    13
177
     2
291
     1
 71
     2
176
     1
 72
     2
176
     1
 73
     0
176
     1
 90
        0
176
     1
 40
-0.6
176
     1
 41
-30.0
176
     1
 62
     5
 63
     7
421
 16777215
176
     1
 74
     1
176
     1
 91
        4
176
     1
 64
     7
176
     1
 65
   257
176
     1
 75
     1
176
     1
175
     1
176
     1
 42
1.0
176
     1
 92
       12
176
     1
 66
     7
176
     1
 43
1.0
176
     1
 76
     1
176
     1
 77
     6
176
     1
 78
     2
176
     1
 67
     7
176
     1
 79
     5
176
     1
170
     0
176
     1
171
     0
176
     1
290
     0
176
     1
 93
        1
176
     1
 44
0.0
176
     1
173
     0
176
     1
  0
ENDSEC
  0
EOF
