  0
SECTION
  2
HEADER
  9
$ACADVER
  1
AC1024
  9
$ACADMAINTVER
 70
     6
  9
$DWGCODEPAGE
  3
UNDEFINED
  9
$INSBASE
 10
0.0
 20
0.0
 30
0.0
  9
$EXTMIN
 10
1.000000000000000E+20
 20
1.000000000000000E+20
 30
1.000000000000000E+20
  9
$EXTMAX
 10
-1.000000000000000E+20
 20
-1.000000000000000E+20
 30
-1.000000000000000E+20
  9
$LIMMIN
 10
0.0
 20
0.0
  9
$LIMMAX
 10
12.0
 20
9.0
  9
$ORTHOMODE
 70
     0
  9
$REGENMODE
 70
     1
  9
$FILLMODE
 70
     1
  9
$QTEXTMODE
 70
     0
  9
$MIRRTEXT
 70
     1
  9
$LTSCALE
 40
1.0
  9
$ATTMODE
 70
     1
  9
$TEXTSIZE
 40
0.2
  9
$TRACEWID
 40
0.05
  9
$TEXTSTYLE
  7
Standard
  9
$CLAYER
  8
0
  9
$CELTYPE
  6
ByLayer
  9
$CECOLOR
 62
   256
  9
$CELTSCALE
 40
1.0
  9
$DISPSILH
 70
     0
  9
$DIMSCALE
 40
1.0
  9
$DIMASZ
 40
0.18
  9
$DIMEXO
 40
0.0625
  9
$DIMDLI
 40
0.38
  9
$DIMRND
 40
0.0
  9
$DIMDLE
 40
0.0
  9
$DIMEXE
 40
0.18
  9
$DIMTP
 40
0.0
  9
$DIMTM
 40
0.0
  9
$DIMTXT
 40
0.18
  9
$DIMCEN
 40
0.09
  9
$DIMTSZ
 40
0.0
  9
$DIMTOL
 70
     0
  9
$DIMLIM
 70
     0
  9
$DIMTIH
 70
     1
  9
$DIMTOH
 70
     1
  9
$DIMSE1
 70
     0
  9
$DIMSE2
 70
     0
  9
$DIMTAD
 70
     0
  9
$DIMZIN
 70
     0
  9
$DIMBLK
  1

  9
$DIMASO
 70
     1
  9
$DIMSHO
 70
     1
  9
$DIMPOST
  1

  9
$DIMAPOST
  1

  9
$DIMALT
 70
     0
  9
$DIMALTD
 70
     2
  9
$DIMALTF
 40
25.4
  9
$DIMLFAC
 40
1.0
  9
$DIMTOFL
 70
     0
  9
$DIMTVP
 40
0.0
  9
$DIMTIX
 70
     0
  9
$DIMSOXD
 70
     0
  9
$DIMSAH
 70
     0
  9
$DIMBLK1
  1

  9
$DIMBLK2
  1

  9
$DIMSTYLE
  2
Standard
  9
$DIMCLRD
 70
     0
  9
$DIMCLRE
 70
     0
  9
$DIMCLRT
 70
     0
  9
$DIMTFAC
 40
1.0
  9
$DIMGAP
 40
0.09
  9
$DIMJUST
 70
     0
  9
$DIMSD1
 70
     0
  9
$DIMSD2
 70
     0
  9
$DIMTOLJ
 70
     1
  9
$DIMTZIN
 70
     0
  9
$DIMALTZ
 70
     0
  9
$DIMALTTZ
 70
     0
  9
$DIMUPT
 70
     0
  9
$DIMDEC
 70
     4
  9
$DIMTDEC
 70
     4
  9
$DIMALTU
 70
     2
  9
$DIMALTTD
 70
     2
  9
$DIMTXSTY
  7
Standard
  9
$DIMAUNIT
 70
     0
  9
$DIMADEC
 70
     0
  9
$DIMALTRND
 40
0.0
  9
$DIMAZIN
 70
     0
  9
$DIMDSEP
 70
    46
  9
$DIMATFIT
 70
     3
  9
$DIMFRAC
 70
     0
  9
$DIMLDRBLK
  1

  9
$DIMLUNIT
 70
     2
  9
$DIMLWD
 70
    -2
  9
$DIMLWE
 70
    -2
  9
$DIMTMOVE
 70
     0
  9
$DIMFXL
 40
1.0
  9
$DIMFXLON
 70
     0
  9
$DIMJOGANG
 40
0.7853981633974483
  9
$DIMTFILL
 70
     0
  9
$DIMTFILLCLR
 70
     0
  9
$DIMARCSYM
 70
     0
  9
$DIMLTYPE
  6

  9
$DIMLTEX1
  6

  9
$DIMLTEX2
  6

  9
$DIMTXTDIRECTION
 70
     0
  9
$LUNITS
 70
     2
  9
$LUPREC
 70
     4
  9
$SKETCHINC
 40
0.1
  9
$FILLETRAD
 40
0.5
  9
$AUNITS
 70
     0
  9
$AUPREC
 70
     0
  9
$MENU
  1
.
  9
$ELEVATION
 40
0.0
  9
$PELEVATION
 40
0.0
  9
$THICKNESS
 40
0.0
  9
$LIMCHECK
 70
     0
  9
$CHAMFERA
 40
0.5
  9
$CHAMFERB
 40
0.5
  9
$CHAMFERC
 40
1.0
  9
$CHAMFERD
 40
0.0
  9
$SKPOLY
 70
     0
  9
$TDCREATE
 40
2457917.62130787
  9
$TDUCREATE
 40
2457917.24630787
  9
$TDUPDATE
 40
2457917.62130787
  9
$TDUUPDATE
 40
2457917.24630787
  9
$TDINDWG
 40
0.0000000116
  9
$TDUSRTIMER
 40
0.0000000116
  9
$USRTIMER
 70
     1
  9
$ANGBASE
 50
0.0
  9
$ANGDIR
 70
     0
  9
$PDMODE
 70
     0
  9
$PDSIZE
 40
0.0
  9
$PLINEWID
 40
0.0
  9
$SPLFRAME
 70
     0
  9
$SPLINETYPE
 70
     6
  9
$SPLINESEGS
 70
     8
  9
$HANDSEED
  5
92
  9
$SURFTAB1
 70
     6
  9
$SURFTAB2
 70
     6
  9
$SURFTYPE
 70
     6
  9
$SURFU
 70
     6
  9
$SURFV
 70
     6
  9
$UCSBASE
  2

  9
$UCSNAME
  2

  9
$UCSORG
 10
0.0
 20
0.0
 30
0.0
  9
$UCSXDIR
 10
1.0
 20
0.0
 30
0.0
  9
$UCSYDIR
 10
0.0
 20
1.0
 30
0.0
  9
$UCSORTHOREF
  2

  9
$UCSORTHOVIEW
 70
     0
  9
$UCSORGTOP
 10
0.0
 20
0.0
 30
0.0
  9
$UCSORGBOTTOM
 10
0.0
 20
0.0
 30
0.0
  9
$UCSORGLEFT
 10
0.0
 20
0.0
 30
0.0
  9
$UCSORGRIGHT
 10
0.0
 20
0.0
 30
0.0
  9
$UCSORGFRONT
 10
0.0
 20
0.0
 30
0.0
  9
$UCSORGBACK
 10
0.0
 20
0.0
 30
0.0
  9
$PUCSBASE
  2

  9
$PUCSNAME
  2

  9
$PUCSORG
 10
0.0
 20
0.0
 30
0.0
  9
$PUCSXDIR
 10
1.0
 20
0.0
 30
0.0
  9
$PUCSYDIR
 10
0.0
 20
1.0
 30
0.0
  9
$PUCSORTHOREF
  2

  9
$PUCSORTHOVIEW
 70
     0
  9
$PUCSORGTOP
 10
0.0
 20
0.0
 30
0.0
  9
$PUCSORGBOTTOM
 10
0.0
 20
0.0
 30
0.0
  9
$PUCSORGLEFT
 10
0.0
 20
0.0
 30
0.0
  9
$PUCSORGRIGHT
 10
0.0
 20
0.0
 30
0.0
  9
$PUCSORGFRONT
 10
0.0
 20
0.0
 30
0.0
  9
$PUCSORGBACK
 10
0.0
 20
0.0
 30
0.0
  9
$USERI1
 70
     0
  9
$USERI2
 70
     0
  9
$USERI3
 70
     0
  9
$USERI4
 70
     0
  9
$USERI5
 70
     0
  9
$USERR1
 40
0.0
  9
$USERR2
 40
0.0
  9
$USERR3
 40
0.0
  9
$USERR4
 40
0.0
  9
$USERR5
 40
0.0
  9
$WORLDVIEW
 70
     1
  9
$SHADEDGE
 70
     3
  9
$SHADEDIF
 70
    70
  9
$TILEMODE
 70
     1
  9
$MAXACTVP
 70
    64
  9
$PINSBASE
 10
0.0
 20
0.0
 30
0.0
  9
$PLIMCHECK
 70
     0
  9
$PEXTMIN
 10
1.000000000000000E+20
 20
1.000000000000000E+20
 30
1.000000000000000E+20
  9
$PEXTMAX
 10
-1.000000000000000E+20
 20
-1.000000000000000E+20
 30
-1.000000000000000E+20
  9
$PLIMMIN
 10
0.0
 20
0.0
  9
$PLIMMAX
 10
12.0
 20
9.0
  9
$UNITMODE
 70
     0
  9
$VISRETAIN
 70
     1
  9
$PLINEGEN
 70
     0
  9
$PSLTSCALE
 70
     1
  9
$TREEDEPTH
 70
  3020
  9
$CMLSTYLE
  2
Standard
  9
$CMLJUST
 70
     0
  9
$CMLSCALE
 40
1.0
  9
$PROXYGRAPHICS
 70
     1
  9
$MEASUREMENT
 70
     0
  9
$CELWEIGHT
370
    -1
  9
$ENDCAPS
280
     0
  9
$JOINSTYLE
280
     0
  9
$LWDISPLAY
290
     1
  9
$INSUNITS
 70
     1
  9
$HYPERLINKBASE
  1

  9
$STYLESHEET
  1

  9
$XEDIT
290
     1
  9
$CEPSNTYPE
380
     0
  9
$PSTYLEMODE
290
     1
  9
$FINGERPRINTGUID
  2
{D7FA2550-4741-7DEC-DDE2-E5B0B7A1DF03}
  9
$VERSIONGUID
  2
{FAEB1C32-E019-11D5-929B-00C0DF256EC4}
  9
$EXTNAMES
290
     1
  9
$PSVPSCALE
 40
0.0
  9
$OLESTARTUP
290
     0
  9
$SORTENTS
280
   127
  9
$INDEXCTL
280
     0
  9
$HIDETEXT
280
     1
  9
$XCLIPFRAME
280
     2
  9
$HALOGAP
280
     0
  9
$OBSCOLOR
 70
   257
  9
$OBSLTYPE
280
     0
  9
$INTERSECTIONDISPLAY
280
     0
  9
$INTERSECTIONCOLOR
 70
   257
  9
$DIMASSOC
280
     2
  9
$PROJECTNAME
  1

  9
$CAMERADISPLAY
290
     0
  9
$LENSLENGTH
 40
50.0
  9
$CAMERAHEIGHT
 40
0.0
  9
$STEPSPERSEC
 40
2.0
  9
$STEPSIZE
 40
6.0
  9
$3DDWFPREC
 40
2.0
  9
$PSOLWIDTH
 40
0.25
  9
$PSOLHEIGHT
 40
4.0
  9
$LOFTANG1
 40
1.570796326794897
  9
$LOFTANG2
 40
1.570796326794897
  9
$LOFTMAG1
 40
0.0
  9
$LOFTMAG2
 40
0.0
  9
$LOFTPARAM
 70
     7
  9
$LOFTNORMALS
280
     1
  9
$LATITUDE
 40
37.795
  9
$LONGITUDE
 40
-122.394
  9
$NORTHDIRECTION
 40
0.0
  9
$TIMEZONE
 70
 -8000
  9
$LIGHTGLYPHDISPLAY
280
     1
  9
$TILEMODELIGHTSYNCH
280
     1
  9
$CMATERIAL
347
3C
  9
$SOLIDHIST
280
     1
  9
$SHOWHIST
280
     1
  9
$DWFFRAME
280
     2
  9
$DGNFRAME
280
     2
  9
$REALWORLDSCALE
290
     1
  9
$INTERFERECOLOR
 62
   256
  9
$CSHADOW
280
     0
  9
$SHADOWPLANELOCATION
 40
0.0
  0
ENDSEC
  0
SECTION
  2
CLASSES
  0
CLASS
  1
ACDBDICTIONARYWDFLT
  2
AcDbDictionaryWithDefault
  3
ObjectDBX Classes
 90
        0
 91
        4
280
     0
281
     0
  0
CLASS
  1
VISUALSTYLE
  2
AcDbVisualStyle
  3
ObjectDBX Classes
 90
     4095
 91
        4
280
     0
281
     0
  0
CLASS
  1
MATERIAL
  2
AcDbMaterial
  3
ObjectDBX Classes
 90
     1153
 91
        4
280
     0
281
     0
  0
CLASS
  1
SUN
  2
AcDbSun
  3
SCENEOE
 90
     1024
 91
        4
280
     0
281
     0
  0
ENDSEC
  0
SECTION
  2
TABLES
  0
TABLE
  2
VPORT
  5
8
330
0
100
AcDbSymbolTable
 70
     1
  0
VPORT
  5
29
330
8
100
AcDbSymbolTableRecord
100
AcDbViewportTableRecord
  2
*Active
 70
     0
 10
0.0
 20
0.0
 11
1.0
 21
1.0
 12
0.0
 22
0.0
 13
0.0
 23
0.0
 14
0.5
 24
0.5
 15
0.5
 25
0.5
 16
0.0
 26
0.0
 36
1.0
 17
91.00082462281999
 27
-128.4993055234307
 37
0.0
 40
256.9986110468615
 41
0.7081814508812795
 42
50.0
 43
0.0
 44
0.0
 50
0.0
 51
0.0
 71
     0
 72
   100
 73
     1
 74
     3
 75
     0
 76
     0
 77
     0
 78
     0
281
     0
 65
     1
110
0.0
120
0.0
130
0.0
111
1.0
121
0.0
131
0.0
112
0.0
122
1.0
132
0.0
 79
     0
146
0.0
 60
     3
 61
     5
292
     1
282
     1
141
0.0
142
0.0
 63
   250
361
3F
  0
ENDTAB
  0
TABLE
  2
LTYPE
  5
5
330
0
100
AcDbSymbolTable
 70
     1
  0
LTYPE
  5
14
330
5
100
AcDbSymbolTableRecord
100
AcDbLinetypeTableRecord
  2
ByBlock
 70
     0
  3

 72
    65
 73
     0
 40
0.0
  0
LTYPE
  5
15
330
5
100
AcDbSymbolTableRecord
100
AcDbLinetypeTableRecord
  2
ByLayer
 70
     0
  3

 72
    65
 73
     0
 40
0.0
  0
LTYPE
  5
16
330
5
100
AcDbSymbolTableRecord
100
AcDbLinetypeTableRecord
  2
Continuous
 70
     0
  3
Solid line
 72
    65
 73
     0
 40
0.0
  0
ENDTAB
  0
TABLE
  2
LAYER
  5
2
330
0
100
AcDbSymbolTable
 70
     2
  0
LAYER
  5
10
330
2
100
AcDbSymbolTableRecord
100
AcDbLayerTableRecord
  2
0
 70
     0
 62
     7
  6
Continuous
370
    -3
390
F
347
3E
  0
LAYER
  5
40
330
2
100
AcDbSymbolTableRecord
100
AcDbLayerTableRecord
  2
_U+30EC_U+30A4_U+30E4_U+30FC 1
 70
     0
 62
     7
  6
Continuous
370
    -3
390
F
347
3E
  0
ENDTAB
  0
TABLE
  2
STYLE
  5
3
330
0
100
AcDbSymbolTable
 70
     1
  0
STYLE
  5
11
330
3
100
AcDbSymbolTableRecord
100
AcDbTextStyleTableRecord
  2
Standard
 70
     0
 40
0.0
 41
1.0
 50
0.0
 71
     0
 42
0.2
  3
txt
  4

  0
ENDTAB
  0
TABLE
  2
VIEW
  5
6
330
0
100
AcDbSymbolTable
 70
     0
  0
ENDTAB
  0
TABLE
  2
UCS
  5
7
330
0
100
AcDbSymbolTable
 70
     0
  0
ENDTAB
  0
TABLE
  2
APPID
  5
9
330
0
100
AcDbSymbolTable
 70
     1
  0
APPID
  5
12
330
9
100
AcDbSymbolTableRecord
100
AcDbRegAppTableRecord
  2
ACAD
 70
     0
  0
ENDTAB
  0
TABLE
  2
DIMSTYLE
  5
A
330
0
100
AcDbSymbolTable
 70
     1
100
AcDbDimStyleTable
  0
DIMSTYLE
105
27
330
A
100
AcDbSymbolTableRecord
100
AcDbDimStyleTableRecord
  2
Standard
 70
     0
178
     0
340
11
  0
ENDTAB
  0
TABLE
  2
BLOCK_RECORD
  5
1
330
0
100
AcDbSymbolTable
 70
     4
  0
BLOCK_RECORD
  5
1F
330
1
100
AcDbSymbolTableRecord
100
AcDbBlockTableRecord
  2
*Model_Space
340
22
 70
     0
280
     1
281
     0
  0
BLOCK_RECORD
  5
1B
330
1
100
AcDbSymbolTableRecord
100
AcDbBlockTableRecord
  2
*Paper_Space
340
1E
 70
     0
280
     1
281
     0
  0
BLOCK_RECORD
  5
23
330
1
100
AcDbSymbolTableRecord
100
AcDbBlockTableRecord
  2
*Paper_Space0
340
26
 70
     0
280
     1
281
     0
  0
BLOCK_RECORD
  5
57
330
1
100
AcDbSymbolTableRecord
100
AcDbBlockTableRecord
  2
block 2
340
0
102
{BLKREFS
331
58
102
}
 70
     0
280
     1
281
     0
  0
BLOCK_RECORD
  5
73
330
1
100
AcDbSymbolTableRecord
100
AcDbBlockTableRecord
  2
block 3
340
0
102
{BLKREFS
331
74
102
}
 70
     0
280
     1
281
     0
  0
BLOCK_RECORD
  5
87
330
1
100
AcDbSymbolTableRecord
100
AcDbBlockTableRecord
  2
block 4
340
0
102
{BLKREFS
331
88
102
}
 70
     0
280
     1
281
     0
  0
ENDTAB
  0
ENDSEC
  0
SECTION
  2
BLOCKS
  0
BLOCK
  5
20
330
1F
100
AcDbEntity
  8
0
100
AcDbBlockBegin
  2
*Model_Space
 70
     0
 10
0.0
 20
0.0
 30
0.0
  3
*Model_Space
  1

  0
ENDBLK
  5
21
330
1F
100
AcDbEntity
  8
0
100
AcDbBlockEnd
  0
BLOCK
  5
1C
330
1B
100
AcDbEntity
 67
     1
  8
0
100
AcDbBlockBegin
  2
*Paper_Space
 70
     0
 10
0.0
 20
0.0
 30
0.0
  3
*Paper_Space
  1

  0
ENDBLK
  5
1D
330
1B
100
AcDbEntity
 67
     1
  8
0
100
AcDbBlockEnd
  0
BLOCK
  5
24
330
23
100
AcDbEntity
  8
0
100
AcDbBlockBegin
  2
*Paper_Space0
 70
     0
 10
0.0
 20
0.0
 30
0.0
  3
*Paper_Space0
  1

  0
ENDBLK
  5
25
330
23
100
AcDbEntity
  8
0
100
AcDbBlockEnd
  0
BLOCK
  5
59
330
57
100
AcDbEntity
  8
0
100
AcDbBlockBegin
  2
block 2
 70
     0
 10
0.0
 20
0.0
 30
0.0
  3
block 2
  1

  0
SPLINE
  5
5B
330
57
100
AcDbEntity
  8
_U+30EC_U+30A4_U+30E4_U+30FC 1
370
     0
100
AcDbSpline
210
0.0
220
0.0
230
1.0
 70
    11
 71
     3
 72
    26
 73
    22
 74
     0
 42
0.0000000001
 43
0.0000000001
 12
1.0
 22
0.0
 32
0.0
 13
1.0
 23
0.0
 33
0.0
 40
0.0
 40
0.0
 40
0.0
 40
0.0
 40
1.0
 40
1.0
 40
1.0
 40
2.0
 40
2.0
 40
2.0
 40
3.0
 40
3.0
 40
3.0
 40
4.0
 40
4.0
 40
4.0
 40
5.0
 40
5.0
 40
5.0
 40
6.0
 40
6.0
 40
6.0
 40
7.0
 40
7.0
 40
7.0
 40
7.0
 10
107.7312364096991
 20
-135.3536675008838
 30
0.0
 10
107.7312364096991
 20
-135.3536675008838
 30
0.0
 10
106.6270833066766
 20
-135.3536675008838
 30
0.0
 10
106.6270833066766
 20
-135.3536675008838
 30
0.0
 10
106.6270833066766
 20
-135.3536675008838
 30
0.0
 10
106.6270833066766
 20
-135.6492566935183
 30
0.0
 10
106.6270833066766
 20
-135.6492566935183
 30
0.0
 10
106.6270833066766
 20
-135.6492566935183
 30
0.0
 10
106.4789442008108
 20
-135.6492566935183
 30
0.0
 10
106.4789442008108
 20
-135.6492566935183
 30
0.0
 10
106.4641302902242
 20
-135.3516004435927
 30
0.0
 10
106.3011772737719
 20
-135.3099147882211
 30
0.0
 10
106.1868001036616
 20
-135.2833875529847
 30
0.0
 10
106.1868001036616
 20
-135.2833875529847
 30
0.0
 10
106.1868001036616
 20
-135.1524739245452
 30
0.0
 10
106.1868001036616
 20
-135.1524739245452
 30
0.0
 10
106.1868001036616
 20
-135.1524739245452
 30
0.0
 10
107.7312364096991
 20
-135.1524739245452
 30
0.0
 10
107.7312364096991
 20
-135.1524739245452
 30
0.0
 10
107.7312364096991
 20
-135.1524739245452
 30
0.0
 10
107.7312364096991
 20
-135.3536675008838
 30
0.0
 10
107.7312364096991
 20
-135.3536675008838
 30
0.0
  0
HATCH
  5
5C
330
57
100
AcDbEntity
  8
_U+30EC_U+30A4_U+30E4_U+30FC 1
 62
   179
420
  2234388
100
AcDbHatch
 10
0.0
 20
0.0
 30
0.0
210
0.0
220
0.0
230
1.0
  2
SOLID
 70
     1
 71
     0
 91
        1
 92
        1
 93
        1
 72
     4
 94
        3
 73
     0
 74
     1
 95
       26
 96
       22
 40
0.0
 40
0.0
 40
0.0
 40
0.0
 40
1.0
 40
1.0
 40
1.0
 40
2.0
 40
2.0
 40
2.0
 40
3.0
 40
3.0
 40
3.0
 40
4.0
 40
4.0
 40
4.0
 40
5.0
 40
5.0
 40
5.0
 40
6.0
 40
6.0
 40
6.0
 40
7.0
 40
7.0
 40
7.0
 40
7.0
 10
107.7312364096991
 20
-135.3536675008838
 10
107.7312364096991
 20
-135.3536675008838
 10
106.6270833066766
 20
-135.3536675008838
 10
106.6270833066766
 20
-135.3536675008838
 10
106.6270833066766
 20
-135.3536675008838
 10
106.6270833066766
 20
-135.6492566935183
 10
106.6270833066766
 20
-135.6492566935183
 10
106.6270833066766
 20
-135.6492566935183
 10
106.4789442008108
 20
-135.6492566935183
 10
106.4789442008108
 20
-135.6492566935183
 10
106.4641302902242
 20
-135.3516004435927
 10
106.3011772737719
 20
-135.3099147882211
 10
106.1868001036616
 20
-135.2833875529847
 10
106.1868001036616
 20
-135.2833875529847
 10
106.1868001036616
 20
-135.1524739245452
 10
106.1868001036616
 20
-135.1524739245452
 10
106.1868001036616
 20
-135.1524739245452
 10
107.7312364096991
 20
-135.1524739245452
 10
107.7312364096991
 20
-135.1524739245452
 10
107.7312364096991
 20
-135.1524739245452
 10
107.7312364096991
 20
-135.3536675008838
 10
107.7312364096991
 20
-135.3536675008838
 97
        0
 97
        0
 75
     2
 76
     1
 98
        0
  0
POLYLINE
  5
5D
330
57
100
AcDbEntity
  8
_U+30EC_U+30A4_U+30E4_U+30FC 1
370
     0
100
AcDb2dPolyline
 66
     1
 10
0.0
 20
0.0
 30
0.0
  0
VERTEX
  5
5E
330
5D
100
AcDbEntity
  8
_U+30EC_U+30A4_U+30E4_U+30FC 1
370
     0
100
AcDbVertex
100
AcDb2dVertex
 10
107.7312364096991
 20
-134.6505235123443
 30
0.0
  0
VERTEX
  5
5F
330
5D
100
AcDbEntity
  8
_U+30EC_U+30A4_U+30E4_U+30FC 1
370
     0
100
AcDbVertex
100
AcDb2dVertex
 10
107.4793999297274
 20
-134.6505235123443
 30
0.0
  0
VERTEX
  5
60
330
5D
100
AcDbEntity
  8
_U+30EC_U+30A4_U+30E4_U+30FC 1
370
     0
100
AcDbVertex
100
AcDb2dVertex
 10
107.4793999297274
 20
-134.4248697580605
 30
0.0
  0
VERTEX
  5
61
330
5D
100
AcDbEntity
  8
_U+30EC_U+30A4_U+30E4_U+30FC 1
370
     0
100
AcDbVertex
100
AcDb2dVertex
 10
107.7312364096991
 20
-134.4248697580605
 30
0.0
  0
VERTEX
  5
62
330
5D
100
AcDbEntity
  8
_U+30EC_U+30A4_U+30E4_U+30FC 1
370
     0
100
AcDbVertex
100
AcDb2dVertex
 10
107.7312364096991
 20
-134.6505235123443
 30
0.0
  0
SEQEND
  5
63
330
5D
100
AcDbEntity
  8
_U+30EC_U+30A4_U+30E4_U+30FC 1
370
     0
  0
HATCH
  5
64
330
57
100
AcDbEntity
  8
_U+30EC_U+30A4_U+30E4_U+30FC 1
 62
   179
420
  2234388
100
AcDbHatch
 10
0.0
 20
0.0
 30
0.0
210
0.0
220
0.0
230
1.0
  2
SOLID
 70
     1
 71
     0
 91
        1
 92
        1
 93
        4
 72
     1
 10
107.7312364096991
 20
-134.6505235123443
 11
107.4793999297274
 21
-134.6505235123443
 72
     1
 10
107.4793999297274
 20
-134.6505235123443
 11
107.4793999297274
 21
-134.4248697580605
 72
     1
 10
107.4793999297274
 20
-134.4248697580605
 11
107.7312364096991
 21
-134.4248697580605
 72
     1
 10
107.7312364096991
 20
-134.4248697580605
 11
107.7312364096991
 21
-134.6505235123443
 97
        0
 75
     2
 76
     1
 98
        0
  0
SPLINE
  5
65
330
57
100
AcDbEntity
  8
_U+30EC_U+30A4_U+30E4_U+30FC 1
370
     0
100
AcDbSpline
210
0.0
220
0.0
230
1.0
 70
    11
 71
     3
 72
    44
 73
    40
 74
     0
 42
0.0000000001
 43
0.0000000001
 12
1.0
 22
0.0
 32
0.0
 13
1.0
 23
0.0
 33
0.0
 40
0.0
 40
0.0
 40
0.0
 40
0.0
 40
1.0
 40
1.0
 40
1.0
 40
2.0
 40
2.0
 40
2.0
 40
3.0
 40
3.0
 40
3.0
 40
4.0
 40
4.0
 40
4.0
 40
5.0
 40
5.0
 40
5.0
 40
6.0
 40
6.0
 40
6.0
 40
7.0
 40
7.0
 40
7.0
 40
8.0
 40
8.0
 40
8.0
 40
9.0
 40
9.0
 40
9.0
 40
10.0
 40
10.0
 40
10.0
 40
11.0
 40
11.0
 40
11.0
 40
12.0
 40
12.0
 40
12.0
 40
13.0
 40
13.0
 40
13.0
 40
13.0
 10
107.1493597822404
 20
-133.6824516809891
 30
0.0
 10
107.3081786841105
 20
-133.8777885950028
 30
0.0
 10
107.3822482370433
 20
-133.9611599057458
 30
0.0
 10
107.5259087187783
 20
-134.00456810886
 30
0.0
 10
107.5259087187783
 20
-134.00456810886
 30
0.0
 10
107.5259087187783
 20
-133.3072807826454
 30
0.0
 10
107.5259087187783
 20
-133.3072807826454
 30
0.0
 10
107.5259087187783
 20
-133.3072807826454
 30
0.0
 10
107.7312364096991
 20
-133.3072807826454
 30
0.0
 10
107.7312364096991
 20
-133.3072807826454
 30
0.0
 10
107.7312364096991
 20
-133.3072807826454
 30
0.0
 10
107.7312364096991
 20
-134.2281548058527
 30
0.0
 10
107.7312364096991
 20
-134.2281548058527
 30
0.0
 10
107.3736354983302
 20
-134.1995605133251
 30
0.0
 10
107.295431830815
 20
-134.1409938900759
 30
0.0
 10
106.9970865617924
 20
-133.7961398320024
 30
0.0
 10
106.7983045522935
 20
-133.5670409822332
 30
0.0
 10
106.7304361712341
 20
-133.5081298494355
 30
0.0
 10
106.5929768613726
 20
-133.5081298494355
 30
0.0
 10
106.47446557668
 20
-133.5081298494355
 30
0.0
 10
106.3435519482405
 20
-133.5725531350097
 30
0.0
 10
106.3435519482405
 20
-133.7489420238544
 30
0.0
 10
106.3435519482405
 20
-133.9818304786573
 30
0.0
 10
106.5740288362037
 20
-133.9894096887249
 30
0.0
 10
106.6904730636052
 20
-133.9931992937587
 30
0.0
 10
106.6904730636052
 20
-133.9931992937587
 30
0.0
 10
106.6904730636052
 20
-134.1940483605487
 30
0.0
 10
106.6904730636052
 20
-134.1940483605487
 30
0.0
 10
106.5633490401994
 20
-134.1864691504812
 30
0.0
 10
106.4513834369288
 20
-134.1768228831225
 30
0.0
 10
106.3328721522362
 20
-134.1051648970293
 30
0.0
 10
106.1719861930751
 20
-134.0066351661511
 30
0.0
 10
106.1382242573196
 20
-133.839892544665
 30
0.0
 10
106.1382242573196
 20
-133.735506151462
 30
0.0
 10
106.1382242573196
 20
-133.4871147669755
 30
0.0
 10
106.322192356232
 20
-133.301768629869
 30
0.0
 10
106.5950439186637
 20
-133.301768629869
 30
0.0
 10
106.8237982588843
 20
-133.301768629869
 30
0.0
 10
106.9230170088595
 20
-133.4058105135236
 30
0.0
 10
107.1493597822404
 20
-133.6824516809891
 30
0.0
  0
HATCH
  5
66
330
57
100
AcDbEntity
  8
_U+30EC_U+30A4_U+30E4_U+30FC 1
 62
   179
420
  2234388
100
AcDbHatch
 10
0.0
 20
0.0
 30
0.0
210
0.0
220
0.0
230
1.0
  2
SOLID
 70
     1
 71
     0
 91
        1
 92
        1
 93
        1
 72
     4
 94
        3
 73
     0
 74
     1
 95
       44
 96
       40
 40
0.0
 40
0.0
 40
0.0
 40
0.0
 40
1.0
 40
1.0
 40
1.0
 40
2.0
 40
2.0
 40
2.0
 40
3.0
 40
3.0
 40
3.0
 40
4.0
 40
4.0
 40
4.0
 40
5.0
 40
5.0
 40
5.0
 40
6.0
 40
6.0
 40
6.0
 40
7.0
 40
7.0
 40
7.0
 40
8.0
 40
8.0
 40
8.0
 40
9.0
 40
9.0
 40
9.0
 40
10.0
 40
10.0
 40
10.0
 40
11.0
 40
11.0
 40
11.0
 40
12.0
 40
12.0
 40
12.0
 40
13.0
 40
13.0
 40
13.0
 40
13.0
 10
107.1493597822404
 20
-133.6824516809891
 10
107.3081786841105
 20
-133.8777885950028
 10
107.3822482370433
 20
-133.9611599057458
 10
107.5259087187783
 20
-134.00456810886
 10
107.5259087187783
 20
-134.00456810886
 10
107.5259087187783
 20
-133.3072807826454
 10
107.5259087187783
 20
-133.3072807826454
 10
107.5259087187783
 20
-133.3072807826454
 10
107.7312364096991
 20
-133.3072807826454
 10
107.7312364096991
 20
-133.3072807826454
 10
107.7312364096991
 20
-133.3072807826454
 10
107.7312364096991
 20
-134.2281548058527
 10
107.7312364096991
 20
-134.2281548058527
 10
107.3736354983302
 20
-134.1995605133251
 10
107.295431830815
 20
-134.1409938900759
 10
106.9970865617924
 20
-133.7961398320024
 10
106.7983045522935
 20
-133.5670409822332
 10
106.7304361712341
 20
-133.5081298494355
 10
106.5929768613726
 20
-133.5081298494355
 10
106.47446557668
 20
-133.5081298494355
 10
106.3435519482405
 20
-133.5725531350097
 10
106.3435519482405
 20
-133.7489420238544
 10
106.3435519482405
 20
-133.9818304786573
 10
106.5740288362037
 20
-133.9894096887249
 10
106.6904730636052
 20
-133.9931992937587
 10
106.6904730636052
 20
-133.9931992937587
 10
106.6904730636052
 20
-134.1940483605487
 10
106.6904730636052
 20
-134.1940483605487
 10
106.5633490401994
 20
-134.1864691504812
 10
106.4513834369288
 20
-134.1768228831225
 10
106.3328721522362
 20
-134.1051648970293
 10
106.1719861930751
 20
-134.0066351661511
 10
106.1382242573196
 20
-133.839892544665
 10
106.1382242573196
 20
-133.735506151462
 10
106.1382242573196
 20
-133.4871147669755
 10
106.322192356232
 20
-133.301768629869
 10
106.5950439186637
 20
-133.301768629869
 10
106.8237982588843
 20
-133.301768629869
 10
106.9230170088595
 20
-133.4058105135236
 10
107.1493597822404
 20
-133.6824516809891
 97
        0
 97
        0
 75
     2
 76
     1
 98
        0
  0
ENDBLK
  5
5A
330
57
100
AcDbEntity
  8
0
100
AcDbBlockEnd
  0
BLOCK
  5
75
330
73
100
AcDbEntity
  8
0
100
AcDbBlockBegin
  2
block 3
 70
     0
 10
0.0
 20
0.0
 30
0.0
  3
block 3
  1

  0
SPLINE
  5
77
330
73
100
AcDbEntity
  8
_U+30EC_U+30A4_U+30E4_U+30FC 1
370
     0
100
AcDbSpline
210
0.0
220
0.0
230
1.0
 70
    11
 71
     3
 72
    44
 73
    40
 74
     0
 42
0.0000000001
 43
0.0000000001
 12
1.0
 22
0.0
 32
0.0
 13
1.0
 23
0.0
 33
0.0
 40
0.0
 40
0.0
 40
0.0
 40
0.0
 40
1.0
 40
1.0
 40
1.0
 40
2.0
 40
2.0
 40
2.0
 40
3.0
 40
3.0
 40
3.0
 40
4.0
 40
4.0
 40
4.0
 40
5.0
 40
5.0
 40
5.0
 40
6.0
 40
6.0
 40
6.0
 40
7.0
 40
7.0
 40
7.0
 40
8.0
 40
8.0
 40
8.0
 40
9.0
 40
9.0
 40
9.0
 40
10.0
 40
10.0
 40
10.0
 40
11.0
 40
11.0
 40
11.0
 40
12.0
 40
12.0
 40
12.0
 40
13.0
 40
13.0
 40
13.0
 40
13.0
 10
90.0659925447578
 20
-141.4559651339069
 30
0.0
 10
89.87065563074414
 20
-141.6147840357769
 30
0.0
 10
89.7872843200011
 20
-141.6888535887097
 30
0.0
 10
89.74387611688695
 20
-141.8325140704447
 30
0.0
 10
89.74387611688695
 20
-141.8325140704447
 30
0.0
 10
90.44116344310152
 20
-141.8325140704447
 30
0.0
 10
90.44116344310152
 20
-141.8325140704447
 30
0.0
 10
90.44116344310152
 20
-141.8325140704447
 30
0.0
 10
90.44116344310152
 20
-142.0378417613655
 30
0.0
 10
90.44116344310152
 20
-142.0378417613655
 30
0.0
 10
90.44116344310152
 20
-142.0378417613655
 30
0.0
 10
89.52028941989424
 20
-142.0378417613655
 30
0.0
 10
89.52028941989424
 20
-142.0378417613655
 30
0.0
 10
89.54888371242181
 20
-141.6802408499966
 30
0.0
 10
89.60745033567106
 20
-141.6020371824814
 30
0.0
 10
89.95230439374457
 20
-141.3036919134588
 30
0.0
 10
90.18140324351369
 20
-141.1049099039599
 30
0.0
 10
90.24031437631146
 20
-141.0370415229005
 30
0.0
 10
90.24031437631146
 20
-140.899582213039
 30
0.0
 10
90.24031437631146
 20
-140.7810709283464
 30
0.0
 10
90.17589109073728
 20
-140.6501572999069
 30
0.0
 10
89.99950220189248
 20
-140.6501572999069
 30
0.0
 10
89.76661374708961
 20
-140.6501572999069
 30
0.0
 10
89.75903453702205
 20
-140.8806341878701
 30
0.0
 10
89.75524493198827
 20
-140.9970784152716
 30
0.0
 10
89.75524493198827
 20
-140.9970784152716
 30
0.0
 10
89.55439586519822
 20
-140.9970784152716
 30
0.0
 10
89.55439586519822
 20
-140.9970784152716
 30
0.0
 10
89.56197507526576
 20
-140.8699543918659
 30
0.0
 10
89.57162134262445
 20
-140.7579887885952
 30
0.0
 10
89.64327932871765
 20
-140.6394775039026
 30
0.0
 10
89.7418090595958
 20
-140.4785915447415
 30
0.0
 10
89.90855168108189
 20
-140.444829608986
 30
0.0
 10
90.01293807428496
 20
-140.444829608986
 30
0.0
 10
90.26132945877147
 20
-140.444829608986
 30
0.0
 10
90.44667559587792
 20
-140.6287977078984
 30
0.0
 10
90.44667559587792
 20
-140.9016492703302
 30
0.0
 10
90.44667559587792
 20
-141.1304036105507
 30
0.0
 10
90.34263371222337
 20
-141.2296223605259
 30
0.0
 10
90.0659925447578
 20
-141.4559651339069
 30
0.0
  0
HATCH
  5
78
330
73
100
AcDbEntity
  8
_U+30EC_U+30A4_U+30E4_U+30FC 1
 62
   179
420
  2234388
100
AcDbHatch
 10
0.0
 20
0.0
 30
0.0
210
0.0
220
0.0
230
1.0
  2
SOLID
 70
     1
 71
     0
 91
        1
 92
        1
 93
        1
 72
     4
 94
        3
 73
     0
 74
     1
 95
       44
 96
       40
 40
0.0
 40
0.0
 40
0.0
 40
0.0
 40
1.0
 40
1.0
 40
1.0
 40
2.0
 40
2.0
 40
2.0
 40
3.0
 40
3.0
 40
3.0
 40
4.0
 40
4.0
 40
4.0
 40
5.0
 40
5.0
 40
5.0
 40
6.0
 40
6.0
 40
6.0
 40
7.0
 40
7.0
 40
7.0
 40
8.0
 40
8.0
 40
8.0
 40
9.0
 40
9.0
 40
9.0
 40
10.0
 40
10.0
 40
10.0
 40
11.0
 40
11.0
 40
11.0
 40
12.0
 40
12.0
 40
12.0
 40
13.0
 40
13.0
 40
13.0
 40
13.0
 10
90.0659925447578
 20
-141.4559651339069
 10
89.87065563074414
 20
-141.6147840357769
 10
89.7872843200011
 20
-141.6888535887097
 10
89.74387611688695
 20
-141.8325140704447
 10
89.74387611688695
 20
-141.8325140704447
 10
90.44116344310152
 20
-141.8325140704447
 10
90.44116344310152
 20
-141.8325140704447
 10
90.44116344310152
 20
-141.8325140704447
 10
90.44116344310152
 20
-142.0378417613655
 10
90.44116344310152
 20
-142.0378417613655
 10
90.44116344310152
 20
-142.0378417613655
 10
89.52028941989424
 20
-142.0378417613655
 10
89.52028941989424
 20
-142.0378417613655
 10
89.54888371242181
 20
-141.6802408499966
 10
89.60745033567106
 20
-141.6020371824814
 10
89.95230439374457
 20
-141.3036919134588
 10
90.18140324351369
 20
-141.1049099039599
 10
90.24031437631146
 20
-141.0370415229005
 10
90.24031437631146
 20
-140.899582213039
 10
90.24031437631146
 20
-140.7810709283464
 10
90.17589109073728
 20
-140.6501572999069
 10
89.99950220189248
 20
-140.6501572999069
 10
89.76661374708961
 20
-140.6501572999069
 10
89.75903453702205
 20
-140.8806341878701
 10
89.75524493198827
 20
-140.9970784152716
 10
89.75524493198827
 20
-140.9970784152716
 10
89.55439586519822
 20
-140.9970784152716
 10
89.55439586519822
 20
-140.9970784152716
 10
89.56197507526576
 20
-140.8699543918659
 10
89.57162134262445
 20
-140.7579887885952
 10
89.64327932871765
 20
-140.6394775039026
 10
89.7418090595958
 20
-140.4785915447415
 10
89.90855168108189
 20
-140.444829608986
 10
90.01293807428496
 20
-140.444829608986
 10
90.26132945877147
 20
-140.444829608986
 10
90.44667559587792
 20
-140.6287977078984
 10
90.44667559587792
 20
-140.9016492703302
 10
90.44667559587792
 20
-141.1304036105507
 10
90.34263371222337
 20
-141.2296223605259
 10
90.0659925447578
 20
-141.4559651339069
 97
        0
 97
        0
 75
     2
 76
     1
 98
        0
  0
SPLINE
  5
79
330
73
100
AcDbEntity
  8
_U+30EC_U+30A4_U+30E4_U+30FC 1
370
     0
100
AcDbSpline
210
0.0
220
0.0
230
1.0
 70
    11
 71
     3
 72
    53
 73
    49
 74
     0
 42
0.0000000001
 43
0.0000000001
 12
1.0
 22
0.0
 32
0.0
 13
1.0
 23
0.0
 33
0.0
 40
0.0
 40
0.0
 40
0.0
 40
0.0
 40
1.0
 40
1.0
 40
1.0
 40
2.0
 40
2.0
 40
2.0
 40
3.0
 40
3.0
 40
3.0
 40
4.0
 40
4.0
 40
4.0
 40
5.0
 40
5.0
 40
5.0
 40
6.0
 40
6.0
 40
6.0
 40
7.0
 40
7.0
 40
7.0
 40
8.0
 40
8.0
 40
8.0
 40
9.0
 40
9.0
 40
9.0
 40
10.0
 40
10.0
 40
10.0
 40
11.0
 40
11.0
 40
11.0
 40
12.0
 40
12.0
 40
12.0
 40
13.0
 40
13.0
 40
13.0
 40
14.0
 40
14.0
 40
14.0
 40
15.0
 40
15.0
 40
15.0
 40
16.0
 40
16.0
 40
16.0
 40
16.0
 10
91.01925046552644
 20
-142.0884846649987
 30
0.0
 10
90.94897051762734
 20
-142.0884846649987
 30
0.0
 10
90.85801999681675
 20
-142.071603697121
 30
0.0
 10
90.76706947600616
 20
-142.0082139401924
 30
0.0
 10
90.61169566962138
 20
-141.8983153942129
 30
0.0
 10
90.59274764445252
 20
-141.7670572562249
 30
0.0
 10
90.57552216702626
 20
-141.6592257675366
 30
0.0
 10
90.57552216702626
 20
-141.6592257675366
 30
0.0
 10
90.7746486860737
 20
-141.6592257675366
 30
0.0
 10
90.7746486860737
 20
-141.6592257675366
 30
0.0
 10
90.82391355151277
 20
-141.8580077770355
 30
0.0
 10
90.93760170252602
 20
-141.8876355982086
 30
0.0
 10
91.02097301326907
 20
-141.8876355982086
 30
0.0
 10
91.14602997938364
 20
-141.8876355982086
 30
0.0
 10
91.28245576059953
 20
-141.7880723386849
 30
0.0
 10
91.28245576059953
 20
-141.5555283934306
 30
0.0
 10
91.28245576059953
 20
-141.2995577988765
 30
0.0
 10
91.12122529188984
 20
-141.2296223605259
 30
0.0
 10
91.01339380320152
 20
-141.2296223605259
 30
0.0
 10
90.98479951067394
 20
-141.2296223605259
 30
0.0
 10
90.85801999681675
 20
-141.2296223605259
 30
0.0
 10
90.77843829110748
 20
-141.3588134412228
 30
0.0
 10
90.77843829110748
 20
-141.3588134412228
 30
0.0
 10
90.62099742743156
 20
-141.3398654160539
 30
0.0
 10
90.62099742743156
 20
-141.3398654160539
 30
0.0
 10
90.62099742743156
 20
-141.3398654160539
 30
0.0
 10
90.7291734256684
 20
-140.493405455328
 30
0.0
 10
90.7291734256684
 20
-140.493405455328
 30
0.0
 10
90.7291734256684
 20
-140.493405455328
 30
0.0
 10
91.42663300665724
 20
-140.493405455328
 30
0.0
 10
91.42663300665724
 20
-140.493405455328
 30
0.0
 10
91.42663300665724
 20
-140.493405455328
 30
0.0
 10
91.42663300665724
 20
-140.6880533502447
 30
0.0
 10
91.42663300665724
 20
-140.6880533502447
 30
0.0
 10
91.42663300665724
 20
-140.6880533502447
 30
0.0
 10
90.875245474243
 20
-140.6880533502447
 30
0.0
 10
90.875245474243
 20
-140.6880533502447
 30
0.0
 10
90.875245474243
 20
-140.6880533502447
 30
0.0
 10
90.81633434144523
 20
-141.1111110758333
 30
0.0
 10
90.81633434144523
 20
-141.1111110758333
 30
0.0
 10
90.8711113596607
 20
-141.0773491400779
 30
0.0
 10
90.94518091259357
 20
-141.0370415229005
 30
0.0
 10
91.05128985353926
 20
-141.0370415229005
 30
0.0
 10
91.27866615556576
 20
-141.0370415229005
 30
0.0
 10
91.49071178268288
 20
-141.2234211886525
 30
0.0
 10
91.49071178268288
 20
-141.5365803682617
 30
0.0
 10
91.49071178268288
 20
-141.8538736624532
 30
0.0
 10
91.29003497066708
 20
-142.0884846649987
 30
0.0
 10
91.01925046552644
 20
-142.0884846649987
 30
0.0
  0
HATCH
  5
7A
330
73
100
AcDbEntity
  8
_U+30EC_U+30A4_U+30E4_U+30FC 1
 62
   179
420
  2234388
100
AcDbHatch
 10
0.0
 20
0.0
 30
0.0
210
0.0
220
0.0
230
1.0
  2
SOLID
 70
     1
 71
     0
 91
        1
 92
        1
 93
        1
 72
     4
 94
        3
 73
     0
 74
     1
 95
       53
 96
       49
 40
0.0
 40
0.0
 40
0.0
 40
0.0
 40
1.0
 40
1.0
 40
1.0
 40
2.0
 40
2.0
 40
2.0
 40
3.0
 40
3.0
 40
3.0
 40
4.0
 40
4.0
 40
4.0
 40
5.0
 40
5.0
 40
5.0
 40
6.0
 40
6.0
 40
6.0
 40
7.0
 40
7.0
 40
7.0
 40
8.0
 40
8.0
 40
8.0
 40
9.0
 40
9.0
 40
9.0
 40
10.0
 40
10.0
 40
10.0
 40
11.0
 40
11.0
 40
11.0
 40
12.0
 40
12.0
 40
12.0
 40
13.0
 40
13.0
 40
13.0
 40
14.0
 40
14.0
 40
14.0
 40
15.0
 40
15.0
 40
15.0
 40
16.0
 40
16.0
 40
16.0
 40
16.0
 10
91.01925046552644
 20
-142.0884846649987
 10
90.94897051762734
 20
-142.0884846649987
 10
90.85801999681675
 20
-142.071603697121
 10
90.76706947600616
 20
-142.0082139401924
 10
90.61169566962138
 20
-141.8983153942129
 10
90.59274764445252
 20
-141.7670572562249
 10
90.57552216702626
 20
-141.6592257675366
 10
90.57552216702626
 20
-141.6592257675366
 10
90.7746486860737
 20
-141.6592257675366
 10
90.7746486860737
 20
-141.6592257675366
 10
90.82391355151277
 20
-141.8580077770355
 10
90.93760170252602
 20
-141.8876355982086
 10
91.02097301326907
 20
-141.8876355982086
 10
91.14602997938364
 20
-141.8876355982086
 10
91.28245576059953
 20
-141.7880723386849
 10
91.28245576059953
 20
-141.5555283934306
 10
91.28245576059953
 20
-141.2995577988765
 10
91.12122529188984
 20
-141.2296223605259
 10
91.01339380320152
 20
-141.2296223605259
 10
90.98479951067394
 20
-141.2296223605259
 10
90.85801999681675
 20
-141.2296223605259
 10
90.77843829110748
 20
-141.3588134412228
 10
90.77843829110748
 20
-141.3588134412228
 10
90.62099742743156
 20
-141.3398654160539
 10
90.62099742743156
 20
-141.3398654160539
 10
90.62099742743156
 20
-141.3398654160539
 10
90.7291734256684
 20
-140.493405455328
 10
90.7291734256684
 20
-140.493405455328
 10
90.7291734256684
 20
-140.493405455328
 10
91.42663300665724
 20
-140.493405455328
 10
91.42663300665724
 20
-140.493405455328
 10
91.42663300665724
 20
-140.493405455328
 10
91.42663300665724
 20
-140.6880533502447
 10
91.42663300665724
 20
-140.6880533502447
 10
91.42663300665724
 20
-140.6880533502447
 10
90.875245474243
 20
-140.6880533502447
 10
90.875245474243
 20
-140.6880533502447
 10
90.875245474243
 20
-140.6880533502447
 10
90.81633434144523
 20
-141.1111110758333
 10
90.81633434144523
 20
-141.1111110758333
 10
90.8711113596607
 20
-141.0773491400779
 10
90.94518091259357
 20
-141.0370415229005
 10
91.05128985353926
 20
-141.0370415229005
 10
91.27866615556576
 20
-141.0370415229005
 10
91.49071178268288
 20
-141.2234211886525
 10
91.49071178268288
 20
-141.5365803682617
 10
91.49071178268288
 20
-141.8538736624532
 10
91.29003497066708
 20
-142.0884846649987
 10
91.01925046552644
 20
-142.0884846649987
 97
        0
 97
        0
 75
     2
 76
     1
 98
        0
  0
ENDBLK
  5
76
330
73
100
AcDbEntity
  8
0
100
AcDbBlockEnd
  0
BLOCK
  5
89
330
87
100
AcDbEntity
  8
0
100
AcDbBlockBegin
  2
block 4
 70
     0
 10
0.0
 20
0.0
 30
0.0
  3
block 4
  1

  0
SPLINE
  5
8B
330
87
100
AcDbEntity
  8
_U+30EC_U+30A4_U+30E4_U+30FC 1
370
     0
100
AcDbSpline
210
0.0
220
0.0
230
1.0
 70
    11
 71
     3
 72
    44
 73
    40
 74
     0
 42
0.0000000001
 43
0.0000000001
 12
1.0
 22
0.0
 32
0.0
 13
1.0
 23
0.0
 33
0.0
 40
0.0
 40
0.0
 40
0.0
 40
0.0
 40
1.0
 40
1.0
 40
1.0
 40
2.0
 40
2.0
 40
2.0
 40
3.0
 40
3.0
 40
3.0
 40
4.0
 40
4.0
 40
4.0
 40
5.0
 40
5.0
 40
5.0
 40
6.0
 40
6.0
 40
6.0
 40
7.0
 40
7.0
 40
7.0
 40
8.0
 40
8.0
 40
8.0
 40
9.0
 40
9.0
 40
9.0
 40
10.0
 40
10.0
 40
10.0
 40
11.0
 40
11.0
 40
11.0
 40
12.0
 40
12.0
 40
12.0
 40
13.0
 40
13.0
 40
13.0
 40
13.0
 10
74.14930689335503
 20
-126.7764132712573
 30
0.0
 10
74.3079535404508
 20
-126.971750185271
 30
0.0
 10
74.38202309338367
 20
-127.055121496014
 30
0.0
 10
74.52585582989285
 20
-127.0985296991282
 30
0.0
 10
74.52585582989285
 20
-127.0985296991282
 30
0.0
 10
74.52585582989285
 20
-126.4012423729136
 30
0.0
 10
74.52585582989285
 20
-126.4012423729136
 30
0.0
 10
74.52585582989285
 20
-126.4012423729136
 30
0.0
 10
74.73101126603947
 20
-126.4012423729136
 30
0.0
 10
74.73101126603947
 20
-126.4012423729136
 30
0.0
 10
74.73101126603947
 20
-126.4012423729136
 30
0.0
 10
74.73101126603947
 20
-127.3221163961209
 30
0.0
 10
74.73101126603947
 20
-127.3221163961209
 30
0.0
 10
74.37341035467054
 20
-127.2935221035933
 30
0.0
 10
74.29520668715537
 20
-127.234955480344
 30
0.0
 10
73.99686141813274
 20
-126.8901014222705
 30
0.0
 10
73.79807940863381
 20
-126.6610025725014
 30
0.0
 10
73.73038328234865
 20
-126.6020914397037
 30
0.0
 10
73.59292397248718
 20
-126.6020914397037
 30
0.0
 10
73.4744126877946
 20
-126.6020914397037
 30
0.0
 10
73.34332680458084
 20
-126.6665147252778
 30
0.0
 10
73.34332680458084
 20
-126.8429036141226
 30
0.0
 10
73.34332680458084
 20
-127.0757920689255
 30
0.0
 10
73.57380369254405
 20
-127.0833712789931
 30
0.0
 10
73.69024791994549
 20
-127.0871608840268
 30
0.0
 10
73.69024791994549
 20
-127.0871608840268
 30
0.0
 10
73.69024791994549
 20
-127.2880099508169
 30
0.0
 10
73.69024791994549
 20
-127.2880099508169
 30
0.0
 10
73.56329615131403
 20
-127.2804307407493
 30
0.0
 10
73.45115829326916
 20
-127.2707844733906
 30
0.0
 10
73.33264700857656
 20
-127.1991264872974
 30
0.0
 10
73.17193330418966
 20
-127.1005967564193
 30
0.0
 10
73.13799911365994
 20
-126.9338541349332
 30
0.0
 10
73.13799911365994
 20
-126.8294677417301
 30
0.0
 10
73.13799911365994
 20
-126.5810763572436
 30
0.0
 10
73.32213946734655
 20
-126.3957302201372
 30
0.0
 10
73.59499102977834
 20
-126.3957302201372
 30
0.0
 10
73.8234008604504
 20
-126.3957302201372
 30
0.0
 10
73.92296411997413
 20
-126.4997721037917
 30
0.0
 10
74.14930689335503
 20
-126.7764132712573
 30
0.0
  0
HATCH
  5
8C
330
87
100
AcDbEntity
  8
_U+30EC_U+30A4_U+30E4_U+30FC 1
 62
   179
420
  2234388
100
AcDbHatch
 10
0.0
 20
0.0
 30
0.0
210
0.0
220
0.0
230
1.0
  2
SOLID
 70
     1
 71
     0
 91
        1
 92
        1
 93
        1
 72
     4
 94
        3
 73
     0
 74
     1
 95
       44
 96
       40
 40
0.0
 40
0.0
 40
0.0
 40
0.0
 40
1.0
 40
1.0
 40
1.0
 40
2.0
 40
2.0
 40
2.0
 40
3.0
 40
3.0
 40
3.0
 40
4.0
 40
4.0
 40
4.0
 40
5.0
 40
5.0
 40
5.0
 40
6.0
 40
6.0
 40
6.0
 40
7.0
 40
7.0
 40
7.0
 40
8.0
 40
8.0
 40
8.0
 40
9.0
 40
9.0
 40
9.0
 40
10.0
 40
10.0
 40
10.0
 40
11.0
 40
11.0
 40
11.0
 40
12.0
 40
12.0
 40
12.0
 40
13.0
 40
13.0
 40
13.0
 40
13.0
 10
74.14930689335503
 20
-126.7764132712573
 10
74.3079535404508
 20
-126.971750185271
 10
74.38202309338367
 20
-127.055121496014
 10
74.52585582989285
 20
-127.0985296991282
 10
74.52585582989285
 20
-127.0985296991282
 10
74.52585582989285
 20
-126.4012423729136
 10
74.52585582989285
 20
-126.4012423729136
 10
74.52585582989285
 20
-126.4012423729136
 10
74.73101126603947
 20
-126.4012423729136
 10
74.73101126603947
 20
-126.4012423729136
 10
74.73101126603947
 20
-126.4012423729136
 10
74.73101126603947
 20
-127.3221163961209
 10
74.73101126603947
 20
-127.3221163961209
 10
74.37341035467054
 20
-127.2935221035933
 10
74.29520668715537
 20
-127.234955480344
 10
73.99686141813274
 20
-126.8901014222705
 10
73.79807940863381
 20
-126.6610025725014
 10
73.73038328234865
 20
-126.6020914397037
 10
73.59292397248718
 20
-126.6020914397037
 10
73.4744126877946
 20
-126.6020914397037
 10
73.34332680458084
 20
-126.6665147252778
 10
73.34332680458084
 20
-126.8429036141226
 10
73.34332680458084
 20
-127.0757920689255
 10
73.57380369254405
 20
-127.0833712789931
 10
73.69024791994549
 20
-127.0871608840268
 10
73.69024791994549
 20
-127.0871608840268
 10
73.69024791994549
 20
-127.2880099508169
 10
73.69024791994549
 20
-127.2880099508169
 10
73.56329615131403
 20
-127.2804307407493
 10
73.45115829326916
 20
-127.2707844733906
 10
73.33264700857656
 20
-127.1991264872974
 10
73.17193330418966
 20
-127.1005967564193
 10
73.13799911365994
 20
-126.9338541349332
 10
73.13799911365994
 20
-126.8294677417301
 10
73.13799911365994
 20
-126.5810763572436
 10
73.32213946734655
 20
-126.3957302201372
 10
73.59499102977834
 20
-126.3957302201372
 10
73.8234008604504
 20
-126.3957302201372
 10
73.92296411997413
 20
-126.4997721037917
 10
74.14930689335503
 20
-126.7764132712573
 97
        0
 97
        0
 75
     2
 76
     1
 98
        0
  0
SPLINE
  5
8D
330
87
100
AcDbEntity
  8
_U+30EC_U+30A4_U+30E4_U+30FC 1
370
     0
100
AcDbSpline
210
0.0
220
0.0
230
1.0
 70
    11
 71
     3
 72
    53
 73
    49
 74
     0
 42
0.0000000001
 43
0.0000000001
 12
1.0
 22
0.0
 32
0.0
 13
1.0
 23
0.0
 33
0.0
 40
0.0
 40
0.0
 40
0.0
 40
0.0
 40
1.0
 40
1.0
 40
1.0
 40
2.0
 40
2.0
 40
2.0
 40
3.0
 40
3.0
 40
3.0
 40
4.0
 40
4.0
 40
4.0
 40
5.0
 40
5.0
 40
5.0
 40
6.0
 40
6.0
 40
6.0
 40
7.0
 40
7.0
 40
7.0
 40
8.0
 40
8.0
 40
8.0
 40
9.0
 40
9.0
 40
9.0
 40
10.0
 40
10.0
 40
10.0
 40
11.0
 40
11.0
 40
11.0
 40
12.0
 40
12.0
 40
12.0
 40
13.0
 40
13.0
 40
13.0
 40
14.0
 40
14.0
 40
14.0
 40
15.0
 40
15.0
 40
15.0
 40
16.0
 40
16.0
 40
16.0
 40
16.0
 10
74.7818264244469
 20
-125.8231553504887
 30
0.0
 10
74.7818264244469
 20
-125.8934352983878
 30
0.0
 10
74.76477320179492
 20
-125.9843858191984
 30
0.0
 10
74.70138344486632
 20
-126.0753363400089
 30
0.0
 10
74.59131264411259
 20
-126.2307101463937
 30
0.0
 10
74.46022676089883
 20
-126.2496581715626
 30
0.0
 10
74.35239527221052
 20
-126.2668836489888
 30
0.0
 10
74.35239527221052
 20
-126.2668836489888
 30
0.0
 10
74.35239527221052
 20
-126.0677571299414
 30
0.0
 10
74.35239527221052
 20
-126.0677571299414
 30
0.0
 10
74.55117728170943
 20
-126.0184922645023
 30
0.0
 10
74.58080510288258
 20
-125.9048041134891
 30
0.0
 10
74.58080510288258
 20
-125.821432802746
 30
0.0
 10
74.58080510288258
 20
-125.6963758366315
 30
0.0
 10
74.48141409813313
 20
-125.5599500554156
 30
0.0
 10
74.2486978981045
 20
-125.5599500554156
 30
0.0
 10
73.99272730355044
 20
-125.5599500554156
 30
0.0
 10
73.92296411997413
 20
-125.7211805241253
 30
0.0
 10
73.92296411997413
 20
-125.8290120128136
 30
0.0
 10
73.92296411997413
 20
-125.8576063053412
 30
0.0
 10
73.92296411997413
 20
-125.9843858191984
 30
0.0
 10
74.05198294589673
 20
-126.0639675249076
 30
0.0
 10
74.05198294589673
 20
-126.0639675249076
 30
0.0
 10
74.03286266595359
 20
-126.2214083885835
 30
0.0
 10
74.03286266595359
 20
-126.2214083885835
 30
0.0
 10
74.03286266595359
 20
-126.2214083885835
 30
0.0
 10
73.18674721477623
 20
-126.1132323903467
 30
0.0
 10
73.18674721477623
 20
-126.1132323903467
 30
0.0
 10
73.18674721477623
 20
-126.1132323903467
 30
0.0
 10
73.18674721477623
 20
-125.4159450641321
 30
0.0
 10
73.18674721477623
 20
-125.4159450641321
 30
0.0
 10
73.18674721477623
 20
-125.4159450641321
 30
0.0
 10
73.38139510969285
 20
-125.4159450641321
 30
0.0
 10
73.38139510969285
 20
-125.4159450641321
 30
0.0
 10
73.38139510969285
 20
-125.4159450641321
 30
0.0
 10
73.38139510969285
 20
-125.9671603417721
 30
0.0
 10
73.38139510969285
 20
-125.9671603417721
 30
0.0
 10
73.38139510969285
 20
-125.9671603417721
 30
0.0
 10
73.80445283528152
 20
-126.0260714745699
 30
0.0
 10
73.80445283528152
 20
-126.0260714745699
 30
0.0
 10
73.77051864475182
 20
-125.9712944563544
 30
0.0
 10
73.73038328234865
 20
-125.8972249034215
 30
0.0
 10
73.73038328234865
 20
-125.7911159624758
 30
0.0
 10
73.73038328234865
 20
-125.5637396604493
 30
0.0
 10
73.91659069332641
 20
-125.351521778558
 30
0.0
 10
74.22957761816136
 20
-125.351521778558
 30
0.0
 10
74.54704316712713
 20
-125.351521778558
 30
0.0
 10
74.7818264244469
 20
-125.552370845348
 30
0.0
 10
74.7818264244469
 20
-125.8231553504887
 30
0.0
  0
HATCH
  5
8E
330
87
100
AcDbEntity
  8
_U+30EC_U+30A4_U+30E4_U+30FC 1
 62
   179
420
  2234388
100
AcDbHatch
 10
0.0
 20
0.0
 30
0.0
210
0.0
220
0.0
230
1.0
  2
SOLID
 70
     1
 71
     0
 91
        1
 92
        1
 93
        1
 72
     4
 94
        3
 73
     0
 74
     1
 95
       53
 96
       49
 40
0.0
 40
0.0
 40
0.0
 40
0.0
 40
1.0
 40
1.0
 40
1.0
 40
2.0
 40
2.0
 40
2.0
 40
3.0
 40
3.0
 40
3.0
 40
4.0
 40
4.0
 40
4.0
 40
5.0
 40
5.0
 40
5.0
 40
6.0
 40
6.0
 40
6.0
 40
7.0
 40
7.0
 40
7.0
 40
8.0
 40
8.0
 40
8.0
 40
9.0
 40
9.0
 40
9.0
 40
10.0
 40
10.0
 40
10.0
 40
11.0
 40
11.0
 40
11.0
 40
12.0
 40
12.0
 40
12.0
 40
13.0
 40
13.0
 40
13.0
 40
14.0
 40
14.0
 40
14.0
 40
15.0
 40
15.0
 40
15.0
 40
16.0
 40
16.0
 40
16.0
 40
16.0
 10
74.7818264244469
 20
-125.8231553504887
 10
74.7818264244469
 20
-125.8934352983878
 10
74.76477320179492
 20
-125.9843858191984
 10
74.70138344486632
 20
-126.0753363400089
 10
74.59131264411259
 20
-126.2307101463937
 10
74.46022676089883
 20
-126.2496581715626
 10
74.35239527221052
 20
-126.2668836489888
 10
74.35239527221052
 20
-126.2668836489888
 10
74.35239527221052
 20
-126.0677571299414
 10
74.35239527221052
 20
-126.0677571299414
 10
74.55117728170943
 20
-126.0184922645023
 10
74.58080510288258
 20
-125.9048041134891
 10
74.58080510288258
 20
-125.821432802746
 10
74.58080510288258
 20
-125.6963758366315
 10
74.48141409813313
 20
-125.5599500554156
 10
74.2486978981045
 20
-125.5599500554156
 10
73.99272730355044
 20
-125.5599500554156
 10
73.92296411997413
 20
-125.7211805241253
 10
73.92296411997413
 20
-125.8290120128136
 10
73.92296411997413
 20
-125.8576063053412
 10
73.92296411997413
 20
-125.9843858191984
 10
74.05198294589673
 20
-126.0639675249076
 10
74.05198294589673
 20
-126.0639675249076
 10
74.03286266595359
 20
-126.2214083885835
 10
74.03286266595359
 20
-126.2214083885835
 10
74.03286266595359
 20
-126.2214083885835
 10
73.18674721477623
 20
-126.1132323903467
 10
73.18674721477623
 20
-126.1132323903467
 10
73.18674721477623
 20
-126.1132323903467
 10
73.18674721477623
 20
-125.4159450641321
 10
73.18674721477623
 20
-125.4159450641321
 10
73.18674721477623
 20
-125.4159450641321
 10
73.38139510969285
 20
-125.4159450641321
 10
73.38139510969285
 20
-125.4159450641321
 10
73.38139510969285
 20
-125.4159450641321
 10
73.38139510969285
 20
-125.9671603417721
 10
73.38139510969285
 20
-125.9671603417721
 10
73.38139510969285
 20
-125.9671603417721
 10
73.80445283528152
 20
-126.0260714745699
 10
73.80445283528152
 20
-126.0260714745699
 10
73.77051864475182
 20
-125.9712944563544
 10
73.73038328234865
 20
-125.8972249034215
 10
73.73038328234865
 20
-125.7911159624758
 10
73.73038328234865
 20
-125.5637396604493
 10
73.91659069332641
 20
-125.351521778558
 10
74.22957761816136
 20
-125.351521778558
 10
74.54704316712713
 20
-125.351521778558
 10
74.7818264244469
 20
-125.552370845348
 10
74.7818264244469
 20
-125.8231553504887
 97
        0
 97
        0
 75
     2
 76
     1
 98
        0
  0
ENDBLK
  5
8A
330
87
100
AcDbEntity
  8
0
100
AcDbBlockEnd
  0
ENDSEC
  0
SECTION
  2
ENTITIES
  0
SPLINE
  5
41
330
1F
100
AcDbEntity
  8
_U+30EC_U+30A4_U+30E4_U+30FC 1
 62
   179
420
  2234388
370
     9
100
AcDbSpline
210
0.0
220
0.0
230
1.0
 70
    11
 71
     3
 72
    17
 73
    13
 74
     0
 42
0.0000000001
 43
0.0000000001
 12
1.0
 22
0.0
 32
0.0
 13
1.0
 23
0.0
 33
0.0
 40
0.0
 40
0.0
 40
0.0
 40
0.0
 40
1.0
 40
1.0
 40
1.0
 40
2.0
 40
2.0
 40
2.0
 40
3.0
 40
3.0
 40
3.0
 40
4.0
 40
4.0
 40
4.0
 40
4.0
 10
108.4274819560067
 20
-138.6340819097857
 30
0.0
 10
108.4274819560067
 20
-138.5789780209107
 30
0.0
 10
108.3827144571488
 20
-138.534175243144
 30
0.0
 10
108.3275752918889
 20
-138.534175243144
 30
0.0
 10
108.2724714044058
 20
-138.534175243144
 30
0.0
 10
108.227668627771
 20
-138.5789780209107
 30
0.0
 10
108.227668627771
 20
-138.6340819097857
 30
0.0
 10
108.227668627771
 20
-138.6892210764387
 30
0.0
 10
108.2724714044058
 20
-138.7339885764273
 30
0.0
 10
108.3275752918889
 20
-138.7339885764273
 30
0.0
 10
108.3827144571488
 20
-138.7339885764273
 30
0.0
 10
108.4274819560067
 20
-138.6892210764387
 30
0.0
 10
108.4274819560067
 20
-138.6340819097857
 30
0.0
  0
SPLINE
  5
42
330
1F
100
AcDbEntity
  8
_U+30EC_U+30A4_U+30E4_U+30FC 1
 62
   179
420
  2234388
370
     9
100
AcDbSpline
210
0.0
220
0.0
230
1.0
 70
    11
 71
     3
 72
    17
 73
    13
 74
     0
 42
0.0000000001
 43
0.0000000001
 12
1.0
 22
0.0
 32
0.0
 13
1.0
 23
0.0
 33
0.0
 40
0.0
 40
0.0
 40
0.0
 40
0.0
 40
1.0
 40
1.0
 40
1.0
 40
2.0
 40
2.0
 40
2.0
 40
3.0
 40
3.0
 40
3.0
 40
4.0
 40
4.0
 40
4.0
 40
4.0
 10
108.4274819560067
 20
-137.4338260767525
 30
0.0
 10
108.4274819560067
 20
-137.3786869101
 30
0.0
 10
108.3827144571488
 20
-137.3339194101109
 30
0.0
 10
108.3275752918889
 20
-137.3339194101109
 30
0.0
 10
108.2724714044058
 20
-137.3339194101109
 30
0.0
 10
108.227668627771
 20
-137.3786869101
 30
0.0
 10
108.227668627771
 20
-137.4338260767525
 30
0.0
 10
108.227668627771
 20
-137.4892827434052
 30
0.0
 10
108.2724714044058
 20
-137.5340855211719
 30
0.0
 10
108.3275752918889
 20
-137.5340855211719
 30
0.0
 10
108.3827144571488
 20
-137.5340855211719
 30
0.0
 10
108.4274819560067
 20
-137.4892827434052
 30
0.0
 10
108.4274819560067
 20
-137.4338260767525
 30
0.0
  0
SPLINE
  5
43
330
1F
100
AcDbEntity
  8
_U+30EC_U+30A4_U+30E4_U+30FC 1
 62
   179
420
  2234388
370
     9
100
AcDbSpline
210
0.0
220
0.0
230
1.0
 70
    11
 71
     3
 72
    17
 73
    13
 74
     0
 42
0.0000000001
 43
0.0000000001
 12
1.0
 22
0.0
 32
0.0
 13
1.0
 23
0.0
 33
0.0
 40
0.0
 40
0.0
 40
0.0
 40
0.0
 40
1.0
 40
1.0
 40
1.0
 40
2.0
 40
2.0
 40
2.0
 40
3.0
 40
3.0
 40
3.0
 40
4.0
 40
4.0
 40
4.0
 40
4.0
 10
103.3645944186034
 20
-142.6338410754526
 30
0.0
 10
103.3645944186034
 20
-142.5787371865776
 30
0.0
 10
103.3197916408367
 20
-142.5339344088109
 30
0.0
 10
103.2639795877386
 20
-142.5339344088109
 30
0.0
 10
103.2088404224787
 20
-142.5339344088109
 30
0.0
 10
103.1640729236208
 20
-142.5787371865776
 30
0.0
 10
103.1640729236208
 20
-142.6338410754526
 30
0.0
 10
103.1640729236208
 20
-142.6892977421052
 30
0.0
 10
103.2088404224787
 20
-142.734100519872
 30
0.0
 10
103.2639795877386
 20
-142.734100519872
 30
0.0
 10
103.3197916408367
 20
-142.734100519872
 30
0.0
 10
103.3645944186034
 20
-142.6892977421052
 30
0.0
 10
103.3645944186034
 20
-142.6338410754526
 30
0.0
  0
SPLINE
  5
44
330
1F
100
AcDbEntity
  8
_U+30EC_U+30A4_U+30E4_U+30FC 1
 62
   179
420
  2234388
370
     9
100
AcDbSpline
210
0.0
220
0.0
230
1.0
 70
    11
 71
     3
 72
    17
 73
    13
 74
     0
 42
0.0000000001
 43
0.0000000001
 12
1.0
 22
0.0
 32
0.0
 13
1.0
 23
0.0
 33
0.0
 40
0.0
 40
0.0
 40
0.0
 40
0.0
 40
1.0
 40
1.0
 40
1.0
 40
2.0
 40
2.0
 40
2.0
 40
3.0
 40
3.0
 40
3.0
 40
4.0
 40
4.0
 40
4.0
 40
4.0
 10
78.30890553597835
 20
-142.6338410754526
 30
0.0
 10
78.30890553597835
 20
-142.5787371865776
 30
0.0
 10
78.2641360588711
 20
-142.5339344088109
 30
0.0
 10
78.20899689361114
 20
-142.5339344088109
 30
0.0
 10
78.15371661724369
 20
-142.5339344088109
 30
0.0
 10
78.10891384060892
 20
-142.5787371865776
 30
0.0
 10
78.10891384060892
 20
-142.6338410754526
 30
0.0
 10
78.10891384060892
 20
-142.6892977421052
 30
0.0
 10
78.15371661724369
 20
-142.734100519872
 30
0.0
 10
78.20899689361114
 20
-142.734100519872
 30
0.0
 10
78.2641360588711
 20
-142.734100519872
 30
0.0
 10
78.30890553597835
 20
-142.6892977421052
 30
0.0
 10
78.30890553597835
 20
-142.6338410754526
 30
0.0
  0
SPLINE
  5
45
330
1F
100
AcDbEntity
  8
_U+30EC_U+30A4_U+30E4_U+30FC 1
 62
   179
420
  2234388
370
     9
100
AcDbSpline
210
0.0
220
0.0
230
1.0
 70
    11
 71
     3
 72
    17
 73
    13
 74
     0
 42
0.0000000001
 43
0.0000000001
 12
1.0
 22
0.0
 32
0.0
 13
1.0
 23
0.0
 33
0.0
 40
0.0
 40
0.0
 40
0.0
 40
0.0
 40
1.0
 40
1.0
 40
1.0
 40
2.0
 40
2.0
 40
2.0
 40
3.0
 40
3.0
 40
3.0
 40
4.0
 40
4.0
 40
4.0
 40
4.0
 10
75.4277694255874
 20
-138.6340819097857
 30
0.0
 10
75.4277694255874
 20
-138.5789780209107
 30
0.0
 10
75.3830000212639
 20
-138.534175243144
 30
0.0
 10
75.32768446711955
 20
-138.534175243144
 30
0.0
 10
75.27258057963648
 20
-138.534175243144
 30
0.0
 10
75.22777780300171
 20
-138.5789780209107
 30
0.0
 10
75.22777780300171
 20
-138.6340819097857
 30
0.0
 10
75.22777780300171
 20
-138.6892210764387
 30
0.0
 10
75.27258057963648
 20
-138.7339885764273
 30
0.0
 10
75.32768446711955
 20
-138.7339885764273
 30
0.0
 10
75.3830000212639
 20
-138.7339885764273
 30
0.0
 10
75.4277694255874
 20
-138.6892210764387
 30
0.0
 10
75.4277694255874
 20
-138.6340819097857
 30
0.0
  0
SPLINE
  5
46
330
1F
100
AcDbEntity
  8
_U+30EC_U+30A4_U+30E4_U+30FC 1
 62
   179
420
  2234388
370
     9
100
AcDbSpline
210
0.0
220
0.0
230
1.0
 70
    11
 71
     3
 72
    17
 73
    13
 74
     0
 42
0.0000000001
 43
0.0000000001
 12
1.0
 22
0.0
 32
0.0
 13
1.0
 23
0.0
 33
0.0
 40
0.0
 40
0.0
 40
0.0
 40
0.0
 40
1.0
 40
1.0
 40
1.0
 40
2.0
 40
2.0
 40
2.0
 40
3.0
 40
3.0
 40
3.0
 40
4.0
 40
4.0
 40
4.0
 40
4.0
 10
75.4277694255874
 20
-113.6340613604803
 30
0.0
 10
75.4277694255874
 20
-113.5787810827165
 30
0.0
 10
75.3830000212639
 20
-113.5339783049498
 30
0.0
 10
75.32768446711955
 20
-113.5339783049498
 30
0.0
 10
75.27258057963648
 20
-113.5339783049498
 30
0.0
 10
75.22777780300171
 20
-113.5787810827165
 30
0.0
 10
75.22777780300171
 20
-113.6340613604803
 30
0.0
 10
75.22777780300171
 20
-113.6892005271334
 30
0.0
 10
75.27258057963648
 20
-113.7339680271219
 30
0.0
 10
75.32768446711955
 20
-113.7339680271219
 30
0.0
 10
75.3830000212639
 20
-113.7339680271219
 30
0.0
 10
75.4277694255874
 20
-113.6892005271334
 30
0.0
 10
75.4277694255874
 20
-113.6340613604803
 30
0.0
  0
POLYLINE
  5
47
330
1F
100
AcDbEntity
  8
_U+30EC_U+30A4_U+30E4_U+30FC 1
 62
   179
420
  2234388
370
     9
100
AcDb2dPolyline
 66
     1
 10
0.0
 20
0.0
 30
0.0
  0
VERTEX
  5
48
330
47
100
AcDbEntity
  8
_U+30EC_U+30A4_U+30E4_U+30FC 1
 62
   179
420
  2234388
370
     9
100
AcDbVertex
100
AcDb2dVertex
 10
108.3275752918889
 20
-137.4338260767525
 30
0.0
  0
VERTEX
  5
49
330
47
100
AcDbEntity
  8
_U+30EC_U+30A4_U+30E4_U+30FC 1
 62
   179
420
  2234388
370
     9
100
AcDbVertex
100
AcDb2dVertex
 10
108.3275752918889
 20
-132.1762730225113
 30
0.0
  0
SEQEND
  5
4A
330
47
100
AcDbEntity
  8
_U+30EC_U+30A4_U+30E4_U+30FC 1
 62
   179
420
  2234388
370
     9
  0
POLYLINE
  5
4B
330
1F
100
AcDbEntity
  8
_U+30EC_U+30A4_U+30E4_U+30FC 1
 62
   179
420
  2234388
370
     9
100
AcDb2dPolyline
 66
     1
 10
0.0
 20
0.0
 30
0.0
  0
VERTEX
  5
4C
330
4B
100
AcDbEntity
  8
_U+30EC_U+30A4_U+30E4_U+30FC 1
 62
   179
420
  2234388
370
     9
100
AcDbVertex
100
AcDb2dVertex
 10
108.3275752918889
 20
-137.4338260767525
 30
0.0
  0
VERTEX
  5
4D
330
4B
100
AcDbEntity
  8
_U+30EC_U+30A4_U+30E4_U+30FC 1
 62
   179
420
  2234388
370
     9
100
AcDbVertex
100
AcDb2dVertex
 10
108.3275752918889
 20
-139.6338541317582
 30
0.0
  0
SEQEND
  5
4E
330
4B
100
AcDbEntity
  8
_U+30EC_U+30A4_U+30E4_U+30FC 1
 62
   179
420
  2234388
370
     9
  0
POLYLINE
  5
4F
330
1F
100
AcDbEntity
  8
_U+30EC_U+30A4_U+30E4_U+30FC 1
 62
   179
420
  2234388
370
     9
100
AcDb2dPolyline
 66
     1
 10
0.0
 20
0.0
 30
0.0
  0
VERTEX
  5
50
330
4F
100
AcDbEntity
  8
_U+30EC_U+30A4_U+30E4_U+30FC 1
 62
   179
420
  2234388
370
     9
100
AcDbVertex
100
AcDb2dVertex
 10
106.8675339402487
 20
-137.4338260767525
 30
0.0
  0
VERTEX
  5
51
330
4F
100
AcDbEntity
  8
_U+30EC_U+30A4_U+30E4_U+30FC 1
 62
   179
420
  2234388
370
     9
100
AcDbVertex
100
AcDb2dVertex
 10
109.3280530441423
 20
-137.4338260767525
 30
0.0
  0
SEQEND
  5
52
330
4F
100
AcDbEntity
  8
_U+30EC_U+30A4_U+30E4_U+30FC 1
 62
   179
420
  2234388
370
     9
  0
POLYLINE
  5
53
330
1F
100
AcDbEntity
  8
_U+30EC_U+30A4_U+30E4_U+30FC 1
 62
   179
420
  2234388
370
     9
100
AcDb2dPolyline
 66
     1
 10
0.0
 20
0.0
 30
0.0
  0
VERTEX
  5
54
330
53
100
AcDbEntity
  8
_U+30EC_U+30A4_U+30E4_U+30FC 1
 62
   179
420
  2234388
370
     9
100
AcDbVertex
100
AcDb2dVertex
 10
106.8675339402487
 20
-138.6340819097857
 30
0.0
  0
VERTEX
  5
55
330
53
100
AcDbEntity
  8
_U+30EC_U+30A4_U+30E4_U+30FC 1
 62
   179
420
  2234388
370
     9
100
AcDbVertex
100
AcDb2dVertex
 10
109.3280530441423
 20
-138.6340819097857
 30
0.0
  0
SEQEND
  5
56
330
53
100
AcDbEntity
  8
_U+30EC_U+30A4_U+30E4_U+30FC 1
 62
   179
420
  2234388
370
     9
  0
INSERT
  5
58
330
1F
100
AcDbEntity
  8
_U+30EC_U+30A4_U+30E4_U+30FC 1
100
AcDbBlockReference
  2
block 2
 10
0.0
 20
0.0
 30
0.0
  0
POLYLINE
  5
67
330
1F
100
AcDbEntity
  8
_U+30EC_U+30A4_U+30E4_U+30FC 1
 62
   179
420
  2234388
370
     9
100
AcDb2dPolyline
 66
     1
 10
0.0
 20
0.0
 30
0.0
  0
VERTEX
  5
68
330
67
100
AcDbEntity
  8
_U+30EC_U+30A4_U+30E4_U+30FC 1
 62
   179
420
  2234388
370
     9
100
AcDbVertex
100
AcDb2dVertex
 10
78.20882050472676
 20
-142.6338410754526
 30
0.0
  0
VERTEX
  5
69
330
67
100
AcDbEntity
  8
_U+30EC_U+30A4_U+30E4_U+30FC 1
 62
   179
420
  2234388
370
     9
100
AcDbVertex
100
AcDb2dVertex
 10
103.2643323655074
 20
-142.6338410754526
 30
0.0
  0
SEQEND
  5
6A
330
67
100
AcDbEntity
  8
_U+30EC_U+30A4_U+30E4_U+30FC 1
 62
   179
420
  2234388
370
     9
  0
POLYLINE
  5
6B
330
1F
100
AcDbEntity
  8
_U+30EC_U+30A4_U+30E4_U+30FC 1
 62
   179
420
  2234388
370
     9
100
AcDb2dPolyline
 66
     1
 10
0.0
 20
0.0
 30
0.0
  0
VERTEX
  5
6C
330
6B
100
AcDbEntity
  8
_U+30EC_U+30A4_U+30E4_U+30FC 1
 62
   179
420
  2234388
370
     9
100
AcDbVertex
100
AcDb2dVertex
 10
78.20882050472676
 20
-140.7741730203623
 30
0.0
  0
VERTEX
  5
6D
330
6B
100
AcDbEntity
  8
_U+30EC_U+30A4_U+30E4_U+30FC 1
 62
   179
420
  2234388
370
     9
100
AcDbVertex
100
AcDb2dVertex
 10
78.20882050472676
 20
-143.6339660752029
 30
0.0
  0
SEQEND
  5
6E
330
6B
100
AcDbEntity
  8
_U+30EC_U+30A4_U+30E4_U+30FC 1
 62
   179
420
  2234388
370
     9
  0
POLYLINE
  5
6F
330
1F
100
AcDbEntity
  8
_U+30EC_U+30A4_U+30E4_U+30FC 1
 62
   179
420
  2234388
370
     9
100
AcDb2dPolyline
 66
     1
 10
0.0
 20
0.0
 30
0.0
  0
VERTEX
  5
70
330
6F
100
AcDbEntity
  8
_U+30EC_U+30A4_U+30E4_U+30FC 1
 62
   179
420
  2234388
370
     9
100
AcDbVertex
100
AcDb2dVertex
 10
103.2646851432762
 20
-141.1737996869288
 30
0.0
  0
VERTEX
  5
71
330
6F
100
AcDbEntity
  8
_U+30EC_U+30A4_U+30E4_U+30FC 1
 62
   179
420
  2234388
370
     9
100
AcDbVertex
100
AcDb2dVertex
 10
103.2646851432762
 20
-143.6339660752029
 30
0.0
  0
SEQEND
  5
72
330
6F
100
AcDbEntity
  8
_U+30EC_U+30A4_U+30E4_U+30FC 1
 62
   179
420
  2234388
370
     9
  0
INSERT
  5
74
330
1F
100
AcDbEntity
  8
_U+30EC_U+30A4_U+30E4_U+30FC 1
100
AcDbBlockReference
  2
block 3
 10
0.0
 20
0.0
 30
0.0
  0
POLYLINE
  5
7B
330
1F
100
AcDbEntity
  8
_U+30EC_U+30A4_U+30E4_U+30FC 1
 62
   179
420
  2234388
370
     9
100
AcDb2dPolyline
 66
     1
 10
0.0
 20
0.0
 30
0.0
  0
VERTEX
  5
7C
330
7B
100
AcDbEntity
  8
_U+30EC_U+30A4_U+30E4_U+30FC 1
 62
   179
420
  2234388
370
     9
100
AcDbVertex
100
AcDb2dVertex
 10
75.32768446711955
 20
-138.6340819097857
 30
0.0
  0
VERTEX
  5
7D
330
7B
100
AcDbEntity
  8
_U+30EC_U+30A4_U+30E4_U+30FC 1
 62
   179
420
  2234388
370
     9
100
AcDbVertex
100
AcDb2dVertex
 10
75.32768446711955
 20
-113.6340613604803
 30
0.0
  0
SEQEND
  5
7E
330
7B
100
AcDbEntity
  8
_U+30EC_U+30A4_U+30E4_U+30FC 1
 62
   179
420
  2234388
370
     9
  0
POLYLINE
  5
7F
330
1F
100
AcDbEntity
  8
_U+30EC_U+30A4_U+30E4_U+30FC 1
 62
   179
420
  2234388
370
     9
100
AcDb2dPolyline
 66
     1
 10
0.0
 20
0.0
 30
0.0
  0
VERTEX
  5
80
330
7F
100
AcDbEntity
  8
_U+30EC_U+30A4_U+30E4_U+30FC 1
 62
   179
420
  2234388
370
     9
100
AcDbVertex
100
AcDb2dVertex
 10
77.1877052529998
 20
-138.6340819097857
 30
0.0
  0
VERTEX
  5
81
330
7F
100
AcDbEntity
  8
_U+30EC_U+30A4_U+30E4_U+30FC 1
 62
   179
420
  2234388
370
     9
100
AcDbVertex
100
AcDb2dVertex
 10
74.32777115929613
 20
-138.6340819097857
 30
0.0
  0
SEQEND
  5
82
330
7F
100
AcDbEntity
  8
_U+30EC_U+30A4_U+30E4_U+30FC 1
 62
   179
420
  2234388
370
     9
  0
POLYLINE
  5
83
330
1F
100
AcDbEntity
  8
_U+30EC_U+30A4_U+30E4_U+30FC 1
 62
   179
420
  2234388
370
     9
100
AcDb2dPolyline
 66
     1
 10
0.0
 20
0.0
 30
0.0
  0
VERTEX
  5
84
330
83
100
AcDbEntity
  8
_U+30EC_U+30A4_U+30E4_U+30FC 1
 62
   179
420
  2234388
370
     9
100
AcDbVertex
100
AcDb2dVertex
 10
76.78772775858091
 20
-113.6340613604803
 30
0.0
  0
VERTEX
  5
85
330
83
100
AcDbEntity
  8
_U+30EC_U+30A4_U+30E4_U+30FC 1
 62
   179
420
  2234388
370
     9
100
AcDbVertex
100
AcDb2dVertex
 10
74.32777115929613
 20
-113.6340613604803
 30
0.0
  0
SEQEND
  5
86
330
83
100
AcDbEntity
  8
_U+30EC_U+30A4_U+30E4_U+30FC 1
 62
   179
420
  2234388
370
     9
  0
INSERT
  5
88
330
1F
100
AcDbEntity
  8
_U+30EC_U+30A4_U+30E4_U+30FC 1
100
AcDbBlockReference
  2
block 4
 10
0.0
 20
0.0
 30
0.0
  0
SPLINE
  5
8F
330
1F
100
AcDbEntity
  8
_U+30EC_U+30A4_U+30E4_U+30FC 1
 62
   179
420
  2234388
370
    35
100
AcDbSpline
210
0.0
220
0.0
230
1.0
 70
    11
 71
     3
 72
    29
 73
    25
 74
     0
 42
0.0000000001
 43
0.0000000001
 12
1.0
 22
0.0
 32
0.0
 13
1.0
 23
0.0
 33
0.0
 40
0.0
 40
0.0
 40
0.0
 40
0.0
 40
1.0
 40
1.0
 40
1.0
 40
2.0
 40
2.0
 40
2.0
 40
3.0
 40
3.0
 40
3.0
 40
4.0
 40
4.0
 40
4.0
 40
5.0
 40
5.0
 40
5.0
 40
6.0
 40
6.0
 40
6.0
 40
7.0
 40
7.0
 40
7.0
 40
8.0
 40
8.0
 40
8.0
 40
8.0
 10
78.24674411487037
 20
-113.6662699715834
 30
0.0
 10
78.24674411487037
 20
-113.6662699715834
 30
0.0
 10
79.48732241655391
 20
-113.6662699715834
 30
0.0
 10
79.48732241655391
 20
-113.6662699715834
 30
0.0
 10
79.48732241655391
 20
-113.6662699715834
 30
0.0
 10
79.48732241655391
 20
-136.5615124658594
 30
0.0
 10
79.48732241655391
 20
-136.5615124658594
 30
0.0
 10
79.48732241655391
 20
-136.5615124658594
 30
0.0
 10
79.29936242134916
 20
-137.464129687856
 30
0.0
 10
80.2016621205518
 20
-137.464129687856
 30
0.0
 10
80.2016621205518
 20
-137.464129687856
 30
0.0
 10
103.2474343103829
 20
-137.464129687856
 30
0.0
 10
103.2474343103829
 20
-137.464129687856
 30
0.0
 10
103.2474343103829
 20
-137.464129687856
 30
0.0
 10
103.2474343103829
 20
-138.7043552431018
 30
0.0
 10
103.2474343103829
 20
-138.7043552431018
 30
0.0
 10
103.2474343103829
 20
-138.7043552431018
 30
0.0
 10
79.48732241655391
 20
-138.7043552431018
 30
0.0
 10
79.48732241655391
 20
-138.7043552431018
 30
0.0
 10
79.48732241655391
 20
-138.7043552431018
 30
0.0
 10
78.20917328249554
 20
-138.8173499652955
 30
0.0
 10
78.20917328249554
 20
-137.3886705212086
 30
0.0
 10
78.20917328249554
 20
-137.3886705212086
 30
0.0
 10
78.24674411487037
 20
-113.6662699715834
 30
0.0
 10
78.24674411487037
 20
-113.6662699715834
 30
0.0
  0
ENDSEC
  0
SECTION
  2
OBJECTS
  0
DICTIONARY
  5
C
330
0
100
AcDbDictionary
281
     1
  3
ACAD_GROUP
350
D
  3
ACAD_LAYOUT
350
1A
  3
ACAD_MATERIAL
350
3B
  3
ACAD_MLEADERSTYLE
350
91
  3
ACAD_MLINESTYLE
350
17
  3
ACAD_PLOTSETTINGS
350
19
  3
ACAD_PLOTSTYLENAME
350
E
  3
ACAD_TABLESTYLE
350
90
  3
ACAD_VISUALSTYLE
350
2A
  0
SUN
  5
3F
330
29
100
AcDbSun
 90
        1
290
     0
 63
     7
421
 16777215
 40
1.0
291
     1
 91
  2455826
 92
 54000000
292
     0
 70
     2
 71
   256
280
     1
  0
DICTIONARY
  5
D
102
{ACAD_REACTORS
330
C
102
}
330
C
100
AcDbDictionary
281
     1
  0
DICTIONARY
  5
1A
102
{ACAD_REACTORS
330
C
102
}
330
C
100
AcDbDictionary
281
     1
  3
Layout1
350
1E
  3
Layout2
350
26
  3
Model
350
22
  0
DICTIONARY
  5
3B
102
{ACAD_REACTORS
330
C
102
}
330
C
100
AcDbDictionary
281
     1
  3
ByBlock
350
3D
  3
ByLayer
350
3C
  3
Global
350
3E
  0
DICTIONARY
  5
91
102
{ACAD_REACTORS
330
C
102
}
330
C
100
AcDbDictionary
281
     1
  0
DICTIONARY
  5
17
102
{ACAD_REACTORS
330
C
102
}
330
C
100
AcDbDictionary
281
     1
  3
Standard
350
18
  0
DICTIONARY
  5
19
102
{ACAD_REACTORS
330
C
102
}
330
C
100
AcDbDictionary
281
     1
  0
ACDBDICTIONARYWDFLT
  5
E
102
{ACAD_REACTORS
330
C
102
}
330
C
100
AcDbDictionary
281
     1
  3
Normal
350
F
100
AcDbDictionaryWithDefault
340
F
  0
DICTIONARY
  5
90
102
{ACAD_REACTORS
330
C
102
}
330
C
100
AcDbDictionary
281
     1
  0
DICTIONARY
  5
2A
102
{ACAD_REACTORS
330
C
102
}
330
C
100
AcDbDictionary
281
     1
  3
2dWireframe
350
2F
  3
3D Hidden
350
31
  3
3dWireframe
350
30
  3
Basic
350
32
  3
Brighten
350
36
  3
ColorChange
350
3A
  3
Conceptual
350
34
  3
Dim
350
35
  3
Facepattern
350
39
  3
Flat
350
2B
  3
FlatWithEdges
350
2C
  3
Gouraud
350
2D
  3
GouraudWithEdges
350
2E
  3
Linepattern
350
38
  3
Realistic
350
33
  3
Thicken
350
37
  0
LAYOUT
  5
1E
102
{ACAD_REACTORS
330
1A
102
}
330
1A
100
AcDbPlotSettings
  1

  2
none_device
  4

  6

 40
0.0
 41
0.0
 42
0.0
 43
0.0
 44
0.0
 45
0.0
 46
0.0
 47
0.0
 48
0.0
 49
0.0
140
0.0
141
0.0
142
1.0
143
1.0
 70
   688
 72
     0
 73
     0
 74
     5
  7

 75
    16
 76
     0
 77
     2
 78
   300
147
1.0
148
0.0
149
0.0
100
AcDbLayout
  1
Layout1
 70
     1
 71
     1
 10
0.0
 20
0.0
 11
12.0
 21
9.0
 12
0.0
 22
0.0
 32
0.0
 14
1.000000000000000E+20
 24
1.000000000000000E+20
 34
1.000000000000000E+20
 15
-1.000000000000000E+20
 25
-1.000000000000000E+20
 35
-1.000000000000000E+20
146
0.0
 13
0.0
 23
0.0
 33
0.0
 16
1.0
 26
0.0
 36
0.0
 17
0.0
 27
1.0
 37
0.0
 76
     0
330
1B
  0
LAYOUT
  5
26
102
{ACAD_REACTORS
330
1A
102
}
330
1A
100
AcDbPlotSettings
  1

  2
none_device
  4

  6

 40
0.0
 41
0.0
 42
0.0
 43
0.0
 44
0.0
 45
0.0
 46
0.0
 47
0.0
 48
0.0
 49
0.0
140
0.0
141
0.0
142
1.0
143
1.0
 70
   688
 72
     0
 73
     0
 74
     5
  7

 75
    16
 76
     0
 77
     2
 78
   300
147
1.0
148
0.0
149
0.0
100
AcDbLayout
  1
Layout2
 70
     1
 71
     2
 10
0.0
 20
0.0
 11
0.0
 21
0.0
 12
0.0
 22
0.0
 32
0.0
 14
0.0
 24
0.0
 34
0.0
 15
0.0
 25
0.0
 35
0.0
146
0.0
 13
0.0
 23
0.0
 33
0.0
 16
1.0
 26
0.0
 36
0.0
 17
0.0
 27
1.0
 37
0.0
 76
     0
330
23
  0
LAYOUT
  5
22
102
{ACAD_REACTORS
330
1A
102
}
330
1A
100
AcDbPlotSettings
  1

  2
none_device
  4

  6

 40
0.0
 41
0.0
 42
0.0
 43
0.0
 44
0.0
 45
0.0
 46
0.0
 47
0.0
 48
0.0
 49
0.0
140
0.0
141
0.0
142
1.0
143
1.0
 70
  1712
 72
     0
 73
     0
 74
     0
  7

 75
     0
 76
     0
 77
     2
 78
   300
147
1.0
148
0.0
149
0.0
100
AcDbLayout
  1
Model
 70
     1
 71
     0
 10
0.0
 20
0.0
 11
12.0
 21
9.0
 12
0.0
 22
0.0
 32
0.0
 14
1.000000000000000E+20
 24
1.000000000000000E+20
 34
1.000000000000000E+20
 15
-1.000000000000000E+20
 25
-1.000000000000000E+20
 35
-1.000000000000000E+20
146
0.0
 13
0.0
 23
0.0
 33
0.0
 16
1.0
 26
0.0
 36
0.0
 17
0.0
 27
1.0
 37
0.0
 76
     0
330
1F
331
29
  0
MATERIAL
  5
3D
102
{ACAD_REACTORS
330
3B
102
}
330
3B
100
AcDbMaterial
  1
ByBlock
 72
     1
 94
      127
  0
MATERIAL
  5
3C
102
{ACAD_REACTORS
330
3B
102
}
330
3B
100
AcDbMaterial
  1
ByLayer
 72
     1
 94
      127
  0
MATERIAL
  5
3E
102
{ACAD_REACTORS
330
3B
102
}
330
3B
100
AcDbMaterial
  1
Global
 72
     1
 94
      127
  0
MLINESTYLE
  5
18
102
{ACAD_REACTORS
330
17
102
}
330
17
100
AcDbMlineStyle
  2
Standard
 70
     0
  3

 62
   256
 51
90.0
 52
90.0
 71
     2
 49
0.5
 62
   256
  6
BYLAYER
 49
-0.5
 62
   256
  6
BYLAYER
  0
ACDBPLACEHOLDER
  5
F
102
{ACAD_REACTORS
330
E
102
}
330
E
  0
VISUALSTYLE
  5
2F
102
{ACAD_REACTORS
330
2A
102
}
330
2A
100
AcDbVisualStyle
  2
2dWireframe
 70
     4
177
     2
291
     0
 71
     0
176
     1
 72
     2
176
     1
 73
     0
176
     1
 90
        0
176
     1
 40
-0.6
176
     1
 41
-30.0
176
     1
 62
     5
 63
     7
421
 16777215
176
     1
 74
     1
176
     1
 91
        4
176
     1
 64
     7
176
     1
 65
   257
176
     1
 75
     1
176
     1
175
     1
176
     1
 42
1.0
176
     1
 92
        0
176
     1
 66
   257
176
     1
 43
1.0
176
     1
 76
     1
176
     1
 77
     6
176
     1
 78
     2
176
     1
 67
     7
176
     1
 79
     5
176
     1
170
     0
176
     1
171
     0
176
     1
290
     0
176
     1
 93
        1
176
     1
 44
0.0
176
     1
173
     0
176
     1
  0
VISUALSTYLE
  5
31
102
{ACAD_REACTORS
330
2A
102
}
330
2A
100
AcDbVisualStyle
  2
3D Hidden
 70
     6
177
     2
291
     0
 71
     1
176
     1
 72
     2
176
     1
 73
     2
176
     1
 90
        0
176
     1
 40
-0.6
176
     1
 41
-30.0
176
     1
 62
     5
 63
     7
421
 16777215
176
     1
 74
     2
176
     1
 91
        2
176
     1
 64
     7
176
     1
 65
   257
176
     1
 75
     2
176
     1
175
     1
176
     1
 42
40.0
176
     1
 92
        0
176
     1
 66
   257
176
     1
 43
1.0
176
     1
 76
     1
176
     1
 77
     6
176
     1
 78
     2
176
     1
 67
     7
176
     1
 79
     3
176
     1
170
     0
176
     1
171
     0
176
     1
290
     0
176
     1
 93
        1
176
     1
 44
0.0
176
     1
173
     0
176
     1
  0
VISUALSTYLE
  5
30
102
{ACAD_REACTORS
330
2A
102
}
330
2A
100
AcDbVisualStyle
  2
3dWireframe
 70
     5
177
     2
291
     0
 71
     0
176
     1
 72
     2
176
     1
 73
     0
176
     1
 90
        0
176
     1
 40
-0.6
176
     1
 41
-30.0
176
     1
 62
     5
 63
     7
421
 16777215
176
     1
 74
     1
176
     1
 91
        4
176
     1
 64
     7
176
     1
 65
   257
176
     1
 75
     1
176
     1
175
     1
176
     1
 42
1.0
176
     1
 92
        0
176
     1
 66
   257
176
     1
 43
1.0
176
     1
 76
     1
176
     1
 77
     6
176
     1
 78
     2
176
     1
 67
     7
176
     1
 79
     5
176
     1
170
     0
176
     1
171
     0
176
     1
290
     0
176
     1
 93
        1
176
     1
 44
0.0
176
     1
173
     0
176
     1
  0
VISUALSTYLE
  5
32
102
{ACAD_REACTORS
330
2A
102
}
330
2A
100
AcDbVisualStyle
  2
Basic
 70
     7
177
     2
291
     1
 71
     1
176
     1
 72
     0
176
     1
 73
     1
176
     1
 90
        0
176
     1
 40
-0.6
176
     1
 41
-30.0
176
     1
 62
     5
 63
     7
421
 16777215
176
     1
 74
     0
176
     1
 91
        4
176
     1
 64
     7
176
     1
 65
   257
176
     1
 75
     1
176
     1
175
     1
176
     1
 42
1.0
176
     1
 92
        8
176
     1
 66
     7
176
     1
 43
1.0
176
     1
 76
     1
176
     1
 77
     6
176
     1
 78
     2
176
     1
 67
     7
176
     1
 79
     5
176
     1
170
     0
176
     1
171
     0
176
     1
290
     0
176
     1
 93
        1
176
     1
 44
0.0
176
     1
173
     0
176
     1
  0
VISUALSTYLE
  5
36
102
{ACAD_REACTORS
330
2A
102
}
330
2A
100
AcDbVisualStyle
  2
Brighten
 70
    12
177
     2
291
     1
 71
     2
176
     1
 72
     2
176
     1
 73
     0
176
     1
 90
        0
176
     1
 40
-0.6
176
     1
 41
-30.0
176
     1
 62
     5
 63
     7
421
 16777215
176
     1
 74
     1
176
     1
 91
        4
176
     1
 64
     7
176
     1
 65
   257
176
     1
 75
     1
176
     1
175
     1
176
     1
 42
1.0
176
     1
 92
        8
176
     1
 66
     7
176
     1
 43
1.0
176
     1
 76
     1
176
     1
 77
     6
176
     1
 78
     2
176
     1
 67
     7
176
     1
 79
     5
176
     1
170
     0
176
     1
171
     0
176
     1
290
     0
176
     1
 93
        1
176
     1
 44
50.0
176
     1
173
     0
176
     1
  0
VISUALSTYLE
  5
3A
102
{ACAD_REACTORS
330
2A
102
}
330
2A
100
AcDbVisualStyle
  2
ColorChange
 70
    16
177
     2
291
     1
 71
     2
176
     1
 72
     2
176
     1
 73
     3
176
     1
 90
        0
176
     1
 40
-0.6
176
     1
 41
-30.0
176
     1
 62
     5
 63
     8
421
  8421504
176
     1
 74
     1
176
     1
 91
        4
176
     1
 64
     7
176
     1
 65
   257
176
     1
 75
     1
176
     1
175
     1
176
     1
 42
1.0
176
     1
 92
        8
176
     1
 66
     8
424
  8421504
176
     1
 43
1.0
176
     1
 76
     1
176
     1
 77
     6
176
     1
 78
     2
176
     1
 67
     7
176
     1
 79
     5
176
     1
170
     0
176
     1
171
     0
176
     1
290
     0
176
     1
 93
        1
176
     1
 44
0.0
176
     1
173
     0
176
     1
  0
VISUALSTYLE
  5
34
102
{ACAD_REACTORS
330
2A
102
}
330
2A
100
AcDbVisualStyle
  2
Conceptual
 70
     9
177
     2
291
     0
 71
     3
176
     1
 72
     2
176
     1
 73
     0
176
     1
 90
        0
176
     1
 40
-0.6
176
     1
 41
-30.0
176
     1
 62
     5
 63
     7
421
 16777215
176
     1
 74
     2
176
     1
 91
        2
176
     1
 64
     7
176
     1
 65
   257
176
     1
 75
     1
176
     1
175
     1
176
     1
 42
40.0
176
     1
 92
        8
176
     1
 66
     7
176
     1
 43
1.0
176
     1
 76
     1
176
     1
 77
     6
176
     1
 78
     2
176
     1
 67
     7
176
     1
 79
     3
176
     1
170
     0
176
     1
171
     0
176
     1
290
     0
176
     1
 93
        1
176
     1
 44
0.0
176
     1
173
     0
176
     1
  0
VISUALSTYLE
  5
35
102
{ACAD_REACTORS
330
2A
102
}
330
2A
100
AcDbVisualStyle
  2
Dim
 70
    11
177
     2
291
     1
 71
     2
176
     1
 72
     2
176
     1
 73
     0
176
     1
 90
        0
176
     1
 40
-0.6
176
     1
 41
-30.0
176
     1
 62
     5
 63
     7
421
 16777215
176
     1
 74
     1
176
     1
 91
        4
176
     1
 64
     7
176
     1
 65
   257
176
     1
 75
     1
176
     1
175
     1
176
     1
 42
1.0
176
     1
 92
        8
176
     1
 66
     7
176
     1
 43
1.0
176
     1
 76
     1
176
     1
 77
     6
176
     1
 78
     2
176
     1
 67
     7
176
     1
 79
     5
176
     1
170
     0
176
     1
171
     0
176
     1
290
     0
176
     1
 93
        1
176
     1
 44
-50.0
176
     1
173
     0
176
     1
  0
VISUALSTYLE
  5
39
102
{ACAD_REACTORS
330
2A
102
}
330
2A
100
AcDbVisualStyle
  2
Facepattern
 70
    15
177
     2
291
     1
 71
     2
176
     1
 72
     2
176
     1
 73
     0
176
     1
 90
        0
176
     1
 40
-0.6
176
     1
 41
-30.0
176
     1
 62
     5
 63
     7
421
 16777215
176
     1
 74
     1
176
     1
 91
        4
176
     1
 64
     7
176
     1
 65
   257
176
     1
 75
     1
176
     1
175
     1
176
     1
 42
1.0
176
     1
 92
        8
176
     1
 66
     7
176
     1
 43
1.0
176
     1
 76
     1
176
     1
 77
     6
176
     1
 78
     2
176
     1
 67
     7
176
     1
 79
     5
176
     1
170
     0
176
     1
171
     0
176
     1
290
     0
176
     1
 93
        1
176
     1
 44
0.0
176
     1
173
     0
176
     1
  0
VISUALSTYLE
  5
2B
102
{ACAD_REACTORS
330
2A
102
}
330
2A
100
AcDbVisualStyle
  2
Flat
 70
     0
177
     2
291
     1
 71
     2
176
     1
 72
     1
176
     1
 73
     1
176
     1
 90
        2
176
     1
 40
-0.6
176
     1
 41
30.0
176
     1
 62
     5
 63
     7
421
 16777215
176
     1
 74
     0
176
     1
 91
        4
176
     1
 64
     7
176
     1
 65
   257
176
     1
 75
     1
176
     1
175
     1
176
     1
 42
1.0
176
     1
 92
        8
176
     1
 66
     7
176
     1
 43
1.0
176
     1
 76
     1
176
     1
 77
     6
176
     1
 78
     2
176
     1
 67
     7
176
     1
 79
     5
176
     1
170
     0
176
     1
171
     0
176
     1
290
     0
176
     1
 93
       13
176
     1
 44
0.0
176
     1
173
     0
176
     1
  0
VISUALSTYLE
  5
2C
102
{ACAD_REACTORS
330
2A
102
}
330
2A
100
AcDbVisualStyle
  2
FlatWithEdges
 70
     1
177
     2
291
     1
 71
     2
176
     1
 72
     1
176
     1
 73
     1
176
     1
 90
        2
176
     1
 40
-0.6
176
     1
 41
30.0
176
     1
 62
     5
 63
     7
421
 16777215
176
     1
 74
     1
176
     1
 91
        4
176
     1
 64
     7
176
     1
 65
   257
176
     1
 75
     1
176
     1
175
     1
176
     1
 42
1.0
176
     1
 92
        0
176
     1
 66
   257
176
     1
 43
1.0
176
     1
 76
     1
176
     1
 77
     6
176
     1
 78
     2
176
     1
 67
     7
176
     1
 79
     5
176
     1
170
     0
176
     1
171
     0
176
     1
290
     0
176
     1
 93
       13
176
     1
 44
0.0
176
     1
173
     0
176
     1
  0
VISUALSTYLE
  5
2D
102
{ACAD_REACTORS
330
2A
102
}
330
2A
100
AcDbVisualStyle
  2
Gouraud
 70
     2
177
     2
291
     1
 71
     2
176
     1
 72
     2
176
     1
 73
     1
176
     1
 90
        2
176
     1
 40
-0.6
176
     1
 41
30.0
176
     1
 62
     5
 63
     7
421
 16777215
176
     1
 74
     0
176
     1
 91
        4
176
     1
 64
     7
176
     1
 65
   257
176
     1
 75
     1
176
     1
175
     1
176
     1
 42
1.0
176
     1
 92
        0
176
     1
 66
     7
176
     1
 43
1.0
176
     1
 76
     1
176
     1
 77
     6
176
     1
 78
     2
176
     1
 67
     7
176
     1
 79
     5
176
     1
170
     0
176
     1
171
     0
176
     1
290
     0
176
     1
 93
       13
176
     1
 44
0.0
176
     1
173
     0
176
     1
  0
VISUALSTYLE
  5
2E
102
{ACAD_REACTORS
330
2A
102
}
330
2A
100
AcDbVisualStyle
  2
GouraudWithEdges
 70
     3
177
     2
291
     1
 71
     2
176
     1
 72
     2
176
     1
 73
     1
176
     1
 90
        2
176
     1
 40
-0.6
176
     1
 41
30.0
176
     1
 62
     5
 63
     7
421
 16777215
176
     1
 74
     1
176
     1
 91
        4
176
     1
 64
     7
176
     1
 65
   257
176
     1
 75
     1
176
     1
175
     1
176
     1
 42
1.0
176
     1
 92
        0
176
     1
 66
   257
176
     1
 43
1.0
176
     1
 76
     1
176
     1
 77
     6
176
     1
 78
     2
176
     1
 67
     7
176
     1
 79
     5
176
     1
170
     0
176
     1
171
     0
176
     1
290
     0
176
     1
 93
       13
176
     1
 44
0.0
176
     1
173
     0
176
     1
  0
VISUALSTYLE
  5
38
102
{ACAD_REACTORS
330
2A
102
}
330
2A
100
AcDbVisualStyle
  2
Linepattern
 70
    14
177
     2
291
     1
 71
     2
176
     1
 72
     2
176
     1
 73
     0
176
     1
 90
        0
176
     1
 40
-0.6
176
     1
 41
-30.0
176
     1
 62
     5
 63
     7
421
 16777215
176
     1
 74
     1
176
     1
 91
        4
176
     1
 64
     7
176
     1
 65
   257
176
     1
 75
     7
176
     1
175
     7
176
     1
 42
1.0
176
     1
 92
        8
176
     1
 66
     7
176
     1
 43
1.0
176
     1
 76
     1
176
     1
 77
     6
176
     1
 78
     2
176
     1
 67
     7
176
     1
 79
     5
176
     1
170
     0
176
     1
171
     0
176
     1
290
     0
176
     1
 93
        1
176
     1
 44
0.0
176
     1
173
     0
176
     1
  0
VISUALSTYLE
  5
33
102
{ACAD_REACTORS
330
2A
102
}
330
2A
100
AcDbVisualStyle
  2
Realistic
 70
     8
177
     2
291
     0
 71
     2
176
     1
 72
     2
176
     1
 73
     0
176
     1
 90
        0
176
     1
 40
-0.6
176
     1
 41
-30.0
176
     1
 62
     5
 63
     7
421
 16777215
176
     1
 74
     1
176
     1
 91
        0
176
     1
 64
     7
176
     1
 65
   257
176
     1
 75
     1
176
     1
175
     1
176
     1
 42
1.0
176
     1
 92
        8
176
     1
 66
     8
424
  7895160
176
     1
 43
1.0
176
     1
 76
     1
176
     1
 77
     6
176
     1
 78
     2
176
     1
 67
     7
176
     1
 79
     5
176
     1
170
     0
176
     1
171
     0
176
     1
290
     0
176
     1
 93
       13
176
     1
 44
0.0
176
     1
173
     0
176
     1
  0
VISUALSTYLE
  5
37
102
{ACAD_REACTORS
330
2A
102
}
330
2A
100
AcDbVisualStyle
  2
Thicken
 70
    13
177
     2
291
     1
 71
     2
176
     1
 72
     2
176
     1
 73
     0
176
     1
 90
        0
176
     1
 40
-0.6
176
     1
 41
-30.0
176
     1
 62
     5
 63
     7
421
 16777215
176
     1
 74
     1
176
     1
 91
        4
176
     1
 64
     7
176
     1
 65
   257
176
     1
 75
     1
176
     1
175
     1
176
     1
 42
1.0
176
     1
 92
       12
176
     1
 66
     7
176
     1
 43
1.0
176
     1
 76
     1
176
     1
 77
     6
176
     1
 78
     2
176
     1
 67
     7
176
     1
 79
     5
176
     1
170
     0
176
     1
171
     0
176
     1
290
     0
176
     1
 93
        1
176
     1
 44
0.0
176
     1
173
     0
176
     1
  0
ENDSEC
  0
EOF
